  0
SECTION
  2
HEADER
  9
$ACADVER
  1
AC1015
  9
$ACADMAINTVER
 70
    20
  9
$DWGCODEPAGE
  3
ANSI_1252
  9
$INSBASE
 10
0.0
 20
0.0
 30
0.0
  9
$EXTMIN
 10
8.482224118991553
 20
5.066070958350394
 30
-0.0015258207003583
  9
$EXTMAX
 10
67.79504432342367
 20
69.22851590349864
 30
0.0000000349246037
  9
$LIMMIN
 10
0.0
 20
0.0
  9
$LIMMAX
 10
257.0
 20
170.0
  9
$ORTHOMODE
 70
     1
  9
$REGENMODE
 70
     1
  9
$FILLMODE
 70
     1
  9
$QTEXTMODE
 70
     0
  9
$MIRRTEXT
 70
     1
  9
$LTSCALE
 40
1.0
  9
$ATTMODE
 70
     1
  9
$TEXTSIZE
 40
3.0
  9
$TRACEWID
 40
0.5
  9
$TEXTSTYLE
  7
STANDARD
  9
$CLAYER
  8
0
  9
$CELTYPE
  6
BYLAYER
  9
$CECOLOR
 62
   256
  9
$CELTSCALE
 40
1.0
  9
$DISPSILH
 70
     0
  9
$DIMSCALE
 40
1.0
  9
$DIMASZ
 40
2.0
  9
$DIMEXO
 40
0.0625
  9
$DIMDLI
 40
0.38
  9
$DIMRND
 40
0.0
  9
$DIMDLE
 40
0.0
  9
$DIMEXE
 40
0.18
  9
$DIMTP
 40
0.0
  9
$DIMTM
 40
0.0
  9
$DIMTXT
 40
2.0
  9
$DIMCEN
 40
0.09
  9
$DIMTSZ
 40
0.0
  9
$DIMTOL
 70
     0
  9
$DIMLIM
 70
     0
  9
$DIMTIH
 70
     1
  9
$DIMTOH
 70
     1
  9
$DIMSE1
 70
     0
  9
$DIMSE2
 70
     0
  9
$DIMTAD
 70
     0
  9
$DIMZIN
 70
     0
  9
$DIMBLK
  1

  9
$DIMASO
 70
     1
  9
$DIMSHO
 70
     0
  9
$DIMPOST
  1

  9
$DIMAPOST
  1

  9
$DIMALT
 70
     0
  9
$DIMALTD
 70
     2
  9
$DIMALTF
 40
25.4
  9
$DIMLFAC
 40
1.0
  9
$DIMTOFL
 70
     0
  9
$DIMTVP
 40
0.0
  9
$DIMTIX
 70
     0
  9
$DIMSOXD
 70
     0
  9
$DIMSAH
 70
     0
  9
$DIMBLK1
  1

  9
$DIMBLK2
  1

  9
$DIMSTYLE
  2
STANDARD
  9
$DIMCLRD
 70
     0
  9
$DIMCLRE
 70
     0
  9
$DIMCLRT
 70
     0
  9
$DIMTFAC
 40
1.0
  9
$DIMGAP
 40
0.09
  9
$DIMJUST
 70
     0
  9
$DIMSD1
 70
     0
  9
$DIMSD2
 70
     0
  9
$DIMTOLJ
 70
     1
  9
$DIMTZIN
 70
     0
  9
$DIMALTZ
 70
     0
  9
$DIMALTTZ
 70
     0
  9
$DIMUPT
 70
     0
  9
$DIMDEC
 70
     4
  9
$DIMTDEC
 70
     4
  9
$DIMALTU
 70
     2
  9
$DIMALTTD
 70
     2
  9
$DIMTXSTY
  7
STANDARD
  9
$DIMAUNIT
 70
     0
  9
$DIMADEC
 70
     0
  9
$DIMALTRND
 40
0.0
  9
$DIMAZIN
 70
     0
  9
$DIMDSEP
 70
    46
  9
$DIMATFIT
 70
     3
  9
$DIMFRAC
 70
     0
  9
$DIMLDRBLK
  1

  9
$DIMLUNIT
 70
     3
  9
$DIMLWD
 70
    -2
  9
$DIMLWE
 70
    -2
  9
$DIMTMOVE
 70
     0
  9
$LUNITS
 70
     2
  9
$LUPREC
 70
     4
  9
$SKETCHINC
 40
1.0
  9
$FILLETRAD
 40
0.0
  9
$AUNITS
 70
     0
  9
$AUPREC
 70
     0
  9
$MENU
  1
acad
  9
$ELEVATION
 40
0.0
  9
$PELEVATION
 40
0.0
  9
$THICKNESS
 40
0.0
  9
$LIMCHECK
 70
     0
  9
$CHAMFERA
 40
0.0
  9
$CHAMFERB
 40
0.0
  9
$CHAMFERC
 40
0.0
  9
$CHAMFERD
 40
0.0
  9
$SKPOLY
 70
     0
  9
$TDCREATE
 40
2452723.518622685
  9
$TDUCREATE
 40
2452723.810289352
  9
$TDUPDATE
 40
2454922.656194132
  9
$TDUUPDATE
 40
2454922.947860799
  9
$TDINDWG
 40
0.1478412616
  9
$TDUSRTIMER
 40
0.1478411458
  9
$USRTIMER
 70
     1
  9
$ANGBASE
 50
0.0
  9
$ANGDIR
 70
     0
  9
$PDMODE
 70
     0
  9
$PDSIZE
 40
0.0
  9
$PLINEWID
 40
0.0
  9
$SPLFRAME
 70
     0
  9
$SPLINETYPE
 70
     6
  9
$SPLINESEGS
 70
     8
  9
$HANDSEED
  5
1710
  9
$SURFTAB1
 70
     6
  9
$SURFTAB2
 70
     6
  9
$SURFTYPE
 70
     6
  9
$SURFU
 70
     6
  9
$SURFV
 70
     6
  9
$UCSBASE
  2

  9
$UCSNAME
  2

  9
$UCSORG
 10
0.0
 20
0.0
 30
0.0
  9
$UCSXDIR
 10
1.0
 20
0.0
 30
0.0
  9
$UCSYDIR
 10
0.0
 20
1.0
 30
0.0
  9
$UCSORTHOREF
  2

  9
$UCSORTHOVIEW
 70
     0
  9
$UCSORGTOP
 10
0.0
 20
0.0
 30
0.0
  9
$UCSORGBOTTOM
 10
0.0
 20
0.0
 30
0.0
  9
$UCSORGLEFT
 10
0.0
 20
0.0
 30
0.0
  9
$UCSORGRIGHT
 10
0.0
 20
0.0
 30
0.0
  9
$UCSORGFRONT
 10
0.0
 20
0.0
 30
0.0
  9
$UCSORGBACK
 10
0.0
 20
0.0
 30
0.0
  9
$PUCSBASE
  2

  9
$PUCSNAME
  2

  9
$PUCSORG
 10
0.0
 20
0.0
 30
0.0
  9
$PUCSXDIR
 10
1.0
 20
0.0
 30
0.0
  9
$PUCSYDIR
 10
0.0
 20
1.0
 30
0.0
  9
$PUCSORTHOREF
  2

  9
$PUCSORTHOVIEW
 70
     0
  9
$PUCSORGTOP
 10
0.0
 20
0.0
 30
0.0
  9
$PUCSORGBOTTOM
 10
0.0
 20
0.0
 30
0.0
  9
$PUCSORGLEFT
 10
0.0
 20
0.0
 30
0.0
  9
$PUCSORGRIGHT
 10
0.0
 20
0.0
 30
0.0
  9
$PUCSORGFRONT
 10
0.0
 20
0.0
 30
0.0
  9
$PUCSORGBACK
 10
0.0
 20
0.0
 30
0.0
  9
$USERI1
 70
     0
  9
$USERI2
 70
     0
  9
$USERI3
 70
     0
  9
$USERI4
 70
     0
  9
$USERI5
 70
     0
  9
$USERR1
 40
0.0
  9
$USERR2
 40
0.0
  9
$USERR3
 40
0.0
  9
$USERR4
 40
0.0
  9
$USERR5
 40
0.0
  9
$WORLDVIEW
 70
     1
  9
$SHADEDGE
 70
     3
  9
$SHADEDIF
 70
    70
  9
$TILEMODE
 70
     0
  9
$MAXACTVP
 70
    64
  9
$PINSBASE
 10
0.0
 20
0.0
 30
0.0
  9
$PLIMCHECK
 70
     0
  9
$PEXTMIN
 10
1.049743681505489
 20
0.7996673802841308
 30
-0.0015258207003583
  9
$PEXTMAX
 10
9.450622583565561
 20
7.200576801086516
 30
0.0000000349246037
  9
$PLIMMIN
 10
-0.2500002402958907
 20
-0.2499999962453767
  9
$PLIMMAX
 10
10.74999951940822
 20
8.249999763458733
  9
$UNITMODE
 70
     0
  9
$VISRETAIN
 70
     1
  9
$PLINEGEN
 70
     0
  9
$PSLTSCALE
 70
     1
  9
$TREEDEPTH
 70
  3020
  9
$CMLSTYLE
  2
STANDARD
  9
$CMLJUST
 70
     0
  9
$CMLSCALE
 40
1.0
  9
$PROXYGRAPHICS
 70
     1
  9
$MEASUREMENT
 70
     0
  9
$CELWEIGHT
370
    -1
  9
$ENDCAPS
280
     0
  9
$JOINSTYLE
280
     0
  9
$LWDISPLAY
290
     0
  9
$INSUNITS
 70
     0
  9
$HYPERLINKBASE
  1

  9
$STYLESHEET
  1

  9
$XEDIT
290
     1
  9
$CEPSNTYPE
380
     0
  9
$PSTYLEMODE
290
     1
  9
$FINGERPRINTGUID
  2
{88ADDBD6-18E6-44EF-B570-278F9E8C4D99}
  9
$VERSIONGUID
  2
{7EF255A3-C503-43D0-A097-622EA73CC4BD}
  9
$EXTNAMES
290
     1
  9
$PSVPSCALE
 40
0.0
  9
$OLESTARTUP
290
     0
  0
ENDSEC
  0
SECTION
  2
CLASSES
  0
CLASS
  1
ACDBDICTIONARYWDFLT
  2
AcDbDictionaryWithDefault
  3
ObjectDBX Classes
 90
        0
280
     0
281
     0
  0
CLASS
  1
ACDBPLACEHOLDER
  2
AcDbPlaceHolder
  3
ObjectDBX Classes
 90
        0
280
     0
281
     0
  0
CLASS
  1
LAYOUT
  2
AcDbLayout
  3
ObjectDBX Classes
 90
        0
280
     0
281
     0
  0
CLASS
  1
DICTIONARYVAR
  2
AcDbDictionaryVar
  3
ObjectDBX Classes
 90
        0
280
     0
281
     0
  0
CLASS
  1
TABLESTYLE
  2
AcDbTableStyle
  3
ObjectDBX Classes
 90
     4095
280
     0
281
     0
  0
CLASS
  1
SORTENTSTABLE
  2
AcDbSortentsTable
  3
ObjectDBX Classes
 90
        0
280
     0
281
     0
  0
CLASS
  1
MATERIAL
  2
AcDbMaterial
  3
ObjectDBX Classes
 90
     1024
280
     0
281
     0
  0
CLASS
  1
VISUALSTYLE
  2
AcDbVisualStyle
  3
ObjectDBX Classes
 90
     4095
280
     0
281
     0
  0
ENDSEC
  0
SECTION
  2
TABLES
  0
TABLE
  2
VPORT
  5
8
102
{ACAD_XDICTIONARY
360
16DC
102
}
330
0
100
AcDbSymbolTable
 70
     1
  0
VPORT
  5
169F
330
8
100
AcDbSymbolTableRecord
100
AcDbViewportTableRecord
  2
*Active
 70
     0
 10
0.0
 20
0.0
 11
1.0
 21
1.0
 12
38.13863422120761
 22
37.14729343092453
 13
0.0
 23
0.0
 14
0.0
 24
0.0
 15
0.0
 25
0.0
 16
0.0
 26
0.0
 36
1.0
 17
0.0
 27
0.0
 37
0.0
 40
64.70313970592198
 41
1.646976090014064
 42
50.0
 43
0.0
 44
0.0
 50
0.0
 51
0.0
 71
     0
 72
 20000
 73
     1
 74
     1
 75
     0
 76
     0
 77
     0
 78
     0
281
     0
 65
     1
110
0.0
120
0.0
130
0.0
111
1.0
121
0.0
131
0.0
112
0.0
122
1.0
132
0.0
 79
     0
146
0.0
  0
ENDTAB
  0
TABLE
  2
LTYPE
  5
5
330
0
100
AcDbSymbolTable
 70
     1
  0
LTYPE
  5
13
330
5
100
AcDbSymbolTableRecord
100
AcDbLinetypeTableRecord
  2
BYBLOCK
 70
     0
  3

 72
    65
 73
     0
 40
0.0
  0
LTYPE
  5
14
330
5
100
AcDbSymbolTableRecord
100
AcDbLinetypeTableRecord
  2
BYLAYER
 70
     0
  3

 72
    65
 73
     0
 40
0.0
  0
LTYPE
  5
15
330
5
100
AcDbSymbolTableRecord
100
AcDbLinetypeTableRecord
  2
CONTINUOUS
 70
     0
  3
solid line
 72
    65
 73
     0
 40
0.0
  0
ENDTAB
  0
TABLE
  2
LAYER
  5
2
330
0
100
AcDbSymbolTable
 70
     2
  0
LAYER
  5
10
330
2
100
AcDbSymbolTableRecord
100
AcDbLayerTableRecord
  2
0
 70
     0
 62
     7
  6
CONTINUOUS
370
    -3
390
F
  0
LAYER
  5
8A5
330
2
100
AcDbSymbolTableRecord
100
AcDbLayerTableRecord
  2
DEFPOINTS
 70
     0
 62
     7
  6
CONTINUOUS
290
     0
370
    -3
390
F
  0
ENDTAB
  0
TABLE
  2
STYLE
  5
3
330
0
100
AcDbSymbolTable
 70
     1
  0
STYLE
  5
11
330
3
100
AcDbSymbolTableRecord
100
AcDbTextStyleTableRecord
  2
STANDARD
 70
     0
 40
0.0
 41
1.0
 50
0.0
 71
     0
 42
3.0
  3
monotxt
  4
extfont
  0
ENDTAB
  0
TABLE
  2
VIEW
  5
6
330
0
100
AcDbSymbolTable
 70
     3
  0
ENDTAB
  0
TABLE
  2
UCS
  5
7
330
0
100
AcDbSymbolTable
 70
     0
  0
ENDTAB
  0
TABLE
  2
APPID
  5
9
330
0
100
AcDbSymbolTable
 70
     4
  0
APPID
  5
12
330
9
100
AcDbSymbolTableRecord
100
AcDbRegAppTableRecord
  2
ACAD
 70
     0
  0
APPID
  5
EDA
330
9
100
AcDbSymbolTableRecord
100
AcDbRegAppTableRecord
  2
DCO15
 70
     0
  0
APPID
  5
153E
330
9
100
AcDbSymbolTableRecord
100
AcDbRegAppTableRecord
  2
ACAD_EXEMPT_FROM_CAD_STANDARDS
 70
     0
  0
APPID
  5
16F8
330
9
100
AcDbSymbolTableRecord
100
AcDbRegAppTableRecord
  2
ACAD_PSEXT
 70
     0
  0
ENDTAB
  0
TABLE
  2
DIMSTYLE
  5
A
330
0
100
AcDbSymbolTable
 70
     1
100
AcDbDimStyleTable
 71
     1
340
850
  0
DIMSTYLE
105
850
330
A
100
AcDbSymbolTableRecord
100
AcDbDimStyleTableRecord
  2
STANDARD
 70
     0
 41
2.0
140
2.0
277
     3
340
11
  0
ENDTAB
  0
TABLE
  2
BLOCK_RECORD
  5
1
330
0
100
AcDbSymbolTable
 70
     1
  0
BLOCK_RECORD
  5
1E
102
{ACAD_XDICTIONARY
360
877
102
}
330
1
100
AcDbSymbolTableRecord
100
AcDbBlockTableRecord
  2
*MODEL_SPACE
340
E0B
  0
BLOCK_RECORD
  5
1A
102
{ACAD_XDICTIONARY
360
875
102
}
330
1
100
AcDbSymbolTableRecord
100
AcDbBlockTableRecord
  2
*PAPER_SPACE
340
E0C
  0
ENDTAB
  0
ENDSEC
  0
SECTION
  2
BLOCKS
  0
BLOCK
  5
1F
330
1E
100
AcDbEntity
  8
0
100
AcDbBlockBegin
  2
*MODEL_SPACE
 70
     0
 10
0.0
 20
0.0
 30
0.0
  3
*MODEL_SPACE
  1

  0
ENDBLK
  5
20
330
1E
100
AcDbEntity
  8
0
100
AcDbBlockEnd
  0
BLOCK
  5
1B
330
1A
100
AcDbEntity
 67
     1
  8
0
100
AcDbBlockBegin
  2
*PAPER_SPACE
 70
     0
 10
0.0
 20
0.0
 30
0.0
  3
*PAPER_SPACE
  1

  0
ENDBLK
  5
1C
330
1A
100
AcDbEntity
 67
     1
  8
0
100
AcDbBlockEnd
  0
ENDSEC
  0
SECTION
  2
ENTITIES
  0
LINE
  5
1AA
330
1E
100
AcDbEntity
  8
0
100
AcDbLine
 10
64.13496057355593
 20
21.2120813957109
 30
0.0
 11
50.78826407796751
 21
21.2120813957109
 31
0.0
  0
LINE
  5
1AB
330
1E
100
AcDbEntity
  8
0
100
AcDbLine
 10
63.08627235866419
 20
15.5907264626111
 30
0.0
 11
63.08627235866419
 21
16.282863132733
 31
0.0
  0
ARC
  5
1AC
330
1E
100
AcDbEntity
  8
0
100
AcDbCircle
 10
57.22245789314309
 20
16.16293222266564
 30
0.0
 40
5.905617918401962
100
AcDbArc
 50
319.1918487512122
 51
351.6431676653531
  0
ARC
  5
1AD
330
1E
100
AcDbEntity
  8
0
100
AcDbCircle
 10
61.11773305253024
 20
15.5907264626111
 30
0.0
 40
1.968539306133985
100
AcDbArc
 50
351.6431676653531
 51
0.0
  0
LINE
  5
1AE
330
1E
100
AcDbEntity
  8
0
100
AcDbLine
 10
51.2507934790953
 20
21.31950036359726
 30
0.0
 11
51.2816950730442
 21
21.65941789703599
 31
0.0
  0
LINE
  5
1AF
330
1E
100
AcDbEntity
  8
0
100
AcDbLine
 10
53.08553460989623
 20
21.64516004306039
 30
0.0
 11
57.46161232576167
 21
21.64516004306039
 31
0.0
  0
ARC
  5
1B0
330
1E
100
AcDbEntity
  8
0
100
AcDbCircle
 10
51.13316618379665
 20
21.33019375407894
 30
0.0
 40
0.1181123583680392
100
AcDbArc
 50
270.0
 51
354.8055710922688
  0
ARC
  5
1B1
330
1E
100
AcDbEntity
  8
0
100
AcDbCircle
 10
50.78826407796751
 20
20.89711510672948
 30
0.0
 40
0.3149662889814377
100
AcDbArc
 50
90.0
 51
178.5934394248207
  0
ARC
  5
1B2
330
1E
100
AcDbEntity
  8
0
100
AcDbCircle
 10
58.34517732085146
 20
20.71156231183102
 30
0.0
 40
7.874157224535967
100
AcDbArc
 50
178.5934394248207
 51
223.7061259936572
  0
ARC
  5
1B3
330
1E
100
AcDbEntity
  8
0
100
AcDbCircle
 10
64.13496057355593
 20
20.89711510672945
 30
0.0
 40
0.3149662889814377
100
AcDbArc
 50
1.406560575179258
 51
90.0
  0
ARC
  5
1B4
330
1E
100
AcDbEntity
  8
0
100
AcDbCircle
 10
56.57804733067201
 20
20.71156231183102
 30
0.0
 40
7.874157224535944
100
AcDbArc
 50
316.2938708202259
 51
1.406560575179258
  0
CIRCLE
  5
1B5
330
1E
100
AcDbEntity
  8
0
100
AcDbCircle
 10
18.1392191703388
 20
61.73846143906029
 30
0.0
 40
0.275595502858758
  0
CIRCLE
  5
1B6
330
1E
100
AcDbEntity
  8
0
100
AcDbCircle
 10
18.1392191703388
 20
56.22655138188512
 30
0.0
 40
0.275595502858758
  0
ARC
  5
1B7
330
1E
100
AcDbEntity
  8
0
100
AcDbCircle
 10
23.06055385005596
 20
58.98250641047273
 30
0.0
 40
0.5905617918401838
100
AcDbArc
 50
165.0000000000024
 51
194.9999999999975
  0
CIRCLE
  5
1B8
330
1E
100
AcDbEntity
  8
0
100
AcDbCircle
 10
18.13921859232152
 20
61.73846044121368
 30
0.0
 40
0.275595502858758
  0
CIRCLE
  5
1B9
330
1E
100
AcDbEntity
  8
0
100
AcDbCircle
 10
18.13921859232152
 20
56.22655038403848
 30
0.0
 40
0.275595502858758
  0
ARC
  5
1C2
330
1E
100
AcDbEntity
  8
0
100
AcDbCircle
 10
10.46501531440654
 20
59.67149516761963
 30
0.0
 40
1.968539306133984
100
AcDbArc
 50
158.9360841003815
 51
179.4839487215811
  0
ARC
  5
1C3
330
1E
100
AcDbEntity
  8
0
100
AcDbCircle
 10
10.46501531440654
 20
58.2935176533258
 30
0.0
 40
1.96853930613398
100
AcDbArc
 50
180.5160512784184
 51
201.2713268865034
  0
ARC
  5
1C4
330
1E
100
AcDbEntity
  8
0
100
AcDbCircle
 10
86.95950742306854
 20
58.98250641047273
 30
0.0
 40
78.46613422564519
100
AcDbArc
 50
179.4839486880037
 51
180.5160511874898
  0
ARC
  5
1C7
330
1E
100
AcDbEntity
  8
0
100
AcDbCircle
 10
26.00435990683539
 20
52.38789873707722
 30
0.0
 40
13.58290876482108
100
AcDbArc
 50
48.11137871686528
 51
96.11328239987738
  0
ARC
  5
1C8
330
1E
100
AcDbEntity
  8
0
100
AcDbCircle
 10
31.91899373525942
 20
58.98250541262611
 30
0.0
 40
4.724490304791798
100
AcDbArc
 50
312.1939405140728
 51
48.11134267218624
  0
ARC
  5
1C9
330
1E
100
AcDbEntity
  8
0
100
AcDbCircle
 10
25.71809492093738
 20
58.98250541262611
 30
0.0
 40
5.413492772491864
100
AcDbArc
 50
92.11018424151825
 51
267.8897919623462
  0
ARC
  5
1CA
330
1E
100
AcDbEntity
  8
0
100
AcDbCircle
 10
25.96089455895594
 20
65.5726631893431
 30
0.0
 40
12.00812173748577
100
AcDbArc
 50
267.8899168505359
 51
311.9318406862672
  0
ARC
  5
1CB
330
1E
100
AcDbEntity
  8
0
100
AcDbCircle
 10
31.99773605603991
 20
58.98250541262611
 30
0.0
 40
3.070923898121061
100
AcDbArc
 50
312.4909536381169
 51
47.50904636188302
  0
ARC
  5
1CC
330
1E
100
AcDbEntity
  8
0
100
AcDbCircle
 10
25.96089530749111
 20
65.5726631893431
 30
0.0
 40
12.00812848039072
100
AcDbArc
 50
267.8899168505359
 51
312.4909101883876
  0
ARC
  5
1CE
330
1E
100
AcDbEntity
  8
0
100
AcDbCircle
 10
23.02842127884497
 20
59.927405277417
 30
0.0
 40
0.3149662889814377
100
AcDbArc
 50
90.0
 51
165.0000000000024
  0
LINE
  5
1CF
330
1E
100
AcDbEntity
  8
0
100
AcDbLine
 10
22.72418720590739
 20
60.00892455157067
 30
0.0
 11
22.49011496329797
 21
59.13535504951085
 31
0.0
  0
ARC
  5
1D0
330
1E
100
AcDbEntity
  8
0
100
AcDbCircle
 10
23.02842127884497
 20
58.03760754352836
 30
0.0
 40
0.3149662889814377
100
AcDbArc
 50
194.9999999999975
 51
270.0
  0
LINE
  5
1D1
330
1E
100
AcDbEntity
  8
0
100
AcDbLine
 10
22.72418720590739
 20
57.95608826937471
 30
0.0
 11
22.49011496329797
 21
58.82965777143458
 31
0.0
  0
LINE
  5
1D2
330
1E
100
AcDbEntity
  8
0
100
AcDbLine
 10
26.60393051460057
 20
58.39194461863248
 30
0.0
 11
26.60393051460057
 21
59.57306820231288
 31
0.0
  0
ARC
  5
1D3
330
1E
100
AcDbEntity
  8
0
100
AcDbCircle
 10
26.40707658398719
 20
59.57306820231288
 30
0.0
 40
0.1968539306133985
100
AcDbArc
 50
0.0
 51
90.0
  0
ARC
  5
1D4
330
1E
100
AcDbEntity
  8
0
100
AcDbCircle
 10
26.17989913343758
 20
63.68409961829498
 30
0.0
 40
3.93707861226797
100
AcDbArc
 50
276.1828648696613
 51
287.9207989320082
  0
LINE
  5
1D5
330
1E
100
AcDbEntity
  8
0
100
AcDbLine
 10
25.81651479214699
 20
58.28633563738669
 30
0.0
 11
25.81651479214699
 21
59.67867718355876
 31
0.0
  0
ARC
  5
1D6
330
1E
100
AcDbEntity
  8
0
100
AcDbCircle
 10
22.78766215614829
 20
69.80947259420961
 30
0.0
 40
11.81123583680391
100
AcDbArc
 50
270.0
 51
283.6187108980814
  0
ARC
  5
1D7
330
1E
100
AcDbEntity
  8
0
100
AcDbCircle
 10
25.69840243377894
 20
58.28633563738669
 30
0.0
 40
0.1181123583680391
100
AcDbArc
 50
284.4553000888767
 51
0.0
  0
ARC
  5
1D8
330
1E
100
AcDbEntity
  8
0
100
AcDbCircle
 10
25.54091928928824
 20
58.44511111453282
 30
0.0
 40
0.1181123583680391
100
AcDbArc
 50
283.6187108980814
 51
0.0
  0
LINE
  5
1D9
330
1E
100
AcDbEntity
  8
0
100
AcDbLine
 10
25.81651479214699
 20
58.19509068801907
 30
0.0
 11
26.40707658398719
 21
58.19509068801907
 31
0.0
  0
ARC
  5
1DA
330
1E
100
AcDbEntity
  8
0
100
AcDbCircle
 10
26.40707658398719
 20
58.39194461863248
 30
0.0
 40
0.1968539306133985
100
AcDbArc
 50
270.0
 51
0.0
  0
ARC
  5
1DB
330
1E
100
AcDbEntity
  8
0
100
AcDbCircle
 10
26.17989913343758
 20
54.28091320265044
 30
0.0
 40
3.93707861226797
100
AcDbArc
 50
72.07920106799178
 51
83.81713513033863
  0
LINE
  5
1DC
330
1E
100
AcDbEntity
  8
0
100
AcDbLine
 10
25.65903164765626
 20
58.35257383250985
 30
0.0
 11
25.81651479214699
 21
58.35257383250985
 31
0.0
  0
ARC
  5
1DD
330
1E
100
AcDbEntity
  8
0
100
AcDbCircle
 10
22.78766215614829
 20
48.15554022673579
 30
0.0
 40
11.81123583680391
100
AcDbArc
 50
76.38128910191864
 51
90.0
  0
ARC
  5
1DE
330
1E
100
AcDbEntity
  8
0
100
AcDbCircle
 10
25.69840243377894
 20
59.67867718355876
 30
0.0
 40
0.1181123583680391
100
AcDbArc
 50
0.0
 51
75.54469991112319
  0
ARC
  5
1DF
330
1E
100
AcDbEntity
  8
0
100
AcDbCircle
 10
25.54091928928824
 20
59.51990170641262
 30
0.0
 40
0.1181123583680391
100
AcDbArc
 50
0.0
 51
76.38128910191864
  0
LINE
  5
1E0
330
1E
100
AcDbEntity
  8
0
100
AcDbLine
 10
25.81651479214699
 20
59.76992213292628
 30
0.0
 11
26.40707658398719
 21
59.76992213292628
 31
0.0
  0
LINE
  5
1E1
330
1E
100
AcDbEntity
  8
0
100
AcDbLine
 10
25.65903164765626
 20
59.61243898843554
 30
0.0
 11
25.81651479214699
 21
59.61243898843554
 31
0.0
  0
ARC
  5
1E2
330
1E
100
AcDbEntity
  8
0
100
AcDbCircle
 10
31.84026014178815
 20
58.98250641047273
 30
0.0
 40
2.952808959200977
100
AcDbArc
 50
316.6358440256393
 51
43.19418294147977
  0
ARC
  5
1E3
330
1E
100
AcDbEntity
  8
0
100
AcDbCircle
 10
26.530241394781
 20
53.99708131990941
 30
0.0
 40
10.23640439189672
100
AcDbArc
 50
43.19418294147977
 51
71.90263360592926
  0
ARC
  5
1E4
330
1E
100
AcDbEntity
  8
0
100
AcDbCircle
 10
26.0043616464601
 20
52.38789973492386
 30
0.0
 40
11.92933524788306
100
AcDbArc
 50
71.90263360592926
 51
94.15013022716884
  0
LINE
  5
1E5
330
1E
100
AcDbEntity
  8
0
100
AcDbLine
 10
57.46161232576174
 20
21.8026431875511
 30
0.0
 11
57.19887748724929
 21
21.8026431875511
 31
0.0
  0
ARC
  5
1E6
330
1E
100
AcDbEntity
  8
0
100
AcDbCircle
 10
55.71318447350694
 20
27.55077796146232
 30
0.0
 40
5.905617918401955
100
AcDbArc
 50
270.0
 51
282.1014920318372
  0
ARC
  5
1E7
330
1E
100
AcDbEntity
  8
0
100
AcDbCircle
 10
57.19887748724929
 20
20.6215196038707
 30
0.0
 40
1.181123583680391
100
AcDbArc
 50
90.0
 51
102.1014920318371
  0
LINE
  5
1E8
330
1E
100
AcDbEntity
  8
0
100
AcDbLine
 10
51.77936034291466
 20
21.8026431875511
 30
0.0
 11
51.43853146677571
 21
21.8026431875511
 31
0.0
  0
ARC
  5
1E9
330
1E
100
AcDbEntity
  8
0
100
AcDbCircle
 10
53.26505335665704
 20
27.55077796146232
 30
0.0
 40
5.905617918401955
100
AcDbArc
 50
257.8985079681629
 51
270.0
  0
ARC
  5
1EA
330
1E
100
AcDbEntity
  8
0
100
AcDbCircle
 10
51.43853146677571
 20
21.64516004306039
 30
0.0
 40
0.157483144490718
100
AcDbArc
 50
90.0
 51
174.8055710922688
  0
ARC
  5
1EB
330
1E
100
AcDbEntity
  8
0
100
AcDbCircle
 10
51.77936034291466
 20
20.6215196038707
 30
0.0
 40
1.181123583680391
100
AcDbArc
 50
77.89850796816283
 51
90.0
  0
ARC
  5
1F8
330
1E
100
AcDbEntity
  8
0
100
AcDbCircle
 10
24.98783591721849
 20
58.98250641047273
 30
0.0
 40
3.031550531446326
100
AcDbArc
 50
143.9690489839462
 51
216.0086640003359
  0
ARC
  5
1F9
330
1E
100
AcDbEntity
  8
0
100
AcDbCircle
 10
19.05241572095724
 20
45.2896378075083
 30
0.0
 40
19.68539306133985
100
AcDbArc
 50
50.61253997435191
 51
64.1001276652278
  0
ARC
  5
1FA
330
1E
100
AcDbEntity
  8
0
100
AcDbCircle
 10
27.13507663171319
 20
61.93531536967368
 30
0.0
 40
1.181123583680398
100
AcDbArc
 50
64.1001276652278
 51
90.22550781175452
  0
ARC
  5
1FB
330
1E
100
AcDbEntity
  8
0
100
AcDbCircle
 10
19.05241572095724
 20
72.67537501343716
 30
0.0
 40
19.68539306133985
100
AcDbArc
 50
295.8998723347722
 51
309.387460025648
  0
ARC
  5
1FC
330
1E
100
AcDbEntity
  8
0
100
AcDbCircle
 10
30.29483718079908
 20
58.98250641047273
 30
0.0
 40
1.968539306133985
100
AcDbArc
 50
309.387460025648
 51
0.0
  0
ARC
  5
1FD
330
1E
100
AcDbEntity
  8
0
100
AcDbCircle
 10
30.29483718079908
 20
58.98250641047273
 30
0.0
 40
1.968539306133987
100
AcDbArc
 50
0.0
 51
50.61253997435191
  0
LINE
  5
1FE
330
1E
100
AcDbEntity
  8
0
100
AcDbLine
 10
63.22743702558691
 20
5.070059085412239
 30
0.0
 11
51.69578762593644
 21
5.070059085412218
 31
0.0
  0
ARC
  5
1FF
330
1E
100
AcDbEntity
  8
0
100
AcDbCircle
 10
51.81661912330781
 20
5.188171443780255
 30
0.0
 40
0.1181123583680391
100
AcDbArc
 50
180.0
 51
270.0
  0
LINE
  5
200
330
1E
100
AcDbEntity
  8
0
100
AcDbLine
 10
51.71206164792829
 20
5.785004880027358
 30
0.0
 11
51.69578762593644
 21
5.070059085412218
 31
0.0
  0
ARC
  5
201
330
1E
100
AcDbEntity
  8
0
100
AcDbCircle
 10
51.98758578057812
 20
5.778733235620464
 30
0.0
 40
0.2755955028588013
100
AcDbArc
 50
91.63542007563986
 51
178.6960245229079
  0
ARC
  5
202
330
1E
100
AcDbEntity
  8
0
100
AcDbCircle
 10
63.10660552821556
 20
5.188171443780255
 30
0.0
 40
0.1181123583680391
100
AcDbArc
 50
270.0
 51
0.0
  0
LINE
  5
20F
330
1E
100
AcDbEntity
  8
0
100
AcDbLine
 10
62.75226845311144
 20
6.250990222939151
 30
0.0
 11
62.75226845311144
 21
6.251182669092614
 31
0.0
  0
ARC
  5
212
330
1E
100
AcDbEntity
  8
0
100
AcDbCircle
 10
25.71809492093738
 20
58.98250541262611
 30
0.0
 40
5.334751200246497
100
AcDbArc
 50
96.20984133333806
 51
267.8902476528249
  0
ARC
  5
213
330
1E
100
AcDbEntity
  8
0
100
AcDbCircle
 10
25.96089455895594
 20
65.5726631893431
 30
0.0
 40
11.92938016524039
100
AcDbArc
 50
267.8899168505359
 51
290.1847973884957
  0
ARC
  5
214
330
1E
100
AcDbEntity
  8
0
100
AcDbCircle
 10
26.54505444643152
 20
63.98366218399629
 30
0.0
 40
10.23640439189672
100
AcDbArc
 50
290.1847973884957
 51
316.6358440256393
  0
ARC
  5
215
330
1E
100
AcDbEntity
  8
0
100
AcDbCircle
 10
25.96091680121893
 20
52.39238044719972
 30
0.0
 40
12.00808976741731
100
AcDbArc
 50
47.50906426265861
 51
92.11018424151825
  0
ARC
  5
216
330
1E
100
AcDbEntity
  8
0
100
AcDbCircle
 10
27.15289671641284
 20
57.40771003423482
 30
0.0
 40
5.708763987788558
100
AcDbArc
 50
90.22550781175452
 51
143.9690489839462
  0
ARC
  5
217
330
1E
100
AcDbEntity
  8
0
100
AcDbCircle
 10
63.97787481695525
 20
13.63861893246703
 30
0.0
 40
2.362247167360783
100
AcDbArc
 50
136.2938708202259
 51
183.4787396899958
  0
ARC
  5
218
330
1E
100
AcDbEntity
  8
0
100
AcDbCircle
 10
50.94534983456805
 20
13.63861893246705
 30
0.0
 40
2.362247167360783
100
AcDbArc
 50
356.5212603100042
 51
43.70612917977404
  0
ARC
  5
219
330
1E
100
AcDbEntity
  8
0
100
AcDbCircle
 10
51.987585780578
 20
5.778733235620464
 30
0.0
 40
0.2755955028588013
100
AcDbArc
 50
91.63542007563986
 51
178.6960245229079
  0
ARC
  5
229
330
1E
100
AcDbEntity
  8
0
100
AcDbCircle
 10
45.33638472952671
 20
247.8256793409153
 30
0.0
 40
196.8539306133985
100
AcDbArc
 50
261.5568114175728
 51
263.9449900659495
  0
ARC
  5
239
330
1E
100
AcDbEntity
  8
0
100
AcDbCircle
 10
45.33638472952671
 20
-129.860668515663
 30
0.0
 40
196.8539306133985
100
AcDbArc
 50
96.05500993405051
 51
98.44540211492141
  0
LINE
  5
23D
330
1E
100
AcDbEntity
  8
0
100
AcDbLine
 10
57.46161232576165
 20
6.054607562982752
 30
0.0
 11
51.9803461364545
 21
6.054233632623748
 31
0.0
  0
LINE
  5
23E
330
1E
100
AcDbEntity
  8
0
100
AcDbLine
 10
53.3032442840163
 20
13.49528210898747
 30
0.0
 11
52.89086835163414
 21
6.711687367274805
 31
0.0
  0
ARC
  5
23F
330
1E
100
AcDbEntity
  8
0
100
AcDbCircle
 10
52.69437714751347
 20
6.723632102564771
 30
0.0
 40
0.1968539306133986
100
AcDbArc
 50
270.0
 51
356.5212603100042
  0
ARC
  5
240
330
1E
100
AcDbEntity
  8
0
100
AcDbCircle
 10
52.09221462616653
 20
6.250990222939165
 30
0.0
 40
0.1968539306133983
100
AcDbArc
 50
271.6354200756398
 51
0.02333869383495
  0
ARC
  5
241
330
1E
100
AcDbEntity
  8
0
100
AcDbCircle
 10
52.56466402044342
 20
6.251182669092614
 30
0.0
 40
0.275595502858758
100
AcDbArc
 50
90.0
 51
180.0233386938349
  0
LINE
  5
242
330
1E
100
AcDbEntity
  8
0
100
AcDbLine
 10
53.02617727349425
 20
6.054287787301859
 30
0.0
 11
53.13874056786358
 21
6.054295466336526
 31
0.0
  0
LINE
  5
243
330
1E
100
AcDbEntity
  8
0
100
AcDbLine
 10
52.56466402044342
 20
6.526778772701902
 30
0.0
 11
57.46161232576165
 21
6.526778772701902
 31
0.0
  0
LINE
  5
244
330
1E
100
AcDbEntity
  8
0
100
AcDbLine
 10
61.61998036750706
 20
13.49528210898745
 30
0.0
 11
62.03235629988916
 21
6.711687367274805
 31
0.0
  0
ARC
  5
245
330
1E
100
AcDbEntity
  8
0
100
AcDbCircle
 10
62.22884750400982
 20
6.723632102564778
 30
0.0
 40
0.1968539306133997
100
AcDbArc
 50
183.4787396899958
 51
270.0
  0
ARC
  5
246
330
1E
100
AcDbEntity
  8
0
100
AcDbCircle
 10
62.83104031977936
 20
6.251182669092628
 30
0.0
 40
0.1968539306133985
100
AcDbArc
 50
180.0
 51
270.0
  0
LINE
  5
247
330
1E
100
AcDbEntity
  8
0
100
AcDbLine
 10
62.35859088630721
 20
6.526778171951377
 30
0.0
 11
57.46161232576165
 21
6.526778171951377
 31
0.0
  0
ARC
  5
248
330
1E
100
AcDbEntity
  8
0
100
AcDbCircle
 10
62.35859088630721
 20
6.251182669092628
 30
0.0
 40
0.275595502858758
100
AcDbArc
 50
0.0
 51
90.0
  0
LINE
  5
249
330
1E
100
AcDbEntity
  8
0
100
AcDbLine
 10
63.21116300359506
 20
5.785004880027372
 30
0.0
 11
63.22743702558691
 21
5.070059085412239
 31
0.0
  0
ARC
  5
24A
330
1E
100
AcDbEntity
  8
0
100
AcDbCircle
 10
62.93563887094532
 20
5.778733235620464
 30
0.0
 40
0.275595502858758
100
AcDbArc
 50
1.303975477092069
 51
90.0
  0
LINE
  5
24B
330
1E
100
AcDbEntity
  8
0
100
AcDbLine
 10
62.93563887094532
 20
6.054328738479227
 30
0.0
 11
57.46161232576165
 21
6.054328738479227
 31
0.0
  0
ARC
  5
24C
330
1E
100
AcDbEntity
  8
0
100
AcDbCircle
 10
26.00435990683539
 20
65.57711208817497
 30
0.0
 40
13.58290876482108
100
AcDbArc
 50
263.9449757309054
 51
311.8886212831347
  0
LINE
  5
274
330
1E
100
AcDbEntity
  8
0
100
AcDbLine
 10
19.38734120276297
 20
19.45086652376985
 30
0.0
 11
20.38043323557565
 21
19.60603774582808
 31
0.0
  0
ARC
  5
275
330
1E
100
AcDbEntity
  8
0
100
AcDbCircle
 10
20.34396546496433
 20
19.83943058741427
 30
0.0
 40
0.2362247167360793
100
AcDbArc
 50
278.8806924877107
 51
3.298661912738414
  0
LINE
  5
276
330
1E
100
AcDbEntity
  8
0
100
AcDbLine
 10
20.51857673214201
 20
20.9152385418756
 30
0.0
 11
20.57979879530458
 21
19.85302312572241
 31
0.0
  0
ARC
  5
277
330
1E
100
AcDbEntity
  8
0
100
AcDbCircle
 10
20.20413229168832
 20
20.89711510672948
 30
0.0
 40
0.3149662889814422
100
AcDbArc
 50
3.298661912738414
 51
90.0
  0
LINE
  5
287
330
1E
100
AcDbEntity
  8
0
100
AcDbLine
 10
8.690232597418287
 20
20.01539676326415
 30
0.0
 11
8.690232597418287
 21
20.73963196223877
 31
0.0
  0
LINE
  5
291
330
1E
100
AcDbEntity
  8
0
100
AcDbLine
 10
35.11318594273954
 20
19.62751916238332
 30
0.0
 11
19.39907621002834
 21
19.44039595711152
 31
0.0
  0
ARC
  5
292
330
1E
100
AcDbEntity
  8
0
100
AcDbCircle
 10
19.39949712630007
 20
19.37306890990777
 30
0.0
 40
0.0787415722453597
100
AcDbArc
 50
98.88069248771063
 51
180.8107846547144
  0
LINE
  5
298
330
1E
100
AcDbEntity
  8
0
100
AcDbLine
 10
21.85344323596121
 20
12.94421653075454
 30
0.0
 11
21.95817310274887
 21
12.94421636068345
 31
0.0
  0
ARC
  5
29F
330
1E
100
AcDbEntity
  8
0
100
AcDbCircle
 10
12.5426783893038
 20
8.574136578386926
 30
0.0
 40
2.913438173078298
100
AcDbArc
 50
205.0289994876132
 51
239.8706062536779
  0
LINE
  5
2A6
330
1E
100
AcDbEntity
  8
0
100
AcDbLine
 10
14.35772435187371
 20
6.049628769336166
 30
0.0
 11
14.40364146938418
 21
6.095545886846636
 31
0.0
  0
LINE
  5
2B4
330
1E
100
AcDbEntity
  8
0
100
AcDbLine
 10
9.294743676022221
 20
7.432383780829212
 30
0.0
 11
9.760135720162963
 21
7.432383780829212
 31
0.0
  0
ARC
  5
2B6
330
1E
100
AcDbEntity
  8
0
100
AcDbCircle
 10
9.760135720162963
 20
7.2749006363385
 30
0.0
 40
0.1574831444907188
100
AcDbArc
 50
25.02899948761319
 51
90.0
  0
LINE
  5
2B8
330
1E
100
AcDbEntity
  8
0
100
AcDbLine
 10
18.38507681639928
 20
14.56154578197981
 30
0.0
 11
17.09438969791463
 21
16.09972679234897
 31
0.0
  0
ARC
  5
2C7
330
1E
100
AcDbEntity
  8
0
100
AcDbCircle
 10
15.97381301135104
 20
4.125225764461745
 30
0.0
 40
2.67721345634222
100
AcDbArc
 50
46.09988337165535
 51
90.0
  0
ARC
  5
2C9
330
1E
100
AcDbEntity
  8
0
100
AcDbCircle
 10
15.97381301135104
 20
5.660686423246275
 30
0.0
 40
1.141752797557698
100
AcDbArc
 50
90.0
 51
118.0000000000073
  0
LINE
  5
2CA
330
1E
100
AcDbEntity
  8
0
100
AcDbLine
 10
15.43779254116649
 20
6.668794307489747
 30
0.0
 11
14.51591209369061
 21
6.178621778702535
 31
0.0
  0
ARC
  5
2CD
330
1E
100
AcDbEntity
  8
0
100
AcDbCircle
 10
14.73771366756011
 20
5.761473688670726
 30
0.0
 40
0.4724494334721586
100
AcDbArc
 50
118.0000000000073
 51
135.000000000006
  0
LINE
  5
2E9
330
1E
100
AcDbEntity
  8
0
100
AcDbLine
 10
21.39629598084827
 20
16.4854208294542
 30
0.0
 11
19.55060518658325
 21
18.68502946433759
 31
0.0
  0
ARC
  5
2EA
330
1E
100
AcDbEntity
  8
0
100
AcDbCircle
 10
17.17392791057764
 20
12.94243333899536
 30
0.0
 40
5.511910057175155
100
AcDbArc
 50
4.976397286813059
 51
39.99999999998474
  0
ARC
  5
2F8
330
1E
100
AcDbEntity
  8
0
100
AcDbCircle
 10
35.74402224316026
 20
13.97524961473672
 30
0.0
 40
3.149662889814381
100
AcDbArc
 50
124.9477965260721
 51
182.7040024418313
  0
ARC
  5
308
330
1E
100
AcDbEntity
  8
0
100
AcDbCircle
 10
22.19439237283669
 20
13.37958315433019
 30
0.0
 40
0.4724494334721565
100
AcDbArc
 50
0.0
 51
4.976397286813059
  0
ARC
  5
30B
330
1E
100
AcDbEntity
  8
0
100
AcDbCircle
 10
20.30459948484585
 20
19.31770580191954
 30
0.0
 40
0.9842696530669931
100
AcDbArc
 50
180.0000000000207
 51
219.9999999999847
  0
LINE
  5
30E
330
1E
100
AcDbEntity
  8
0
100
AcDbLine
 10
35.11318594273954
 20
19.62751921311862
 30
0.0
 11
19.39907621002834
 21
19.4403960078468
 31
0.0
  0
LINE
  5
315
330
1E
100
AcDbEntity
  8
0
100
AcDbLine
 10
19.38691548048709
 20
19.45080005514575
 30
0.0
 11
20.38043323557568
 21
19.60603779656334
 31
0.0
  0
ARC
  5
317
330
1E
100
AcDbEntity
  8
0
100
AcDbCircle
 10
19.3990714040242
 20
19.37300244128369
 30
0.0
 40
0.0787415722453591
100
AcDbArc
 50
98.88069248771063
 51
180.0000000000309
  0
ARC
  5
332
330
1E
100
AcDbEntity
  8
0
100
AcDbCircle
 10
8.454000671675999
 20
7.798824980838446
 30
0.0
 40
0.3937078612268003
100
AcDbArc
 50
356.5270488177991
 51
0.0
  0
ARC
  5
34F
330
1E
100
AcDbEntity
  8
0
100
AcDbCircle
 10
21.8534505884073
 20
17.47185693485672
 30
0.0
 40
4.527640404108165
100
AcDbArc
 50
219.9999999999847
 51
269.9999069572368
  0
LINE
  5
350
330
1E
100
AcDbEntity
  8
0
100
AcDbLine
 10
22.23103576800554
 20
12.94420866880233
 30
0.0
 11
21.95817310274887
 21
12.94421636068345
 31
0.0
  0
ARC
  5
355
330
1E
100
AcDbEntity
  8
0
100
AcDbCircle
 10
9.162682030890437
 20
20.01539676326415
 30
0.0
 40
0.4724494334721284
100
AcDbArc
 50
180.0
 51
248.1798140054537
  0
LINE
  5
368
330
1E
100
AcDbEntity
  8
0
100
AcDbLine
 10
33.1304114897936
 20
6.52678091170231
 30
0.0
 11
33.13948924246953
 21
6.52678091170231
 31
0.0
  0
ARC
  5
36F
330
1E
100
AcDbEntity
  8
0
100
AcDbCircle
 10
13.72969025726229
 20
13.27640873267521
 30
0.0
 40
4.392303176239787
100
AcDbArc
 50
39.99999999998474
 51
90.0
  0
LINE
  5
375
330
1E
100
AcDbEntity
  8
0
100
AcDbLine
 10
9.21614671753565
 20
7.358412252223608
 30
0.0
 11
9.135613902467923
 21
6.031457029018881
 31
0.0
  0
ARC
  5
378
330
1E
100
AcDbEntity
  8
0
100
AcDbCircle
 10
9.294743676022221
 20
7.353642208583856
 30
0.0
 40
0.0787415722453595
100
AcDbArc
 50
90.0
 51
176.5269831843847
  0
ARC
  5
37B
330
1E
100
AcDbEntity
  8
0
100
AcDbCircle
 10
13.13682031318419
 20
18.10588757185548
 30
0.0
 40
0.4724494334721584
100
AcDbArc
 50
239.357672412858
 51
276.8097366274256
  0
ARC
  5
37D
330
1E
100
AcDbEntity
  8
0
100
AcDbCircle
 10
13.72969450240953
 20
13.14107150480682
 30
0.0
 40
4.527640404108169
100
AcDbArc
 50
90.00005372090837
 51
96.80973597142013
  0
ARC
  5
37F
330
1E
100
AcDbEntity
  8
0
100
AcDbCircle
 10
-1.828260860115221
 20
17.7521570706211
 30
0.0
 40
11.81123583680392
100
AcDbArc
 50
354.217341869178
 51
2.030193654237936
  0
ARC
  5
380
330
1E
100
AcDbEntity
  8
0
100
AcDbCircle
 10
8.401718109631929
 20
18.11479346285653
 30
0.0
 40
1.574831444907197
100
AcDbArc
 50
2.030193654237936
 51
68.17981400545377
  0
ARC
  5
381
330
1E
100
AcDbEntity
  8
0
100
AcDbCircle
 10
8.356053031402495
 20
16.72078641296109
 30
0.0
 40
1.574831444907186
100
AcDbArc
 50
326.3299616151116
 51
354.217341869178
  0
ARC
  5
382
330
1E
100
AcDbEntity
  8
0
100
AcDbCircle
 10
13.72969450240953
 20
13.14107150480682
 30
0.0
 40
4.881977479212279
100
AcDbArc
 50
146.3299616151116
 51
180.0
  0
ARC
  5
383
330
1E
100
AcDbEntity
  8
0
100
AcDbCircle
 10
13.72969450240953
 20
13.14107150480682
 30
0.0
 40
4.645752762476208
100
AcDbArc
 50
100.7541744391471
 51
137.7851937313838
  0
ARC
  5
384
330
1E
100
AcDbEntity
  8
0
100
AcDbCircle
 10
8.356053031402495
 20
16.72078641296109
 30
0.0
 40
1.929168520011295
100
AcDbArc
 50
326.3299616151116
 51
340.1648271384827
  0
ARC
  5
385
330
1E
100
AcDbEntity
  8
0
100
AcDbCircle
 10
10.72629441228702
 20
15.86580299744604
 30
0.0
 40
0.590561791840198
100
AcDbArc
 50
137.7851937313838
 51
160.1648271384826
  0
ARC
  5
386
330
1E
100
AcDbEntity
  8
0
100
AcDbCircle
 10
12.87171641558385
 20
17.65837622574402
 30
0.0
 40
0.0476913949785441
100
AcDbArc
 50
59.35767241285804
 51
139.5279812310274
  0
ARC
  5
38A
330
1E
100
AcDbEntity
  8
0
100
AcDbCircle
 10
36.52537256397915
 20
20.89711515746473
 30
0.0
 40
0.3149662889814464
100
AcDbArc
 50
349.4838229370381
 51
90.0
  0
ARC
  5
38D
330
1E
100
AcDbEntity
  8
0
100
AcDbCircle
 10
20.20413229168832
 20
20.89711515746476
 30
0.0
 40
0.3149662889814422
100
AcDbArc
 50
3.298661912738414
 51
90.0
  0
LINE
  5
38F
330
1E
100
AcDbEntity
  8
0
100
AcDbLine
 10
11.72177475825094
 20
13.18652491749495
 30
0.0
 11
11.72177475825094
 21
10.16437641520969
 31
0.0
  0
LINE
  5
391
330
1E
100
AcDbEntity
  8
0
100
AcDbLine
 10
12.52740715852513
 20
8.652955006555032
 30
0.0
 11
11.77978866052723
 21
9.947832626149548
 31
0.0
  0
ARC
  5
392
330
1E
100
AcDbEntity
  8
0
100
AcDbCircle
 10
12.15484319284158
 20
10.16437641520969
 30
0.0
 40
0.4330786473494764
100
AcDbArc
 50
180.0
 51
210.0006821590953
  0
ARC
  5
393
330
1E
100
AcDbEntity
  8
0
100
AcDbCircle
 10
12.73198235796931
 20
8.771069800587824
 30
0.0
 40
0.2362247167360753
100
AcDbArc
 50
210.0006821590953
 51
270.0
  0
LINE
  5
395
330
1E
100
AcDbEntity
  8
0
100
AcDbLine
 10
16.48789404595425
 20
12.90251484672112
 30
0.0
 11
15.25910231474222
 21
14.36693180694312
 31
0.0
  0
LINE
  5
396
330
1E
100
AcDbEntity
  8
0
100
AcDbLine
 10
23.36706025449235
 20
10.3457359217254
 30
0.0
 11
24.23150968014579
 21
10.3457359217254
 31
0.0
  0
LINE
  5
397
330
1E
100
AcDbEntity
  8
0
100
AcDbLine
 10
23.29591182757355
 20
10.38510670784808
 30
0.0
 11
23.36706025449235
 21
10.3457359217254
 31
0.0
  0
LINE
  5
398
330
1E
100
AcDbEntity
  8
0
100
AcDbLine
 10
23.29591182757355
 20
10.38510670784808
 30
0.0
 11
21.88649322151457
 21
10.38510670784808
 31
0.0
  0
LINE
  5
399
330
1E
100
AcDbEntity
  8
0
100
AcDbLine
 10
12.73198235796931
 20
8.534845083851749
 30
0.0
 11
13.27585519281865
 21
8.534845083851749
 31
0.0
  0
ARC
  5
39A
330
1E
100
AcDbEntity
  8
0
100
AcDbCircle
 10
15.97381184974358
 20
5.660686973261505
 30
0.0
 40
3.661483109409195
100
AcDbArc
 50
90.0
 51
118.0061007373626
  0
LINE
  5
39B
330
1E
100
AcDbEntity
  8
0
100
AcDbLine
 10
13.84884259198151
 20
8.677706887739333
 30
0.0
 11
14.25484965225513
 21
8.893584671007971
 31
0.0
  0
ARC
  5
39C
330
1E
100
AcDbEntity
  8
0
100
AcDbCircle
 10
13.27585519281865
 20
9.755339453654819
 30
0.0
 40
1.22049436980307
100
AcDbArc
 50
270.0
 51
298.0000000000071
  0
LINE
  5
39D
330
1E
100
AcDbEntity
  8
0
100
AcDbLine
 10
21.88649322151457
 20
10.38510670784808
 30
0.0
 11
21.87729717446694
 21
10.38510670784808
 31
0.0
  0
LINE
  5
3C1
330
1E
100
AcDbEntity
  8
0
100
AcDbLine
 10
9.298376996642161
 20
6.054329288494479
 30
0.0
 11
33.8874518109368
 21
6.054219279159283
 31
0.0
  0
LINE
  5
3C4
330
1E
100
AcDbEntity
  8
0
100
AcDbLine
 10
23.90531951824266
 20
6.526778721966635
 30
0.0
 11
33.13040604314534
 21
6.526778721966635
 31
0.0
  0
ARC
  5
3C5
330
1E
100
AcDbEntity
  8
0
100
AcDbCircle
 10
20.98368385876208
 20
6.211812432985198
 30
0.0
 40
0.1574831444907188
100
AcDbArc
 50
203.7691748430842
 51
270.0
  0
ARC
  5
3C6
330
1E
100
AcDbEntity
  8
0
100
AcDbCircle
 10
15.97381481360258
 20
4.005462182514527
 30
0.0
 40
5.316707900154859
100
AcDbArc
 50
23.76871706767524
 51
90.0
  0
ARC
  5
3D0
330
1E
100
AcDbEntity
  8
0
100
AcDbCircle
 10
21.88649322151457
 20
17.43247742380775
 30
0.0
 40
7.047370715959667
100
AcDbArc
 50
219.9999999999847
 51
270.0
  0
LINE
  5
3E0
330
1E
100
AcDbEntity
  8
0
100
AcDbLine
 10
24.20709593720787
 20
6.713329563865947
 30
0.0
 11
24.38877697063515
 21
10.18001019626035
 31
0.0
  0
ARC
  5
3E3
330
1E
100
AcDbEntity
  8
0
100
AcDbCircle
 10
23.88235290405402
 20
6.251182669092628
 30
0.0
 40
0.275595502858758
100
AcDbArc
 50
90.0
 51
180.0
  0
ARC
  5
3E6
330
1E
100
AcDbEntity
  8
0
100
AcDbCircle
 10
24.01051178806478
 20
6.723632102564778
 30
0.0
 40
0.1968539306133978
100
AcDbArc
 50
270.0
 51
356.999999999998
  0
ARC
  5
3E7
330
1E
100
AcDbEntity
  8
0
100
AcDbCircle
 10
23.40990347058187
 20
6.251182669092628
 30
0.0
 40
0.1968539306133985
100
AcDbArc
 50
270.0
 51
0.0
  0
ARC
  5
3E8
330
1E
100
AcDbEntity
  8
0
100
AcDbCircle
 10
24.23150968014579
 20
10.18825277723468
 30
0.0
 40
0.1574831444907188
100
AcDbArc
 50
356.999999999998
 51
90.0
  0
ARC
  5
3EB
330
1E
100
AcDbEntity
  8
0
100
AcDbCircle
 10
13.72969025726229
 20
13.05597321320808
 30
0.0
 40
2.014266085036548
100
AcDbArc
 50
39.99999999998474
 51
90.0
  0
ARC
  5
3EC
330
1E
100
AcDbEntity
  8
0
100
AcDbCircle
 10
9.298376996642161
 20
5.463767496654284
 30
0.0
 40
0.5905617918401954
100
AcDbArc
 50
90.0
 51
176.5269831843847
  0
ARC
  5
3ED
330
1E
100
AcDbEntity
  8
0
100
AcDbCircle
 10
13.72969025726229
 20
13.06232379923327
 30
0.0
 40
2.007915499011351
100
AcDbArc
 50
90.0
 51
180.0
  0
ARC
  5
3F5
330
1E
100
AcDbEntity
  8
0
100
AcDbCircle
 10
14.66920564934037
 20
21.64515813280864
 30
0.0
 40
0.1574831444907148
100
AcDbArc
 50
24.46182331071403
 51
174.3982837005434
  0
LINE
  5
3F6
330
1E
100
AcDbEntity
  8
0
100
AcDbLine
 10
14.66920564934037
 20
21.80264127729937
 30
0.0
 11
14.25022727022536
 21
21.80264127729937
 31
0.0
  0
ARC
  5
3F7
330
1E
100
AcDbEntity
  8
0
100
AcDbCircle
 10
14.36525719554021
 20
21.33019375407894
 30
0.0
 40
0.1181123583680401
100
AcDbArc
 50
270.0
 51
354.3982837005434
  0
LINE
  5
3F8
330
1E
100
AcDbEntity
  8
0
100
AcDbLine
 10
10.07871315337155
 20
21.64516004306037
 30
0.0
 11
12.96701423901328
 21
21.64516004306039
 31
0.0
  0
ARC
  5
3FA
330
1E
100
AcDbEntity
  8
0
100
AcDbCircle
 10
15.42732424465242
 20
21.60578925693771
 30
0.0
 40
0.3937078612267971
100
AcDbArc
 50
194.154501843666
 51
270.0
  0
ARC
  5
3FD
330
1E
100
AcDbEntity
  8
0
100
AcDbCircle
 10
9.910731132581418
 20
21.63431159220328
 30
0.0
 40
0.1683315953478573
100
AcDbArc
 50
3.814074834284714
 51
176.1859251657153
  0
ARC
  5
3FE
330
1E
100
AcDbEntity
  8
0
100
AcDbCircle
 10
10.32858582731847
 20
21.44830611244699
 30
0.0
 40
0.2362247167360781
100
AcDbArc
 50
183.8140748342847
 51
270.0
  0
ARC
  5
3FF
330
1E
100
AcDbEntity
  8
0
100
AcDbCircle
 10
9.492876437844415
 20
21.44830611244701
 30
0.0
 40
0.2362247167360781
100
AcDbArc
 50
270.0
 51
356.1859251657152
  0
LINE
  5
400
330
1E
100
AcDbEntity
  8
0
100
AcDbLine
 10
10.09288431104033
 20
21.43259267802845
 30
0.0
 11
10.07868990001788
 21
21.64550884336567
 31
0.0
  0
LINE
  5
401
330
1E
100
AcDbEntity
  8
0
100
AcDbLine
 10
9.728577954122556
 20
21.43259267802845
 30
0.0
 11
9.742772365145015
 21
21.64550884336567
 31
0.0
  0
ARC
  5
402
330
1E
100
AcDbEntity
  8
0
100
AcDbCircle
 10
12.85049484645236
 20
27.55077796146232
 30
0.0
 40
5.905617918401955
100
AcDbArc
 50
270.0
 51
282.8384899481766
  0
LINE
  5
404
330
1E
100
AcDbEntity
  8
0
100
AcDbLine
 10
14.48280550555722
 20
21.31866448647823
 30
0.0
 11
14.51231184356274
 21
21.65876969066562
 31
0.0
  0
ARC
  5
405
330
1E
100
AcDbEntity
  8
0
100
AcDbCircle
 10
14.92006297853771
 20
21.75927860241837
 30
0.0
 40
0.1181123583680385
100
AcDbArc
 50
204.461823310714
 51
260.603808442237
  0
ARC
  5
406
330
1E
100
AcDbEntity
  8
0
100
AcDbCircle
 10
9.910720774037429
 20
21.46696616529381
 30
0.0
 40
0.1781938777665817
100
AcDbArc
 50
4.085616779974811
 51
175.9143832200251
  0
LINE
  5
407
330
1E
100
AcDbEntity
  8
0
100
AcDbLine
 10
10.07871315337155
 20
21.64516004306037
 30
0.0
 11
9.910720774037429
 21
21.64516004306039
 31
0.0
  0
ARC
  5
416
330
1E
100
AcDbEntity
  8
0
100
AcDbCircle
 10
9.162682030890437
 20
20.73963196223877
 30
0.0
 40
0.4724494334721565
100
AcDbArc
 50
90.0
 51
180.0
  0
LINE
  5
417
330
1E
100
AcDbEntity
  8
0
100
AcDbLine
 10
9.492876437844415
 20
21.21208139571093
 30
0.0
 11
9.162682030890437
 21
21.21208139571093
 31
0.0
  0
LINE
  5
41F
330
1E
100
AcDbEntity
  8
0
100
AcDbLine
 10
14.45360934638719
 20
21.21208139571093
 30
0.0
 11
10.32858582731847
 21
21.21208139571093
 31
0.0
  0
ARC
  5
429
330
1E
100
AcDbEntity
  8
0
100
AcDbCircle
 10
30.64152987351742
 20
21.98933935935736
 30
0.0
 40
6.299325779628754
100
AcDbArc
 50
316.919399522817
 51
349.4838224429878
  0
ARC
  5
42A
330
1E
100
AcDbEntity
  8
0
100
AcDbCircle
 10
36.52537255456116
 20
20.89711510672948
 30
0.0
 40
0.3149662889814377
100
AcDbArc
 50
349.4838224429878
 51
90.0
  0
LINE
  5
42E
330
1E
100
AcDbEntity
  8
0
100
AcDbLine
 10
8.8477085329028
 20
7.786721812928931
 30
0.0
 11
8.8477085329028
 21
13.14107150480682
 31
0.0
  0
LINE
  5
42F
330
1E
100
AcDbEntity
  8
0
100
AcDbLine
 10
8.8477085329028
 20
7.786721812928931
 30
0.0
 11
8.69043694218908
 21
5.19532650923989
 31
0.0
  0
ARC
  5
430
330
1E
100
AcDbEntity
  8
0
100
AcDbCircle
 10
8.808332379919022
 20
5.188171443780277
 30
0.0
 40
0.1181123583680407
100
AcDbArc
 50
176.5269831843847
 51
270.0
  0
LINE
  5
431
330
1E
100
AcDbEntity
  8
0
100
AcDbLine
 10
9.202054098301346
 20
13.14107150480682
 30
0.0
 11
9.20203539524806
 21
13.14107150480682
 31
0.0
  0
LINE
  5
432
330
1E
100
AcDbEntity
  8
0
100
AcDbLine
 10
8.847717023197276
 20
13.14107150480682
 30
0.0
 11
8.8477085329028
 21
13.14107150480682
 31
0.0
  0
LINE
  5
500
330
1E
100
AcDbEntity
  8
0
100
AcDbLine
 10
12.02737003330827
 20
6.054317079222187
 30
0.0
 11
12.03833090700612
 21
6.065277952920027
 31
0.0
  0
ARC
  5
599
330
1E
100
AcDbEntity
  8
0
100
AcDbCircle
 10
33.28387799660925
 20
6.723634842315711
 30
0.0
 40
0.1968539306134001
100
AcDbArc
 50
183.9416482074951
 51
270.0
  0
LINE
  5
59A
330
1E
100
AcDbEntity
  8
0
100
AcDbLine
 10
33.41507732442307
 20
6.52678091170231
 30
0.0
 11
33.28387799660925
 21
6.52678091170231
 31
0.0
  0
ARC
  5
59B
330
1E
100
AcDbEntity
  8
0
100
AcDbCircle
 10
33.88752674456907
 20
6.251073195510713
 30
0.0
 40
0.1968539306133989
100
AcDbArc
 50
179.9863914527479
 51
270.0
  0
ARC
  5
59C
330
1E
100
AcDbEntity
  8
0
100
AcDbCircle
 10
33.41507732442307
 20
6.251185408843554
 30
0.0
 40
0.275595502858758
100
AcDbArc
 50
359.986391452748
 51
90.0
  0
LINE
  5
59D
330
1E
100
AcDbEntity
  8
0
100
AcDbLine
 10
33.99216835718312
 20
6.054219264897305
 30
0.0
 11
33.88752674456907
 21
6.054219264897305
 31
0.0
  0
ARC
  5
59E
330
1E
100
AcDbEntity
  8
0
100
AcDbCircle
 10
33.99216835718312
 20
5.778623762038549
 30
0.0
 40
0.275595502858758
100
AcDbArc
 50
1.303975477092069
 51
90.0
  0
LINE
  5
59F
330
1E
100
AcDbEntity
  8
0
100
AcDbLine
 10
34.26769248983291
 20
5.784895406445457
 30
0.0
 11
34.28213086909807
 21
5.150592556059557
 31
0.0
  0
ARC
  5
5A0
330
1E
100
AcDbEntity
  8
0
100
AcDbCircle
 10
34.203409688341
 20
5.148800657657588
 30
0.0
 40
0.0787415722453599
100
AcDbArc
 50
270.0
 51
1.303975477092069
  0
ARC
  5
5A1
330
1E
100
AcDbEntity
  8
0
100
AcDbCircle
 10
29.20372139960853
 20
23.33390389561073
 30
0.0
 40
8.267865085762736
100
AcDbArc
 50
304.9478226574757
 51
316.9193944506279
  0
LINE
  5
5A2
330
1E
100
AcDbEntity
  8
0
100
AcDbLine
 10
33.08748970919311
 20
6.71010300712227
 30
0.0
 11
32.6018139127894
 21
13.7587432345382
 31
0.0
  0
LINE
  5
5C3
330
1E
100
AcDbEntity
  8
0
100
AcDbLine
 10
8.808332379919022
 20
5.070059085412239
 30
0.0
 11
34.203409688341
 21
5.070059085412239
 31
0.0
  0
ARC
  5
712
330
1E
100
AcDbEntity
  8
0
100
AcDbCircle
 10
27.13507663171319
 20
56.02969545557848
 30
0.0
 40
1.181123583680398
100
AcDbArc
 50
269.7744921882455
 51
295.8998723347722
  0
ARC
  5
713
330
1E
100
AcDbEntity
  8
0
100
AcDbCircle
 10
27.15289671641284
 20
60.55730079101732
 30
0.0
 40
5.708763987788558
100
AcDbArc
 50
216.0309510160537
 51
269.7744921882455
  0
LINE
  5
9E4
330
1E
100
AcDbEntity
  8
0
100
AcDbLine
 10
20.20413229168832
 20
21.21208139571092
 30
0.0
 11
35.5143338766768
 21
21.21208139571091
 31
0.0
  0
LINE
  5
E9C
330
1E
100
AcDbEntity
  8
0
100
AcDbLine
 10
63.67243117242805
 20
21.31950036359726
 30
0.0
 11
63.64152957847915
 21
21.65941789703599
 31
0.0
  0
LINE
  5
E9D
330
1E
100
AcDbEntity
  8
0
100
AcDbLine
 10
61.83769004162712
 20
21.64516004306039
 30
0.0
 11
57.46161232576167
 21
21.64516004306039
 31
0.0
  0
ARC
  5
E9E
330
1E
100
AcDbEntity
  8
0
100
AcDbCircle
 10
59.21004017801641
 20
27.55077796146232
 30
0.0
 40
5.905617918401955
100
AcDbArc
 50
257.8985079681629
 51
270.0
  0
ARC
  5
E9F
330
1E
100
AcDbEntity
  8
0
100
AcDbCircle
 10
57.72434716427406
 20
20.6215196038707
 30
0.0
 40
1.181123583680391
100
AcDbArc
 50
77.89850796816281
 51
90.0
  0
LINE
  5
EA0
330
1E
100
AcDbEntity
  8
0
100
AcDbLine
 10
63.1438643086087
 20
21.8026431875511
 30
0.0
 11
63.48469318474764
 21
21.8026431875511
 31
0.0
  0
ARC
  5
EA1
330
1E
100
AcDbEntity
  8
0
100
AcDbCircle
 10
61.65817129486632
 20
27.55077796146232
 30
0.0
 40
5.905617918401955
100
AcDbArc
 50
270.0
 51
282.1014920318372
  0
ARC
  5
EA2
330
1E
100
AcDbEntity
  8
0
100
AcDbCircle
 10
63.48469318474764
 20
21.64516004306039
 30
0.0
 40
0.157483144490718
100
AcDbArc
 50
5.194428907731174
 51
90.0
  0
ARC
  5
EA3
330
1E
100
AcDbEntity
  8
0
100
AcDbCircle
 10
63.1438643086087
 20
20.6215196038707
 30
0.0
 40
1.181123583680391
100
AcDbArc
 50
90.0
 51
102.1014920318371
  0
LINE
  5
119C
330
1E
100
AcDbEntity
  8
0
100
AcDbLine
 10
49.58350520167678
 20
21.8026431875511
 30
0.0
 11
65.33971944984668
 21
21.8026431875511
 31
0.0
  0
LINE
  5
11A3
330
1E
100
AcDbEntity
  8
0
100
AcDbLine
 10
15.21011690049874
 20
21.84289252816896
 30
0.0
 11
9.430749399438013
 21
21.84289252816896
 31
0.0
  0
LINE
  5
11A4
330
1E
100
AcDbEntity
  8
0
100
AcDbLine
 10
8.887483874412168
 20
33.4179036482264
 30
0.0
 11
8.847713395236723
 21
33.4179036482264
 31
0.0
  0
LINE
  5
11A5
330
1E
100
AcDbEntity
  8
0
100
AcDbLine
 10
9.034545026714454
 20
22.8250778444322
 30
0.0
 11
8.926852610997343
 21
33.37893458390485
 31
0.0
  0
LINE
  5
11AA
330
1E
100
AcDbEntity
  8
0
100
AcDbLine
 10
48.01262374961132
 20
32.91050823580019
 30
0.0
 11
48.01262374961132
 21
33.61387902435502
 31
0.0
  0
LINE
  5
11AB
330
1E
100
AcDbEntity
  8
0
100
AcDbLine
 10
66.91060090193571
 20
32.91050823580019
 30
0.0
 11
66.91060090193573
 21
33.61387902435502
 31
0.0
  0
LINE
  5
11BC
330
1E
100
AcDbEntity
  8
0
100
AcDbLine
 10
8.808342609112287
 20
33.45727443435081
 30
0.0
 11
8.808342609112287
 21
33.71656202364861
 31
0.0
  0
LINE
  5
11BD
330
1E
100
AcDbEntity
  8
0
100
AcDbLine
 10
8.914924618884924
 20
33.83945194699425
 30
0.0
 11
8.819874045388019
 21
33.74440137349737
 31
0.0
  0
LINE
  5
11BF
330
1E
100
AcDbEntity
  8
0
100
AcDbLine
 10
16.13130882792225
 20
33.61494076743483
 30
0.0
 11
16.13130882792225
 21
33.7328699372217
 31
0.0
  0
LINE
  5
11C0
330
1E
100
AcDbEntity
  8
0
100
AcDbLine
 10
16.13130882792225
 20
33.7328699372217
 30
0.0
 11
16.01319646957264
 21
33.85098229559492
 31
0.0
  0
LINE
  5
11C2
330
1E
100
AcDbEntity
  8
0
100
AcDbLine
 10
12.81432009709405
 20
32.32536433333303
 30
0.0
 11
12.28281448443815
 21
32.32536433333303
 31
0.0
  0
LINE
  5
11C3
330
1E
100
AcDbEntity
  8
0
100
AcDbLine
 10
12.81432009709405
 20
33.01435309048662
 30
0.0
 11
12.28281448443815
 21
33.01435309048662
 31
0.0
  0
LINE
  5
11C4
330
1E
100
AcDbEntity
  8
0
100
AcDbLine
 10
12.2040729121893
 20
32.40410590558184
 30
0.0
 11
12.2040729121893
 21
32.93561151823778
 31
0.0
  0
LINE
  5
11C5
330
1E
100
AcDbEntity
  8
0
100
AcDbLine
 10
12.8930616693429
 20
32.40410590558184
 30
0.0
 11
12.8930616693429
 21
32.93561151823778
 31
0.0
  0
LINE
  5
11C6
330
1E
100
AcDbEntity
  8
0
100
AcDbLine
 10
13.46324366291514
 20
48.66735845065596
 30
0.0
 11
10.5179488935322
 21
48.66735845065596
 31
0.0
  0
LINE
  5
11C7
330
1E
100
AcDbEntity
  8
0
100
AcDbLine
 10
13.46324366291514
 20
49.65162810371901
 30
0.0
 11
10.71220461330347
 21
49.65162810371901
 31
0.0
  0
LINE
  5
11C9
330
1E
100
AcDbEntity
  8
0
100
AcDbLine
 10
67.028713350734
 20
35.858013833352
 30
0.0
 11
67.47056584100363
 21
35.858013833352
 31
0.0
  0
LINE
  5
11CA
330
1E
100
AcDbEntity
  8
0
100
AcDbLine
 10
47.38269107836109
 20
34.401294746796
 30
0.0
 11
57.46161232576176
 21
34.401294746796
 31
0.0
  0
LINE
  5
11CB
330
1E
100
AcDbEntity
  8
0
100
AcDbLine
 10
16.37142031882428
 20
33.65412945264785
 30
0.0
 11
16.13130471245014
 21
33.65412945264785
 31
0.0
  0
LINE
  5
11CD
330
1E
100
AcDbEntity
  8
0
100
AcDbLine
 10
16.13108771268258
 20
33.8509822774592
 30
0.0
 11
8.942763968733629
 21
33.85098338326992
 31
0.0
  0
LINE
  5
11D0
330
1E
100
AcDbEntity
  8
0
100
AcDbLine
 10
47.69376949843919
 20
33.61387902435502
 30
0.0
 11
57.46161232576176
 21
33.61387902435502
 31
0.0
  0
LINE
  5
11D1
330
1E
100
AcDbEntity
  8
0
100
AcDbLine
 10
67.22556728419068
 20
33.61387902435502
 30
0.0
 11
67.22945515310787
 21
33.61387902435502
 31
0.0
  0
LINE
  5
11D6
330
1E
100
AcDbEntity
  8
0
100
AcDbLine
 10
15.20301141333968
 20
21.84289252816896
 30
0.0
 11
15.38326269009624
 21
21.84289003193772
 31
0.0
  0
LINE
  5
11D7
330
1E
100
AcDbEntity
  8
0
100
AcDbLine
 10
9.430749399438013
 20
21.84289252816896
 30
0.0
 11
9.241422457966677
 21
21.84288972539503
 31
0.0
  0
LINE
  5
11D8
330
1E
100
AcDbEntity
  8
0
100
AcDbLine
 10
48.44570239695625
 20
32.91050823580019
 30
0.0
 11
48.44570239695625
 21
33.61387902435502
 31
0.0
  0
LINE
  5
11E3
330
1E
100
AcDbEntity
  8
0
100
AcDbLine
 10
48.44570239695625
 20
32.96426105332583
 30
0.0
 11
48.01264209674783
 21
32.96426105332583
 31
0.0
  0
LINE
  5
11E4
330
1E
100
AcDbEntity
  8
0
100
AcDbLine
 10
48.44812172794431
 20
32.29495768923445
 30
0.0
 11
48.01502977385436
 21
32.29495768923445
 31
0.0
  0
LINE
  5
11E6
330
1E
100
AcDbEntity
  8
0
100
AcDbLine
 10
15.20301141333968
 20
21.84289252816896
 30
0.0
 11
15.38326269009624
 21
21.84289003193772
 31
0.0
  0
LINE
  5
11E7
330
1E
100
AcDbEntity
  8
0
100
AcDbLine
 10
9.430749399438013
 20
21.84289252816896
 30
0.0
 11
9.241422457966677
 21
21.84288972539503
 31
0.0
  0
LINE
  5
11F2
330
1E
100
AcDbEntity
  8
0
100
AcDbLine
 10
8.942763968733629
 20
33.85098338326992
 30
0.0
 11
9.713876465292969
 21
33.85098338326992
 31
0.0
  0
LINE
  5
11F3
330
1E
100
AcDbEntity
  8
0
100
AcDbLine
 10
67.38688910719995
 20
33.76742632107869
 30
0.0
 11
67.39720801594003
 21
34.18018278529641
 31
0.0
  0
LINE
  5
11F4
330
1E
100
AcDbEntity
  8
0
100
AcDbLine
 10
67.74601716496602
 20
35.59133176485102
 30
0.0
 11
67.77663470517964
 21
34.64515976837208
 31
0.0
  0
LINE
  5
11F5
330
1E
100
AcDbEntity
  8
0
100
AcDbLine
 10
47.53633554434711
 20
33.76742632107869
 30
0.0
 11
47.52601663558343
 21
34.18018278529641
 31
0.0
  0
LINE
  5
11F6
330
1E
100
AcDbEntity
  8
0
100
AcDbLine
 10
47.17720748655742
 20
35.59133176485102
 30
0.0
 11
47.14658994636741
 21
34.64515976837208
 31
0.0
  0
LINE
  5
11F8
330
1E
100
AcDbEntity
  8
0
100
AcDbLine
 10
57.46161232576176
 20
35.858013833352
 30
0.0
 11
47.45265881054345
 21
35.858013833352
 31
0.0
  0
LINE
  5
11F9
330
1E
100
AcDbEntity
  8
0
100
AcDbLine
 10
16.52885427289274
 20
33.80767674830855
 30
0.0
 11
16.53917322077447
 21
34.22043466386194
 31
0.0
  0
LINE
  5
11FA
330
1E
100
AcDbEntity
  8
0
100
AcDbLine
 10
16.8879746027215
 20
35.6315816435781
 30
0.0
 11
16.9185902663562
 21
34.68540923867471
 31
0.0
  0
LINE
  5
11FB
330
1E
100
AcDbEntity
  8
0
100
AcDbLine
 10
9.578458209673328
 20
37.59120697724871
 30
0.0
 11
9.191520388141043
 21
37.59120697724871
 31
0.0
  0
LINE
  5
11FC
330
1E
100
AcDbEntity
  8
0
100
AcDbLine
 10
8.944823953519176
 20
33.86673153079718
 30
0.0
 11
8.839835345087294
 21
33.94547240747261
 31
0.0
  0
LINE
  5
1202
330
1E
100
AcDbEntity
  8
0
100
AcDbLine
 10
13.46324366291514
 20
48.70672923675675
 30
0.0
 11
10.5179488935322
 21
48.70672923675675
 31
0.0
  0
LINE
  5
1203
330
1E
100
AcDbEntity
  8
0
100
AcDbLine
 10
9.2999664201634
 20
51.07103191266162
 30
0.0
 11
9.378283833205443
 21
49.77938041811938
 31
0.0
  0
LINE
  5
1215
330
1E
100
AcDbEntity
  8
0
100
AcDbLine
 10
16.61252326094822
 20
35.89826426164484
 30
0.0
 11
10.63136490383203
 21
35.89826426164484
 31
0.0
  0
LINE
  5
121A
330
1E
100
AcDbEntity
  8
0
100
AcDbLine
 10
8.994963289161546
 20
37.40515937958088
 30
0.0
 11
8.808457226268956
 21
34.01278836537585
 31
0.0
  0
LINE
  5
1224
330
1E
100
AcDbEntity
  8
0
100
AcDbLine
 10
16.37142031882428
 20
33.65412945264785
 30
0.0
 11
16.367529429173
 21
33.65412945264785
 31
0.0
  0
LINE
  5
1225
330
1E
100
AcDbEntity
  8
0
100
AcDbLine
 10
16.52885427289274
 20
33.80767674830855
 30
0.0
 11
16.53917322077447
 21
34.22043466386194
 31
0.0
  0
LINE
  5
1226
330
1E
100
AcDbEntity
  8
0
100
AcDbLine
 10
16.9185902663562
 20
34.68540923867471
 30
0.0
 11
16.8879746027215
 21
35.6315816435781
 31
0.0
  0
LINE
  5
1227
330
1E
100
AcDbEntity
  8
0
100
AcDbLine
 10
16.61252326094822
 20
35.89826426164484
 30
0.0
 11
16.17067129966958
 21
35.89826426164484
 31
0.0
  0
LINE
  5
1229
330
1E
100
AcDbEntity
  8
0
100
AcDbLine
 10
9.578458209673328
 20
37.59120697724871
 30
0.0
 11
9.191520388141043
 21
37.59120697724871
 31
0.0
  0
LINE
  5
122A
330
1E
100
AcDbEntity
  8
0
100
AcDbLine
 10
8.994963289161546
 20
37.40515937958088
 30
0.0
 11
8.808457226268956
 21
34.01278836537585
 31
0.0
  0
LINE
  5
122B
330
1E
100
AcDbEntity
  8
0
100
AcDbLine
 10
8.944823953519176
 20
33.86673153079718
 30
0.0
 11
8.839835345087294
 21
33.94547240747261
 31
0.0
  0
LINE
  5
122C
330
1E
100
AcDbEntity
  8
0
100
AcDbLine
 10
8.992068674297229
 20
33.85098338326992
 30
0.0
 11
9.355136991151312
 21
33.85098229559492
 31
0.0
  0
LINE
  5
122D
330
1E
100
AcDbEntity
  8
0
100
AcDbLine
 10
9.355136991151312
 20
33.85098229559492
 30
0.0
 11
9.722889450518891
 21
33.85098338326992
 31
0.0
  0
LINE
  5
126D
330
1E
100
AcDbEntity
  8
0
100
AcDbLine
 10
9.034545026714454
 20
22.8250778444322
 30
0.0
 11
8.926852610997343
 21
33.37893458390485
 31
0.0
  0
LINE
  5
126E
330
1E
100
AcDbEntity
  8
0
100
AcDbLine
 10
9.430749399438013
 20
21.84289252816896
 30
0.0
 11
10.71782573607544
 21
21.84289252816896
 31
0.0
  0
LINE
  5
1273
330
1E
100
AcDbEntity
  8
0
100
AcDbLine
 10
9.355136991151312
 20
33.85098229559492
 30
0.0
 11
8.992068674297229
 21
33.85098338326992
 31
0.0
  0
LINE
  5
1274
330
1E
100
AcDbEntity
  8
0
100
AcDbLine
 10
8.992068674297229
 20
33.85098338326992
 30
0.0
 11
8.942763968733629
 21
33.85098338326992
 31
0.0
  0
LINE
  5
1275
330
1E
100
AcDbEntity
  8
0
100
AcDbLine
 10
8.914924618884924
 20
33.83945194699425
 30
0.0
 11
8.819874045388019
 21
33.74440137349737
 31
0.0
  0
LINE
  5
1276
330
1E
100
AcDbEntity
  8
0
100
AcDbLine
 10
8.808342609112287
 20
33.45727443435081
 30
0.0
 11
8.808342609112287
 21
33.71656202364861
 31
0.0
  0
LINE
  5
1277
330
1E
100
AcDbEntity
  8
0
100
AcDbLine
 10
8.887483874412168
 20
33.4179036482264
 30
0.0
 11
8.847713395236723
 21
33.4179036482264
 31
0.0
  0
LINE
  5
127A
330
1E
100
AcDbEntity
  8
0
100
AcDbLine
 10
14.06434255648511
 20
21.84289252816896
 30
0.0
 11
15.21011690049874
 21
21.84289252816896
 31
0.0
  0
LINE
  5
127B
330
1E
100
AcDbEntity
  8
0
100
AcDbLine
 10
16.13130882792225
 20
33.61494076743483
 30
0.0
 11
16.13130882792225
 21
33.65412945264785
 31
0.0
  0
LINE
  5
127C
330
1E
100
AcDbEntity
  8
0
100
AcDbLine
 10
16.13130882792225
 20
33.65412945264785
 30
0.0
 11
16.13130882792225
 21
33.7328699372217
 31
0.0
  0
LINE
  5
12D3
330
1E
100
AcDbEntity
  8
0
100
AcDbLine
 10
61.30026397272658
 20
21.8026431875511
 30
0.0
 11
59.13487073597835
 21
21.8026431875511
 31
0.0
  0
LINE
  5
12DA
330
1E
100
AcDbEntity
  8
0
100
AcDbLine
 10
66.91060090193571
 20
32.91050823580019
 30
0.0
 11
66.91060090193573
 21
33.61387902435502
 31
0.0
  0
LINE
  5
12DB
330
1E
100
AcDbEntity
  8
0
100
AcDbLine
 10
65.33971944984668
 20
21.8026431875511
 30
0.0
 11
61.7333426200714
 21
21.8026431875511
 31
0.0
  0
LINE
  5
1314
330
1E
100
AcDbEntity
  8
0
100
AcDbLine
 10
67.028713350734
 20
35.858013833352
 30
0.0
 11
67.47056584100363
 21
35.858013833352
 31
0.0
  0
LINE
  5
1315
330
1E
100
AcDbEntity
  8
0
100
AcDbLine
 10
67.74601716496602
 20
35.59133176485102
 30
0.0
 11
67.77663470517964
 21
34.64515976837208
 31
0.0
  0
LINE
  5
1316
330
1E
100
AcDbEntity
  8
0
100
AcDbLine
 10
67.38688910719995
 20
33.76742632107869
 30
0.0
 11
67.39720801594003
 21
34.18018278529641
 31
0.0
  0
LINE
  5
1317
330
1E
100
AcDbEntity
  8
0
100
AcDbLine
 10
67.22556728419068
 20
33.61387902435502
 30
0.0
 11
67.22945515310787
 21
33.61387902435502
 31
0.0
  0
LINE
  5
1350
330
1E
100
AcDbEntity
  8
0
100
AcDbLine
 10
48.19640949466904
 20
31.29134807614273
 30
0.0
 11
48.29723196529929
 21
31.33528298976091
 31
0.0
  0
LINE
  5
1351
330
1E
100
AcDbEntity
  8
0
100
AcDbLine
 10
48.29723196529929
 20
31.33528298976091
 30
0.0
 11
48.34066462211879
 21
31.34236107393542
 31
0.0
  0
LINE
  5
1352
330
1E
100
AcDbEntity
  8
0
100
AcDbLine
 10
48.34066462211879
 20
31.34236107393542
 30
0.0
 11
48.38006511019168
 21
31.33967850129272
 31
0.0
  0
LINE
  5
1353
330
1E
100
AcDbEntity
  8
0
100
AcDbLine
 10
48.38006511019168
 20
31.33967850129272
 30
0.0
 11
48.4762144947272
 21
31.29590112451694
 31
0.0
  0
LINE
  5
1354
330
1E
100
AcDbEntity
  8
0
100
AcDbLine
 10
48.4762144947272
 20
31.29590112451694
 30
0.0
 11
48.54091305972352
 21
31.26185548818313
 31
0.0
  0
LINE
  5
1355
330
1E
100
AcDbEntity
  8
0
100
AcDbLine
 10
48.54091305972352
 20
31.26185548818313
 30
0.0
 11
48.58949695247677
 21
31.24946170769516
 31
0.0
  0
LINE
  5
1356
330
1E
100
AcDbEntity
  8
0
100
AcDbLine
 10
48.58949695247677
 20
31.24946170769516
 30
0.0
 11
48.62993447469605
 21
31.25248282278679
 31
0.0
  0
LINE
  5
1357
330
1E
100
AcDbEntity
  8
0
100
AcDbLine
 10
48.62993447469605
 20
31.25248282278679
 30
0.0
 11
48.67477590654059
 21
31.26730916969308
 31
0.0
  0
LINE
  5
1358
330
1E
100
AcDbEntity
  8
0
100
AcDbLine
 10
48.67477590654059
 20
31.26730916969308
 30
0.0
 11
48.77959662470189
 21
31.33323444459029
 31
0.0
  0
ARC
  5
135D
330
1E
100
AcDbEntity
  8
0
100
AcDbCircle
 10
9.430749399438013
 20
22.11848803101623
 30
0.0
 40
0.2755955028472618
100
AcDbArc
 50
198.7153691955156
 51
270.0
  0
ARC
  5
1360
330
1E
100
AcDbEntity
  8
0
100
AcDbCircle
 10
11.59351290409128
 20
22.85118976157045
 30
0.0
 40
2.559101097968665
100
AcDbArc
 50
180.5846305207942
 51
198.7153691955156
  0
ARC
  5
1361
330
1E
100
AcDbEntity
  8
0
100
AcDbCircle
 10
126.7541959949629
 20
32.91050823580019
 30
0.0
 40
78.74157224535155
100
AcDbArc
 50
180.0
 51
184.1540051323917
  0
ARC
  5
1362
330
1E
100
AcDbEntity
  8
0
100
AcDbCircle
 10
49.58350520167678
 20
22.07823869039836
 30
0.0
 40
0.2755955028472618
100
AcDbArc
 50
199.7358493306931
 51
270.0
  0
ARC
  5
1363
330
1E
100
AcDbEntity
  8
0
100
AcDbCircle
 10
65.33971944984668
 20
22.07823869039836
 30
0.0
 40
0.2755955028472618
100
AcDbArc
 50
270.0
 51
340.2641506693068
  0
ARC
  5
1364
330
1E
100
AcDbEntity
  8
0
100
AcDbCircle
 10
47.07006419583658
 20
28.63262181622793
 30
0.0
 40
19.68539306133198
100
AcDbArc
 50
340.2641506693068
 51
355.8459944304961
  0
ARC
  5
1374
330
1E
100
AcDbEntity
  8
0
100
AcDbCircle
 10
-11.83097134341579
 20
32.91050823580019
 30
0.0
 40
78.74157224535155
100
AcDbArc
 50
355.8459944304961
 51
0.0
  0
ARC
  5
1375
330
1E
100
AcDbEntity
  8
0
100
AcDbCircle
 10
67.8531604557105
 20
28.63262181622793
 30
0.0
 40
19.68539306133198
100
AcDbArc
 50
184.1540038209821
 51
199.7358493306931
  0
ARC
  5
138A
330
1E
100
AcDbEntity
  8
0
100
AcDbCircle
 10
15.21011690049874
 20
22.11848803101623
 30
0.0
 40
0.2755955028472618
100
AcDbArc
 50
270.0
 51
336.3898637662154
  0
ARC
  5
138E
330
1E
100
AcDbEntity
  8
0
100
AcDbCircle
 10
13.11775924471851
 20
23.03305746152725
 30
0.0
 40
2.559101097968665
100
AcDbArc
 50
336.3898637662154
 51
355.081785257795
  0
ARC
  5
138F
330
1E
100
AcDbEntity
  8
0
100
AcDbCircle
 10
-109.855206764645
 20
33.61494196677103
 30
0.0
 40
125.9865155925672
100
AcDbArc
 50
355.081785257795
 51
0.0
  0
ARC
  5
1390
330
1E
100
AcDbEntity
  8
0
100
AcDbCircle
 10
12.28281448443815
 20
32.93561151823778
 30
0.0
 40
0.078741572248824
100
AcDbArc
 50
90.0
 51
180.0
  0
ARC
  5
1391
330
1E
100
AcDbEntity
  8
0
100
AcDbCircle
 10
12.28281448443815
 20
32.40410590558184
 30
0.0
 40
0.078741572248824
100
AcDbArc
 50
180.0
 51
270.0
  0
ARC
  5
1392
330
1E
100
AcDbEntity
  8
0
100
AcDbCircle
 10
12.81432009709405
 20
32.40410590558184
 30
0.0
 40
0.078741572248824
100
AcDbArc
 50
270.0
 51
0.0
  0
ARC
  5
1393
330
1E
100
AcDbEntity
  8
0
100
AcDbCircle
 10
12.81432009709405
 20
32.93561151823778
 30
0.0
 40
0.078741572248824
100
AcDbArc
 50
0.0
 51
90.0
  0
ARC
  5
1397
330
1E
100
AcDbEntity
  8
0
100
AcDbCircle
 10
10.5179488935322
 20
49.84848203431743
 30
0.0
 40
1.181123583685115
100
AcDbArc
 50
189.0805653791168
 51
270.0
  0
ARC
  5
1398
330
1E
100
AcDbEntity
  8
0
100
AcDbCircle
 10
67.6676789964103
 20
58.98250441477949
 30
0.0
 40
59.05617918401958
100
AcDbArc
 50
180.0
 51
189.0805653791168
  0
ARC
  5
1399
330
1E
100
AcDbEntity
  8
0
100
AcDbCircle
 10
-43.12171285241794
 20
58.98250441477949
 30
0.0
 40
59.84359530071176
100
AcDbArc
 50
352.3909015102898
 51
0.0
  0
ARC
  5
139A
330
1E
100
AcDbEntity
  8
0
100
AcDbCircle
 10
13.46324366291514
 20
51.42331347922304
 30
0.0
 40
2.75595502859073
100
AcDbArc
 50
270.0
 51
352.3909014598821
  0
ARC
  5
139B
330
1E
100
AcDbEntity
  8
0
100
AcDbCircle
 10
13.46324366291514
 20
51.42331347922304
 30
0.0
 40
1.771685375527674
100
AcDbArc
 50
270.0
 51
352.3909014598821
  0
ARC
  5
139C
330
1E
100
AcDbEntity
  8
0
100
AcDbCircle
 10
-43.12171285241794
 20
58.98250441477949
 30
0.0
 40
58.85932564764869
100
AcDbArc
 50
352.3909015110852
 51
0.0
  0
ARC
  5
139D
330
1E
100
AcDbEntity
  8
0
100
AcDbCircle
 10
57.46161232576176
 20
-9.693985710584826
 30
0.0
 40
47.24494334721565
100
AcDbArc
 50
80.80538783449989
 51
99.19461202241356
  0
ARC
  5
13A3
330
1E
100
AcDbEntity
  8
0
100
AcDbCircle
 10
8.942763968733629
 20
33.81161259714551
 30
0.0
 40
0.039370786124412
100
AcDbArc
 50
90.0
 51
135.0000000000003
  0
ARC
  5
13A5
330
1E
100
AcDbEntity
  8
0
100
AcDbCircle
 10
11.59351290409128
 20
22.85118976157045
 30
0.0
 40
2.559101097968665
100
AcDbArc
 50
198.7153691955156
 51
203.2039671998203
  0
ARC
  5
13A6
330
1E
100
AcDbEntity
  8
0
100
AcDbCircle
 10
126.7541959949629
 20
32.91050823580019
 30
0.0
 40
78.30849359800665
100
AcDbArc
 50
180.0
 51
181.1754567890094
  0
ARC
  5
13AA
330
1E
100
AcDbEntity
  8
0
100
AcDbCircle
 10
67.8531604557105
 20
28.63262181622793
 30
0.0
 40
19.68539306133198
100
AcDbArc
 50
199.7358493306931
 51
200.3012846588095
  0
ARC
  5
13AB
330
1E
100
AcDbEntity
  8
0
100
AcDbCircle
 10
47.07006419583658
 20
28.63262181622793
 30
0.0
 40
19.68539306133198
100
AcDbArc
 50
339.6987153411905
 51
340.2641506693068
  0
ARC
  5
13AC
330
1E
100
AcDbEntity
  8
0
100
AcDbCircle
 10
11.59351290409128
 20
22.85118976157045
 30
0.0
 40
2.559101097968665
100
AcDbArc
 50
198.7153691955156
 51
203.2039671998203
  0
ARC
  5
13AD
330
1E
100
AcDbEntity
  8
0
100
AcDbCircle
 10
67.8531604557105
 20
28.63262181622793
 30
0.0
 40
19.68539306133198
100
AcDbArc
 50
199.7358493306931
 51
200.3012846588095
  0
ARC
  5
13AE
330
1E
100
AcDbEntity
  8
0
100
AcDbCircle
 10
47.07006419583658
 20
28.63262181622793
 30
0.0
 40
19.68539306133198
100
AcDbArc
 50
339.6987153411905
 51
340.2641506693068
  0
ARC
  5
13AF
330
1E
100
AcDbEntity
  8
0
100
AcDbCircle
 10
13.11775924471851
 20
23.03305746152725
 30
0.0
 40
2.559102258895482
100
AcDbArc
 50
332.285102357795
 51
336.3898043014069
  0
ARC
  5
13B3
330
1E
100
AcDbEntity
  8
0
100
AcDbCircle
 10
10.51794361462936
 20
49.84848203431743
 30
0.0
 40
1.141752797560704
100
AcDbArc
 50
183.4697984110857
 51
270.0
  0
ARC
  5
13BC
330
1E
100
AcDbEntity
  8
0
100
AcDbCircle
 10
67.18094470616046
 20
38.02340707010015
 30
0.0
 40
2.165393236748172
100
AcDbArc
 50
218.9630899838876
 51
270.0
  0
ARC
  5
13BD
330
1E
100
AcDbEntity
  8
0
100
AcDbCircle
 10
64.88498452941278
 20
36.16662285636892
 30
0.0
 40
0.7874157224646181
100
AcDbArc
 50
38.9630899838876
 51
80.80538783449989
  0
ARC
  5
13BE
330
1E
100
AcDbEntity
  8
0
100
AcDbCircle
 10
47.74227994538662
 20
38.02340707010015
 30
0.0
 40
2.165393236748172
100
AcDbArc
 50
270.0
 51
321.0369100161124
  0
ARC
  5
13BF
330
1E
100
AcDbEntity
  8
0
100
AcDbCircle
 10
50.03824012213428
 20
36.16662285636892
 30
0.0
 40
0.7874157224646181
100
AcDbArc
 50
99.19460358008542
 51
141.0369100161124
  0
ARC
  5
13C0
330
1E
100
AcDbEntity
  8
0
100
AcDbCircle
 10
57.46161232576176
 20
-9.693985710584826
 30
0.0
 40
47.24494334721565
100
AcDbArc
 50
99.19461202241356
 51
99.5940682233833
  0
ARC
  5
13C1
330
1E
100
AcDbEntity
  8
0
100
AcDbCircle
 10
47.74227994538662
 20
38.02340707010015
 30
0.0
 40
2.165393236748172
100
AcDbArc
 50
321.0369100161124
 51
328.4430202741128
  0
ARC
  5
13C2
330
1E
100
AcDbEntity
  8
0
100
AcDbCircle
 10
67.22945515310787
 20
33.77136216885265
 30
0.0
 40
0.157483144497648
100
AcDbArc
 50
270.0
 51
358.5679042123107
  0
ARC
  5
13C4
330
1E
100
AcDbEntity
  8
0
100
AcDbCircle
 10
67.54053357032773
 20
34.63751968178613
 30
0.0
 40
0.236224716746472
100
AcDbArc
 50
281.3310100188843
 51
1.853409224407034
  0
ARC
  5
13C5
330
1E
100
AcDbEntity
  8
0
100
AcDbCircle
 10
67.63335894707819
 20
34.17427901364727
 30
0.0
 40
0.236224716746472
100
AcDbArc
 50
101.3310100188843
 51
178.5679042126007
  0
ARC
  5
13C6
330
1E
100
AcDbEntity
  8
0
100
AcDbCircle
 10
67.47056584100363
 20
35.58241833048109
 30
0.0
 40
0.2755955028472618
100
AcDbArc
 50
1.853409224407034
 51
90.0
  0
ARC
  5
13C8
330
1E
100
AcDbEntity
  8
0
100
AcDbCircle
 10
47.69376949843919
 20
33.77136216885265
 30
0.0
 40
0.157483144497648
100
AcDbArc
 50
181.4320957873993
 51
275.6672000042061
  0
ARC
  5
13C9
330
1E
100
AcDbEntity
  8
0
100
AcDbCircle
 10
47.28986570444525
 20
34.17427901364727
 30
0.0
 40
0.236224716746472
100
AcDbArc
 50
1.432095787399252
 51
78.66898998111567
  0
ARC
  5
13CA
330
1E
100
AcDbEntity
  8
0
100
AcDbCircle
 10
47.3826910811957
 20
34.63751968178613
 30
0.0
 40
0.236224716746472
100
AcDbArc
 50
178.1465907755929
 51
258.6689899811157
  0
ARC
  5
13CB
330
1E
100
AcDbEntity
  8
0
100
AcDbCircle
 10
47.45265881054345
 20
35.58241833048109
 30
0.0
 40
0.2755955028472618
100
AcDbArc
 50
90.0
 51
178.1465907755929
  0
ARC
  5
13CE
330
1E
100
AcDbEntity
  8
0
100
AcDbCircle
 10
16.6824891162681
 20
34.67776962315867
 30
0.0
 40
0.236224716746472
100
AcDbArc
 50
281.3322046751986
 51
1.85329490690183
  0
ARC
  5
13CF
330
1E
100
AcDbEntity
  8
0
100
AcDbCircle
 10
16.77532415186542
 20
34.21453089058289
 30
0.0
 40
0.236224716746472
100
AcDbArc
 50
101.3322046751985
 51
178.5679038158089
  0
ARC
  5
13D0
330
1E
100
AcDbEntity
  8
0
100
AcDbCircle
 10
16.61252326094822
 20
35.6226687587976
 30
0.0
 40
0.2755955028472618
100
AcDbArc
 50
1.853294906984923
 51
90.0
  0
ARC
  5
13D1
330
1E
100
AcDbEntity
  8
0
100
AcDbCircle
 10
8.992068674297229
 20
33.92972495551874
 30
0.0
 40
0.078741572248824
100
AcDbArc
 50
233.1303048015024
 51
270.0
  0
ARC
  5
13D6
330
1E
100
AcDbEntity
  8
0
100
AcDbCircle
 10
72.40480871917913
 20
58.98250441477949
 30
0.0
 40
63.59645458191518
100
AcDbArc
 50
180.0
 51
187.0789227377833
  0
ARC
  5
13D7
330
1E
100
AcDbEntity
  8
0
100
AcDbCircle
 10
-43.12171285241794
 20
58.98250441477949
 30
0.0
 40
59.80422451458736
100
AcDbArc
 50
352.3909015102898
 51
0.0
  0
ARC
  5
13D8
330
1E
100
AcDbEntity
  8
0
100
AcDbCircle
 10
13.46324366291514
 20
51.42331347922304
 30
0.0
 40
2.716584242466318
100
AcDbArc
 50
270.0
 51
352.3909014598821
  0
ARC
  5
13D9
330
1E
100
AcDbEntity
  8
0
100
AcDbCircle
 10
8.121008025596722
 20
50.99954748211109
 30
0.0
 40
1.181123583685115
100
AcDbArc
 50
3.469798411085785
 51
7.078922737783374
  0
ARC
  5
13DA
330
1E
100
AcDbEntity
  8
0
100
AcDbCircle
 10
9.486867240808351
 20
36.72752894489958
 30
0.0
 40
0.8661572946898202
100
AcDbArc
 50
13.5460360108046
 51
84.56360836719493
  0
ARC
  5
13DB
330
1E
100
AcDbEntity
  8
0
100
AcDbCircle
 10
14.25524172477259
 20
37.22137455984415
 30
0.0
 40
3.937078612275846
100
AcDbArc
 50
184.2382908536066
 51
198.3928047421864
  0
ARC
  5
13DC
330
1E
100
AcDbEntity
  8
0
100
AcDbCircle
 10
10.63136490383203
 20
36.0163766200181
 30
0.0
 40
0.118112358373236
100
AcDbArc
 50
198.3928047421864
 51
270.0
  0
ARC
  5
13E2
330
1E
100
AcDbEntity
  8
0
100
AcDbCircle
 10
16.37142031882428
 20
33.81161259714551
 30
0.0
 40
0.157483144497648
100
AcDbArc
 50
270.0
 51
358.567903815809
  0
ARC
  5
13EF
330
1E
100
AcDbEntity
  8
0
100
AcDbCircle
 10
8.847713395236723
 20
33.45727443435081
 30
0.0
 40
0.039370786124412
100
AcDbArc
 50
180.0
 51
270.0
  0
ARC
  5
13F0
330
1E
100
AcDbEntity
  8
0
100
AcDbCircle
 10
8.887483874412168
 20
33.37853286210199
 30
0.0
 40
0.039370786124412
100
AcDbArc
 50
0.5846305209179498
 51
90.0
  0
ARC
  5
13F1
330
1E
100
AcDbEntity
  8
0
100
AcDbCircle
 10
8.847713395236723
 20
33.71656202364861
 30
0.0
 40
0.039370786124412
100
AcDbArc
 50
135.0000000000003
 51
180.0
  0
ARC
  5
13F3
330
1E
100
AcDbEntity
  8
0
100
AcDbCircle
 10
72.40480871917913
 20
58.98250441477949
 30
0.0
 40
62.73029728722537
100
AcDbArc
 50
180.0
 51
188.2428745206066
  0
ARC
  5
13F4
330
1E
100
AcDbEntity
  8
0
100
AcDbCircle
 10
10.71220461330347
 20
50.0453359649395
 30
0.0
 40
0.3937078612204981
100
AcDbArc
 50
188.2428745206066
 51
270.0
  0
ARC
  5
13F7
330
1E
100
AcDbEntity
  8
0
100
AcDbCircle
 10
9.191520388141043
 20
37.39435304662663
 30
0.0
 40
0.19685393062206
100
AcDbArc
 50
90.0
 51
176.8531557367033
  0
ARC
  5
13FE
330
1E
100
AcDbEntity
  8
0
100
AcDbCircle
 10
8.887080065865461
 20
34.00846583221778
 30
0.0
 40
0.078741572248824
100
AcDbArc
 50
176.8531557364945
 51
233.1303048015024
  0
ARC
  5
1407
330
1E
100
AcDbEntity
  8
0
100
AcDbCircle
 10
16.37142031882428
 20
33.81161259714551
 30
0.0
 40
0.157483144497648
100
AcDbArc
 50
270.0
 51
358.567903815809
  0
ARC
  5
1408
330
1E
100
AcDbEntity
  8
0
100
AcDbCircle
 10
16.77532415186542
 20
34.21453089058289
 30
0.0
 40
0.236224716746472
100
AcDbArc
 50
101.3322046751985
 51
178.5679038158089
  0
ARC
  5
1409
330
1E
100
AcDbEntity
  8
0
100
AcDbCircle
 10
16.6824891162681
 20
34.67776962315867
 30
0.0
 40
0.236224716746472
100
AcDbArc
 50
281.3322046751986
 51
1.85329490690183
  0
ARC
  5
140A
330
1E
100
AcDbEntity
  8
0
100
AcDbCircle
 10
16.61252326094822
 20
35.6226687587976
 30
0.0
 40
0.2755955028472618
100
AcDbArc
 50
1.853294906984923
 51
90.0
  0
ARC
  5
1410
330
1E
100
AcDbEntity
  8
0
100
AcDbCircle
 10
9.578458209673328
 20
37.27624068825338
 30
0.0
 40
0.314966288971674
100
AcDbArc
 50
67.59582744058066
 51
90.0
  0
ARC
  5
1411
330
1E
100
AcDbEntity
  8
0
100
AcDbCircle
 10
9.191520388141043
 20
37.39435304662663
 30
0.0
 40
0.19685393062206
100
AcDbArc
 50
90.0
 51
176.8531557367033
  0
ARC
  5
1412
330
1E
100
AcDbEntity
  8
0
100
AcDbCircle
 10
8.887080065865461
 20
34.00846583221778
 30
0.0
 40
0.078741572248824
100
AcDbArc
 50
176.8531557364945
 51
233.1303048015024
  0
ARC
  5
1413
330
1E
100
AcDbEntity
  8
0
100
AcDbCircle
 10
8.992068674297229
 20
33.92972495551874
 30
0.0
 40
0.078741572248824
100
AcDbArc
 50
233.1303048015024
 51
270.0
  0
ARC
  5
1419
330
1E
100
AcDbEntity
  8
0
100
AcDbCircle
 10
11.59351290409128
 20
22.85118976157045
 30
0.0
 40
2.559101097968665
100
AcDbArc
 50
180.5846305207942
 51
198.7153691955156
  0
ARC
  5
141A
330
1E
100
AcDbEntity
  8
0
100
AcDbCircle
 10
9.430749399438013
 20
22.11848803101623
 30
0.0
 40
0.2755955028472618
100
AcDbArc
 50
198.7153691955156
 51
270.0
  0
ARC
  5
141D
330
1E
100
AcDbEntity
  8
0
100
AcDbCircle
 10
8.942763968733629
 20
33.81161259714551
 30
0.0
 40
0.039370786124412
100
AcDbArc
 50
90.0
 51
135.0000000000003
  0
ARC
  5
141E
330
1E
100
AcDbEntity
  8
0
100
AcDbCircle
 10
8.847713395236723
 20
33.71656202364861
 30
0.0
 40
0.039370786124412
100
AcDbArc
 50
135.0000000000003
 51
180.0
  0
ARC
  5
141F
330
1E
100
AcDbEntity
  8
0
100
AcDbCircle
 10
8.847713395236723
 20
33.45727443435081
 30
0.0
 40
0.039370786124412
100
AcDbArc
 50
180.0
 51
270.0
  0
ARC
  5
1420
330
1E
100
AcDbEntity
  8
0
100
AcDbCircle
 10
8.887483874412168
 20
33.37853286210199
 30
0.0
 40
0.039370786124412
100
AcDbArc
 50
0.5846305209179498
 51
90.0
  0
ARC
  5
1421
330
1E
100
AcDbEntity
  8
0
100
AcDbCircle
 10
15.21011690049874
 20
22.11848803101623
 30
0.0
 40
0.2755955028472618
100
AcDbArc
 50
270.0
 51
336.3898637662154
  0
ARC
  5
1422
330
1E
100
AcDbEntity
  8
0
100
AcDbCircle
 10
13.11775924471851
 20
23.03305746152725
 30
0.0
 40
2.559101097968665
100
AcDbArc
 50
336.3898637662154
 51
355.081785257795
  0
ARC
  5
1423
330
1E
100
AcDbEntity
  8
0
100
AcDbCircle
 10
-109.855206764645
 20
33.61494196677103
 30
0.0
 40
125.9865155925672
100
AcDbArc
 50
355.081785257795
 51
0.0
  0
ARC
  5
142D
330
1E
100
AcDbEntity
  8
0
100
AcDbCircle
 10
-11.83097134341579
 20
32.91050823580019
 30
0.0
 40
78.74157224535155
100
AcDbArc
 50
355.8459944304961
 51
0.0
  0
ARC
  5
142E
330
1E
100
AcDbEntity
  8
0
100
AcDbCircle
 10
47.07006419583658
 20
28.63262181622793
 30
0.0
 40
19.68539306133198
100
AcDbArc
 50
340.2641506693068
 51
355.8459944304961
  0
ARC
  5
142F
330
1E
100
AcDbEntity
  8
0
100
AcDbCircle
 10
65.33971944984668
 20
22.07823869039836
 30
0.0
 40
0.2755955028472618
100
AcDbArc
 50
270.0
 51
340.2641506693068
  0
ARC
  5
1433
330
1E
100
AcDbEntity
  8
0
100
AcDbCircle
 10
67.47056584100363
 20
35.58241833048109
 30
0.0
 40
0.2755955028472618
100
AcDbArc
 50
1.853409224407034
 51
90.0
  0
ARC
  5
1434
330
1E
100
AcDbEntity
  8
0
100
AcDbCircle
 10
67.54053357032773
 20
34.63751968178613
 30
0.0
 40
0.236224716746472
100
AcDbArc
 50
281.3310100188843
 51
1.853409224407034
  0
ARC
  5
1435
330
1E
100
AcDbEntity
  8
0
100
AcDbCircle
 10
67.63335894707819
 20
34.17427901364727
 30
0.0
 40
0.236224716746472
100
AcDbArc
 50
101.3310100188843
 51
178.5679042126007
  0
ARC
  5
1436
330
1E
100
AcDbEntity
  8
0
100
AcDbCircle
 10
67.22945515310787
 20
33.77136216885265
 30
0.0
 40
0.157483144497648
100
AcDbArc
 50
270.0
 51
358.5679042123107
  0
ARC
  5
1527
330
1E
100
AcDbEntity
  8
0
100
AcDbCircle
 10
-43.12171285241794
 20
58.90565463596125
 30
0.0
 40
59.84359530071176
100
AcDbArc
 50
0.0
 51
7.609098489710237
  0
ARC
  5
1528
330
1E
100
AcDbEntity
  8
0
100
AcDbCircle
 10
-43.12171285241794
 20
58.90565463596125
 30
0.0
 40
58.85932564764869
100
AcDbArc
 50
0.0
 51
7.609098488914759
  0
ARC
  5
1529
330
1E
100
AcDbEntity
  8
0
100
AcDbCircle
 10
-43.12171285241794
 20
58.90565463596125
 30
0.0
 40
59.80422451458736
100
AcDbArc
 50
0.0
 51
7.609098489710237
  0
LINE
  5
152A
330
1E
100
AcDbEntity
  8
0
100
AcDbLine
 10
13.46324366291514
 20
69.22080060008479
 30
0.0
 11
10.5179488935322
 21
69.22080060008479
 31
0.0
  0
LINE
  5
152B
330
1E
100
AcDbEntity
  8
0
100
AcDbLine
 10
13.46324366291514
 20
68.23653094702173
 30
0.0
 11
10.71220461330347
 21
68.23653094702173
 31
0.0
  0
LINE
  5
152C
330
1E
100
AcDbEntity
  8
0
100
AcDbLine
 10
13.46324366291514
 20
69.181429813984
 30
0.0
 11
10.5179488935322
 21
69.181429813984
 31
0.0
  0
ARC
  5
152E
330
1E
100
AcDbEntity
  8
0
100
AcDbCircle
 10
10.5179488935322
 20
68.03967701642331
 30
0.0
 40
1.181123583685115
100
AcDbArc
 50
90.0
 51
170.9194346208831
  0
ARC
  5
152F
330
1E
100
AcDbEntity
  8
0
100
AcDbCircle
 10
13.46324366291514
 20
66.4648455715177
 30
0.0
 40
2.75595502859073
100
AcDbArc
 50
7.609098540117869
 51
90.0
  0
ARC
  5
1530
330
1E
100
AcDbEntity
  8
0
100
AcDbCircle
 10
13.46324366291514
 20
66.4648455715177
 30
0.0
 40
1.771685375527674
100
AcDbArc
 50
7.609098540117869
 51
90.0
  0
ARC
  5
1531
330
1E
100
AcDbEntity
  8
0
100
AcDbCircle
 10
10.51794361462936
 20
68.03967701642331
 30
0.0
 40
1.141752797560704
100
AcDbArc
 50
90.0
 51
176.5302015889141
  0
ARC
  5
1532
330
1E
100
AcDbEntity
  8
0
100
AcDbCircle
 10
13.46324366291514
 20
66.4648455715177
 30
0.0
 40
2.716584242466318
100
AcDbArc
 50
7.609098540117869
 51
90.0
  0
ARC
  5
1533
330
1E
100
AcDbEntity
  8
0
100
AcDbCircle
 10
10.71220461330347
 20
67.84282308580124
 30
0.0
 40
0.3937078612204981
100
AcDbArc
 50
90.0
 51
171.7571254793934
  0
LINE
  5
1535
330
1E
100
AcDbEntity
  8
0
100
AcDbLine
 10
9.2999664201634
 20
66.89397891259059
 30
0.0
 11
9.378283833213458
 21
68.10877863261803
 31
0.0
  0
ARC
  5
1537
330
1E
100
AcDbEntity
  8
0
100
AcDbCircle
 10
65.75872487154311
 20
59.05818152750029
 30
0.0
 40
57.14727516412967
100
AcDbArc
 50
170.7683810890036
 51
180.0758717904671
  0
ARC
  5
1538
330
1E
100
AcDbEntity
  8
0
100
AcDbCircle
 10
72.40480871917913
 20
58.98250641047273
 30
0.0
 40
63.59645458191518
100
AcDbArc
 50
172.9210772622166
 51
180.0
  0
ARC
  5
1539
330
1E
100
AcDbEntity
  8
0
100
AcDbCircle
 10
8.121008025596722
 20
66.96546334314112
 30
0.0
 40
1.181123583685115
100
AcDbArc
 50
352.9210772622166
 51
356.5302015889142
  0
ARC
  5
153A
330
1E
100
AcDbEntity
  8
0
100
AcDbCircle
 10
72.40480871917913
 20
58.98250641047273
 30
0.0
 40
62.73029728722537
100
AcDbArc
 50
171.7571254793934
 51
180.0
  0
LINE
  5
1546
330
1E
100
AcDbEntity
  8
0
100
AcDbLine
 10
67.54053357316241
 20
34.401294746796
 30
0.0
 11
57.46161232576174
 21
34.401294746796
 31
0.0
  0
LINE
  5
1547
330
1E
100
AcDbEntity
  8
0
100
AcDbLine
 10
57.46161232576174
 20
35.858013833352
 30
0.0
 11
67.47056584098004
 21
35.858013833352
 31
0.0
  0
LINE
  5
1548
330
1E
100
AcDbEntity
  8
0
100
AcDbLine
 10
67.22945515308433
 20
33.61387902435502
 30
0.0
 11
57.46161232576176
 21
33.61387902435502
 31
0.0
  0
LINE
  5
1581
330
1E
100
AcDbEntity
  8
0
100
AcDbLine
 10
14.06437101051986
 20
21.21208139571093
 30
0.0
 11
14.36525719554021
 21
21.21208139571093
 31
0.0
  0
LINE
  5
1582
330
1E
100
AcDbEntity
  8
0
100
AcDbLine
 10
14.36525719554021
 20
21.21208139571093
 30
0.0
 11
14.45360934638719
 21
21.21208139571093
 31
0.0
  0
ARC
  5
1586
330
1E
100
AcDbEntity
  8
0
100
AcDbCircle
 10
14.87146568224784
 20
21.46560498861653
 30
0.0
 40
0.1795550544438534
100
AcDbArc
 50
14.15450184367233
 51
80.60380844224026
  0
ARC
  5
1587
330
1E
100
AcDbEntity
  8
0
100
AcDbCircle
 10
15.42732424465242
 20
21.60578925693771
 30
0.0
 40
0.3937078612268045
100
AcDbArc
 50
194.1545018436735
 51
270.0
  0
LINE
  5
1588
330
1E
100
AcDbEntity
  8
0
100
AcDbLine
 10
15.42732424465242
 20
21.2120813957109
 30
0.0
 11
20.20413229168832
 21
21.21208139571093
 31
0.0
  0
ARC
  5
1589
330
1E
100
AcDbEntity
  8
0
100
AcDbCircle
 10
20.20413229168838
 20
20.89711510672954
 30
0.0
 40
0.3149662889813882
100
AcDbArc
 50
3.298661912728676
 51
90.00000000000978
  0
LINE
  5
158A
330
1E
100
AcDbEntity
  8
0
100
AcDbLine
 10
20.51857673214201
 20
20.91523849114031
 30
0.0
 11
20.57979879530458
 21
19.85302312572241
 31
0.0
  0
ARC
  5
158B
330
1E
100
AcDbEntity
  8
0
100
AcDbCircle
 10
20.3439654649643
 20
19.83943058741428
 30
0.0
 40
0.2362247167360933
100
AcDbArc
 50
278.8806924876975
 51
3.298661912737595
  0
LINE
  5
158C
330
1E
100
AcDbEntity
  8
0
100
AcDbLine
 10
20.38043323557565
 20
19.60603774582808
 30
0.0
 11
20.32987118349433
 21
19.59813744578817
 31
0.0
  0
LINE
  5
1593
330
1E
100
AcDbEntity
  8
0
100
AcDbLine
 10
19.32032983177882
 20
19.37300244128372
 30
0.0
 11
19.32032983177882
 21
19.31770580191922
 31
0.0
  0
ARC
  5
1594
330
1E
100
AcDbEntity
  8
0
100
AcDbCircle
 10
20.30459948484613
 20
19.31770580191971
 30
0.0
 40
0.9842696530673151
100
AcDbArc
 50
180.0000000000285
 51
219.9999999999992
  0
LINE
  5
1595
330
1E
100
AcDbEntity
  8
0
100
AcDbLine
 10
19.55060518658325
 20
18.68502946433759
 30
0.0
 11
21.39629598084827
 21
16.4854208294542
 31
0.0
  0
ARC
  5
1596
330
1E
100
AcDbEntity
  8
0
100
AcDbCircle
 10
17.17392791057764
 20
12.94243333899532
 30
0.0
 40
5.511910057175182
100
AcDbArc
 50
4.976397286810201
 51
40.0000000000007
  0
ARC
  5
1597
330
1E
100
AcDbEntity
  8
0
100
AcDbCircle
 10
22.19439237283655
 20
13.37958315433026
 30
0.0
 40
0.4724494334722941
100
AcDbArc
 50
0.0952876182136024
 51
4.976397286800186
  0
ARC
  5
1598
330
1E
100
AcDbEntity
  8
0
100
AcDbCircle
 10
22.22992458755712
 20
13.38112447455872
 30
0.0
 40
0.4369172187517106
100
AcDbArc
 50
270.1457164329356
 51
359.9009134838345
  0
LINE
  5
1599
330
1E
100
AcDbEntity
  8
0
100
AcDbLine
 10
22.23103576800554
 20
12.94420866880233
 30
0.0
 11
22.2287887741733
 21
12.94420873214412
 31
0.0
  0
ARC
  5
15A2
330
1E
100
AcDbEntity
  8
0
100
AcDbCircle
 10
13.72969025726232
 20
13.27640873267522
 30
0.0
 40
4.392303176239769
100
AcDbArc
 50
40.00000000000009
 51
90.0
  0
ARC
  5
15A3
330
1E
100
AcDbEntity
  8
0
100
AcDbCircle
 10
13.72969450245983
 20
13.14107150424339
 30
0.0
 40
4.527640404673591
100
AcDbArc
 50
90.00005372155973
 51
96.80973597121022
  0
ARC
  5
15A4
330
1E
100
AcDbEntity
  8
0
100
AcDbCircle
 10
13.13682031318416
 20
18.10588757185533
 30
0.0
 40
0.4724494334720137
100
AcDbArc
 50
239.3576724128395
 51
276.8097429142738
  0
ARC
  5
15A5
330
1E
100
AcDbEntity
  8
0
100
AcDbCircle
 10
12.87171641558385
 20
17.65837622574401
 30
0.0
 40
0.0476913949785539
100
AcDbArc
 50
59.35767241282835
 51
100.7541744391339
  0
ARC
  5
15A6
330
1E
100
AcDbEntity
  8
0
100
AcDbCircle
 10
13.72969450240961
 20
13.14107150480674
 30
0.0
 40
4.645752762476305
100
AcDbArc
 50
100.7541744391604
 51
137.7851937313933
  0
ARC
  5
15A7
330
1E
100
AcDbEntity
  8
0
100
AcDbCircle
 10
10.72629441228702
 20
15.86580299744595
 30
0.0
 40
0.590561791840242
100
AcDbArc
 50
137.7851937313872
 51
160.164827138477
  0
ARC
  5
15A8
330
1E
100
AcDbEntity
  8
0
100
AcDbCircle
 10
8.356053031402382
 20
16.72078641296112
 30
0.0
 40
1.929168520011392
100
AcDbArc
 50
326.3299616151106
 51
340.1648271384876
  0
ARC
  5
15A9
330
1E
100
AcDbEntity
  8
0
100
AcDbCircle
 10
13.72969450240933
 20
13.14107150480686
 30
0.0
 40
4.527640404107981
100
AcDbArc
 50
146.329961615107
 51
180.0000000000004
  0
LINE
  5
15AA
330
1E
100
AcDbEntity
  8
0
100
AcDbLine
 10
9.202054098301346
 20
13.14107150480682
 30
0.0
 11
9.20203539524806
 21
13.14107150480682
 31
0.0
  0
LINE
  5
15B2
330
1E
100
AcDbEntity
  8
0
100
AcDbLine
 10
14.35772435187371
 20
6.049628769336166
 30
0.0
 11
14.40364146938418
 21
6.095545886846636
 31
0.0
  0
ARC
  5
15B3
330
1E
100
AcDbEntity
  8
0
100
AcDbCircle
 10
14.73771366756082
 20
5.76147368866971
 30
0.0
 40
0.4724494334734006
100
AcDbArc
 50
118.0000000000184
 51
134.9999999999764
  0
LINE
  5
15B4
330
1E
100
AcDbEntity
  8
0
100
AcDbLine
 10
14.51591209369061
 20
6.178621778702535
 30
0.0
 11
15.43779254116649
 21
6.668794307489747
 31
0.0
  0
ARC
  5
15B5
330
1E
100
AcDbEntity
  8
0
100
AcDbCircle
 10
15.97381301135104
 20
5.660686423246673
 30
0.0
 40
1.141752797557298
100
AcDbArc
 50
90.0
 51
118.0000000000104
  0
ARC
  5
15B6
330
1E
100
AcDbEntity
  8
0
100
AcDbCircle
 10
15.97381301135101
 20
4.12522576446176
 30
0.0
 40
2.677213456342208
100
AcDbArc
 50
46.09988337165535
 51
90.0
  0
ARC
  5
15CB
330
1E
100
AcDbEntity
  8
0
100
AcDbCircle
 10
12.5426783893038
 20
8.574136578386948
 30
0.0
 40
2.913438173078311
100
AcDbArc
 50
205.0289994876147
 51
239.8706062536809
  0
ARC
  5
15CC
330
1E
100
AcDbEntity
  8
0
100
AcDbCircle
 10
9.76013572016302
 20
7.274900636338486
 30
0.0
 40
0.1574831444906854
100
AcDbArc
 50
25.02899948762516
 51
90.00000000001953
  0
LINE
  5
15CD
330
1E
100
AcDbEntity
  8
0
100
AcDbLine
 10
9.760135720162963
 20
7.432383780829212
 30
0.0
 11
9.294743676022221
 21
7.432383780829212
 31
0.0
  0
ARC
  5
15CE
330
1E
100
AcDbEntity
  8
0
100
AcDbCircle
 10
9.294743676022221
 20
7.353642208583863
 30
0.0
 40
0.0787415722453488
100
AcDbArc
 50
90.0
 51
176.5269831843831
  0
LINE
  5
15CF
330
1E
100
AcDbEntity
  8
0
100
AcDbLine
 10
9.21614671753565
 20
7.358412252223608
 30
0.0
 11
9.135613902467923
 21
6.031457029018874
 31
0.0
  0
LINE
  5
15D2
330
1E
100
AcDbEntity
  8
0
100
AcDbLine
 10
9.003159100012112
 20
5.070059085412239
 30
0.0
 11
8.808332379919022
 21
5.070059085412239
 31
0.0
  0
ARC
  5
15D3
330
1E
100
AcDbEntity
  8
0
100
AcDbCircle
 10
8.808332379919022
 20
5.188171443780269
 30
0.0
 40
0.1181123583680304
100
AcDbArc
 50
176.5269831843839
 51
270.0
  0
LINE
  5
15D4
330
1E
100
AcDbEntity
  8
0
100
AcDbLine
 10
8.69043694218908
 20
5.19532650923989
 30
0.0
 11
8.8477085329028
 21
7.786721812928931
 31
0.0
  0
LINE
  5
15D5
330
1E
100
AcDbEntity
  8
0
100
AcDbLine
 10
8.8477085329028
 20
7.786721812928931
 30
0.0
 11
8.8477085329028
 21
7.798824980838446
 31
0.0
  0
LINE
  5
15D6
330
1E
100
AcDbEntity
  8
0
100
AcDbLine
 10
8.8477085329028
 20
7.798824980838446
 30
0.0
 11
8.8477085329028
 21
13.14107150480682
 31
0.0
  0
LINE
  5
15D7
330
1E
100
AcDbEntity
  8
0
100
AcDbLine
 10
8.8477085329028
 20
13.14107150480682
 30
0.0
 11
8.847717023197276
 21
13.14107150480682
 31
0.0
  0
ARC
  5
15D9
330
1E
100
AcDbEntity
  8
0
100
AcDbCircle
 10
8.356053031402382
 20
16.72078641296113
 30
0.0
 40
1.574831444907293
100
AcDbArc
 50
326.3299616151106
 51
354.2173418691756
  0
ARC
  5
15DA
330
1E
100
AcDbEntity
  8
0
100
AcDbCircle
 10
-1.828260860115278
 20
17.75215707062116
 30
0.0
 40
11.81123583680398
100
AcDbArc
 50
354.2173418691756
 51
2.030193654242008
  0
ARC
  5
15DB
330
1E
100
AcDbEntity
  8
0
100
AcDbCircle
 10
8.401718109631929
 20
18.1147934628565
 30
0.0
 40
1.574831444907206
100
AcDbArc
 50
2.030193654243639
 51
68.17981400545717
  0
ARC
  5
15DC
330
1E
100
AcDbEntity
  8
0
100
AcDbCircle
 10
9.162682030890437
 20
20.01539676326416
 30
0.0
 40
0.4724494334721128
100
AcDbArc
 50
180.0000000000008
 51
248.1798140054572
  0
LINE
  5
15DD
330
1E
100
AcDbEntity
  8
0
100
AcDbLine
 10
8.690232597418344
 20
20.01539676326415
 30
0.0
 11
8.690232597418287
 21
20.73963196223877
 31
0.0
  0
ARC
  5
15DE
330
1E
100
AcDbEntity
  8
0
100
AcDbCircle
 10
9.16268203089038
 20
20.73963196223878
 30
0.0
 40
0.472449433472093
100
AcDbArc
 50
89.99999999999349
 51
180.0000000000008
  0
LINE
  5
15DF
330
1E
100
AcDbEntity
  8
0
100
AcDbLine
 10
9.162682030890437
 20
21.21208139571093
 30
0.0
 11
9.492876437844415
 21
21.21208139571093
 31
0.0
  0
ARC
  5
15E0
330
1E
100
AcDbEntity
  8
0
100
AcDbCircle
 10
9.492876437844415
 20
21.44830611244699
 30
0.0
 40
0.2362247167360607
100
AcDbArc
 50
270.0
 51
356.185925165711
  0
LINE
  5
15E1
330
1E
100
AcDbEntity
  8
0
100
AcDbLine
 10
9.728577954122556
 20
21.43259267802845
 30
0.0
 11
9.742772365145015
 21
21.64550884336567
 31
0.0
  0
ARC
  5
15E2
330
1E
100
AcDbEntity
  8
0
100
AcDbCircle
 10
9.910731132581474
 20
21.63431159220323
 30
0.0
 40
0.1683315953479009
100
AcDbArc
 50
3.814074834293489
 51
176.1859251657077
  0
LINE
  5
15E3
330
1E
100
AcDbEntity
  8
0
100
AcDbLine
 10
10.07868990001788
 20
21.64550884336567
 30
0.0
 11
10.07871315337155
 21
21.64516004306037
 31
0.0
  0
LINE
  5
15E4
330
1E
100
AcDbEntity
  8
0
100
AcDbLine
 10
10.07871315337155
 20
21.64516004306037
 30
0.0
 11
10.09288431104033
 21
21.43259267802845
 31
0.0
  0
ARC
  5
15E5
330
1E
100
AcDbEntity
  8
0
100
AcDbCircle
 10
10.32858582731847
 20
21.44830611244699
 30
0.0
 40
0.2362247167360781
100
AcDbArc
 50
183.814074834289
 51
270.0
  0
LINE
  5
15E6
330
1E
100
AcDbEntity
  8
0
100
AcDbLine
 10
10.32858582731847
 20
21.2120813957109
 30
0.0
 11
10.71782573605455
 21
21.21208139571093
 31
0.0
  0
LINE
  5
1605
330
1E
100
AcDbEntity
  8
0
100
AcDbLine
 10
35.5143338766768
 20
21.21208139571093
 30
0.0
 11
36.52537255456116
 21
21.21208139571093
 31
0.0
  0
ARC
  5
1606
330
1E
100
AcDbEntity
  8
0
100
AcDbCircle
 10
36.52537255456116
 20
20.89711510672948
 30
0.0
 40
0.3149662889814451
100
AcDbArc
 50
349.4838224429806
 51
90.0
  0
LINE
  5
160A
330
1E
100
AcDbEntity
  8
0
100
AcDbLine
 10
32.60181392954294
 20
13.75874299139274
 30
0.0
 11
33.08748970919311
 21
6.71010300712227
 31
0.0
  0
ARC
  5
160B
330
1E
100
AcDbEntity
  8
0
100
AcDbCircle
 10
33.28387799660922
 20
6.723634842315703
 30
0.0
 40
0.1968539306133764
100
AcDbArc
 50
183.9416482074947
 51
270.0000000000098
  0
LINE
  5
160C
330
1E
100
AcDbEntity
  8
0
100
AcDbLine
 10
33.28387799660925
 20
6.52678091170231
 30
0.0
 11
33.41507732442307
 21
6.52678091170231
 31
0.0
  0
ARC
  5
160D
330
1E
100
AcDbEntity
  8
0
100
AcDbCircle
 10
33.41507732442307
 20
6.251185408843575
 30
0.0
 40
0.2755955028587351
100
AcDbArc
 50
359.9863914527476
 51
90.0
  0
ARC
  5
160E
330
1E
100
AcDbEntity
  8
0
100
AcDbCircle
 10
33.88752674456907
 20
6.251073195510713
 30
0.0
 40
0.1968539306133985
100
AcDbArc
 50
179.9863914527541
 51
270.0
  0
LINE
  5
160F
330
1E
100
AcDbEntity
  8
0
100
AcDbLine
 10
33.88752674456907
 20
6.054219264897305
 30
0.0
 11
33.99216835718312
 21
6.054219264897305
 31
0.0
  0
ARC
  5
1610
330
1E
100
AcDbEntity
  8
0
100
AcDbCircle
 10
33.99216835718315
 20
5.778623762038535
 30
0.0
 40
0.2755955028587707
100
AcDbArc
 50
1.303975477098991
 51
90.00000000000651
  0
LINE
  5
1611
330
1E
100
AcDbEntity
  8
0
100
AcDbLine
 10
34.26769248983291
 20
5.784895406445457
 30
0.0
 11
34.28213086909807
 21
5.150592556059557
 31
0.0
  0
ARC
  5
1612
330
1E
100
AcDbEntity
  8
0
100
AcDbCircle
 10
34.20340968834103
 20
5.148800657657588
 30
0.0
 40
0.0787415722453267
100
AcDbArc
 50
269.9999999999804
 51
1.303975477092883
  0
LINE
  5
1613
330
1E
100
AcDbEntity
  8
0
100
AcDbLine
 10
34.203409688341
 20
5.070059085412239
 30
0.0
 11
33.96127619108938
 21
5.070059085412239
 31
0.0
  0
LINE
  5
1650
330
1E
100
AcDbEntity
  8
0
100
AcDbLine
 10
21.14119218655145
 20
5.070059085412239
 30
0.0
 11
20.5408217985798
 21
5.070059085412239
 31
0.0
  0
VIEWPORT
  5
16F7
102
{ACAD_XDICTIONARY
360
170C
102
}
330
1A
100
AcDbEntity
 67
     1
  8
0
100
AcDbViewport
 10
5.250183132535525
 20
4.000122090685323
 30
0.0
 40
10.63098306903433
 41
6.454849668730496
 68
     1
 69
     1
 12
5.250183132535525
 22
4.000122090685323
 13
0.0
 23
0.0
 14
0.5
 24
0.5
 15
0.5
 25
0.5
 16
0.0
 26
0.0
 36
1.0
 17
0.0
 27
0.0
 37
0.0
 42
50.0
 43
0.0
 44
0.0
 45
6.454849668730496
 50
0.0
 51
0.0
 72
 20000
 90
   819232
  1

281
     0
 71
     1
 74
     0
110
0.0
120
0.0
130
0.0
111
1.0
121
0.0
131
0.0
112
0.0
122
1.0
132
0.0
 79
     0
146
0.0
  0
VIEWPORT
  5
16FA
102
{ACAD_XDICTIONARY
360
170E
102
}
330
1A
100
AcDbEntity
 67
     1
  8
0
100
AcDbViewport
 10
5.249999761581421
 20
3.999999761581421
 30
0.0
 40
8.399999618530275
 41
6.399999618530274
 68
     2
 69
     2
 12
38.13863422120761
 22
37.14729343092452
 13
0.0
 23
0.0
 14
0.0
 24
0.0
 15
0.0
 25
0.0
 16
0.0
 26
0.0
 36
1.0
 17
0.0
 27
0.0
 37
0.0
 42
50.0
 43
0.0
 44
0.0
 45
64.92628357544764
 50
0.0
 51
0.0
 72
 20000
 90
   819232
  1

281
     0
 71
     1
 74
     0
110
0.0
120
0.0
130
0.0
111
1.0
121
0.0
131
0.0
112
0.0
122
1.0
132
0.0
 79
     0
146
0.0
  0
ENDSEC
  0
SECTION
  2
OBJECTS
  0
DICTIONARY
  5
C
330
0
100
AcDbDictionary
281
     1
  3
ACAD_COLOR
350
E08
  3
ACAD_GROUP
350
D
  3
ACAD_LAYOUT
350
19
  3
ACAD_MATERIAL
350
E07
  3
ACAD_MLINESTYLE
350
16
  3
ACAD_PLOTSETTINGS
350
18
  3
ACAD_PLOTSTYLENAME
350
E
  3
ACAD_TABLESTYLE
350
E09
  3
ACAD_VISUALSTYLE
350
16A4
  3
ACADDIM
350
993
  3
ACDBVARIABLEDICTIONARY
350
852
  3
ASE_INDEX_DICTIONARY
350
16FD
  3
DWGPROPS
350
16FF
  0
DICTIONARY
  5
16DC
330
8
100
AcDbDictionary
280
     1
281
     1
  0
DICTIONARY
  5
877
330
1E
100
AcDbDictionary
280
     1
281
     1
  3
ACAD_LAYOUTSELFREF
360
DBC
  3
ACAD_SORTENTS
360
15E8
  0
DICTIONARY
  5
875
330
1A
100
AcDbDictionary
280
     1
281
     1
  3
ACAD_LAYOUTSELFREF
360
DBB
  0
DICTIONARY
  5
170C
330
16F7
100
AcDbDictionary
280
     1
281
     1
  3
ACAD_XREC_ROUNDTRIP
360
170D
  0
DICTIONARY
  5
170E
330
16FA
100
AcDbDictionary
280
     1
281
     1
  3
ACAD_XREC_ROUNDTRIP
360
170F
  0
DICTIONARY
  5
E08
102
{ACAD_REACTORS
330
C
102
}
330
C
100
AcDbDictionary
281
     1
  0
DICTIONARY
  5
D
102
{ACAD_REACTORS
330
C
102
}
330
C
100
AcDbDictionary
281
     1
  0
DICTIONARY
  5
19
102
{ACAD_REACTORS
330
C
102
}
330
C
100
AcDbDictionary
281
     1
  3
Layout1
350
E0C
  3
Model
350
E0B
  0
DICTIONARY
  5
E07
102
{ACAD_REACTORS
330
C
102
}
330
C
100
AcDbDictionary
281
     1
  3
ByBlock
350
16A2
  3
ByLayer
350
16A1
  3
Global
350
16A3
  0
DICTIONARY
  5
16
102
{ACAD_REACTORS
330
C
102
}
330
C
100
AcDbDictionary
281
     1
  3
STANDARD
350
17
  0
DICTIONARY
  5
18
102
{ACAD_REACTORS
330
C
102
}
330
C
100
AcDbDictionary
281
     1
  0
ACDBDICTIONARYWDFLT
  5
E
102
{ACAD_REACTORS
330
C
102
}
330
C
100
AcDbDictionary
281
     1
  3
Normal
350
F
100
AcDbDictionaryWithDefault
340
F
  0
DICTIONARY
  5
E09
102
{ACAD_REACTORS
330
C
102
}
330
C
100
AcDbDictionary
281
     1
  3
Standard
350
E0A
  0
DICTIONARY
  5
16A4
102
{ACAD_REACTORS
330
C
102
}
330
C
100
AcDbDictionary
281
     1
  3
2dWireframe
350
16AA
  3
3D Hidden
350
16AC
  3
3dWireframe
350
16AB
  3
Basic
350
16A9
  3
Brighten
350
16B0
  3
ColorChange
350
16B4
  3
Conceptual
350
16AD
  3
Dim
350
16AF
  3
Facepattern
350
16B3
  3
Flat
350
16A5
  3
FlatWithEdges
350
16A6
  3
Gouraud
350
16A7
  3
GouraudWithEdges
350
16A8
  3
Linepattern
350
16B2
  3
Realistic
350
16AE
  3
Thicken
350
16B1
  0
XRECORD
  5
993
102
{ACAD_REACTORS
330
C
102
}
330
C
100
AcDbXrecord
280
     1
 90
   990106
  3

 60
     0
 61
     0
 62
     1
 63
     3
 64
     0
 65
     0
 66
     0
 67
     3
 68
     1
 69
     0
 70
     0
 71
     0
 72
     0
 40
0.0
170
     0
340
0
  0
DICTIONARY
  5
852
102
{ACAD_REACTORS
330
C
102
}
330
C
100
AcDbDictionary
281
     1
  3
CTABLESTYLE
350
14B3
  3
DIMASSOC
350
853
  3
INDEXCTL
350
16EF
  3
SORTENTS
350
16EE
  0
DICTIONARY
  5
16FD
102
{ACAD_REACTORS
330
C
102
}
330
C
100
AcDbDictionary
281
     1
  3
ASEBlockHierarchyIndexRecord
350
16FE
1001
DCO15
1040
1651919991.173
  0
XRECORD
  5
16FF
102
{ACAD_REACTORS
330
C
102
}
330
C
100
AcDbXrecord
280
     1
  1
DWGPROPS COOKIE
  2

  3

  4

  6

  7

  8
nnguyen
  9

300
=
301
=
302
=
303
=
304
=
305
=
306
=
307
=
308
=
309
=
 40
0.1478412615740741
 41
2452723.518622685
 42
2454922.656194132
  1

 90
        0
  0
XRECORD
  5
DBC
102
{ACAD_REACTORS
330
877
102
}
330
877
100
AcDbXrecord
280
     1
340
1E
  0
SORTENTSTABLE
  5
15E8
102
{ACAD_REACTORS
330
877
102
}
330
877
100
AcDbSortentsTable
330
1E
331
3FE
  5
3FE
331
397
  5
397
331
24A
  5
24A
331
9E4
  5
15AF
331
11A3
  5
15B9
331
406
  5
406
331
1275
  5
15F7
331
1374
  5
161B
331
1588
  5
514
331
11BF
  5
15C0
331
1CE
  5
1CE
331
1650
  5
1358
331
13CB
  5
1642
331
140A
  5
1659
331
11C7
  5
15C7
331
1D6
  5
1D6
331
1598
  5
524
331
1529
  5
1670
331
1412
  5
165C
331
139C
  5
1629
331
1DE
  5
1DE
331
15D9
  5
565
331
15E1
  5
56D
331
350
  5
350
331
368
  5
368
331
2C9
  5
2C9
331
416
  5
416
331
2E9
  5
2E9
331
292
  5
292
331
213
  5
213
331
378
  5
378
331
42E
  5
42E
331
E9C
  5
15B0
331
3E7
  5
3E7
331
1531
  5
1677
331
141A
  5
165F
331
13DB
  5
164C
331
1315
  5
1605
331
1226
  5
15EC
331
11D7
  5
15D0
331
1E6
  5
1E6
331
15A8
  5
534
331
1422
  5
1665
331
13AC
  5
1630
331
1355
  5
160F
331
1539
  5
167D
331
1AF
  5
1AF
331
126E
  5
15F4
331
135D
  5
1615
331
11E7
  5
15D8
331
1B7
  5
1B7
331
1FE
  5
1FE
331
13F3
  5
1652
331
1611
  5
11CB
331
380
  5
380
331
3F7
  5
3F7
331
243
  5
243
331
59E
  5
6DF
331
119C
  5
15B8
331
3FF
  5
3FF
331
24B
  5
24B
331
11A4
  5
15BA
331
407
  5
407
331
13BC
  5
1635
331
1276
  5
15F8
331
1375
  5
161C
331
1581
  5
50D
331
1C7
  5
1C7
331
13C4
  5
163C
331
1589
  5
515
331
11C0
  5
15C1
331
1CF
  5
1CF
331
1D7
  5
1D7
331
15D2
  5
55E
331
1599
  5
525
331
152A
  5
1671
331
1413
  5
165D
331
139D
  5
162A
331
1DF
  5
1DF
331
15DA
  5
566
331
15E2
  5
56E
331
398
  5
398
331
2CA
  5
2CA
331
417
  5
417
331
2EA
  5
2EA
331
214
  5
214
331
3D0
  5
3D0
331
41F
  5
41F
331
3E0
  5
3E0
331
42F
  5
42F
331
E9D
  5
15B1
331
11D0
  5
15CC
331
1532
  5
1678
331
1316
  5
1606
331
1227
  5
15ED
331
13A5
  5
162C
331
13DC
  5
164D
331
11D8
  5
15D1
331
1E7
  5
1E7
331
15A9
  5
535
331
1423
  5
1666
331
13AD
  5
1631
331
1356
  5
1610
331
153A
  5
167E
331
1B0
  5
1B0
331
1B8
  5
1B8
331
1FF
  5
1FF
331
13F4
  5
1653
331
160A
  5
11C3
331
3E8
  5
3E8
331
381
  5
381
331
1612
  5
11CD
331
3F8
  5
3F8
331
332
  5
332
331
244
  5
244
331
391
  5
391
331
59F
  5
6E0
331
400
  5
400
331
24C
  5
24C
331
11A5
  5
15BB
331
11F8
  5
15DF
331
1433
  5
166A
331
1277
  5
15F9
331
13BD
  5
1636
331
1582
  5
50E
331
1C8
  5
1C8
331
13C5
  5
163D
331
138E
  5
161E
331
158A
  5
516
331
1D0
  5
1D0
331
11C9
  5
15C8
331
1D8
  5
1D8
331
15CB
  5
557
331
152B
  5
1672
331
15D3
  5
55F
331
15DB
  5
567
331
399
  5
399
331
274
  5
274
331
15E3
  5
56F
331
3C1
  5
3C1
331
215
  5
215
331
430
  5
430
331
E9E
  5
15B2
331
11D1
  5
15CD
331
1E0
  5
1E0
331
1533
  5
1679
331
1317
  5
1607
331
13A6
  5
162D
331
15A2
  5
52E
331
1E8
  5
1E8
331
15AA
  5
536
331
13AE
  5
1632
331
1357
  5
1611
331
1B1
  5
1B1
331
1F8
  5
1F8
331
15B2
  5
53E
331
1B9
  5
1B9
331
160B
  5
11C4
331
30B
  5
30B
331
382
  5
382
331
500
  5
5C4
331
1613
  5
11D0
331
38A
  5
38A
331
2B4
  5
2B4
331
23D
  5
23D
331
392
  5
392
331
245
  5
245
331
5A0
  5
6E1
331
401
  5
401
331
11F9
  5
15E0
331
11AA
  5
15BC
331
1434
  5
166B
331
13BE
  5
1637
331
1C9
  5
1C9
331
13C6
  5
163E
331
138F
  5
161F
331
158B
  5
517
331
11C2
  5
15C2
331
1D1
  5
1D1
331
13CE
  5
1643
331
1397
  5
1624
331
1593
  5
51F
331
11CA
  5
15C9
331
1D9
  5
1D9
331
15CC
  5
558
331
13D6
  5
1647
331
152C
  5
1673
331
15D4
  5
560
331
15DC
  5
568
331
39A
  5
39A
331
275
  5
275
331
15E4
  5
570
331
429
  5
429
331
216
  5
216
331
37B
  5
37B
331
431
  5
431
331
E9F
  5
15B3
331
1E1
  5
1E1
331
141D
  5
1660
331
1AA
  5
1AA
331
1E9
  5
1E9
331
1229
  5
15EE
331
1350
  5
160A
331
15A3
  5
52F
331
13AF
  5
1633
331
1B2
  5
1B2
331
1F9
  5
1F9
331
1358
  5
1612
331
142D
  5
1667
331
11F2
  5
15DA
331
1360
  5
1616
331
15B3
  5
53F
331
160C
  5
11C5
331
383
  5
383
331
599
  5
6DA
331
23E
  5
23E
331
3FA
  5
3FA
331
393
  5
393
331
246
  5
246
331
5A1
  5
6E2
331
402
  5
402
331
1C2
  5
1C2
331
11FA
  5
15E1
331
11AB
  5
15BD
331
1435
  5
166C
331
1CA
  5
1CA
331
1202
  5
15E4
331
13BF
  5
1638
331
13FE
  5
1655
331
158C
  5
518
331
1D2
  5
1D2
331
11C3
  5
15C3
331
1390
  5
1620
331
15CD
  5
559
331
13CF
  5
1644
331
1DA
  5
1DA
331
11CB
  5
15CA
331
121A
  5
15E7
331
1398
  5
1625
331
1594
  5
520
331
15D5
  5
561
331
13D7
  5
1648
331
15DD
  5
569
331
39B
  5
39B
331
276
  5
276
331
15E5
  5
571
331
2CD
  5
2CD
331
20F
  5
20F
331
42A
  5
42A
331
217
  5
217
331
3E3
  5
3E3
331
432
  5
432
331
EA0
  5
15B4
331
1E2
  5
1E2
331
1535
  5
167A
331
141E
  5
1661
331
1AB
  5
1AB
331
1EA
  5
1EA
331
122A
  5
15EF
331
1351
  5
160B
331
15A4
  5
530
331
1FA
  5
1FA
331
1B3
  5
1B3
331
11E3
  5
15D5
331
142E
  5
1668
331
13EF
  5
164F
331
11F3
  5
15DB
331
1361
  5
1617
331
15B4
  5
540
331
1605
  5
11BC
331
13F7
  5
1654
331
160D
  5
11C6
331
3EB
  5
3EB
331
384
  5
384
331
2A6
  5
2A6
331
315
  5
315
331
2B6
  5
2B6
331
23F
  5
23F
331
59A
  5
6DB
331
5A2
  5
6E3
331
247
  5
247
331
1C3
  5
1C3
331
11FB
  5
15E2
331
1436
  5
166D
331
127A
  5
15FA
331
1CB
  5
1CB
331
1203
  5
15E5
331
11BC
  5
15BE
331
13C0
  5
1639
331
13C8
  5
163F
331
1D3
  5
1D3
331
11C4
  5
15C4
331
1391
  5
1621
331
1407
  5
1656
331
15CE
  5
55A
331
1595
  5
521
331
13D0
  5
1645
331
1DB
  5
1DB
331
12DA
  5
15FF
331
1399
  5
1626
331
15D6
  5
562
331
152E
  5
1674
331
200
  5
200
331
15DE
  5
56A
331
355
  5
355
331
277
  5
277
331
39C
  5
39C
331
15E6
  5
572
331
3C4
  5
3C4
331
287
  5
287
331
712
  5
15AA
331
375
  5
375
331
218
  5
218
331
EA1
  5
15B5
331
37D
  5
37D
331
29F
  5
29F
331
13D8
  5
1649
331
1E3
  5
1E3
331
141F
  5
1662
331
122B
  5
15F0
331
1352
  5
160C
331
15A5
  5
531
331
1AC
  5
1AC
331
1EB
  5
1EB
331
11E4
  5
15D6
331
1B4
  5
1B4
331
1FB
  5
1FB
331
15B5
  5
541
331
142F
  5
1669
331
13F0
  5
1650
331
11F4
  5
15DC
331
1362
  5
1618
331
1546
  5
167F
331
1606
  5
11C0
331
160E
  5
11C7
331
385
  5
385
331
30E
  5
30E
331
3EC
  5
3EC
331
38D
  5
38D
331
240
  5
240
331
59B
  5
6DC
331
395
  5
395
331
248
  5
248
331
404
  5
404
331
1273
  5
15F5
331
11FC
  5
15E3
331
1C4
  5
1C4
331
13C1
  5
163A
331
127B
  5
15FB
331
138A
  5
161D
331
1586
  5
512
331
11BD
  5
15BF
331
1CC
  5
1CC
331
13C9
  5
1640
331
12D3
  5
15FE
331
1392
  5
1622
331
1408
  5
1657
331
11C5
  5
15C5
331
1D4
  5
1D4
331
15CF
  5
55B
331
1527
  5
166E
331
13D1
  5
1646
331
12DB
  5
1600
331
139A
  5
1627
331
1410
  5
165A
331
1596
  5
522
331
11CD
  5
15CB
331
1DC
  5
1DC
331
15D7
  5
563
331
152F
  5
1675
331
201
  5
201
331
15DF
  5
56B
331
39D
  5
39D
331
2C7
  5
2C7
331
5C3
  5
6FB
331
3C5
  5
3C5
331
713
  5
15AB
331
298
  5
298
331
219
  5
219
331
EA2
  5
15B6
331
1224
  5
15EA
331
13D9
  5
164A
331
1E4
  5
1E4
331
1537
  5
167B
331
1420
  5
1663
331
13AA
  5
162E
331
122C
  5
15F1
331
1353
  5
160D
331
15A6
  5
532
331
1AD
  5
1AD
331
1B5
  5
1B5
331
1FC
  5
1FC
331
15B6
  5
542
331
1547
  5
1689
331
13F1
  5
1651
331
11F5
  5
15DD
331
1363
  5
1619
331
229
  5
229
331
160F
  5
11C9
331
3ED
  5
3ED
331
386
  5
386
331
239
  5
239
331
317
  5
317
331
2B8
  5
2B8
331
241
  5
241
331
3F5
  5
3F5
331
59C
  5
6DD
331
3FD
  5
3FD
331
396
  5
396
331
249
  5
249
331
405
  5
405
331
34F
  5
34F
331
1274
  5
15F6
331
127C
  5
15FC
331
13C2
  5
163B
331
1587
  5
513
331
13CA
  5
1641
331
1215
  5
15E6
331
1393
  5
1623
331
1409
  5
1658
331
11C6
  5
15C6
331
1D5
  5
1D5
331
1597
  5
523
331
1528
  5
166F
331
1411
  5
165B
331
139B
  5
1628
331
1DD
  5
1DD
331
202
  5
202
331
15E0
  5
56C
331
3C6
  5
3C6
331
36F
  5
36F
331
291
  5
291
331
212
  5
212
331
2F8
  5
2F8
331
3E6
  5
3E6
331
37F
  5
37F
331
EA3
  5
15B7
331
1530
  5
1676
331
1419
  5
165E
331
1314
  5
1604
331
1225
  5
15EB
331
13A3
  5
162B
331
13DA
  5
164B
331
11D6
  5
15CF
331
1E5
  5
1E5
331
15A7
  5
533
331
1421
  5
1664
331
13AB
  5
162F
331
122D
  5
15F2
331
1354
  5
160E
331
13E2
  5
164E
331
1538
  5
167C
331
1AE
  5
1AE
331
126D
  5
15F3
331
13B3
  5
1634
331
11E6
  5
15D7
331
1B6
  5
1B6
331
1FD
  5
1FD
331
11F6
  5
15DE
331
1364
  5
161A
331
1548
  5
168A
331
1610
  5
11CA
331
308
  5
308
331
3F6
  5
3F6
331
38F
  5
38F
331
242
  5
242
331
59D
  5
6DE
  0
XRECORD
  5
DBB
102
{ACAD_REACTORS
330
875
102
}
330
875
100
AcDbXrecord
280
     1
340
1A
  0
XRECORD
  5
170D
102
{ACAD_REACTORS
330
170C
102
}
330
170C
100
AcDbXrecord
280
     1
102
SHADEPLOT
 70
     0
  0
XRECORD
  5
170F
102
{ACAD_REACTORS
330
170E
102
}
330
170E
100
AcDbXrecord
280
     1
102
SHADEPLOT
 70
     0
  0
LAYOUT
  5
E0C
102
{ACAD_XDICTIONARY
360
1704
102
}
102
{ACAD_REACTORS
330
19
102
}
330
19
100
AcDbPlotSettings
  1

  2
none_device
  4
Letter_(8.50_x_11.00_Inches)
  6

 40
6.349999904632568
 41
6.349999904632568
 42
6.350006103515625
 43
6.350006103515625
 44
215.8999938964844
 45
279.3999938964844
 46
0.0
 47
0.0
 48
0.0
 49
0.0
140
0.0
141
0.0
142
1.0
143
1.0
 70
   688
 72
     0
 73
     1
 74
     5
  7

 75
    16
147
1.0
148
0.0
149
0.0
100
AcDbLayout
  1
Layout1
 70
     1
 71
     1
 10
-0.2500002402958907
 20
-0.2499999962453767
 11
10.74999951940822
 21
8.249999763458733
 12
0.0
 22
0.0
 32
0.0
 14
1.049743681505489
 24
0.7996673802841308
 34
-0.0015258207003583
 15
9.450622583565561
 25
7.200576801086516
 35
0.0000000349246037
146
0.0
 13
0.0
 23
0.0
 33
0.0
 16
1.0
 26
0.0
 36
0.0
 17
0.0
 27
1.0
 37
0.0
 76
     0
330
1A
331
16F7
1001
ACAD_PSEXT
1000
None
1000
None
1000
Not applicable
1000
The layout will not be plotted unless a new plotter configuration name is selected.
1070
     0
  0
LAYOUT
  5
E0B
102
{ACAD_XDICTIONARY
360
1702
102
}
102
{ACAD_REACTORS
330
19
102
}
330
19
100
AcDbPlotSettings
  1

  2
Symantec Fax Starter Edition
  4

  6

 40
0.0
 41
0.0
 42
0.0
 43
0.0
 44
0.0
 45
0.0
 46
0.0
 47
0.0
 48
0.0
 49
0.0
140
0.0
141
0.0
142
1.0
143
1.0
 70
  1712
 72
     0
 73
     0
 74
     0
  7

 75
     0
147
1.0
148
0.0
149
0.0
100
AcDbLayout
  1
Model
 70
     1
 71
     0
 10
0.0
 20
0.0
 11
12.0
 21
9.0
 12
0.0
 22
0.0
 32
0.0
 14
0.0
 24
0.0
 34
0.0
 15
0.0
 25
0.0
 35
0.0
146
0.0
 13
0.0
 23
0.0
 33
0.0
 16
1.0
 26
0.0
 36
0.0
 17
0.0
 27
1.0
 37
0.0
 76
     0
330
1E
331
169F
  0
MATERIAL
  5
16A2
102
{ACAD_XDICTIONARY
360
1708
102
}
102
{ACAD_REACTORS
330
E07
102
}
330
E07
100
AcDbMaterial
  1
ByBlock
  0
MATERIAL
  5
16A1
102
{ACAD_XDICTIONARY
360
1706
102
}
102
{ACAD_REACTORS
330
E07
102
}
330
E07
100
AcDbMaterial
  1
ByLayer
  0
MATERIAL
  5
16A3
102
{ACAD_XDICTIONARY
360
170A
102
}
102
{ACAD_REACTORS
330
E07
102
}
330
E07
100
AcDbMaterial
  1
Global
  0
MLINESTYLE
  5
17
102
{ACAD_REACTORS
330
16
102
}
330
16
100
AcDbMlineStyle
  2
STANDARD
 70
     0
  3

 62
   256
 51
90.0
 52
90.0
 71
     2
 49
0.5
 62
   256
  6
BYLAYER
 49
-0.5
 62
   256
  6
BYLAYER
  0
ACDBPLACEHOLDER
  5
F
102
{ACAD_REACTORS
330
E
102
}
330
E
  0
TABLESTYLE
  5
E0A
102
{ACAD_XDICTIONARY
360
1700
102
}
102
{ACAD_REACTORS
330
E09
102
}
330
E09
100
AcDbTableStyle
  3
Standard
 70
     0
 71
     0
 40
0.06
 41
0.06
280
     0
281
     0
  7
STANDARD
140
0.18
170
     2
 62
     0
 63
     7
283
     0
274
    -2
284
     1
 64
     0
275
    -2
285
     1
 65
     0
276
    -2
286
     1
 66
     0
277
    -2
287
     1
 67
     0
278
    -2
288
     1
 68
     0
279
    -2
289
     1
 69
     0
  7
STANDARD
140
0.25
170
     5
 62
     0
 63
     7
283
     0
274
    -2
284
     1
 64
     0
275
    -2
285
     1
 65
     0
276
    -2
286
     1
 66
     0
277
    -2
287
     1
 67
     0
278
    -2
288
     1
 68
     0
279
    -2
289
     1
 69
     0
  7
STANDARD
140
0.18
170
     5
 62
     0
 63
     7
283
     0
274
    -2
284
     1
 64
     0
275
    -2
285
     1
 65
     0
276
    -2
286
     1
 66
     0
277
    -2
287
     1
 67
     0
278
    -2
288
     1
 68
     0
279
    -2
289
     1
 69
     0
  0
VISUALSTYLE
  5
16AA
102
{ACAD_REACTORS
330
16A4
102
}
330
16A4
100
AcDbVisualStyle
  2
2dWireframe
 70
     4
 71
     0
 72
     2
 73
     0
 90
        0
 40
-0.6
 41
-30.0
 62
     5
 63
     7
 74
     1
 91
        4
 64
     7
 65
   257
 75
     1
175
     1
 42
1.0
 92
        0
 66
   257
 43
1.0
 76
     1
 77
     6
 78
     2
 67
     7
 79
     5
170
     0
171
     0
290
     0
174
     0
 93
        1
 44
0.0
173
     0
291
     0
 45
0.0
1001
ACAD
1000
AcDbSavedByObjectVersion
1070
     0
  0
VISUALSTYLE
  5
16AC
102
{ACAD_REACTORS
330
16A4
102
}
330
16A4
100
AcDbVisualStyle
  2
3D Hidden
 70
     6
 71
     1
 72
     2
 73
     2
 90
        0
 40
-0.6
 41
-30.0
 62
     5
 63
     7
 74
     2
 91
        2
 64
     7
 65
   257
 75
     2
175
     1
 42
40.0
 92
        0
 66
   257
 43
1.0
 76
     1
 77
     6
 78
     2
 67
     7
 79
     3
170
     0
171
     0
290
     0
174
     0
 93
        1
 44
0.0
173
     0
291
     0
 45
0.0
1001
ACAD
1000
AcDbSavedByObjectVersion
1070
     0
  0
VISUALSTYLE
  5
16AB
102
{ACAD_REACTORS
330
16A4
102
}
330
16A4
100
AcDbVisualStyle
  2
3dWireframe
 70
     5
 71
     0
 72
     2
 73
     0
 90
        0
 40
-0.6
 41
-30.0
 62
     5
 63
     7
 74
     1
 91
        4
 64
     7
 65
   257
 75
     1
175
     1
 42
1.0
 92
        0
 66
   257
 43
1.0
 76
     1
 77
     6
 78
     2
 67
     7
 79
     5
170
     0
171
     0
290
     0
174
     0
 93
        1
 44
0.0
173
     0
291
     0
 45
0.0
1001
ACAD
1000
AcDbSavedByObjectVersion
1070
     0
  0
VISUALSTYLE
  5
16A9
102
{ACAD_REACTORS
330
16A4
102
}
330
16A4
100
AcDbVisualStyle
  2
Basic
 70
     7
 71
     1
 72
     0
 73
     1
 90
        0
 40
-0.6
 41
-30.0
 62
     5
 63
     7
 74
     0
 91
        4
 64
     7
 65
   257
 75
     1
175
     1
 42
1.0
 92
        8
 66
     7
 43
1.0
 76
     1
 77
     6
 78
     2
 67
     7
 79
     5
170
     0
171
     0
290
     0
174
     0
 93
        1
 44
0.0
173
     0
291
     1
 45
0.0
1001
ACAD
1000
AcDbSavedByObjectVersion
1070
     0
  0
VISUALSTYLE
  5
16B0
102
{ACAD_REACTORS
330
16A4
102
}
330
16A4
100
AcDbVisualStyle
  2
Brighten
 70
    12
 71
     2
 72
     2
 73
     0
 90
        0
 40
-0.6
 41
-30.0
 62
     5
 63
     7
 74
     1
 91
        4
 64
     7
 65
   257
 75
     1
175
     1
 42
1.0
 92
        8
 66
     7
 43
1.0
 76
     1
 77
     6
 78
     2
 67
     7
 79
     5
170
     0
171
     0
290
     0
174
     0
 93
        1
 44
50.0
173
     0
291
     1
 45
0.0
1001
ACAD
1000
AcDbSavedByObjectVersion
1070
     0
  0
VISUALSTYLE
  5
16B4
102
{ACAD_REACTORS
330
16A4
102
}
330
16A4
100
AcDbVisualStyle
  2
ColorChange
 70
    16
 71
     2
 72
     2
 73
     3
 90
        0
 40
-0.6
 41
-30.0
 62
     5
 63
     8
 74
     1
 91
        4
 64
     7
 65
   257
 75
     1
175
     1
 42
1.0
 92
        8
 66
     8
 43
1.0
 76
     1
 77
     6
 78
     2
 67
     7
 79
     5
170
     0
171
     0
290
     0
174
     0
 93
        1
 44
0.0
173
     0
291
     1
 45
0.0
1001
ACAD
1000
AcDbSavedByObjectVersion
1070
     0
  0
VISUALSTYLE
  5
16AD
102
{ACAD_REACTORS
330
16A4
102
}
330
16A4
100
AcDbVisualStyle
  2
Conceptual
 70
     9
 71
     3
 72
     2
 73
     0
 90
        0
 40
-0.6
 41
-30.0
 62
     5
 63
     7
 74
     2
 91
        2
 64
     7
 65
   257
 75
     1
175
     1
 42
40.0
 92
        8
 66
     7
 43
1.0
 76
     1
 77
     6
 78
     2
 67
     7
 79
     3
170
     0
171
     0
290
     0
174
     0
 93
        1
 44
0.0
173
     0
291
     0
 45
0.0
1001
ACAD
1000
AcDbSavedByObjectVersion
1070
     0
  0
VISUALSTYLE
  5
16AF
102
{ACAD_REACTORS
330
16A4
102
}
330
16A4
100
AcDbVisualStyle
  2
Dim
 70
    11
 71
     2
 72
     2
 73
     0
 90
        0
 40
-0.6
 41
-30.0
 62
     5
 63
     7
 74
     1
 91
        4
 64
     7
 65
   257
 75
     1
175
     1
 42
1.0
 92
        8
 66
     7
 43
1.0
 76
     1
 77
     6
 78
     2
 67
     7
 79
     5
170
     0
171
     0
290
     0
174
     0
 93
        1
 44
-50.0
173
     0
291
     1
 45
0.0
1001
ACAD
1000
AcDbSavedByObjectVersion
1070
     0
  0
VISUALSTYLE
  5
16B3
102
{ACAD_REACTORS
330
16A4
102
}
330
16A4
100
AcDbVisualStyle
  2
Facepattern
 70
    15
 71
     2
 72
     2
 73
     0
 90
        0
 40
-0.6
 41
-30.0
 62
     5
 63
     7
 74
     1
 91
        4
 64
     7
 65
   257
 75
     1
175
     1
 42
1.0
 92
        8
 66
     7
 43
1.0
 76
     1
 77
     6
 78
     2
 67
     7
 79
     5
170
     0
171
     0
290
     0
174
     0
 93
        1
 44
0.0
173
     0
291
     1
 45
0.0
1001
ACAD
1000
AcDbSavedByObjectVersion
1070
     0
  0
VISUALSTYLE
  5
16A5
102
{ACAD_REACTORS
330
16A4
102
}
330
16A4
100
AcDbVisualStyle
  2
Flat
 70
     0
 71
     2
 72
     1
 73
     1
 90
        2
 40
-0.6
 41
30.0
 62
     5
 63
     7
 74
     0
 91
        4
 64
     7
 65
   257
 75
     1
175
     1
 42
1.0
 92
        8
 66
     7
 43
1.0
 76
     1
 77
     6
 78
     2
 67
     7
 79
     5
170
     0
171
     0
290
     0
174
     0
 93
       13
 44
0.0
173
     0
291
     1
 45
0.0
1001
ACAD
1000
AcDbSavedByObjectVersion
1070
     0
  0
VISUALSTYLE
  5
16A6
102
{ACAD_REACTORS
330
16A4
102
}
330
16A4
100
AcDbVisualStyle
  2
FlatWithEdges
 70
     1
 71
     2
 72
     1
 73
     1
 90
        2
 40
-0.6
 41
30.0
 62
     5
 63
     7
 74
     1
 91
        4
 64
     7
 65
   257
 75
     1
175
     1
 42
1.0
 92
        0
 66
   257
 43
1.0
 76
     1
 77
     6
 78
     2
 67
     7
 79
     5
170
     0
171
     0
290
     0
174
     0
 93
       13
 44
0.0
173
     0
291
     1
 45
0.0
1001
ACAD
1000
AcDbSavedByObjectVersion
1070
     0
  0
VISUALSTYLE
  5
16A7
102
{ACAD_REACTORS
330
16A4
102
}
330
16A4
100
AcDbVisualStyle
  2
Gouraud
 70
     2
 71
     2
 72
     2
 73
     1
 90
        2
 40
-0.6
 41
30.0
 62
     5
 63
     7
 74
     0
 91
        4
 64
     7
 65
   257
 75
     1
175
     1
 42
1.0
 92
        0
 66
     7
 43
1.0
 76
     1
 77
     6
 78
     2
 67
     7
 79
     5
170
     0
171
     0
290
     0
174
     0
 93
       13
 44
0.0
173
     0
291
     1
 45
0.0
1001
ACAD
1000
AcDbSavedByObjectVersion
1070
     0
  0
VISUALSTYLE
  5
16A8
102
{ACAD_REACTORS
330
16A4
102
}
330
16A4
100
AcDbVisualStyle
  2
GouraudWithEdges
 70
     3
 71
     2
 72
     2
 73
     1
 90
        2
 40
-0.6
 41
30.0
 62
     5
 63
     7
 74
     1
 91
        4
 64
     7
 65
   257
 75
     1
175
     1
 42
1.0
 92
        0
 66
   257
 43
1.0
 76
     1
 77
     6
 78
     2
 67
     7
 79
     5
170
     0
171
     0
290
     0
174
     0
 93
       13
 44
0.0
173
     0
291
     1
 45
0.0
1001
ACAD
1000
AcDbSavedByObjectVersion
1070
     0
  0
VISUALSTYLE
  5
16B2
102
{ACAD_REACTORS
330
16A4
102
}
330
16A4
100
AcDbVisualStyle
  2
Linepattern
 70
    14
 71
     2
 72
     2
 73
     0
 90
        0
 40
-0.6
 41
-30.0
 62
     5
 63
     7
 74
     1
 91
        4
 64
     7
 65
   257
 75
     7
175
     7
 42
1.0
 92
        8
 66
     7
 43
1.0
 76
     1
 77
     6
 78
     2
 67
     7
 79
     5
170
     0
171
     0
290
     0
174
     0
 93
        1
 44
0.0
173
     0
291
     1
 45
0.0
1001
ACAD
1000
AcDbSavedByObjectVersion
1070
     0
  0
VISUALSTYLE
  5
16AE
102
{ACAD_REACTORS
330
16A4
102
}
330
16A4
100
AcDbVisualStyle
  2
Realistic
 70
     8
 71
     2
 72
     2
 73
     0
 90
        0
 40
-0.6
 41
-30.0
 62
     5
 63
     7
 74
     1
 91
        0
 64
     7
 65
   257
 75
     1
175
     1
 42
1.0
 92
        8
 66
     8
 43
1.0
 76
     1
 77
     6
 78
     2
 67
     7
 79
     5
170
     0
171
     0
290
     0
174
     0
 93
       13
 44
0.0
173
     0
291
     0
 45
0.0
1001
ACAD
1000
AcDbSavedByObjectVersion
1070
     0
  0
VISUALSTYLE
  5
16B1
102
{ACAD_REACTORS
330
16A4
102
}
330
16A4
100
AcDbVisualStyle
  2
Thicken
 70
    13
 71
     2
 72
     2
 73
     0
 90
        0
 40
-0.6
 41
-30.0
 62
     5
 63
     7
 74
     1
 91
        4
 64
     7
 65
   257
 75
     1
175
     1
 42
1.0
 92
       12
 66
     7
 43
1.0
 76
     1
 77
     6
 78
     2
 67
     7
 79
     5
170
     0
171
     0
290
     0
174
     0
 93
        1
 44
0.0
173
     0
291
     1
 45
0.0
1001
ACAD
1000
AcDbSavedByObjectVersion
1070
     0
  0
DICTIONARYVAR
  5
14B3
102
{ACAD_REACTORS
330
852
102
}
330
852
100
DictionaryVariables
280
     0
  1
STANDARD
  0
DICTIONARYVAR
  5
853
102
{ACAD_REACTORS
330
852
102
}
330
852
100
DictionaryVariables
280
     0
  1
1
  0
DICTIONARYVAR
  5
16EF
102
{ACAD_REACTORS
330
852
102
}
330
852
100
DictionaryVariables
280
     0
  1
0
  0
DICTIONARYVAR
  5
16EE
102
{ACAD_REACTORS
330
852
102
}
330
852
100
DictionaryVariables
280
     0
  1
127
  0
XRECORD
  5
16FE
102
{ACAD_REACTORS
330
16FD
102
}
330
16FD
100
AcDbXrecord
280
     1
  0
DICTIONARY
  5
1704
330
E0C
100
AcDbDictionary
280
     1
281
     1
  3
ACAD_XREC_ROUNDTRIP
360
1705
  0
DICTIONARY
  5
1702
330
E0B
100
AcDbDictionary
280
     1
281
     1
  3
ACAD_XREC_ROUNDTRIP
360
1703
  0
DICTIONARY
  5
1708
330
16A2
100
AcDbDictionary
280
     1
281
     1
  3
ACAD_XREC_ROUNDTRIP
360
1709
  0
DICTIONARY
  5
1706
330
16A1
100
AcDbDictionary
280
     1
281
     1
  3
ACAD_XREC_ROUNDTRIP
360
1707
  0
DICTIONARY
  5
170A
330
16A3
100
AcDbDictionary
280
     1
281
     1
  3
ACAD_XREC_ROUNDTRIP
360
170B
  0
DICTIONARY
  5
1700
330
E0A
100
AcDbDictionary
280
     1
281
     1
  3
ACAD_XREC_ROUNDTRIP
360
1701
  0
XRECORD
  5
1705
102
{ACAD_REACTORS
330
1704
102
}
330
1704
100
AcDbXrecord
280
     1
102
SHADEPLOT
 70
     0
102
SHADEPLOTRESLEVEL
 70
     2
102
SHADEPLOTCUSTOMDPI
 70
   300
  0
XRECORD
  5
1703
102
{ACAD_REACTORS
330
1702
102
}
330
1702
100
AcDbXrecord
280
     1
102
SHADEPLOT
 70
     0
102
SHADEPLOTRESLEVEL
 70
     2
102
SHADEPLOTCUSTOMDPI
 70
   300
  0
XRECORD
  5
1709
102
{ACAD_REACTORS
330
1708
102
}
330
1708
100
AcDbXrecord
280
     1
102
MATERIAL
148
0.0
149
0.0
149
0.0
 93
        0
 94
       63
282
     0
 72
     1
 77
     1
171
     1
175
     1
179
     1
273
     0
  0
XRECORD
  5
1707
102
{ACAD_REACTORS
330
1706
102
}
330
1706
100
AcDbXrecord
280
     1
102
MATERIAL
148
0.0
149
0.0
149
0.0
 93
        0
 94
       63
282
     0
 72
     1
 77
     1
171
     1
175
     1
179
     1
273
     0
  0
XRECORD
  5
170B
102
{ACAD_REACTORS
330
170A
102
}
330
170A
100
AcDbXrecord
280
     1
102
MATERIAL
148
0.0
149
0.0
149
0.0
 93
        0
 94
       63
282
     0
 72
     1
 77
     1
171
     1
175
     1
179
     1
273
     0
  0
XRECORD
  5
1701
102
{ACAD_REACTORS
330
1700
102
}
330
1700
100
AcDbXrecord
280
     1
102
ACAD_ROUNDTRIP_PRE2007_TABLESTYLE
 90
        4
 91
        0
  1

 92
        4
 93
        0
  2

 94
        4
 95
        0
  3

  0
ENDSEC
  0
EOF
