  0
SECTION
  2
HEADER
  9
$ACADVER
  1
AC1015
  9
$ACADMAINTVER
 70
    20
  9
$DWGCODEPAGE
  3
ANSI_1252
  9
$INSBASE
 10
782.1361185743653
 20
-490.2227478101754
 30
0.0
  9
$EXTMIN
 10
4.236979567018402
 20
9.99769470400731
 30
0.0
  9
$EXTMAX
 10
69.21024353372911
 20
74.01343345345463
 30
0.0
  9
$LIMMIN
 10
0.0
 20
0.0
  9
$LIMMAX
 10
0.0
 20
0.0
  9
$ORTHOMODE
 70
     1
  9
$REGENMODE
 70
     1
  9
$FILLMODE
 70
     1
  9
$QTEXTMODE
 70
     0
  9
$MIRRTEXT
 70
     1
  9
$LTSCALE
 40
1.0
  9
$ATTMODE
 70
     1
  9
$TEXTSIZE
 40
0.2
  9
$TRACEWID
 40
0.05
  9
$TEXTSTYLE
  7
STANDARD
  9
$CLAYER
  8
0
  9
$CELTYPE
  6
CONTINUOUS
  9
$CECOLOR
 62
   256
  9
$CELTSCALE
 40
1.0
  9
$DISPSILH
 70
     0
  9
$DIMSCALE
 40
0.0
  9
$DIMASZ
 40
2.0
  9
$DIMEXO
 40
1.0
  9
$DIMDLI
 40
0.38
  9
$DIMRND
 40
0.0
  9
$DIMDLE
 40
1.0
  9
$DIMEXE
 40
0.18
  9
$DIMTP
 40
0.0
  9
$DIMTM
 40
0.0
  9
$DIMTXT
 40
2.0
  9
$DIMCEN
 40
0.09
  9
$DIMTSZ
 40
0.0
  9
$DIMTOL
 70
     0
  9
$DIMLIM
 70
     0
  9
$DIMTIH
 70
     1
  9
$DIMTOH
 70
     1
  9
$DIMSE1
 70
     0
  9
$DIMSE2
 70
     0
  9
$DIMTAD
 70
     1
  9
$DIMZIN
 70
     1
  9
$DIMBLK
  1

  9
$DIMASO
 70
     1
  9
$DIMSHO
 70
     1
  9
$DIMPOST
  1

  9
$DIMAPOST
  1
"
  9
$DIMALT
 70
     0
  9
$DIMALTD
 70
     3
  9
$DIMALTF
 40
0.03937
  9
$DIMLFAC
 40
1.0
  9
$DIMTOFL
 70
     0
  9
$DIMTVP
 40
0.0
  9
$DIMTIX
 70
     0
  9
$DIMSOXD
 70
     0
  9
$DIMSAH
 70
     0
  9
$DIMBLK1
  1

  9
$DIMBLK2
  1

  9
$DIMSTYLE
  2
STANDARD
  9
$DIMCLRD
 70
     0
  9
$DIMCLRE
 70
     0
  9
$DIMCLRT
 70
     0
  9
$DIMTFAC
 40
1.0
  9
$DIMGAP
 40
1.0
  9
$DIMJUST
 70
     0
  9
$DIMSD1
 70
     0
  9
$DIMSD2
 70
     0
  9
$DIMTOLJ
 70
     1
  9
$DIMTZIN
 70
     1
  9
$DIMALTZ
 70
     0
  9
$DIMALTTZ
 70
     0
  9
$DIMUPT
 70
     0
  9
$DIMDEC
 70
     0
  9
$DIMTDEC
 70
     0
  9
$DIMALTU
 70
     3
  9
$DIMALTTD
 70
     3
  9
$DIMTXSTY
  7
STANDARD
  9
$DIMAUNIT
 70
     0
  9
$DIMADEC
 70
     0
  9
$DIMALTRND
 40
0.0
  9
$DIMAZIN
 70
     0
  9
$DIMDSEP
 70
    46
  9
$DIMATFIT
 70
     3
  9
$DIMFRAC
 70
     0
  9
$DIMLDRBLK
  1

  9
$DIMLUNIT
 70
     3
  9
$DIMLWD
 70
    -2
  9
$DIMLWE
 70
    -2
  9
$DIMTMOVE
 70
     0
  9
$LUNITS
 70
     2
  9
$LUPREC
 70
     4
  9
$SKETCHINC
 40
0.1
  9
$FILLETRAD
 40
0.0
  9
$AUNITS
 70
     0
  9
$AUPREC
 70
     0
  9
$MENU
  1
acad
  9
$ELEVATION
 40
0.0
  9
$PELEVATION
 40
0.0
  9
$THICKNESS
 40
0.0
  9
$LIMCHECK
 70
     0
  9
$CHAMFERA
 40
0.0
  9
$CHAMFERB
 40
0.0
  9
$CHAMFERC
 40
0.0
  9
$CHAMFERD
 40
0.0
  9
$SKPOLY
 70
     0
  9
$TDCREATE
 40
2452678.558744884
  9
$TDUCREATE
 40
2452678.892078218
  9
$TDUPDATE
 40
2455223.389293067
  9
$TDUUPDATE
 40
2455223.722626401
  9
$TDINDWG
 40
0.0710406250
  9
$TDUSRTIMER
 40
0.0710406250
  9
$USRTIMER
 70
     1
  9
$ANGBASE
 50
0.0
  9
$ANGDIR
 70
     0
  9
$PDMODE
 70
     0
  9
$PDSIZE
 40
-1.0
  9
$PLINEWID
 40
0.0
  9
$SPLFRAME
 70
     0
  9
$SPLINETYPE
 70
     6
  9
$SPLINESEGS
 70
     8
  9
$HANDSEED
  5
8A1
  9
$SURFTAB1
 70
     6
  9
$SURFTAB2
 70
     6
  9
$SURFTYPE
 70
     6
  9
$SURFU
 70
     6
  9
$SURFV
 70
     6
  9
$UCSBASE
  2

  9
$UCSNAME
  2

  9
$UCSORG
 10
0.0
 20
0.0
 30
0.0
  9
$UCSXDIR
 10
1.0
 20
0.0
 30
0.0
  9
$UCSYDIR
 10
0.0
 20
1.0
 30
0.0
  9
$UCSORTHOREF
  2

  9
$UCSORTHOVIEW
 70
     0
  9
$UCSORGTOP
 10
0.0
 20
0.0
 30
0.0
  9
$UCSORGBOTTOM
 10
0.0
 20
0.0
 30
0.0
  9
$UCSORGLEFT
 10
0.0
 20
0.0
 30
0.0
  9
$UCSORGRIGHT
 10
0.0
 20
0.0
 30
0.0
  9
$UCSORGFRONT
 10
0.0
 20
0.0
 30
0.0
  9
$UCSORGBACK
 10
0.0
 20
0.0
 30
0.0
  9
$PUCSBASE
  2

  9
$PUCSNAME
  2

  9
$PUCSORG
 10
0.0
 20
0.0
 30
0.0
  9
$PUCSXDIR
 10
1.0
 20
0.0
 30
0.0
  9
$PUCSYDIR
 10
0.0
 20
1.0
 30
0.0
  9
$PUCSORTHOREF
  2

  9
$PUCSORTHOVIEW
 70
     0
  9
$PUCSORGTOP
 10
0.0
 20
0.0
 30
0.0
  9
$PUCSORGBOTTOM
 10
0.0
 20
0.0
 30
0.0
  9
$PUCSORGLEFT
 10
0.0
 20
0.0
 30
0.0
  9
$PUCSORGRIGHT
 10
0.0
 20
0.0
 30
0.0
  9
$PUCSORGFRONT
 10
0.0
 20
0.0
 30
0.0
  9
$PUCSORGBACK
 10
0.0
 20
0.0
 30
0.0
  9
$USERI1
 70
     0
  9
$USERI2
 70
     0
  9
$USERI3
 70
     0
  9
$USERI4
 70
     0
  9
$USERI5
 70
     0
  9
$USERR1
 40
0.0
  9
$USERR2
 40
0.0
  9
$USERR3
 40
0.0
  9
$USERR4
 40
0.0
  9
$USERR5
 40
0.0
  9
$WORLDVIEW
 70
     1
  9
$SHADEDGE
 70
     3
  9
$SHADEDIF
 70
    70
  9
$TILEMODE
 70
     1
  9
$MAXACTVP
 70
    16
  9
$PINSBASE
 10
0.0
 20
0.0
 30
0.0
  9
$PLIMCHECK
 70
     0
  9
$PEXTMIN
 10
1.000000000000000E+20
 20
1.000000000000000E+20
 30
1.000000000000000E+20
  9
$PEXTMAX
 10
-1.000000000000000E+20
 20
-1.000000000000000E+20
 30
-1.000000000000000E+20
  9
$PLIMMIN
 10
0.0
 20
0.0
  9
$PLIMMAX
 10
12.0
 20
9.0
  9
$UNITMODE
 70
     0
  9
$VISRETAIN
 70
     0
  9
$PLINEGEN
 70
     1
  9
$PSLTSCALE
 70
     1
  9
$TREEDEPTH
 70
  3020
  9
$CMLSTYLE
  2
STANDARD
  9
$CMLJUST
 70
     0
  9
$CMLSCALE
 40
1.0
  9
$PROXYGRAPHICS
 70
     0
  9
$MEASUREMENT
 70
     0
  9
$CELWEIGHT
370
    -1
  9
$ENDCAPS
280
     0
  9
$JOINSTYLE
280
     0
  9
$LWDISPLAY
290
     0
  9
$INSUNITS
 70
     0
  9
$HYPERLINKBASE
  1

  9
$STYLESHEET
  1

  9
$XEDIT
290
     1
  9
$CEPSNTYPE
380
     0
  9
$PSTYLEMODE
290
     1
  9
$FINGERPRINTGUID
  2
{629FC05B-8FBE-4B0C-8356-035F31CCFBBA}
  9
$VERSIONGUID
  2
{0170FAC7-C01F-4058-B708-AEEC28AF05D3}
  9
$EXTNAMES
290
     1
  9
$PSVPSCALE
 40
0.0
  9
$OLESTARTUP
290
     0
  0
ENDSEC
  0
SECTION
  2
CLASSES
  0
CLASS
  1
IMAGE
  2
AcDbRasterImage
  3
ISM
 90
    32895
280
     0
281
     1
  0
CLASS
  1
DICTIONARYVAR
  2
AcDbDictionaryVar
  3
ObjectDBX Classes
 90
        0
280
     0
281
     0
  0
CLASS
  1
RASTERVARIABLES
  2
AcDbRasterVariables
  3
ISM
 90
    32768
280
     0
281
     0
  0
CLASS
  1
IMAGEDEF
  2
AcDbRasterImageDef
  3
ISM
 90
    32768
280
     0
281
     0
  0
CLASS
  1
IMAGEDEF_REACTOR
  2
AcDbRasterImageDefReactor
  3
ISM
 90
    32769
280
     0
281
     0
  0
CLASS
  1
IDBUFFER
  2
AcDbIdBuffer
  3
ObjectDBX Classes
 90
    32768
280
     0
281
     0
  0
CLASS
  1
SPATIAL_FILTER
  2
AcDbSpatialFilter
  3
ObjectDBX Classes
 90
    32768
280
     0
281
     0
  0
CLASS
  1
SORTENTSTABLE
  2
AcDbSortentsTable
  3
ObjectDBX Classes
 90
    32768
280
     0
281
     0
  0
CLASS
  1
LAYER_INDEX
  2
AcDbLayerIndex
  3
ObjectDBX Classes
 90
    32768
280
     0
281
     0
  0
CLASS
  1
SPATIAL_INDEX
  2
AcDbSpatialIndex
  3
ObjectDBX Classes
 90
    32768
280
     0
281
     0
  0
CLASS
  1
OBJECT_PTR
  2
CAseDLPNTableRecord
  3
ASE-LPNTableRecord
 90
    32769
280
     1
281
     0
  0
CLASS
  1
LAYOUT
  2
AcDbLayout
  3
ObjectDBX Classes
 90
        0
280
     0
281
     0
  0
CLASS
  1
PLOTSETTINGS
  2
AcDbPlotSettings
  3
ObjectDBX Classes
 90
    32768
280
     1
281
     0
  0
CLASS
  1
ACDBDICTIONARYWDFLT
  2
AcDbDictionaryWithDefault
  3
ObjectDBX Classes
 90
        0
280
     1
281
     0
  0
CLASS
  1
ACDBPLACEHOLDER
  2
AcDbPlaceHolder
  3
ObjectDBX Classes
 90
        0
280
     0
281
     0
  0
CLASS
  1
VBA_PROJECT
  2
AcDbVbaProject
  3
acad
 90
    32768
280
     0
281
     0
  0
CLASS
  1
WIPEOUT
  2
AcDbWipeout
  3
"WipeOut|Product Desc: Object Enabler for WipeOut entity^I^I^I^I^I^I|Company: Autodesk, Inc.^I^I^I^I^I^I|WEB Address: www.autodesk.com"
 90
    32895
280
     1
281
     1
  0
CLASS
  1
WIPEOUTVARIABLES
  2
AcDbWipeoutVariables
  3
"WipeOut|Product Desc:     WipeOut Dbx Application|Company:          Autodesk, Inc.|WEB Address:      www.autodesk.com"
 90
    32768
280
     1
281
     0
  0
CLASS
  1
RTEXT
  2
RText
  3
RText|AutoCAD Express Tool|expresstools@autodesk.com
 90
    33791
280
     1
281
     1
  0
CLASS
  1
ARCALIGNEDTEXT
  2
AcDbArcAlignedText
  3
ATEXT|AutoCAD Express Tool|expresstools@autodesk.com
 90
    32768
280
     1
281
     1
  0
CLASS
  1
TABLESTYLE
  2
AcDbTableStyle
  3
ObjectDBX Classes
 90
     4095
280
     0
281
     0
  0
CLASS
  1
MATERIAL
  2
AcDbMaterial
  3
ObjectDBX Classes
 90
     1024
280
     0
281
     0
  0
CLASS
  1
VISUALSTYLE
  2
AcDbVisualStyle
  3
ObjectDBX Classes
 90
     4095
280
     0
281
     0
  0
ENDSEC
  0
SECTION
  2
TABLES
  0
TABLE
  2
VPORT
  5
12
102
{ACAD_XDICTIONARY
360
85B
102
}
330
0
100
AcDbSymbolTable
 70
     1
  0
VPORT
  5
81D
330
12
100
AcDbSymbolTableRecord
100
AcDbViewportTableRecord
  2
*Active
 70
     0
 10
0.0
 20
0.0
 11
1.0
 21
1.0
 12
62.29897156259539
 22
53.78596981092069
 13
0.0
 23
0.0
 14
1.0
 24
1.0
 15
0.0
 25
0.0
 16
0.0
 26
0.0
 36
1.0
 17
0.0
 27
0.0
 37
0.0
 40
88.34555518275477
 41
1.898716119828815
 42
50.0
 43
0.0
 44
0.0
 50
0.0
 51
0.0
 71
     0
 72
  2000
 73
     1
 74
     1
 75
     0
 76
     0
 77
     0
 78
     0
281
     0
 65
     1
110
0.0
120
0.0
130
0.0
111
1.0
121
0.0
131
0.0
112
0.0
122
1.0
132
0.0
 79
     0
146
0.0
  0
ENDTAB
  0
TABLE
  2
LTYPE
  5
D
330
0
100
AcDbSymbolTable
 70
     1
  0
LTYPE
  5
E
330
D
100
AcDbSymbolTableRecord
100
AcDbLinetypeTableRecord
  2
BYBLOCK
 70
     0
  3

 72
    65
 73
     0
 40
0.0
  0
LTYPE
  5
F
330
D
100
AcDbSymbolTableRecord
100
AcDbLinetypeTableRecord
  2
BYLAYER
 70
     0
  3

 72
    65
 73
     0
 40
0.0
  0
LTYPE
  5
5
330
D
100
AcDbSymbolTableRecord
100
AcDbLinetypeTableRecord
  2
CONTINUOUS
 70
     0
  3
Solid line
 72
    65
 73
     0
 40
0.0
  0
ENDTAB
  0
TABLE
  2
LAYER
  5
A
330
0
100
AcDbSymbolTable
 70
     2
  0
LAYER
  5
4
330
A
100
AcDbSymbolTableRecord
100
AcDbLayerTableRecord
  2
0
 70
     0
 62
     7
  6
CONTINUOUS
370
    -3
390
6BC
  0
LAYER
  5
37
330
A
100
AcDbSymbolTableRecord
100
AcDbLayerTableRecord
  2
DEFPOINTS
 70
     0
 62
     7
  6
CONTINUOUS
290
     0
370
    -3
390
6BC
  0
ENDTAB
  0
TABLE
  2
STYLE
  5
B
330
0
100
AcDbSymbolTable
 70
     2
  0
STYLE
  5
C
330
B
100
AcDbSymbolTableRecord
100
AcDbTextStyleTableRecord
  2
STANDARD
 70
     0
 40
0.0
 41
1.0
 50
0.0
 71
     0
 42
0.2
  3
txt
  4

  0
STYLE
  5
688
330
B
100
AcDbSymbolTableRecord
100
AcDbTextStyleTableRecord
  2
SLDTEXTSTYLE1
 70
     0
 40
0.0
 41
0.6547619345
 50
0.0
 71
     0
 42
0.0
  3
txt
  4

  0
ENDTAB
  0
TABLE
  2
VIEW
  5
10
330
0
100
AcDbSymbolTable
 70
     0
  0
ENDTAB
  0
TABLE
  2
UCS
  5
11
330
0
100
AcDbSymbolTable
 70
     0
  0
ENDTAB
  0
TABLE
  2
APPID
  5
14
330
0
100
AcDbSymbolTable
 70
     3
  0
APPID
  5
15
330
14
100
AcDbSymbolTableRecord
100
AcDbRegAppTableRecord
  2
ACAD
 70
     0
  0
APPID
  5
6C9
330
14
100
AcDbSymbolTableRecord
100
AcDbRegAppTableRecord
  2
DCO15
 70
     0
  0
APPID
  5
809
330
14
100
AcDbSymbolTableRecord
100
AcDbRegAppTableRecord
  2
ACAD_EXEMPT_FROM_CAD_STANDARDS
 70
     0
  0
ENDTAB
  0
TABLE
  2
DIMSTYLE
  5
16
330
0
100
AcDbSymbolTable
 70
     1
100
AcDbDimStyleTable
 71
     1
340
1C
  0
DIMSTYLE
105
1C
330
16
100
AcDbSymbolTableRecord
100
AcDbDimStyleTableRecord
  2
STANDARD
 70
     0
  4
"
 40
0.0
 41
2.0
 42
1.0
 46
1.0
 77
     1
 78
     1
140
2.0
143
0.03937
147
1.0
171
     3
271
     0
272
     0
273
     3
274
     3
277
     3
284
     1
340
C
  0
ENDTAB
  0
TABLE
  2
BLOCK_RECORD
  5
1
330
0
100
AcDbSymbolTable
 70
     4
  0
BLOCK_RECORD
  5
2
330
1
100
AcDbSymbolTableRecord
100
AcDbBlockTableRecord
  2
*MODEL_SPACE
340
6C3
  0
BLOCK_RECORD
  5
7
330
1
100
AcDbSymbolTableRecord
100
AcDbBlockTableRecord
  2
*PAPER_SPACE
340
6C4
  0
BLOCK_RECORD
  5
538
330
1
100
AcDbSymbolTableRecord
100
AcDbBlockTableRecord
  2
A$C7BBB2CC6
340
0
102
{BLKREFS
331
537
102
}
  0
BLOCK_RECORD
  5
93
330
1
100
AcDbSymbolTableRecord
100
AcDbBlockTableRecord
  2
A$C0DFD62C4
340
0
102
{BLKREFS
331
92
102
}
  0
BLOCK_RECORD
  5
465
330
1
100
AcDbSymbolTableRecord
100
AcDbBlockTableRecord
  2
A$C3ADA3047
340
0
102
{BLKREFS
331
464
102
}
  0
ENDTAB
  0
ENDSEC
  0
SECTION
  2
BLOCKS
  0
BLOCK
  5
3
330
2
100
AcDbEntity
  8
0
100
AcDbBlockBegin
  2
*MODEL_SPACE
 70
     0
 10
0.0
 20
0.0
 30
0.0
  3
*MODEL_SPACE
  1

  0
ENDBLK
  5
6
330
2
100
AcDbEntity
  8
0
100
AcDbBlockEnd
  0
BLOCK
  5
8
330
7
100
AcDbEntity
 67
     1
  8
0
100
AcDbBlockBegin
  2
*PAPER_SPACE
 70
     0
 10
0.0
 20
0.0
 30
0.0
  3
*PAPER_SPACE
  1

  0
ENDBLK
  5
9
330
7
100
AcDbEntity
 67
     1
  8
0
100
AcDbBlockEnd
  0
BLOCK
  5
63B
330
538
100
AcDbEntity
  8
0
100
AcDbBlockBegin
  2
A$C7BBB2CC6
 70
     0
 10
0.0
 20
0.0
 30
0.0
  3
A$C7BBB2CC6
  1

  0
LWPOLYLINE
  5
539
330
538
100
AcDbEntity
  8
0
  6
Continuous
 62
     7
100
AcDbPolyline
 90
       19
 70
   128
 43
0.0
 10
11.34857317187288
 20
35.49880654096879
 10
11.41770295915285
 20
35.43709047816879
 10
11.52193363659285
 20
35.34068544168875
 10
11.6591628032329
 20
35.20719104464877
 10
11.82641846339288
 20
35.03348810112874
 10
11.95763190747288
 20
34.88784723376876
 10
12.07208967563292
 20
34.75330364232878
 10
12.17084169291274
 20
34.63102909872876
 10
12.25486510835299
 20
34.52202551760877
 10
12.45632728419286
 20
34.23932092552878
 10
12.62615654339288
 20
33.97290797880879
 10
12.79504759299288
 20
33.67500868816876
 10
12.93949751219293
 20
33.38564147032878
 10
13.11967479723284
 20
32.95957332840874
 10
13.26237851227279
 20
32.53867620952878
 10
13.37024785091285
 20
32.12657660456875
 10
13.45274437811304
 20
31.68312352368878
 10
13.50164898163302
 20
31.24002039192877
 10
13.51774153115298
 20
30.79999909736879
  0
ARC
  5
54E
330
538
100
AcDbEntity
  8
0
  6
Continuous
 62
     7
100
AcDbCircle
 10
6.769750083472899
 20
30.79999909736879
 30
0.0
 40
4.8216311472
100
AcDbArc
 50
0.0
 51
180.0
  0
LWPOLYLINE
  5
54F
330
538
100
AcDbEntity
  8
0
  6
Continuous
 62
     7
100
AcDbPolyline
 90
       28
 70
   128
 43
0.0
 10
0.0217585898728885
 20
30.79999911784876
 10
0.0556193852328306
 20
31.43815632256874
 10
0.1557282670728455
 20
32.06488250792876
 10
0.3232014727529986
 20
32.68597505448878
 10
0.5470134115528254
 20
33.26916302568875
 10
0.8290218838728833
 20
33.82884511864876
 10
1.184763041232827
 20
34.38590698272879
 10
1.370072515152969
 20
34.63278498336876
 10
1.630032934592918
 20
34.94231231904877
 10
1.96524340915289
 20
35.29069046352879
 10
2.269052606912964
 20
35.56657766728875
 10
2.503813824353073
 20
35.75792230944876
 10
2.776645622433079
 20
35.95952508432879
 10
3.040753071552899
 20
36.13557687448878
 10
3.293968044272787
 20
36.28838961208876
 10
3.584754530032796
 20
36.44623743152877
 10
3.872446403312778
 20
36.58524074632877
 10
4.155817837792938
 20
36.70661668888878
 10
4.765201357312889
 20
36.91947183672875
 10
5.381817134752964
 20
37.07314642744876
 10
6.009060330992952
 20
37.17025454496877
 10
6.966141034753036
 20
37.20880328840875
 10
7.923841363072824
 20
37.11615423976878
 10
8.85951042331294
 20
36.89347349424878
 10
9.750934006352963
 20
36.54639627984875
 10
10.30159493579276
 20
36.25583765896877
 10
10.82229123771276
 20
35.91739316632874
 10
11.34857325115308
 20
35.49880647104877
  0
ARC
  5
56D
330
538
100
AcDbEntity
  8
0
  6
Continuous
 62
     7
100
AcDbCircle
 10
6.769750083552935
 20
30.79999909736879
 30
0.0
 40
4.658227811279999
100
AcDbArc
 50
0.0
 51
180.0
  0
ARC
  5
56E
330
538
100
AcDbEntity
  8
0
  6
Continuous
 62
     7
100
AcDbCircle
 10
6.769750083552935
 20
30.79999909736879
 30
0.0
 40
4.8
100
AcDbArc
 50
0.0
 51
180.0
  0
LWPOLYLINE
  5
56F
330
538
100
AcDbEntity
  8
0
  6
Continuous
 62
     7
100
AcDbPolyline
 90
       37
 70
   128
 43
0.0
 10
11.35694573235287
 20
35.52288068576877
 10
10.86837023275302
 20
35.91274501112878
 10
10.41216586875293
 20
36.21629922504877
 10
10.00609301707277
 20
36.44514007800876
 10
9.657752613472894
 20
36.61400900848878
 10
9.284828540593025
 20
36.76925004976877
 10
8.925214948832945
 20
36.89572065448877
 10
8.549751849392805
 20
37.00491999680878
 10
7.771162902432934
 20
37.16168679552879
 10
6.979395484672977
 20
37.22992188440873
 10
6.178272526592991
 20
37.20822718184877
 10
5.389147010352871
 20
37.09676013032879
 10
4.620420842192743
 20
36.89768913528877
 10
3.873789708832873
 20
36.61041895256875
 10
3.341482289872828
 20
36.34148985824879
 10
2.830337660753002
 20
36.02473382888877
 10
2.326347284112898
 20
35.64543486328876
 10
1.85224768323269
 20
35.21284862912876
 10
1.483197248832993
 20
34.81009619632875
 10
1.173254941312961
 20
34.41204703072879
 10
0.8522536877128459
 20
33.91889718368876
 10
0.5640257084328369
 20
33.36793578000874
 10
0.3338023130729653
 20
32.79711115088878
 10
0.1630810390729493
 20
32.21319514080875
 10
0.0517069208328849
 20
31.61914083168876
 10
0.0000146672330175
 20
31.01992821472874
 10
0.0233833905929259
 20
30.22516790160876
 10
0.1516267680328838
 20
29.43557335240877
 10
0.379828377072954
 20
28.67475020976878
 10
0.4873955187529191
 20
28.40476575016877
 10
0.6057540520328076
 20
28.14353170280879
 10
0.7343597189128559
 20
27.89081914344877
 10
0.8896452042729379
 20
27.61827541176876
 10
1.101460698992923
 20
27.28999447368875
 10
1.379567774832821
 20
26.91602715416877
 10
1.736213031552779
 20
26.50668096552875
 10
2.185951862032879
 20
26.07414046504874
  0
LWPOLYLINE
  5
596
330
538
100
AcDbEntity
  8
0
  6
Continuous
 62
     7
100
AcDbPolyline
 90
       22
 70
   128
 43
0.0
 10
9.269750083552935
 20
24.82992165784879
 10
9.864074787152731
 20
25.08309944424877
 10
10.53332361307298
 20
25.45923100952876
 10
11.1755804038728
 20
25.92366742392875
 10
11.74051773707287
 20
26.44127803320876
 10
12.19654219131303
 20
26.96218437328878
 10
12.55675868491289
 20
27.46855891112875
 10
12.86249793587285
 20
28.00006856624879
 10
13.13805114411298
 20
28.61742563360877
 10
13.36155874755286
 20
29.32610085360875
 10
13.49785404971294
 20
30.05823254816875
 10
13.53576741083293
 20
30.49456374504877
 10
13.54211456467283
 20
30.92852911120878
 10
13.51750651083284
 20
31.36001616776878
 10
13.45985698339291
 20
31.80282252432875
 10
13.351871852273
 20
32.31210627112876
 10
13.20914086507287
 20
32.78714296824879
 10
13.00440967747295
 20
33.30435208400877
 10
12.72708576843297
 20
33.85008156624877
 10
12.3681066379529
 20
34.40944378032876
 10
11.91389241171282
 20
34.97352645744877
 10
11.35694565267295
 20
35.52288075568873
  0
ARC
  5
5AE
330
538
100
AcDbEntity
  8
0
  6
Continuous
 62
     7
100
AcDbCircle
 10
-155.7302498815671
 20
23.75862773616876
 30
0.0
 40
159.99999996528
100
AcDbArc
 50
351.7060956319
 51
0.0
  0
ARC
  5
5AF
330
538
100
AcDbEntity
  8
0
  6
Continuous
 62
     7
100
AcDbCircle
 10
169.2697500485929
 20
23.75862773616876
 30
0.0
 40
159.99999996528
100
AcDbArc
 50
180.0
 51
188.2939043681
  0
LWPOLYLINE
  5
5B0
330
538
100
AcDbEntity
  8
0
  6
Continuous
 62
     7
100
AcDbPolyline
 90
        5
 70
   128
 43
0.0
 10
10.78992787795278
 20
0.4546814745687584
 10
10.855604116113
 20
0.4828241508087672
 10
10.91028131827306
 20
0.5366351493687489
 10
10.94067873755284
 20
0.6070710560087491
 10
10.94316745795299
 20
0.6784796329687595
  0
ARC
  5
5B7
330
538
100
AcDbEntity
  8
0
  6
Continuous
 62
     7
100
AcDbCircle
 10
6.769750083552935
 20
17.99999909736874
 30
0.0
 40
18.0
100
AcDbArc
 50
270.0
 51
282.905471546
  0
LWPOLYLINE
  5
5B8
330
538
100
AcDbEntity
  8
0
  6
Continuous
 62
     7
100
AcDbPolyline
 90
        5
 70
   128
 43
0.0
 10
2.596332709072839
 20
0.6784796329687595
 10
2.598821429472764
 20
0.6070710560087491
 10
2.629218848752771
 20
0.5366351493687489
 10
2.683896050912835
 20
0.4828241508087672
 10
2.749572289073057
 20
0.4546814745687584
  0
LWPOLYLINE
  5
5BF
330
538
100
AcDbEntity
  8
0
  6
Continuous
 62
     7
100
AcDbPolyline
 90
        5
 70
   128
 43
0.0
 10
2.77801687539295
 20
0.6784796329687595
 10
2.782435637552907
 20
0.5982522607287706
 10
2.820279350112741
 20
0.5216861259287669
 10
2.869046990192828
 20
0.4780324000887504
 10
2.924585380272901
 20
0.4546814745687584
  0
LINE
  5
5C6
330
538
100
AcDbEntity
  8
0
  6
Continuous
 62
     7
100
AcDbLine
 10
2.77801687539295
 20
0.6784796329687595
 30
0.0
 11
2.596332701472874
 21
0.6784796329687595
 31
0.0
  0
LWPOLYLINE
  5
5C7
330
538
100
AcDbEntity
  8
0
  6
Continuous
 62
     7
100
AcDbPolyline
 90
        4
 70
   128
 43
0.0
 10
2.749572287473029
 20
0.4546814745687584
 10
2.764677126032893
 20
0.4546814843287735
 10
2.82301062211286
 20
0.4546814844887593
 10
2.924585421632855
 20
0.454681464648786
  0
ARC
  5
5CD
330
538
100
AcDbEntity
  8
0
  6
Continuous
 62
     7
100
AcDbCircle
 10
6.769750083552935
 20
17.99999909736874
 30
0.0
 40
18.0
100
AcDbArc
 50
257.0945278884
 51
270.0
  0
LINE
  5
5CE
330
538
100
AcDbEntity
  8
0
  6
Continuous
 62
     7
100
AcDbLine
 10
10.94316745435276
 20
0.6784796329687595
 30
0.0
 11
2.77801687539295
 21
0.6784796329687595
 31
0.0
  0
LWPOLYLINE
  5
5CF
330
538
100
AcDbEntity
  8
0
  6
Continuous
 62
     7
100
AcDbPolyline
 90
       29
 70
   128
 43
0.0
 10
2.924585421632855
 20
0.454681464648786
 10
3.068288649873011
 20
0.4546814644887718
 10
3.252545864112789
 20
0.4546814640087291
 10
3.475338303792796
 20
0.4546814632087717
 10
3.73422500835295
 20
0.4546814620887574
 10
4.026369560833018
 20
0.4546814606487715
 10
4.348571164432996
 20
0.4546814589687643
 10
4.697299710992865
 20
0.454681456968757
 10
5.06873445739302
 20
0.4546814548087355
 10
5.458805886992877
 20
0.4546814523287708
 10
5.863240295632976
 20
0.4546814497687706
 10
6.277606615072954
 20
0.4546814469687775
 10
6.69736496139285
 20
0.4546814440087417
 10
7.117916374272908
 20
0.4546814410487628
 10
7.534653204432743
 20
0.4546814379287696
 10
7.943009595872808
 20
0.454681434808748
 10
8.338511510672788
 20
0.4546814316887549
 10
8.716825746912945
 20
0.4546814286487689
 10
9.073807414752764
 20
0.4546814256087544
 10
9.40554534827288
 20
0.4546814226487755
 10
9.708404957392758
 20
0.454681419928761
 10
9.979068048672843
 20
0.4546814172887821
 10
10.21456918083299
 20
0.4546814148887393
 10
10.41232815403282
 20
0.4546814126487675
 10
10.57017827963273
 20
0.4546814106487603
 10
10.68639011867299
 20
0.454681408968753
 10
10.75969042979295
 20
0.4546814075287671
 10
10.78927611963308
 20
0.4546814064087528
 10
10.789927629153
 20
0.454681434808748
  0
LINE
  5
5EE
330
538
100
AcDbEntity
  8
0
  6
Continuous
 62
     7
100
AcDbLine
 10
11.56975008355289
 20
30.79999909688877
 30
0.0
 11
11.42797789475298
 21
30.79999909784874
 31
0.0
  0
LINE
  5
5EF
330
538
100
AcDbEntity
  8
0
  6
Continuous
 62
     7
100
AcDbLine
 10
11.59138123067305
 20
30.79999909736879
 30
0.0
 11
11.56975008355289
 21
30.79999909688877
 31
0.0
  0
LINE
  5
5F0
330
538
100
AcDbEntity
  8
0
  6
Continuous
 62
     7
100
AcDbLine
 10
2.111522308992789
 20
30.79999909784874
 30
0.0
 11
1.96975008355298
 21
30.79999909728875
 31
0.0
  0
LINE
  5
5F1
330
538
100
AcDbEntity
  8
0
  6
Continuous
 62
     7
100
AcDbLine
 10
1.96975008355298
 20
30.79999909728875
 30
0.0
 11
1.948118936272749
 21
30.79999909736879
 31
0.0
  0
LINE
  5
5F2
330
538
100
AcDbEntity
  8
0
  6
Continuous
 62
     7
100
AcDbLine
 10
9.269750083472899
 20
23.75862773616876
 30
0.0
 11
9.269750083552935
 21
26.70243884768877
 31
0.0
  0
LINE
  5
5F3
330
538
100
AcDbEntity
  8
0
  6
Continuous
 62
     7
100
AcDbLine
 10
4.269750083552935
 20
26.70243884768877
 30
0.0
 11
4.269750083552935
 21
23.75862773616876
 31
0.0
  0
LINE
  5
5F4
330
538
100
AcDbEntity
  8
0
  6
Continuous
 62
     7
100
AcDbLine
 10
4.269750083552935
 20
23.75862773616876
 30
0.0
 11
9.269750083472899
 21
23.75862773616876
 31
0.0
  0
LWPOLYLINE
  5
5F5
330
538
100
AcDbEntity
  8
0
  6
Continuous
 62
     7
100
AcDbPolyline
 90
        3
 70
   128
 43
0.0
 10
2.194307812672832
 20
26.09821668136877
 10
2.18569461987272
 20
26.08089722336877
 10
2.186429718592989
 20
26.07467666112877
  0
LWPOLYLINE
  5
5FA
330
538
100
AcDbEntity
  8
0
  6
Continuous
 62
     7
100
AcDbPolyline
 90
        5
 70
   128
 43
0.0
 10
2.185951862032879
 20
26.07414046504874
 10
2.802284545633028
 20
25.59450577072875
 10
3.414574855632963
 20
25.21810730144876
 10
4.012819142032867
 20
24.92852293528875
 10
4.269750083552935
 20
24.83200680600877
  0
LWPOLYLINE
  5
601
330
538
100
AcDbEntity
  8
0
  6
Continuous
 62
     7
100
AcDbPolyline
 90
        5
 70
   128
 43
0.0
 10
4.269750083552935
 20
24.86644248208876
 10
3.788710196352894
 20
25.05353405216877
 10
3.238417906112999
 20
25.34385891088874
 10
2.718451787072808
 20
25.68171326360874
 10
2.194307812672832
 20
26.09821668136877
  0
LWPOLYLINE
  5
608
330
538
100
AcDbEntity
  8
0
  6
Continuous
 62
     7
100
AcDbPolyline
 90
       19
 70
   128
 43
0.0
 10
2.194307812672832
 20
26.09821668136877
 10
2.123224474913058
 20
26.16161613160875
 10
2.018267287392973
 20
26.25865183712875
 10
1.881484835232868
 20
26.39165977416877
 10
1.71574362971296
 20
26.56364445464877
 10
1.585203974752857
 20
26.70833791632879
 10
1.471251834432905
 20
26.84205729272878
 10
1.372854579312843
 20
26.96364830808878
 10
1.289050716832889
 20
27.07212313288875
 10
1.085810445952802
 20
27.35675919776878
 10
0.9148992317127522
 20
27.62451304672874
 10
0.7450282923530267
 20
27.9239092046488
 10
0.5999218256329187
 20
28.21452903456876
 10
0.4196072765130339
 20
28.64099433944875
 10
0.2768291795528057
 20
29.06229459344877
 10
0.1689444306728092
 20
29.47479470464879
 10
0.0866083641128626
 20
29.91788430512875
 10
0.0378117852328615
 20
30.36052752632878
 10
0.0217585898728885
 20
30.79999911784876
  0
ARC
  5
61D
330
538
100
AcDbEntity
  8
0
  6
Continuous
 62
     7
100
AcDbCircle
 10
6.769750083552935
 20
30.79999909736879
 30
0.0
 40
4.658227811279999
100
AcDbArc
 50
180.0
 51
0.0
  0
ARC
  5
61E
330
538
100
AcDbEntity
  8
0
  6
Continuous
 62
     7
100
AcDbCircle
 10
6.769750083552935
 20
30.79999909736879
 30
0.0
 40
4.8
100
AcDbArc
 50
180.0
 51
0.0
  0
ARC
  5
61F
330
538
100
AcDbEntity
  8
0
  6
Continuous
 62
     7
100
AcDbCircle
 10
6.769750083472899
 20
30.79999909736879
 30
0.0
 40
4.8216311472
100
AcDbArc
 50
180.0
 51
238.7685307303
  0
ARC
  5
620
330
538
100
AcDbEntity
  8
0
  6
Continuous
 62
     7
100
AcDbCircle
 10
6.769750083472899
 20
30.79999909736879
 30
0.0
 40
4.8216311472
100
AcDbArc
 50
301.2314692697
 51
0.0
  0
LWPOLYLINE
  5
621
330
538
100
AcDbEntity
  8
0
  6
Continuous
 62
     7
100
AcDbPolyline
 90
       19
 70
   128
 43
0.0
 10
13.51774153115298
 20
30.79999909736879
 10
13.48436516835272
 20
30.16639886360878
 10
13.38479233467296
 20
29.53989883168873
 10
13.2164365943529
 20
28.91444474504877
 10
12.99329069371288
 20
28.33264775024878
 10
12.71204081563292
 20
27.77390567328877
 10
12.35728542643278
 20
27.21766495376875
 10
12.17090600411279
 20
26.96909072648876
 10
11.90975728179296
 20
26.65801043176876
 10
11.57546279859298
 20
26.31047341528875
 10
11.27427215891293
 20
26.03668807760874
 10
11.04120937667289
 20
25.84638024376878
 10
10.76637219459303
 20
25.64294101880876
 10
10.50021709187285
 20
25.46535283296876
 10
10.24495048627295
 20
25.31127431480877
 10
9.955665311792927
 20
25.15423199936873
 10
9.669506953952804
 20
25.01587448920878
 10
9.387686956112929
 20
24.89499366184876
 10
9.269750083552935
 20
24.85373376952876
  0
LWPOLYLINE
  5
636
330
538
100
AcDbEntity
  8
0
  6
Continuous
 62
     7
100
AcDbPolyline
 90
        3
 70
   128
 43
0.0
 10
11.35646730795292
 20
35.52234478104879
 10
11.35719879747284
 20
35.51612278816879
 10
11.34857317179285
 20
35.49880654088875
  0
ENDBLK
  5
63C
330
538
100
AcDbEntity
  8
0
100
AcDbBlockEnd
  0
BLOCK
  5
1BC
330
93
100
AcDbEntity
  8
0
100
AcDbBlockBegin
  2
A$C0DFD62C4
 70
     0
 10
0.0
 20
0.0
 30
0.0
  3
A$C0DFD62C4
  1

  0
LWPOLYLINE
  5
94
330
93
100
AcDbEntity
  8
0
  6
Continuous
 62
     7
100
AcDbPolyline
 90
        6
 70
   128
 43
0.0
 10
14.16914317223154
 20
32.86232030192878
 10
14.12815791727166
 20
33.39589548400875
 10
14.08407356103157
 20
33.86607945728875
 10
14.02878767335164
 20
34.36951605672874
 10
13.96204368111171
 20
34.89591722232876
 10
13.88581412071153
 20
35.42440267928876
  0
LWPOLYLINE
  5
9C
330
93
100
AcDbEntity
  8
0
  6
Continuous
 62
     7
100
AcDbPolyline
 90
       19
 70
   128
 43
0.0
 10
13.59992233535172
 20
35.49880654096879
 10
13.60875382535164
 20
35.43709047816879
 10
13.6223198171117
 20
35.34068544168875
 10
13.64061301631181
 20
35.20719104464877
 10
13.66362354655166
 20
35.03348810112874
 10
13.68224470631185
 20
34.88784723376876
 10
13.69889248087156
 20
34.75330364232878
 10
13.71357060151172
 20
34.63102909872876
 10
13.72628237127173
 20
34.52202551760877
 10
13.75756301543174
 20
34.23932092552878
 10
13.78485512215184
 20
33.97290797880879
 10
13.81281611247186
 20
33.67500868816876
 10
13.8373955705515
 20
33.38564147032878
 10
13.86886942423166
 20
32.95957332840874
 10
13.89450121183154
 20
32.53867620952878
 10
13.91430865495158
 20
32.12657660456875
 10
13.92963762279169
 20
31.68312352368878
 10
13.93883232919165
 20
31.24002039192877
 10
13.94189958471156
 20
30.79999909736879
  0
LINE
  5
B1
330
93
100
AcDbEntity
  8
0
  6
Continuous
 62
     7
100
AcDbLine
 10
7.97341784543164
 20
35.42329142880877
 30
0.0
 11
7.97341784543164
 21
30.79999909736879
 31
0.0
  0
LINE
  5
B2
330
93
100
AcDbEntity
  8
0
  6
Continuous
 62
     7
100
AcDbLine
 10
7.573417845431777
 20
30.79999909736879
 30
0.0
 11
7.573417845431777
 21
35.39999909736878
 31
0.0
  0
LINE
  5
B3
330
93
100
AcDbEntity
  8
0
  6
Continuous
 62
     7
100
AcDbLine
 10
8.147694041031627
 20
30.79999909736879
 30
0.0
 11
8.147694041031627
 21
35.62163024456874
 31
0.0
  0
LINE
  5
B4
330
93
100
AcDbEntity
  8
0
  6
Continuous
 62
     7
100
AcDbLine
 10
7.373417845431731
 20
35.59999909736877
 30
0.0
 11
7.373417845431731
 21
30.79999909688877
 31
0.0
  0
ARC
  5
B5
330
93
100
AcDbEntity
  8
0
  6
Continuous
 62
     7
100
AcDbCircle
 10
16.03644506823161
 20
30.79999909736879
 30
0.0
 40
16.00000000008
100
AcDbArc
 50
163.0738270018
 51
180.0
  0
LINE
  5
B6
330
93
100
AcDbEntity
  8
0
  6
Continuous
 62
     7
100
AcDbLine
 10
0.920890165831679
 20
30.79999909688877
 30
0.0
 11
0.920890165831679
 21
35.59999909736877
 31
0.0
  0
LWPOLYLINE
  5
B7
330
93
100
AcDbEntity
  8
0
  6
Continuous
 62
     7
100
AcDbPolyline
 90
       18
 70
   128
 43
0.0
 10
0.7295540278316821
 20
35.45822690080877
 10
0.7295540278316821
 20
35.45822687184875
 10
0.7295540299917321
 20
35.43579623192878
 10
0.7295540321515546
 20
35.36872033136877
 10
0.7295540343116045
 20
35.25764514784877
 10
0.7295540363916189
 20
35.10364039608877
 10
0.7295540383115622
 20
34.90818922592877
 10
0.7295540402315055
 20
34.67317393912873
 10
0.7295540419916052
 20
34.40085786136876
 10
0.7295540435916337
 20
34.09386354520876
 10
0.7295540450318186
 20
33.75514751384873
 10
0.7295540463915132
 20
33.38797178776878
 10
0.7295540475117832
 20
32.99587246992877
 10
0.7295540483917194
 20
32.58262569120876
 10
0.7295540491118118
 20
32.15221124384874
 10
0.7295540496716058
 20
31.70877425432877
 10
0.7295540499917479
 20
31.25658526328874
 10
0.7295540167117452
 20
30.79999909784874
  0
ARC
  5
CB
330
93
100
AcDbEntity
  8
0
  6
Continuous
 62
     7
100
AcDbCircle
 10
-158.3265821196083
 20
23.75862773616876
 30
0.0
 40
159.99999996528
100
AcDbArc
 50
351.7060956319
 51
0.0
  0
ARC
  5
CC
330
93
100
AcDbEntity
  8
0
  6
Continuous
 62
     7
100
AcDbCircle
 10
166.6734178105516
 20
23.75862773616876
 30
0.0
 40
159.99999996528
100
AcDbArc
 50
180.0
 51
188.2939043681
  0
LWPOLYLINE
  5
CD
330
93
100
AcDbEntity
  8
0
  6
Continuous
 62
     7
100
AcDbPolyline
 90
        5
 70
   128
 43
0.0
 10
8.19359449511171
 20
0.4546814745687584
 10
8.259270924791735
 20
0.4828241508087672
 10
8.3139483066318
 20
0.5366351493687489
 10
8.344345893351828
 20
0.6070710560087491
 10
8.346834765671701
 20
0.6784796329687595
  0
LWPOLYLINE
  5
D4
330
93
100
AcDbEntity
  8
0
  6
Continuous
 62
     7
100
AcDbPolyline
 90
        5
 70
   128
 43
0.0
 10
5.346677370551788
 20
0.4546814745687584
 10
5.368019123031672
 20
0.4880000940087541
 10
5.38467663799156
 20
0.5525761534487686
 10
5.391173591911638
 20
0.6158988485687474
 10
5.391399224471797
 20
0.6784796329687595
  0
ARC
  5
DB
330
93
100
AcDbEntity
  8
0
  6
Continuous
 62
     7
100
AcDbCircle
 10
4.173417845431686
 20
17.99999909736874
 30
0.0
 40
18.0
100
AcDbArc
 50
270.0
 51
282.9054721116
  0
LINE
  5
DC
330
93
100
AcDbEntity
  8
0
  6
Continuous
 62
     7
100
AcDbLine
 10
8.346835227511746
 20
0.6784796329687595
 30
0.0
 11
5.391399224471797
 21
0.6784796329687595
 31
0.0
  0
LINE
  5
DD
330
93
100
AcDbEntity
  8
0
  6
Continuous
 62
     7
100
AcDbLine
 10
5.34667735751168
 20
0.454681464648786
 30
0.0
 11
8.193595641431556
 21
0.4546814745687584
 31
0.0
  0
LWPOLYLINE
  5
DE
330
93
100
AcDbEntity
  8
0
  6
Continuous
 62
     7
100
AcDbPolyline
 90
        5
 70
   128
 43
0.0
 10
0.0000009251916708
 20
0.6784796329687595
 10
0.0024897975915792
 20
0.6070710560087491
 10
0.0328873842315716
 20
0.5366351493687489
 10
0.0875647660718642
 20
0.4828241508087672
 10
0.1532411957516615
 20
0.4546814745687584
  0
ARC
  5
E5
330
93
100
AcDbEntity
  8
0
  6
Continuous
 62
     7
100
AcDbCircle
 10
4.173417845431686
 20
17.99999909736874
 30
0.0
 40
18.0
100
AcDbArc
 50
257.094528454
 51
270.0
  0
LINE
  5
E6
330
93
100
AcDbEntity
  8
0
  6
Continuous
 62
     7
100
AcDbLine
 10
5.391399224471797
 20
0.6784796329687595
 30
0.0
 11
0.0000008045517461
 21
0.6784796329687595
 31
0.0
  0
LWPOLYLINE
  5
E7
330
93
100
AcDbEntity
  8
0
  6
Continuous
 62
     7
100
AcDbPolyline
 90
       19
 70
   128
 43
0.0
 10
0.1532420396717953
 20
0.454681434808748
 10
0.168344887911644
 20
0.4546814410487628
 10
0.2266783839918389
 20
0.4546814379287696
 10
0.328253183511606
 20
0.454681434808748
 10
0.4719564116717266
 20
0.4546814316887549
 10
0.6562136259117324
 20
0.4546814286487689
 10
0.8790060655915112
 20
0.4546814256087544
 10
1.13789277007163
 20
0.4546814226487755
 10
1.430037322551697
 20
0.454681419928761
 10
1.752238926151676
 20
0.4546814172887821
 10
2.100967472631509
 20
0.4546814148887393
 10
2.4724022191117
 20
0.4546814126487675
 10
2.862473648711556
 20
0.4546814106487603
 10
3.266908057271848
 20
0.454681408968753
 10
3.681274376711826
 20
0.4546814075287671
 10
4.101032723031721
 20
0.4546814064087528
 10
4.52158413591178
 20
0.4546814056087669
 10
4.938320966071614
 20
0.4546814051287527
 10
5.34667735751168
 20
0.454681464648786
  0
LINE
  5
FC
330
93
100
AcDbEntity
  8
0
  6
Continuous
 62
     7
100
AcDbLine
 10
14.37341784543173
 20
32.69999909736879
 30
0.0
 11
14.17547042287174
 21
32.69999909736879
 31
0.0
  0
LINE
  5
FD
330
93
100
AcDbEntity
  8
0
  6
Continuous
 62
     7
100
AcDbLine
 10
8.147694041031627
 20
30.79999909736879
 30
0.0
 11
7.97341784543164
 21
30.79999909736879
 31
0.0
  0
LINE
  5
FE
330
93
100
AcDbEntity
  8
0
  6
Continuous
 62
     7
100
AcDbLine
 10
7.97341784543164
 20
32.69999909736879
 30
0.0
 11
7.573417845431777
 21
32.69999909736879
 31
0.0
  0
LINE
  5
FF
330
93
100
AcDbEntity
  8
0
  6
Continuous
 62
     7
100
AcDbLine
 10
0.920890165831679
 20
30.79999909688877
 30
0.0
 11
0.7295540167117452
 21
30.79999909784874
 31
0.0
  0
LINE
  5
100
330
93
100
AcDbEntity
  8
0
  6
Continuous
 62
     7
100
AcDbLine
 10
14.17505211663183
 20
28.89999909736878
 30
0.0
 11
14.37341784543173
 21
28.89999909736878
 31
0.0
  0
LWPOLYLINE
  5
101
330
93
100
AcDbEntity
  8
0
  6
Continuous
 62
     7
100
AcDbPolyline
 90
        5
 70
   128
 43
0.0
 10
13.31204271615161
 20
24.38848158272873
 10
13.38514923783168
 20
24.36771233368876
 10
13.46074578663183
 20
24.37576335520876
 10
13.52791703135176
 20
24.41148954208876
 10
13.57696976151169
 20
24.46974102232878
  0
LINE
  5
108
330
93
100
AcDbEntity
  8
0
  6
Continuous
 62
     7
100
AcDbLine
 10
13.60400443343178
 20
24.57539091440879
 30
0.0
 11
13.60371333959165
 21
24.57393104840878
 31
0.0
  0
LWPOLYLINE
  5
109
330
93
100
AcDbEntity
  8
0
  6
Continuous
 62
     7
100
AcDbPolyline
 90
       14
 70
   128
 43
0.0
 10
13.58190687727165
 20
24.48023796520877
 10
13.59903669671166
 20
24.55785172696875
 10
13.63224526471163
 20
24.72043003520878
 10
13.67630272103156
 20
24.94619682656878
 10
13.72593088767166
 20
25.21261453040876
 10
13.79458750487174
 20
25.60421061024877
 10
13.85971607575175
 20
26.00516729480876
 10
13.91658207703176
 20
26.38443326904877
 10
13.96658444527156
 20
26.74332852816878
 10
14.00922844983165
 20
27.07258701384876
 10
14.04425962079176
 20
27.36393006376878
 10
14.07906871583168
 20
27.68322116616878
 10
14.11653636551159
 20
28.07094710848878
 10
14.14813564719179
 20
28.45302200488874
  0
LINE
  5
119
330
93
100
AcDbEntity
  8
0
  6
Continuous
 62
     7
100
AcDbLine
 10
7.573417845431777
 20
28.89999909736878
 30
0.0
 11
7.97341784543164
 21
28.89999909736878
 31
0.0
  0
LWPOLYLINE
  5
11A
330
93
100
AcDbEntity
  8
0
  6
Continuous
 62
     7
100
AcDbPolyline
 90
        5
 70
   128
 43
0.0
 10
7.97341784543164
 20
26.17670676600875
 10
7.985430901671634
 20
26.10843591616879
 10
8.023176771111593
 20
26.04469305632875
 10
8.081535351031789
 20
25.99906215680875
 10
8.147694041031627
 20
25.97836795016878
  0
LINE
  5
121
330
93
100
AcDbEntity
  8
0
  6
Continuous
 62
     7
100
AcDbLine
 10
6.765680363431556
 20
25.99999909736875
 30
0.0
 11
7.373417845431731
 21
25.99999909736875
 31
0.0
  0
LINE
  5
122
330
93
100
AcDbEntity
  8
0
  6
Continuous
 62
     7
100
AcDbLine
 10
6.67341784535165
 20
23.75862773616876
 30
0.0
 11
6.673417845431686
 21
26.05324350528878
 31
0.0
  0
ARC
  5
123
330
93
100
AcDbEntity
  8
0
  6
Continuous
 62
     7
100
AcDbCircle
 10
7.373417845431731
 20
26.19999909736876
 30
0.0
 40
0.2
100
AcDbArc
 50
270.0
 51
0.0
  0
LINE
  5
124
330
93
100
AcDbEntity
  8
0
  6
Continuous
 62
     7
100
AcDbLine
 10
1.673417845431686
 20
26.05339817896879
 30
0.0
 11
1.673417845511721
 21
23.75862773616876
 31
0.0
  0
LINE
  5
125
330
93
100
AcDbEntity
  8
0
  6
Continuous
 62
     7
100
AcDbLine
 10
1.673417845511721
 20
23.75862773616876
 30
0.0
 11
4.903024584711602
 21
23.75862773616876
 31
0.0
  0
LWPOLYLINE
  5
126
330
93
100
AcDbEntity
  8
0
  6
Continuous
 62
     7
100
AcDbPolyline
 90
       11
 70
   128
 43
0.0
 10
4.173417845191806
 20
26.76515089696878
 10
3.774323507111603
 20
26.74514851344876
 10
3.387649872311612
 20
26.68935057096877
 10
3.026001804071711
 20
26.60509648168878
 10
2.693526799831715
 20
26.50231629072874
 10
2.368266438151749
 20
26.37976945816877
 10
2.089806186231726
 20
26.25891579640876
 10
1.848579532231724
 20
26.14336787400876
 10
1.677971472551689
 20
26.05581817760878
 10
1.591815970151856
 20
26.01003133680876
 10
1.581155327511623
 20
26.00420950040876
  0
LWPOLYLINE
  5
133
330
93
100
AcDbEntity
  8
0
  6
Continuous
 62
     7
100
AcDbPolyline
 90
       12
 70
   128
 43
0.0
 10
6.765680363431556
 20
26.00420950040876
 10
6.77019329055156
 20
26.00174496568878
 10
6.721374186471621
 20
26.02804346272876
 10
6.616638216471528
 20
26.08307999896877
 10
6.457363497031565
 20
26.16360878656877
 10
6.250094876951607
 20
26.26209346888874
 10
5.970562841591799
 20
26.38303239104875
 10
5.644470709111828
 20
26.50535166976877
 10
5.244416541671625
 20
26.62523381096878
 10
4.805225445191808
 20
26.71598381304875
 10
4.492571223671575
 20
26.75241167760876
 10
4.173417845191806
 20
26.76515089696878
  0
LINE
  5
141
330
93
100
AcDbEntity
  8
0
  6
Continuous
 62
     7
100
AcDbLine
 10
4.903024584711602
 20
23.75862773616876
 30
0.0
 11
6.67341784535165
 21
23.75862773616876
 31
0.0
  0
LWPOLYLINE
  5
142
330
93
100
AcDbEntity
  8
0
  6
Continuous
 62
     7
100
AcDbPolyline
 90
        5
 70
   128
 43
0.0
 10
0.7295540278316821
 20
26.14177124920877
 10
0.756497744631588
 20
26.08609066136876
 10
0.8018220544715859
 20
26.03930440296875
 10
0.8597772495118078
 20
26.00956482672876
 10
0.920890165831679
 20
25.99999909736875
  0
LINE
  5
149
330
93
100
AcDbEntity
  8
0
  6
Continuous
 62
     7
100
AcDbLine
 10
0.920890165831679
 20
25.99999910160875
 30
0.0
 11
1.581155327511623
 21
25.99999909736875
 31
0.0
  0
ARC
  5
14A
330
93
100
AcDbEntity
  8
0
  6
Continuous
 62
     7
100
AcDbCircle
 10
6.089789701591598
 20
10.11126267920878
 30
0.0
 40
15.99999999848
100
AcDbArc
 50
63.1762636829
 51
82.61020187510002
  0
ARC
  5
14B
330
93
100
AcDbEntity
  8
0
  6
Continuous
 62
     7
100
AcDbCircle
 10
16.03644506823161
 20
30.79999909736879
 30
0.0
 40
16.00000000008
100
AcDbArc
 50
180.0
 51
196.9261729982
  0
LWPOLYLINE
  5
14C
330
93
100
AcDbEntity
  8
0
  6
Continuous
 62
     7
100
AcDbPolyline
 90
        8
 70
   128
 43
0.0
 10
14.1490442641516
 20
28.50706622632879
 10
14.18836648391175
 20
29.10115574976877
 10
14.21660389343151
 20
29.71136312824877
 10
14.23271441023166
 20
30.33353584888875
 10
14.23589429327171
 20
30.95995256840877
 10
14.22600028199167
 20
31.58806523392878
 10
14.20332855175161
 20
32.20852666440874
 10
14.16928698463152
 20
32.80908716400876
  0
LINE
  5
156
330
93
100
AcDbEntity
  8
0
  6
Continuous
 62
     7
100
AcDbLine
 10
7.97341784543164
 20
26.17670676600875
 30
0.0
 11
7.97341784543164
 21
30.79999909736879
 31
0.0
  0
LINE
  5
157
330
93
100
AcDbEntity
  8
0
  6
Continuous
 62
     7
100
AcDbLine
 10
7.573417845431777
 20
26.19999909736876
 30
0.0
 11
7.573417845431777
 21
30.79999909736879
 31
0.0
  0
LINE
  5
158
330
93
100
AcDbEntity
  8
0
  6
Continuous
 62
     7
100
AcDbLine
 10
14.37341784543173
 20
32.69999909736879
 30
0.0
 11
14.37341784543173
 21
28.89999909736878
 31
0.0
  0
LWPOLYLINE
  5
159
330
93
100
AcDbEntity
  8
0
  6
Continuous
 62
     7
100
AcDbPolyline
 90
       22
 70
   128
 43
0.0
 10
13.94189958471156
 20
30.79999909736879
 10
13.93559544823165
 20
30.16639886360878
 10
13.91699125463174
 20
29.53989883168873
 10
13.88622009711162
 20
28.91444474504877
 10
13.84669657047152
 20
28.33264775024878
 10
13.7989545147916
 20
27.77390567328877
 10
13.74204169623181
 20
27.21766495376875
 10
13.71353755135169
 20
26.96909072648876
 10
13.67537536743157
 20
26.65801043176876
 10
13.62938934727162
 20
26.31047341528875
 10
13.59065573047178
 20
26.03668807760874
 10
13.5623690092716
 20
25.84638024376878
 10
13.53106184455169
 20
25.64294101880876
 10
13.50274900199156
 20
25.46535283296876
 10
13.47744011071177
 20
25.31127431480877
 10
13.45097770255165
 20
25.15423199936873
 10
13.42708195903174
 20
25.01587448920878
 10
13.40575970711165
 20
24.89499366184876
 10
13.36708177343166
 20
24.68125322944877
 10
13.33839393767175
 20
24.52708738080878
 10
13.31993848655156
 20
24.42973064664878
 10
13.31415812983187
 20
24.39923850568874
  0
LINE
  5
171
330
93
100
AcDbEntity
  8
0
  6
Continuous
 62
     7
100
AcDbLine
 10
8.147694041031627
 20
25.97836795016878
 30
0.0
 11
8.147694041031627
 21
30.79999909736879
 31
0.0
  0
LINE
  5
172
330
93
100
AcDbEntity
  8
0
  6
Continuous
 62
     7
100
AcDbLine
 10
0.7295540167117452
 20
30.79999909784874
 30
0.0
 11
0.7295540278316821
 21
26.14177129400878
 31
0.0
  0
LINE
  5
173
330
93
100
AcDbEntity
  8
0
  6
Continuous
 62
     7
100
AcDbLine
 10
0.920890165831679
 20
25.99999910160875
 30
0.0
 11
0.920890165831679
 21
30.79999909688877
 31
0.0
  0
LINE
  5
174
330
93
100
AcDbEntity
  8
0
  6
Continuous
 62
     7
100
AcDbLine
 10
7.373417845431731
 20
30.79999909688877
 30
0.0
 11
7.373417845431731
 21
25.99999909736875
 31
0.0
  0
LWPOLYLINE
  5
175
330
93
100
AcDbEntity
  8
0
  6
Continuous
 62
     7
100
AcDbPolyline
 90
        6
 70
   128
 43
0.0
 10
13.67729321743172
 20
36.65424049784875
 10
13.6730666927117
 20
36.67667932608879
 10
13.64531706543175
 20
36.81991224888875
 10
13.61879354519169
 20
36.95276728312876
 10
13.59702925039164
 20
37.05797876464877
 10
13.58447840791155
 20
37.11441769816875
  0
LWPOLYLINE
  5
17D
330
93
100
AcDbEntity
  8
0
  6
Continuous
 62
     7
100
AcDbPolyline
 90
        5
 70
   128
 43
0.0
 10
13.5769535999118
 20
37.13033747760875
 10
13.52790789463165
 20
37.18855428376878
 10
13.46074173959164
 20
37.22425527880878
 10
13.3851482337518
 20
37.23229093560878
 10
13.31204272223158
 20
37.21151644640875
  0
LINE
  5
184
330
93
100
AcDbEntity
  8
0
  6
Continuous
 62
     7
100
AcDbLine
 10
13.60397479407174
 20
37.02475580320879
 30
0.0
 11
13.60374202863158
 21
37.02592316120877
 31
0.0
  0
LWPOLYLINE
  5
185
330
93
100
AcDbEntity
  8
0
  6
Continuous
 62
     7
100
AcDbPolyline
 90
        3
 70
   128
 43
0.0
 10
13.60274619943175
 20
37.03091741216878
 10
13.61708650335163
 20
36.95870622168877
 10
13.63857980055172
 20
36.84836136288874
  0
LWPOLYLINE
  5
18A
330
93
100
AcDbEntity
  8
0
  6
Continuous
 62
     7
100
AcDbPolyline
 90
        8
 70
   128
 43
0.0
 10
13.88435567927172
 20
35.42394501880875
 10
13.87292996591168
 20
35.44953651856875
 10
13.84349863063153
 20
35.48117357536876
 10
13.80333997671164
 20
35.50501086408877
 10
13.75533173031158
 20
35.51934022912874
 10
13.70291411287167
 20
35.52313484328875
 10
13.64984331495157
 20
35.51612278816879
 10
13.59992233543153
 20
35.49880654088875
  0
LWPOLYLINE
  5
194
330
93
100
AcDbEntity
  8
0
  6
Continuous
 62
     7
100
AcDbPolyline
 90
       11
 70
   128
 43
0.0
 10
13.88581413103156
 20
35.42440261072875
 10
13.82218176959168
 20
35.83067509600875
 10
13.77122619007173
 20
36.13472359400876
 10
13.73283591071185
 20
36.35336196752877
 10
13.70533430471164
 20
36.50511509952878
 10
13.68522509703166
 20
36.61332829672875
 10
13.66086249047157
 20
36.73898928872876
 10
13.63238243399178
 20
36.87878043856875
 10
13.60336015943176
 20
37.01142982848876
 10
13.57814125735172
 20
37.11219924088875
 10
13.56192478231173
 20
37.15198426272877
  0
LWPOLYLINE
  5
1A1
330
93
100
AcDbEntity
  8
0
  6
Continuous
 62
     7
100
AcDbPolyline
 90
        8
 70
   128
 43
0.0
 10
13.3141226007117
 20
37.20093992408877
 10
13.31263164063171
 20
37.20880328840875
 10
13.33022638151169
 20
37.11615423976878
 10
13.37171541127168
 20
36.89347349424878
 10
13.43364310943161
 20
36.54639627984875
 10
13.48290486487167
 20
36.25583765896877
 10
13.53726761503162
 20
35.91739316632874
 10
13.59992234535161
 20
35.49880647104877
  0
LWPOLYLINE
  5
1AB
330
93
100
AcDbEntity
  8
0
  6
Continuous
 62
     7
100
AcDbPolyline
 90
        5
 70
   128
 43
0.0
 10
8.147694041031627
 20
35.62163024456874
 10
8.081535351031789
 20
35.60093603800874
 10
8.023176771111593
 20
35.55530513848876
 10
7.985430901671634
 20
35.49156227864876
 10
7.97341784543164
 20
35.42329142880877
  0
ARC
  5
1B2
330
93
100
AcDbEntity
  8
0
  6
Continuous
 62
     7
100
AcDbCircle
 10
7.373417845431731
 20
35.39999909736878
 30
0.0
 40
0.2
100
AcDbArc
 50
0.0
 51
90.0
  0
LWPOLYLINE
  5
1B3
330
93
100
AcDbEntity
  8
0
  6
Continuous
 62
     7
100
AcDbPolyline
 90
        5
 70
   128
 43
0.0
 10
0.920890165831679
 20
35.59999909736877
 10
0.8597772495118078
 20
35.59043336808878
 10
0.8018220544715859
 20
35.56069379184876
 10
0.756497744631588
 20
35.51390753344879
 10
0.7295540278316821
 20
35.45822694560877
  0
LINE
  5
1BA
330
93
100
AcDbEntity
  8
0
  6
Continuous
 62
     7
100
AcDbLine
 10
7.373417845431731
 20
35.59999909736877
 30
0.0
 11
0.920890165831679
 21
35.59999909736877
 31
0.0
  0
ARC
  5
1BB
330
93
100
AcDbEntity
  8
0
  6
Continuous
 62
     7
100
AcDbCircle
 10
6.089789701591598
 20
51.48873551560877
 30
0.0
 40
15.99999999848
100
AcDbArc
 50
277.3897981249
 51
296.8215255984
  0
ENDBLK
  5
1BD
330
93
100
AcDbEntity
  8
0
100
AcDbBlockEnd
  0
BLOCK
  5
535
330
465
100
AcDbEntity
  8
0
100
AcDbBlockBegin
  2
A$C3ADA3047
 70
     0
 10
0.0
 20
0.0
 30
0.0
  3
A$C3ADA3047
  1

  0
LWPOLYLINE
  5
466
330
465
100
AcDbEntity
  8
0
  6
Continuous
 62
     7
100
AcDbPolyline
 90
       11
 70
   128
 43
0.0
 10
14.23585209239172
 20
13.30483634052072
 10
14.23721376607182
 20
13.37776966604072
 10
14.21980508359183
 20
13.43320908340073
 10
14.19636571983164
 20
13.47043065076072
 10
14.18532660255164
 20
13.4831263837207
 10
14.17436465063156
 20
13.49385592524071
 10
14.14140430007182
 20
13.51808559188072
 10
14.09048407183172
 20
13.53920684556072
 10
14.02143539527173
 20
13.5448014229207
 10
13.98206858151161
 20
13.53708224988071
 10
13.94189821063173
 20
13.51993230492071
  0
LINE
  5
473
330
465
100
AcDbEntity
  8
0
  6
Continuous
 62
     7
100
AcDbLine
 10
14.37341784543173
 20
8.67193824572071
 30
0.0
 11
13.65630089639171
 21
8.67193824572071
 31
0.0
  0
LINE
  5
474
330
465
100
AcDbEntity
  8
0
  6
Continuous
 62
     7
100
AcDbLine
 10
13.65782403783169
 20
4.871938245720713
 30
0.0
 11
14.37341784543173
 21
4.871938245720713
 31
0.0
  0
LWPOLYLINE
  5
475
330
465
100
AcDbEntity
  8
0
  6
Continuous
 62
     7
100
AcDbPolyline
 90
        9
 70
   128
 43
0.0
 10
13.94189822583166
 20
0.0239443886007109
 10
14.00918054023168
 20
0.0006024025207125
 10
14.06677678103165
 20
-0.0000000619592839
 10
14.10939053967172
 20
0.0106092030007119
 10
14.13853919479175
 20
0.0241390094807059
 10
14.17189268391166
 20
0.0478379482807156
 10
14.20790770287158
 20
0.0897125449207153
 10
14.23479359687167
 20
0.1540960212407185
 10
14.23589429279173
 20
0.2388246172407094
  0
LWPOLYLINE
  5
480
330
465
100
AcDbEntity
  8
0
  6
Continuous
 62
     7
100
AcDbPolyline
 90
       19
 70
   128
 43
0.0
 10
13.59992233535172
 20
2.193115157400725
 10
13.60875382535164
 20
2.123985370040713
 10
13.6223198171117
 20
2.01975469268072
 10
13.64061301631181
 20
1.882525525960716
 10
13.66362354655166
 20
1.715269865800706
 10
13.68224470631185
 20
1.584056421720717
 10
13.69889248087156
 20
1.469598653640716
 10
13.71357060151172
 20
1.370846636280717
 10
13.72628237127173
 20
1.286823220840716
 10
13.75756301543174
 20
1.085361045000723
 10
13.78485512215184
 20
0.9155317858807165
 10
13.81281611247186
 20
0.7466407362007033
 10
13.8373955705515
 20
0.602190817000718
 10
13.86886942423166
 20
0.4220135319607153
 10
13.89450121183154
 20
0.2793098169207155
 10
13.91430865495158
 20
0.1714404783607222
 10
13.92963762279169
 20
0.0889439510807222
 10
13.93883232919165
 20
0.0400393475607217
 10
13.94189958471156
 20
0.0239467981207042
  0
LINE
  5
495
330
465
100
AcDbEntity
  8
0
  6
Continuous
 62
     7
100
AcDbLine
 10
13.8920944429517
 20
2.342420167400717
 30
0.0
 11
13.88952496359161
 21
2.306971007320711
 31
0.0
  0
LWPOLYLINE
  5
496
330
465
100
AcDbEntity
  8
0
  6
Continuous
 62
     7
100
AcDbPolyline
 90
        8
 70
   128
 43
0.0
 10
14.23589429327171
 20
0.2388246162807093
 10
14.22600028199167
 20
0.2895605801207068
 10
14.20332855175161
 20
0.4074030456407201
 10
14.16928698463152
 20
0.5887156710807063
 10
14.12501285951157
 20
0.8330962246007231
 10
14.05463611367167
 20
1.244475567240712
 10
13.97504916631169
 20
1.751321358120705
 10
13.89209444319158
 20
2.342420167400717
  0
LWPOLYLINE
  5
4A0
330
465
100
AcDbEntity
  8
0
  6
Continuous
 62
     7
100
AcDbPolyline
 90
        8
 70
   128
 43
0.0
 10
13.88952496359161
 20
2.306971007320711
 10
13.87292996591168
 20
2.272194951960713
 10
13.84349863063153
 20
2.24058401740072
 10
13.80333997671164
 20
2.214403409400716
 10
13.75533173031158
 20
2.195529203320717
 10
13.70291411287167
 20
2.185313905000711
 10
13.64984331495157
 20
2.184489531720714
 10
13.59992233543153
 20
2.193115157480718
  0
LWPOLYLINE
  5
4AA
330
465
100
AcDbEntity
  8
0
  6
Continuous
 62
     7
100
AcDbPolyline
 90
        3
 70
   128
 43
0.0
 10
13.8895249737518
 20
2.306970929480726
 10
13.84647507271165
 20
2.689813035720717
 10
13.80213906399172
 20
3.091217386600717
  0
LWPOLYLINE
  5
4AF
330
465
100
AcDbEntity
  8
0
  6
Continuous
 62
     7
100
AcDbPolyline
 90
       28
 70
   128
 43
0.0
 10
13.94189966647173
 20
13.51992973940072
 10
13.93550198783168
 20
13.48606894404072
 10
13.91680300551161
 20
13.38596006212071
 10
13.88619503263157
 20
13.2184868564407
 10
13.84655398967175
 20
12.99467491772071
 10
13.79869530871156
 20
12.71266644532071
 10
13.74164695719173
 20
12.35692528804071
 10
13.71331759047166
 20
12.17161581404072
 10
13.67533416471156
 20
11.9116553946807
 10
13.62922964647168
 20
11.57644492004071
 10
13.59018121199165
 20
11.27263572228071
 10
13.56171920479164
 20
11.03787450484071
 10
13.53067603839167
 20
10.76504270676072
 10
13.50259827095169
 20
10.50093525772071
 10
13.47749535727166
 20
10.24772028500071
 10
13.45089762655175
 20
9.956933799240715
 10
13.42688760495162
 20
9.669241925880712
 10
13.40547220831172
 20
9.385870491480716
 10
13.36694937863171
 20
8.776486971960721
 10
13.33835011439169
 20
8.159871194440711
 10
13.31994080671165
 20
7.532627998200723
 10
13.31263164063171
 20
6.575547294520703
 10
13.33022638151169
 20
5.617846966120708
 10
13.37171541127168
 20
4.682177905960713
 10
13.43364310943161
 20
3.790754322920705
 10
13.48290486487167
 20
3.240093393400712
 10
13.53726761503162
 20
2.719397091480715
 10
13.59992234535161
 20
2.193115078040719
  0
LWPOLYLINE
  5
4CD
330
465
100
AcDbEntity
  8
0
  6
Continuous
 62
     7
100
AcDbPolyline
 90
       20
 70
   128
 43
0.0
 10
13.80729965671162
 20
3.048319248440719
 10
13.73944143967174
 20
3.721464049000715
 10
13.67935851623178
 20
4.484445890120724
 10
13.63478587847157
 20
5.286487901320725
 10
13.60875308431173
 20
6.110617354920705
 10
13.60274619943175
 20
6.941992187320721
 10
13.61708650335163
 20
7.773856988120726
 10
13.65098582695168
 20
8.590411485480714
 10
13.70226551079168
 20
9.376980044920713
 10
13.76789024655181
 20
10.12325149948071
 10
13.84403492391175
 20
10.81892800740073
 10
13.92561251199163
 20
11.4494707497207
 10
13.98727933239161
 20
11.87379855236071
 10
14.04633827775183
 20
12.24880125644071
 10
14.10162921423171
 20
12.57742313204071
 10
14.14957720799179
 20
12.84762237732072
 10
14.18857407871155
 20
13.05855272068072
 10
14.21660844647181
 20
13.20577086444072
 10
14.23277544199163
 20
13.28910282252072
 10
14.23585209239172
 20
13.30483633964071
  0
LINE
  5
4E3
330
465
100
AcDbEntity
  8
0
  6
Continuous
 62
     7
100
AcDbLine
 10
14.37341784543173
 20
8.67193824572071
 30
0.0
 11
14.37341784543173
 21
4.871938245720713
 31
0.0
  0
LWPOLYLINE
  5
4E4
330
465
100
AcDbEntity
  8
0
  6
Continuous
 62
     7
100
AcDbPolyline
 90
        5
 70
   128
 43
0.0
 10
7.97341784543164
 20
11.39523057692071
 10
7.988604536871662
 20
11.4716769043607
 10
8.035708007671701
 20
11.54026850500071
 10
8.089346176071785
 20
11.5767022122807
 10
8.147694041031627
 20
11.59356939292071
  0
ARC
  5
4EB
330
465
100
AcDbEntity
  8
0
  6
Continuous
 62
     7
100
AcDbCircle
 10
7.373417845431731
 20
11.37193824572071
 30
0.0
 40
0.2
100
AcDbArc
 50
0.0
 51
90.0
  0
ARC
  5
4EC
330
465
100
AcDbEntity
  8
0
  6
Continuous
 62
     7
100
AcDbCircle
 10
4.173417845431686
 20
6.771938245720704
 30
0.0
 40
4.173417382
100
AcDbArc
 50
27.0818185674
 51
35.4442589586
  0
LINE
  5
4ED
330
465
100
AcDbEntity
  8
0
  6
Continuous
 62
     7
100
AcDbLine
 10
7.97341784543164
 20
8.67193824572071
 30
0.0
 11
7.573417845431777
 21
8.67193824572071
 31
0.0
  0
LWPOLYLINE
  5
4EE
330
465
100
AcDbEntity
  8
0
  6
Continuous
 62
     7
100
AcDbPolyline
 90
        5
 70
   128
 43
0.0
 10
0.7295540278316821
 20
11.43016609372071
 10
0.7610256671116531
 20
11.49211870172071
 10
0.8149063774317255
 20
11.54154790516071
 10
0.8671399838317483
 20
11.56458018796071
 10
0.920890165831679
 20
11.5719382457207
  0
ARC
  5
4F5
330
465
100
AcDbEntity
  8
0
  6
Continuous
 62
     7
100
AcDbCircle
 10
4.173417845431686
 20
6.771938245720704
 30
0.0
 40
4.173417382
100
AcDbArc
 50
171.1926470103
 51
188.8073529897
  0
ARC
  5
4F6
330
465
100
AcDbEntity
  8
0
  6
Continuous
 62
     7
100
AcDbCircle
 10
16.03644506823161
 20
6.771938245720704
 30
0.0
 40
16.00000000008
100
AcDbArc
 50
163.0738270018
 51
180.0
  0
LINE
  5
4F7
330
465
100
AcDbEntity
  8
0
  6
Continuous
 62
     7
100
AcDbLine
 10
7.373417845431731
 20
11.5719382457207
 30
0.0
 11
0.920890165831679
 21
11.5719382457207
 31
0.0
  0
ARC
  5
4F8
330
465
100
AcDbEntity
  8
0
  6
Continuous
 62
     7
100
AcDbCircle
 10
4.173417845431686
 20
6.771938245720704
 30
0.0
 40
4.173417382
100
AcDbArc
 50
324.5557410414
 51
332.9181814326
  0
LINE
  5
4F9
330
465
100
AcDbEntity
  8
0
  6
Continuous
 62
     7
100
AcDbLine
 10
7.573417845431777
 20
4.871938245720713
 30
0.0
 11
7.97341784543164
 21
4.871938245720713
 31
0.0
  0
LWPOLYLINE
  5
4FA
330
465
100
AcDbEntity
  8
0
  6
Continuous
 62
     7
100
AcDbPolyline
 90
        5
 70
   128
 43
0.0
 10
8.147694041031627
 20
1.95030709852071
 10
8.073835968311641
 20
1.975200102280709
 10
8.011872486391666
 20
2.030734519880724
 10
7.982640283351656
 20
2.088613241800715
 10
7.97341784543164
 20
2.148645914520713
  0
ARC
  5
501
330
465
100
AcDbEntity
  8
0
  6
Continuous
 62
     7
100
AcDbCircle
 10
7.373417845431731
 20
2.17193824572071
 30
0.0
 40
0.2
100
AcDbArc
 50
270.0
 51
0.0
  0
LWPOLYLINE
  5
502
330
465
100
AcDbEntity
  8
0
  6
Continuous
 62
     7
100
AcDbPolyline
 90
        5
 70
   128
 43
0.0
 10
0.920890165831679
 20
1.971938245720707
 10
0.852458673191677
 20
1.98400971996071
 10
0.789483919751774
 20
2.021165574280715
 10
0.7522421268718063
 20
2.064430855640708
 10
0.7295540278316821
 20
2.113710397720709
  0
LINE
  5
509
330
465
100
AcDbEntity
  8
0
  6
Continuous
 62
     7
100
AcDbLine
 10
0.920890165831679
 20
1.971938245720707
 30
0.0
 11
7.373417845431731
 21
1.971938245720707
 31
0.0
  0
ARC
  5
50A
330
465
100
AcDbEntity
  8
0
  6
Continuous
 62
     7
100
AcDbCircle
 10
16.03644506823161
 20
6.771938245720704
 30
0.0
 40
16.00000000008
100
AcDbArc
 50
180.0
 51
196.9261729982
  0
LINE
  5
50B
330
465
100
AcDbEntity
  8
0
  6
Continuous
 62
     7
100
AcDbLine
 10
8.147694041031627
 20
1.95030709852071
 30
0.0
 11
8.147694041031627
 21
11.59356939292071
 31
0.0
  0
LINE
  5
50C
330
465
100
AcDbEntity
  8
0
  6
Continuous
 62
     7
100
AcDbLine
 10
7.97341784543164
 20
11.39523057692071
 30
0.0
 11
7.97341784543164
 21
2.148645914520713
 31
0.0
  0
LINE
  5
50D
330
465
100
AcDbEntity
  8
0
  6
Continuous
 62
     7
100
AcDbLine
 10
7.573417845431777
 20
2.17193824572071
 30
0.0
 11
7.573417845431777
 21
11.37193823916071
 31
0.0
  0
LINE
  5
50E
330
465
100
AcDbEntity
  8
0
  6
Continuous
 62
     7
100
AcDbLine
 10
0.920890165831679
 20
1.971938245720707
 30
0.0
 11
0.920890165831679
 21
11.5719382457207
 31
0.0
  0
LWPOLYLINE
  5
50F
330
465
100
AcDbEntity
  8
0
  6
Continuous
 62
     7
100
AcDbPolyline
 90
       33
 70
   128
 43
0.0
 10
0.7295540055915808
 20
11.43016602020073
 10
0.7295540056716164
 20
11.40773538020072
 10
0.7295540059917585
 20
11.34065947956073
 10
0.7295540065517799
 20
11.22958429604071
 10
0.7295540072716449
 20
11.07557954420072
 10
0.7295540082318439
 20
10.88012837404071
 10
0.7295540093516593
 20
10.64511308724071
 10
0.7295540106317731
 20
10.37279700932072
 10
0.7295540120717306
 20
10.0658026931607
 10
0.7295540137515673
 20
9.727086661800711
 10
0.7295540154316314
 20
9.359910935640712
 10
0.7295540173515747
 20
8.967811617880713
 10
0.7295540193517809
 20
8.554564839080711
 10
0.7295540213517598
 20
8.124150391720704
 10
0.7295540235115823
 20
7.680713402200723
 10
0.7295540256716322
 20
7.228524411080712
 10
0.7295540278316821
 20
6.771938245720704
 10
0.7295540299917321
 20
6.315352080280703
 10
0.7295540321515546
 20
5.863163089160707
 10
0.7295540343116045
 20
5.419726099720705
 10
0.7295540363916189
 20
4.989311652360711
 10
0.7295540383115622
 20
4.576064873560724
 10
0.7295540402315055
 20
4.183965555720718
 10
0.7295540419916052
 20
3.816789829640711
 10
0.7295540435916337
 20
3.478073798200711
 10
0.7295540450318186
 20
3.17107948204071
 10
0.7295540463915132
 20
2.898763404200721
 10
0.7295540475117832
 20
2.663748117320722
 10
0.7295540483917194
 20
2.468296947240716
 10
0.7295540491118118
 20
2.314292195400724
 10
0.7295540496716058
 20
2.203217011800717
 10
0.7295540499917479
 20
2.136141111240718
 10
0.7295540167117452
 20
2.113710434440719
  0
LINE
  5
532
330
465
100
AcDbEntity
  8
0
  6
Continuous
 62
     7
100
AcDbLine
 10
7.373417845431731
 20
11.5719382457207
 30
0.0
 11
7.373417845431731
 21
1.971938245720707
 31
0.0
  0
ARC
  5
533
330
465
100
AcDbEntity
  8
0
  6
Continuous
 62
     7
100
AcDbCircle
 10
6.089789701591598
 20
-13.91679817251929
 30
0.0
 40
15.99999999848
100
AcDbArc
 50
60.61006795619999
 51
82.61020187510002
  0
ARC
  5
534
330
465
100
AcDbEntity
  8
0
  6
Continuous
 62
     7
100
AcDbCircle
 10
6.089789701591598
 20
27.46067466388073
 30
0.0
 40
15.99999999848
100
AcDbArc
 50
277.3897981249
 51
299.3908838359
  0
ENDBLK
  5
536
330
465
100
AcDbEntity
  8
0
100
AcDbBlockEnd
  0
ENDSEC
  0
SECTION
  2
ENTITIES
  0
LINE
  5
2C
330
2
100
AcDbEntity
  8
0
100
AcDbLine
 10
4.630675568518228
 20
10.10103417095738
 30
0.0
 11
4.630675568518455
 21
17.29661755463242
 31
0.0
  0
ARC
  5
3C
330
2
100
AcDbEntity
  8
0
100
AcDbCircle
 10
66.14481676001381
 20
5.177916210733187
 30
0.0
 40
39.36960693865621
100
AcDbArc
 50
154.0638197429077
 51
172.8164321508825
  0
LINE
  5
4C
330
2
100
AcDbEntity
  8
0
100
AcDbLine
 10
55.35350866118327
 20
9.997694704007315
 30
0.0
 11
65.58687292550442
 21
9.997694704007315
 31
0.0
  0
LINE
  5
4D
330
2
100
AcDbEntity
  8
0
100
AcDbLine
 10
67.32036385252357
 20
26.13923354885719
 30
0.0
 11
53.62001773416435
 21
26.13923354885719
 31
0.0
  0
LINE
  5
4E
330
2
100
AcDbEntity
  8
0
100
AcDbLine
 10
55.27792871322143
 20
26.41482079742174
 30
0.0
 11
64.4071514872119
 21
26.41482079742174
 31
0.0
  0
LINE
  5
4F
330
2
100
AcDbEntity
  8
0
100
AcDbLine
 10
52.46251363372042
 20
26.53292589983704
 30
0.0
 11
68.47743464188923
 21
26.53292589983704
 31
0.0
  0
LINE
  5
50
330
2
100
AcDbEntity
  8
0
100
AcDbLine
 10
51.92416507973852
 20
38.81624326470043
 30
0.0
 11
69.01629595034549
 21
38.81624326470043
 31
0.0
  0
ARC
  5
51
330
2
100
AcDbEntity
  8
0
100
AcDbCircle
 10
60.47019079334976
 20
-409.052405269518
 30
0.0
 40
451.0969563031885
100
AcDbArc
 50
88.92908202896347
 51
91.07091794621471
  0
ARC
  5
64
330
2
100
AcDbEntity
  8
0
100
AcDbCircle
 10
-23.42306066901253
 20
8.106320253137795
 30
0.0
 40
78.73921387732423
100
AcDbArc
 50
6.562332815595675
 51
12.95138605571538
  0
ARC
  5
73
330
2
100
AcDbEntity
  8
0
100
AcDbCircle
 10
-141.4189799386783
 20
1.383712077751106
 30
0.0
 40
196.8480346933047
100
AcDbArc
 50
2.540924084092365
 51
4.580799381204379
  0
ARC
  5
75
330
2
100
AcDbEntity
  8
0
100
AcDbCircle
 10
55.35350866118327
 20
10.11580352482069
 30
0.0
 40
0.118108820813382
100
AcDbArc
 50
182.5409240840924
 51
270.0
  0
LINE
  5
83
330
2
100
AcDbEntity
  8
0
100
AcDbLine
 10
51.80568445438533
 20
38.93106740489816
 30
0.0
 11
51.73025987523877
 21
41.64209581598796
 31
0.0
  0
ARC
  5
86
330
2
100
AcDbEntity
  8
0
100
AcDbCircle
 10
248.7261379291001
 20
37.83062542652273
 30
0.0
 40
196.8480346933047
100
AcDbArc
 50
181.3055591887976
 51
183.214346213199
  0
LINE
  5
87
330
2
100
AcDbEntity
  8
0
100
AcDbLine
 10
52.46251363372042
 20
26.53292589983704
 30
0.0
 11
56.13953400079484
 21
26.53292589983704
 31
0.0
  0
ARC
  5
88
330
2
100
AcDbEntity
  8
0
100
AcDbCircle
 10
52.46294694481051
 20
26.8085131484016
 30
0.0
 40
0.27558724858818
100
AcDbArc
 50
183.2143462034992
 51
270.0
  0
ARC
  5
89
330
2
100
AcDbEntity
  8
0
100
AcDbCircle
 10
53.62001773416435
 20
25.82427669334301
 30
0.0
 40
0.314956855514163
100
AcDbArc
 50
90.0
 51
192.9513860557154
  0
ARC
  5
8A
330
2
100
AcDbEntity
  8
0
100
AcDbCircle
 10
55.27792871322143
 20
26.29671197660837
 30
0.0
 40
0.118108820813382
100
AcDbArc
 50
90.0
 51
174.2894068625045
  0
LINE
  5
8B
330
2
100
AcDbEntity
  8
0
100
AcDbLine
 10
55.14302731423734
 20
26.17860687420487
 30
0.0
 11
55.16085595471011
 21
26.31232167774323
 31
0.0
  0
ARC
  5
8C
330
2
100
AcDbEntity
  8
0
100
AcDbCircle
 10
56.62667192495021
 20
26.41481707901185
 30
0.0
 40
0.118108820813382
100
AcDbArc
 50
7.594643368587556
 51
90.0
  0
LINE
  5
8D
330
2
100
AcDbEntity
  8
0
100
AcDbLine
 10
56.62667192495021
 20
26.53292589983704
 30
0.0
 11
56.43978827400158
 21
26.53292589983704
 31
0.0
  0
ARC
  5
8E
330
2
100
AcDbEntity
  8
0
100
AcDbCircle
 10
55.41487108935988
 20
26.29671197660837
 30
0.0
 40
0.118108820813382
100
AcDbArc
 50
3.814074834314192
 51
90.0
  0
ARC
  5
90
330
2
100
AcDbEntity
  8
0
100
AcDbCircle
 10
56.43978827400158
 20
26.41481707901185
 30
0.0
 40
0.118108820813382
100
AcDbArc
 50
90.0
 51
172.405356631412
  0
LINE
  5
91
330
2
100
AcDbEntity
  8
0
100
AcDbLine
 10
55.54977248834396
 20
26.17860687420487
 30
0.0
 11
55.53194384787142
 21
26.31232167774323
 31
0.0
  0
INSERT
  5
92
330
2
100
AcDbEntity
  8
0
100
AcDbBlockReference
  2
A$C0DFD62C4
 10
50.18921824980683
 20
33.58626150749622
 30
0.0
 41
0.1181099999998878
 42
0.1181100000000015
 43
0.11811
  0
LINE
  5
1BE
330
2
100
AcDbEntity
  8
0
100
AcDbLine
 10
51.92920432570739
 20
33.34557393131294
 30
0.0
 11
51.80889955863225
 21
38.62435596606633
 31
0.0
  0
LINE
  5
1BF
330
2
100
AcDbEntity
  8
0
100
AcDbLine
 10
51.83193811353934
 20
38.68182701874605
 30
0.0
 11
51.94329217769681
 21
38.79318108289181
 31
0.0
  0
LINE
  5
1C0
330
2
100
AcDbEntity
  8
0
100
AcDbLine
 10
51.9240856363422
 20
38.81624326470043
 30
0.0
 11
51.80887902350789
 21
38.81624326470043
 31
0.0
  0
ARC
  5
1C1
330
2
100
AcDbEntity
  8
0
100
AcDbCircle
 10
51.88761514561796
 20
38.62614998666727
 30
0.0
 40
0.078739213875588
100
AcDbArc
 50
134.9999999998819
 51
181.8209559294024
  0
ARC
  5
1C2
330
2
100
AcDbEntity
  8
0
100
AcDbCircle
 10
51.99896920976383
 20
38.73750405082484
 30
0.0
 40
0.078739213875588
100
AcDbArc
 50
90.0
 51
134.9999999899849
  0
LINE
  5
1C3
330
2
100
AcDbEntity
  8
0
100
AcDbLine
 10
51.80887519868091
 20
38.81624321812966
 30
0.0
 11
51.80568445438533
 21
38.93106740489816
 31
0.0
  0
ARC
  5
1C4
330
2
100
AcDbEntity
  8
0
100
AcDbCircle
 10
51.92374759184511
 20
38.93435208551381
 30
0.0
 40
0.118108820813382
100
AcDbArc
 50
181.5936371725083
 51
270.0
  0
ARC
  5
1EE
330
2
100
AcDbEntity
  8
0
100
AcDbCircle
 10
52.04509490847297
 20
41.65085496428064
 30
0.0
 40
0.314956855514163
100
AcDbArc
 50
91.07088238806207
 51
180.0
  0
ARC
  5
30C
330
2
100
AcDbEntity
  8
0
100
AcDbCircle
 10
144.3634422557002
 20
8.106320253137795
 30
0.0
 40
78.73921387732423
100
AcDbArc
 50
167.0486139442846
 51
173.4376671844043
  0
ARC
  5
31D
330
2
100
AcDbEntity
  8
0
100
AcDbCircle
 10
262.359361525366
 20
1.383712077751106
 30
0.0
 40
196.8480346933047
100
AcDbArc
 50
175.4192006187956
 51
177.4590759159076
  0
ARC
  5
31F
330
2
100
AcDbEntity
  8
0
100
AcDbCircle
 10
65.58687292550442
 20
10.11580352482069
 30
0.0
 40
0.118108820813382
100
AcDbArc
 50
270.0
 51
357.4590759149985
  0
LINE
  5
320
330
2
100
AcDbEntity
  8
0
100
AcDbLine
 10
69.13469713231418
 20
38.93106740489816
 30
0.0
 11
69.21012171146097
 21
41.64209581598796
 31
0.0
  0
ARC
  5
322
330
2
100
AcDbEntity
  8
0
100
AcDbCircle
 10
-127.7857563424124
 20
37.83062542652273
 30
0.0
 40
196.8480346933047
100
AcDbArc
 50
356.7856537868009
 51
358.6944408113058
  0
ARC
  5
323
330
2
100
AcDbEntity
  8
0
100
AcDbCircle
 10
60.37674896787556
 20
26.41481707901185
 30
0.0
 40
0.118108820813382
100
AcDbArc
 50
90.0
 51
172.405356631412
  0
LINE
  5
324
330
2
100
AcDbEntity
  8
0
100
AcDbLine
 10
60.37674896787556
 20
26.53292589983704
 30
0.0
 11
60.47019079334976
 21
26.53292589983704
 31
0.0
  0
LINE
  5
325
330
2
100
AcDbEntity
  8
0
100
AcDbLine
 10
60.41959937941081
 20
26.53292961823513
 30
0.0
 11
60.56363261882395
 21
26.53292961823513
 31
0.0
  0
ARC
  5
326
330
2
100
AcDbEntity
  8
0
100
AcDbCircle
 10
60.56363261882395
 20
26.41481707901185
 30
0.0
 40
0.118108820813382
100
AcDbArc
 50
7.594643368587556
 51
90.0
  0
LINE
  5
327
330
2
100
AcDbEntity
  8
0
100
AcDbLine
 10
68.47743464188923
 20
26.53292589983704
 30
0.0
 11
64.95504638619926
 21
26.53292589983704
 31
0.0
  0
LINE
  5
328
330
2
100
AcDbEntity
  8
0
100
AcDbLine
 10
64.4071514872119
 20
26.41482079742174
 30
0.0
 11
65.66455098270697
 21
26.41482079742174
 31
0.0
  0
ARC
  5
329
330
2
100
AcDbEntity
  8
0
100
AcDbCircle
 10
64.50059331268611
 20
26.41481707901185
 30
0.0
 40
0.118108820813382
100
AcDbArc
 50
7.594643368587556
 51
90.0
  0
LINE
  5
32A
330
2
100
AcDbEntity
  8
0
100
AcDbLine
 10
64.3137096617377
 20
26.53292589983704
 30
0.0
 11
64.50059331268611
 21
26.53292589983704
 31
0.0
  0
ARC
  5
32B
330
2
100
AcDbEntity
  8
0
100
AcDbCircle
 10
64.3137096617377
 20
26.41481707901185
 30
0.0
 40
0.118108820813382
100
AcDbArc
 50
90.0
 51
172.405356631412
  0
ARC
  5
32C
330
2
100
AcDbEntity
  8
0
100
AcDbCircle
 10
65.52551049733986
 20
26.29671197660837
 30
0.0
 40
0.118108820813382
100
AcDbArc
 50
90.0
 51
176.1859251656037
  0
ARC
  5
32D
330
2
100
AcDbEntity
  8
0
100
AcDbCircle
 10
65.66455098270697
 20
26.29671197660837
 30
0.0
 40
0.118108820813382
100
AcDbArc
 50
13.33376213397932
 51
90.0
  0
LINE
  5
32E
330
2
100
AcDbEntity
  8
0
100
AcDbLine
 10
65.79735427246217
 20
26.17860687420487
 30
0.0
 11
65.77952563198962
 21
26.31232167774323
 31
0.0
  0
LINE
  5
32F
330
2
100
AcDbEntity
  8
0
100
AcDbLine
 10
65.39060909835578
 20
26.17860687420487
 30
0.0
 11
65.40843773882833
 21
26.31232167774323
 31
0.0
  0
ARC
  5
330
330
2
100
AcDbEntity
  8
0
100
AcDbCircle
 10
67.32036385252357
 20
25.82427669334301
 30
0.0
 40
0.314956855514163
100
AcDbArc
 50
347.0486139442845
 51
90.0
  0
ARC
  5
331
330
2
100
AcDbEntity
  8
0
100
AcDbCircle
 10
68.47743464188923
 20
26.8085131484016
 30
0.0
 40
0.275587248576369
100
AcDbArc
 50
270.0
 51
356.7856537963979
  0
ARC
  5
332
330
2
100
AcDbEntity
  8
0
100
AcDbCircle
 10
-127.7857563424124
 20
37.83062542652273
 30
0.0
 40
196.8874043002424
100
AcDbArc
 50
357.3322794489903
 51
357.3666868526062
  0
ARC
  5
333
330
2
100
AcDbEntity
  8
0
100
AcDbCircle
 10
60.01194400913258
 20
38.89498257790653
 30
0.0
 40
0.078739213875588
100
AcDbArc
 50
270.0
 51
348.6900675057074
  0
ARC
  5
334
330
2
100
AcDbEntity
  8
0
100
AcDbCircle
 10
60.92843757756694
 20
38.89498257790653
 30
0.0
 40
0.078739213887399
100
AcDbArc
 50
191.3099324756919
 51
270.0
  0
LINE
  5
335
330
2
100
AcDbEntity
  8
0
100
AcDbLine
 10
69.01117726098053
 20
33.34557393131294
 30
0.0
 11
69.13148202805544
 21
38.62435596606633
 31
0.0
  0
LINE
  5
336
330
2
100
AcDbEntity
  8
0
100
AcDbLine
 10
69.01629595034549
 20
38.81624326470043
 30
0.0
 11
67.75356630410513
 21
38.81624326470043
 31
0.0
  0
LINE
  5
337
330
2
100
AcDbEntity
  8
0
100
AcDbLine
 10
67.75356630410513
 20
38.81624326470043
 30
0.0
 11
68.14726207821971
 21
38.81624326470043
 31
0.0
  0
LINE
  5
338
330
2
100
AcDbEntity
  8
0
100
AcDbLine
 10
69.1084402866941
 20
38.68182701874605
 30
0.0
 11
68.99708622253664
 21
38.79318108289181
 31
0.0
  0
ARC
  5
339
330
2
100
AcDbEntity
  8
0
100
AcDbCircle
 10
69.05276325461525
 20
38.62614998666727
 30
0.0
 40
0.078739213875588
100
AcDbArc
 50
0.0
 51
45.00000000011802
  0
ARC
  5
33A
330
2
100
AcDbEntity
  8
0
100
AcDbCircle
 10
68.94140919045779
 20
38.73750405082484
 30
0.0
 40
0.078739213875588
100
AcDbArc
 50
44.99999999789221
 51
90.0
  0
ARC
  5
33B
330
2
100
AcDbEntity
  8
0
100
AcDbCircle
 10
69.01663399484258
 20
38.93435208551381
 30
0.0
 40
0.118108820825193
100
AcDbArc
 50
270.0
 51
358.406362850809
  0
LINE
  5
33C
330
2
100
AcDbEntity
  8
0
100
AcDbLine
 10
69.13150246849093
 20
37.66387726166933
 30
0.0
 11
69.13150246849093
 21
38.62614998666727
 31
0.0
  0
ARC
  5
33D
330
2
100
AcDbEntity
  8
0
100
AcDbCircle
 10
68.89528667821494
 20
41.65085496428064
 30
0.0
 40
0.314956855514163
100
AcDbArc
 50
0.0
 51
88.92908202896347
  0
ARC
  5
375
330
2
100
AcDbEntity
  8
0
100
AcDbCircle
 10
21.46062192206253
 20
65.27338071308605
 30
0.0
 40
5.412706510210997
100
AcDbArc
 50
90.7821259928829
 51
269.2178706220222
  0
ARC
  5
376
330
2
100
AcDbEntity
  8
0
100
AcDbCircle
 10
21.46062192206253
 20
65.27338071308605
 30
0.0
 40
5.215858475522027
100
AcDbArc
 50
90.7821259928829
 51
269.2178790342924
  0
LINE
  5
377
330
2
100
AcDbEntity
  8
0
100
AcDbLine
 10
9.048261500777726
 20
26.13923356918391
 30
0.0
 11
31.87444357007442
 21
26.13923356918391
 31
0.0
  0
ARC
  5
378
330
2
100
AcDbEntity
  8
0
100
AcDbCircle
 10
21.63839822195794
 20
65.27338071308605
 30
0.0
 40
4.133808728562858
100
AcDbArc
 50
85.07379421850799
 51
274.926205781492
  0
ARC
  5
379
330
2
100
AcDbEntity
  8
0
100
AcDbCircle
 10
21.63839965300238
 20
65.27338071308605
 30
0.0
 40
4.133808728562858
100
AcDbArc
 50
85.07379421850799
 51
274.926205781492
  0
ARC
  5
37A
330
2
100
AcDbEntity
  8
0
100
AcDbCircle
 10
19.31105079451643
 20
81.65404316467988
 30
0.0
 40
23.62176416319608
100
AcDbArc
 50
256.6921183003431
 51
282.8902258970675
  0
ARC
  5
37B
330
2
100
AcDbEntity
  8
0
100
AcDbCircle
 10
18.34211937154853
 20
73.85339305786169
 30
0.0
 40
9.842401734661098
100
AcDbArc
 50
271.3200614279316
 51
287.366808292372
  0
ARC
  5
37C
330
2
100
AcDbEntity
  8
0
100
AcDbCircle
 10
18.37342010090359
 20
76.1000202602676
 30
0.0
 40
11.81088208159804
100
AcDbArc
 50
270.0
 51
283.6187108981651
  0
ARC
  5
37D
330
2
100
AcDbEntity
  8
0
100
AcDbCircle
 10
18.37342010090359
 20
54.44674116591634
 30
0.0
 40
11.81088208159804
100
AcDbArc
 50
76.38128910183486
 51
90.0
  0
ARC
  5
37E
330
2
100
AcDbEntity
  8
0
100
AcDbCircle
 10
19.30687228227114
 20
48.89367545725893
 30
0.0
 40
23.62176416319608
100
AcDbArc
 50
77.08530888483039
 51
101.3349374871556
  0
ARC
  5
37F
330
2
100
AcDbEntity
  8
0
100
AcDbCircle
 10
7.550648714285017
 20
59.51193444667487
 30
0.0
 40
2.952720520417227
100
AcDbArc
 50
187.0004102452731
 51
216.8099950185903
  0
ARC
  5
380
330
2
100
AcDbEntity
  8
0
100
AcDbCircle
 10
7.781071444855825
 20
59.91911416943977
 30
0.0
 40
3.385786196721149
100
AcDbArc
 50
270.0
 51
353.5972347701
  0
ARC
  5
381
330
2
100
AcDbEntity
  8
0
100
AcDbCircle
 10
201.2670710412915
 20
37.92203732976154
 30
0.0
 40
196.8480346933047
100
AcDbArc
 50
181.3322198597061
 51
183.2410316588907
  0
ARC
  5
382
330
2
100
AcDbEntity
  8
0
100
AcDbCircle
 10
-185.5937500734007
 20
37.83062916525935
 30
0.0
 40
196.8480346933047
100
AcDbArc
 50
356.7856537868009
 51
358.6944408113887
  0
LINE
  5
383
330
2
100
AcDbEntity
  8
0
100
AcDbLine
 10
5.59129397782911
 20
26.2967119969469
 30
0.0
 11
8.872110007955626
 21
26.2967119969469
 31
0.0
  0
LINE
  5
38B
330
2
100
AcDbEntity
  8
0
100
AcDbLine
 10
10.6694409109007
 20
26.53292963857366
 30
0.0
 11
5.009034880255086
 21
26.53292963857366
 31
0.0
  0
ARC
  5
397
330
2
100
AcDbEntity
  8
0
100
AcDbCircle
 10
-6.754539063975215
 20
20.49176864973083
 30
0.0
 40
11.81088208159804
100
AcDbArc
 50
344.8231416909314
 51
15.07931506353128
  0
ARC
  5
399
330
2
100
AcDbEntity
  8
0
100
AcDbCircle
 10
5.024371637908217
 20
17.29661755463242
 30
0.0
 40
0.3936960693897511
100
AcDbArc
 50
164.8231416908347
 51
180.0
  0
LINE
  5
3D8
330
2
100
AcDbEntity
  8
0
100
AcDbLine
 10
4.630675568518455
 20
23.70783105611284
 30
0.0
 11
4.630675568518455
 21
26.13923356918391
 31
0.0
  0
ARC
  5
3DC
330
2
100
AcDbEntity
  8
0
100
AcDbCircle
 10
5.181850065659347
 20
23.70783105611284
 30
0.0
 40
0.5511744971409271
100
AcDbArc
 50
180.0
 51
195.0793150635329
  0
LINE
  5
3DE
330
2
100
AcDbEntity
  8
0
100
AcDbLine
 10
4.788153996281408
 20
26.2967119969469
 30
0.0
 11
8.125013854855552
 21
26.2967119969469
 31
0.0
  0
LINE
  5
3DF
330
2
100
AcDbEntity
  8
0
100
AcDbLine
 10
5.465049062559529
 20
26.53292963857366
 30
0.0
 11
5.124424819403913
 21
26.53292963857366
 31
0.0
  0
LINE
  5
3E0
330
2
100
AcDbEntity
  8
0
100
AcDbLine
 10
5.009034880255086
 20
26.53292963857366
 30
0.0
 11
4.748784389343683
 21
26.53292963857366
 31
0.0
  0
ARC
  5
3E1
330
2
100
AcDbEntity
  8
0
100
AcDbCircle
 10
201.2670710412915
 20
37.92203732976154
 30
0.0
 40
196.8480346933047
100
AcDbArc
 50
183.2410316588907
 51
183.3168348271049
  0
ARC
  5
3E2
330
2
100
AcDbEntity
  8
0
100
AcDbCircle
 10
4.788153996281408
 20
26.13923356918391
 30
0.0
 40
0.157478427751176
100
AcDbArc
 50
90.0
 51
180.0
  0
ARC
  5
3E3
330
2
100
AcDbEntity
  8
0
100
AcDbCircle
 10
4.884948849486619
 20
26.41482081776029
 30
0.0
 40
0.118108820813382
100
AcDbArc
 50
270.0
 51
350.537677792029
  0
LINE
  5
3E4
330
2
100
AcDbEntity
  8
0
100
AcDbLine
 10
5.001450672679339
 20
26.39540384722422
 30
0.0
 11
5.007922996199368
 21
26.43423778829634
 31
0.0
  0
ARC
  5
3E5
330
2
100
AcDbEntity
  8
0
100
AcDbCircle
 10
5.009034880255086
 20
26.80851688713822
 30
0.0
 40
0.275587248564558
100
AcDbArc
 50
183.2410316587872
 51
270.0
  0
ARC
  5
3E6
330
2
100
AcDbEntity
  8
0
100
AcDbCircle
 10
5.124424819403913
 20
26.41482081776029
 30
0.0
 40
0.118108820813382
100
AcDbArc
 50
90.0
 51
170.537677792029
  0
LINE
  5
3E7
330
2
100
AcDbEntity
  8
0
100
AcDbLine
 10
5.59129397782911
 20
26.2967119969469
 30
0.0
 11
5.582896290982745
 21
26.42267729965359
 31
0.0
  0
ARC
  5
3E8
330
2
100
AcDbEntity
  8
0
100
AcDbCircle
 10
5.465049062559529
 20
26.41482081776029
 30
0.0
 40
0.118108820813382
100
AcDbArc
 50
3.814074834314192
 51
90.0
  0
ARC
  5
459
330
2
100
AcDbEntity
  8
0
100
AcDbCircle
 10
10.6694409109007
 20
26.80851688713822
 30
0.0
 40
0.275587248576369
100
AcDbArc
 50
270.0
 51
356.7856537963979
  0
LINE
  5
45A
330
2
100
AcDbEntity
  8
0
100
AcDbLine
 10
9.372188775500745
 20
26.41481910924009
 30
0.0
 11
10.55177581651881
 21
26.41481910924009
 31
0.0
  0
LINE
  5
45B
330
2
100
AcDbEntity
  8
0
100
AcDbLine
 10
9.076679500004757
 20
26.41481910924009
 30
0.0
 11
9.667698050996733
 21
26.41481910924009
 31
0.0
  0
ARC
  5
45C
330
2
100
AcDbEntity
  8
0
100
AcDbCircle
 10
9.076679500004757
 20
26.2967102884267
 30
0.0
 40
0.118108820813382
100
AcDbArc
 50
90.0
 51
149.9995214795225
  0
ARC
  5
45D
330
2
100
AcDbEntity
  8
0
100
AcDbCircle
 10
8.872110007955626
 20
26.41482081776029
 30
0.0
 40
0.118108820813382
100
AcDbArc
 50
270.0
 51
329.9995214795956
  0
LINE
  5
45E
330
2
100
AcDbEntity
  8
0
100
AcDbLine
 10
9.972690522746717
 20
26.53292963857366
 30
0.0
 11
9.785806871798314
 21
26.53292963857366
 31
0.0
  0
ARC
  5
45F
330
2
100
AcDbEntity
  8
0
100
AcDbCircle
 10
10.86430581834727
 20
26.33608160388469
 30
0.0
 40
0.19684803468897
100
AcDbArc
 50
188.1301722958926
 51
270.0
  0
ARC
  5
460
330
2
100
AcDbEntity
  8
0
100
AcDbCircle
 10
10.55177581651881
 20
26.2967102884267
 30
0.0
 40
0.118108820813382
100
AcDbArc
 50
8.130172295892586
 51
90.0
  0
ARC
  5
461
330
2
100
AcDbEntity
  8
0
100
AcDbCircle
 10
10.15310547227844
 20
26.49355832311567
 30
0.0
 40
0.078739213875588
100
AcDbArc
 50
203.5776358895092
 51
270.0
  0
ARC
  5
462
330
2
100
AcDbEntity
  8
0
100
AcDbCircle
 10
9.785806871798314
 20
26.41482081776029
 30
0.0
 40
0.118108820813382
100
AcDbArc
 50
90.0
 51
172.405356631412
  0
ARC
  5
463
330
2
100
AcDbEntity
  8
0
100
AcDbCircle
 10
9.972690522746717
 20
26.41482081776029
 30
0.0
 40
0.118108820813382
100
AcDbArc
 50
23.57763588941373
 51
90.0
  0
INSERT
  5
464
330
2
100
AcDbEntity
  8
0
100
AcDbBlockReference
  2
A$C3ADA3047
 10
8.580077817702232
 20
55.00676352323448
 30
0.0
 41
0.1181100000000015
 42
0.1181100000000015
 43
0.11811
 50
90.0
  0
INSERT
  5
537
330
2
100
AcDbEntity
  8
0
100
AcDbBlockReference
  2
A$C7BBB2CC6
 10
6.980669009131844
 20
33.63007803174137
 30
0.0
 41
0.1181099999998878
 42
0.1181100000000015
 43
0.11811
  0
LINE
  5
63D
330
2
100
AcDbEntity
  8
0
100
AcDbLine
 10
11.20864010654353
 20
38.81624700343704
 30
0.0
 11
4.351848208571965
 21
38.81624700343704
 31
0.0
  0
ARC
  5
63E
330
2
100
AcDbEntity
  8
0
100
AcDbCircle
 10
7.850790970916506
 20
-24.48541004620825
 30
0.0
 40
66.52996481860347
100
AcDbArc
 50
87.20553936845691
 51
92.79446063154308
  0
ARC
  5
63F
330
2
100
AcDbEntity
  8
0
100
AcDbCircle
 10
4.288675705562837
 20
38.43042485543721
 30
0.0
 40
0.047243528327715
100
AcDbArc
 50
181.3055591893969
 51
270.0
  0
LINE
  5
640
330
2
100
AcDbEntity
  8
0
100
AcDbLine
 10
4.356161461520315
 20
38.3370361885102
 30
0.0
 11
4.472245711414217
 21
33.34541346492915
 31
0.0
  0
ARC
  5
641
330
2
100
AcDbEntity
  8
0
100
AcDbCircle
 10
4.308930703446577
 20
38.33593779878178
 30
0.0
 40
0.047243528327715
100
AcDbArc
 50
1.332220212894152
 51
90.0
  0
LINE
  5
642
330
2
100
AcDbEntity
  8
0
100
AcDbLine
 10
4.308930703446577
 20
38.3831813271095
 30
0.0
 11
4.288675705562837
 21
38.3831813271095
 31
0.0
  0
LINE
  5
643
330
2
100
AcDbEntity
  8
0
100
AcDbLine
 10
4.351848208571965
 20
38.81624700343704
 30
0.0
 11
5.614915741998885
 21
38.81624700343704
 31
0.0
  0
LINE
  5
644
330
2
100
AcDbEntity
  8
0
100
AcDbLine
 10
4.307746569649481
 20
41.65904078103891
 30
0.0
 11
4.237019428245758
 21
38.9374241035115
 31
0.0
  0
LINE
  5
645
330
2
100
AcDbEntity
  8
0
100
AcDbLine
 10
4.241444441496724
 20
38.4293484430777
 30
0.0
 11
4.236979645478896
 21
38.62615372540389
 31
0.0
  0
ARC
  5
646
330
2
100
AcDbEntity
  8
0
100
AcDbCircle
 10
4.355088387831784
 20
38.93435582425043
 30
0.0
 40
0.118108820813382
100
AcDbArc
 50
180.0
 51
270.0
  0
LINE
  5
647
330
2
100
AcDbEntity
  8
0
100
AcDbLine
 10
4.260041827275728
 20
38.68183075748267
 30
0.0
 11
4.371395891421371
 21
38.79318482162843
 31
0.0
  0
ARC
  5
648
330
2
100
AcDbEntity
  8
0
100
AcDbCircle
 10
4.315718859354575
 20
38.62615372540389
 30
0.0
 40
0.078739213875588
100
AcDbArc
 50
134.9999999998819
 51
180.0
  0
ARC
  5
649
330
2
100
AcDbEntity
  8
0
100
AcDbCircle
 10
4.427072923500219
 20
38.73750778956146
 30
0.0
 40
0.078739213875588
100
AcDbArc
 50
90.0
 51
135.0000000021077
  0
ARC
  5
64A
330
2
100
AcDbEntity
  8
0
100
AcDbCircle
 10
4.622597128537591
 20
41.65085870301726
 30
0.0
 40
0.314956855514163
100
AcDbArc
 50
92.79446063651249
 51
178.5113793322049
  0
ARC
  5
64B
330
2
100
AcDbEntity
  8
0
100
AcDbCircle
 10
7.780284052718144
 20
59.91911416943977
 30
0.0
 40
3.385786196721149
100
AcDbArc
 50
219.9073072765627
 51
270.0
  0
LINE
  5
64C
330
2
100
AcDbEntity
  8
0
100
AcDbLine
 10
11.32350873751446
 20
37.66388100040595
 30
0.0
 11
11.32350873751446
 21
38.62615372540389
 31
0.0
  0
LINE
  5
64D
330
2
100
AcDbEntity
  8
0
100
AcDbLine
 10
11.20318353000382
 20
33.34557767004957
 30
0.0
 11
11.32348829707896
 21
38.62435970480296
 31
0.0
  0
LINE
  5
64E
330
2
100
AcDbEntity
  8
0
100
AcDbLine
 10
11.20864010654353
 20
38.81624700343704
 30
0.0
 11
10.33926888865952
 21
38.81624700343704
 31
0.0
  0
LINE
  5
64F
330
2
100
AcDbEntity
  8
0
100
AcDbLine
 10
11.32670324604672
 20
38.9310712168984
 30
0.0
 11
11.40212614514942
 21
41.6420997500667
 31
0.0
  0
ARC
  5
650
330
2
100
AcDbEntity
  8
0
100
AcDbCircle
 10
11.20864010654353
 20
38.93435582425043
 30
0.0
 40
0.118108820813382
100
AcDbArc
 50
270.0
 51
358.4063984054013
  0
ARC
  5
651
330
2
100
AcDbEntity
  8
0
100
AcDbCircle
 10
11.13341545948131
 20
38.73750778956146
 30
0.0
 40
0.078739213875588
100
AcDbArc
 50
44.99999999789221
 51
90.0
  0
ARC
  5
652
330
2
100
AcDbEntity
  8
0
100
AcDbCircle
 10
11.24476952363878
 20
38.62615372540389
 30
0.0
 40
0.078739213875588
100
AcDbArc
 50
0.0
 51
45.00000000011802
  0
LINE
  5
653
330
2
100
AcDbEntity
  8
0
100
AcDbLine
 10
11.20539965924493
 20
38.81624700343704
 30
0.0
 11
11.32038443798345
 21
38.81624700343704
 31
0.0
  0
LINE
  5
654
330
2
100
AcDbEntity
  8
0
100
AcDbLine
 10
11.30044655571762
 20
38.68183075748267
 30
0.0
 11
11.18909249155993
 21
38.79318482162843
 31
0.0
  0
ARC
  5
655
330
2
100
AcDbEntity
  8
0
100
AcDbCircle
 10
11.0872911064703
 20
41.65085870301726
 30
0.0
 40
0.314956855514163
100
AcDbArc
 50
0.0
 51
90.0
  0
ARC
  5
672
330
2
100
AcDbEntity
  8
0
100
AcDbCircle
 10
7.781071444886748
 20
70.62764725673346
 30
0.0
 40
3.385786196721149
100
AcDbArc
 50
6.402765229570985
 51
89.99999999967432
  0
ARC
  5
674
330
2
100
AcDbEntity
  8
0
100
AcDbCircle
 10
122.3458402442261
 20
65.27338071309788
 30
0.0
 40
118.1088208159804
100
AcDbArc
 50
179.0302075745073
 51
180.9697924254926
  0
ARC
  5
675
330
2
100
AcDbEntity
  8
0
100
AcDbCircle
 10
43.61790517016314
 20
63.94069883342367
 30
0.0
 40
39.36960693866801
100
AcDbArc
 50
180.9697924254926
 51
186.4027652299002
  0
LINE
  5
676
330
2
100
AcDbEntity
  8
0
100
AcDbLine
 10
4.669996515683607
 20
58.79542774355728
 30
0.0
 11
4.773606270498959
 21
58.50864299499408
 31
0.0
  0
ARC
  5
677
330
2
100
AcDbEntity
  8
0
100
AcDbCircle
 10
7.780284052718144
 20
59.91911416943977
 30
0.0
 40
3.307046982845562
100
AcDbArc
 50
186.4027652299002
 51
202.5811697917144
  0
ARC
  5
678
330
2
100
AcDbEntity
  8
0
100
AcDbCircle
 10
43.61790517017086
 20
66.60606259254302
 30
0.0
 40
39.36960693866801
100
AcDbArc
 50
173.5972347697709
 51
179.0302075741761
  0
ARC
  5
679
330
2
100
AcDbEntity
  8
0
100
AcDbCircle
 10
43.61790517016314
 20
66.60606259277208
 30
0.0
 40
39.36960693865621
100
AcDbArc
 50
173.5972346928086
 51
179.0302075745073
  0
ARC
  5
67A
330
2
100
AcDbEntity
  8
0
100
AcDbCircle
 10
7.780284052748839
 20
70.62764725673346
 30
0.0
 40
3.385786196721149
100
AcDbArc
 50
89.99999999967432
 51
140.0926927232323
  0
ARC
  5
67B
330
2
100
AcDbEntity
  8
0
100
AcDbCircle
 10
7.550648714318214
 20
71.03482697949968
 30
0.0
 40
2.952720520417227
100
AcDbArc
 50
143.1900049811937
 51
172.9995897543572
  0
ARC
  5
67C
330
2
100
AcDbEntity
  8
0
100
AcDbCircle
 10
7.780284052748839
 20
70.62764725673346
 30
0.0
 40
3.307046982845562
100
AcDbArc
 50
157.4188302080174
 51
173.5972347697709
  0
LINE
  5
67D
330
2
100
AcDbEntity
  8
0
100
AcDbLine
 10
4.669996515720896
 20
71.75133368263388
 30
0.0
 11
4.773606270538067
 21
72.03811843119649
 31
0.0
  0
ARC
  5
67E
330
2
100
AcDbEntity
  8
0
100
AcDbCircle
 10
22.15020455237075
 20
65.27338071308605
 30
0.0
 40
3.936960693862077
100
AcDbArc
 50
163.4883030329745
 51
196.5116688986405
  0
ARC
  5
680
330
2
100
AcDbEntity
  8
0
100
AcDbCircle
 10
-106.7852721387782
 20
65.27338071373567
 30
0.0
 40
118.187560029856
100
AcDbArc
 50
359.999999999669
 51
0.9697924251617269
  0
CIRCLE
  5
682
330
2
100
AcDbEntity
  8
0
100
AcDbCircle
 10
13.68573780836576
 20
62.51750747887111
 30
0.0
 40
0.275587248576369
  0
ARC
  5
683
330
2
100
AcDbEntity
  8
0
100
AcDbCircle
 10
22.93594604808143
 20
96.97901254414047
 30
0.0
 40
39.36960693865621
100
AcDbArc
 50
252.5500046354752
 51
256.6921183003431
  0
ARC
  5
685
330
2
100
AcDbEntity
  8
0
100
AcDbCircle
 10
-28.05733706471526
 20
63.94069883342367
 30
0.0
 40
39.44834615253179
100
AcDbArc
 50
353.5972347701
 51
359.0302075745072
  0
ARC
  5
686
330
2
100
AcDbEntity
  8
0
100
AcDbCircle
 10
-106.7852721387782
 20
65.27338071309789
 30
0.0
 40
118.187560029856
100
AcDbArc
 50
359.0302075745072
 51
0.0
  0
MTEXT
  5
687
330
2
100
AcDbEntity
  8
0
100
AcDbMText
 10
16.31229901929967
 20
63.66496677886917
 30
0.0
 40
0.295275
 41
0.0
 71
     1
 72
     5
  1
.
  7
SLDTEXTSTYLE1
 11
0.9335804265127169
 21
0.3583679495048815
 31
0.0
 73
     1
 44
1.0
1001
ACAD
1000
MTEXTBEGIN
1070
    73
1070
     1
1070
    44
1040
1.0
1070
    74
1070
     0
1000
MTEXTEND
  0
ARC
  5
689
330
2
100
AcDbEntity
  8
0
100
AcDbCircle
 10
18.56432713694701
 20
64.21040100261667
 30
0.0
 40
0.19684803468897
100
AcDbArc
 50
196.5116688986405
 51
270.0
  0
MTEXT
  5
68A
330
2
100
AcDbEntity
  8
0
100
AcDbMText
 10
17.8081193974522
 20
63.69692436370193
 30
0.0
 40
0.295275
 41
0.0
 71
     1
 72
     5
  1
.
  7
SLDTEXTSTYLE1
 11
0.8746197071497842
 21
0.4848096202275959
 31
0.0
 73
     1
 44
1.0
1001
ACAD
1000
MTEXTBEGIN
1070
    73
1070
     1
1070
    44
1040
1.0
1070
    74
1070
     0
1000
MTEXTEND
  0
CIRCLE
  5
68B
330
2
100
AcDbEntity
  8
0
100
AcDbCircle
 10
13.68573780836576
 20
68.02925245028038
 30
0.0
 40
0.275587248576369
  0
ARC
  5
68C
330
2
100
AcDbEntity
  8
0
100
AcDbCircle
 10
22.93594604808143
 20
33.56774888204346
 30
0.0
 40
39.36960693865621
100
AcDbArc
 50
102.9245623048365
 51
107.4499953645248
  0
LINE
  5
68D
330
2
100
AcDbEntity
  8
0
100
AcDbLine
 10
11.38535840740022
 20
67.27373621448956
 30
0.0
 11
11.14573892971023
 21
71.00521961599588
 31
0.0
  0
ARC
  5
68F
330
2
100
AcDbEntity
  8
0
100
AcDbCircle
 10
18.5643276576823
 20
66.33636218022911
 30
0.0
 40
0.19684803468897
100
AcDbArc
 50
90.0
 51
163.4883030329745
  0
ARC
  5
690
330
2
100
AcDbEntity
  8
0
100
AcDbCircle
 10
18.53308603838994
 20
52.75384570659591
 30
0.0
 40
19.684803469334
100
AcDbArc
 50
101.3349374871556
 51
102.9245623048365
  0
ARC
  5
691
330
2
100
AcDbEntity
  8
0
100
AcDbCircle
 10
31.87444357007442
 20
25.82427671368156
 30
0.0
 40
0.314956855514163
100
AcDbArc
 50
337.8819155619477
 51
90.0
  0
ARC
  5
692
330
2
100
AcDbEntity
  8
0
100
AcDbCircle
 10
-4.663923238301748
 20
39.61606572358775
 30
0.0
 40
39.36960693865621
100
AcDbArc
 50
334.0638197429077
 51
339.3204608811054
  0
ARC
  5
693
330
2
100
AcDbEntity
  8
0
100
AcDbCircle
 10
21.55064506311808
 20
58.67897155086382
 30
0.0
 40
13.5825143938342
100
AcDbArc
 50
48.11140308500171
 51
77.08530888483039
  0
ARC
  5
694
330
2
100
AcDbEntity
  8
0
100
AcDbCircle
 10
27.46510142405967
 20
65.27338071308605
 30
0.0
 40
4.724352832641579
100
AcDbArc
 50
311.8885969149984
 51
48.11140308500171
  0
ARC
  5
696
330
2
100
AcDbEntity
  8
0
100
AcDbCircle
 10
21.55064506311808
 20
71.86778987532008
 30
0.0
 40
13.5825143938342
100
AcDbArc
 50
282.8902258970675
 51
311.8885969149984
  0
ARC
  5
697
330
2
100
AcDbEntity
  8
0
100
AcDbCircle
 10
25.3785107309541
 20
65.27338071308605
 30
0.0
 40
2.362176416314884
100
AcDbArc
 50
317.4631018353199
 51
42.53689816468013
  0
ARC
  5
698
330
2
100
AcDbEntity
  8
0
100
AcDbCircle
 10
27.46510142405967
 20
65.27338071308605
 30
0.0
 40
3.149568555094386
100
AcDbArc
 50
311.8885969149984
 51
48.11140308500171
  0
ARC
  5
699
330
2
100
AcDbEntity
  8
0
100
AcDbCircle
 10
27.23330886628744
 20
65.27338071308605
 30
0.0
 40
3.105774379875825
100
AcDbArc
 50
310.7527761554011
 51
49.24721766683024
  0
ARC
  5
69A
330
2
100
AcDbEntity
  8
0
100
AcDbCircle
 10
25.37851216199854
 20
65.27338071308605
 30
0.0
 40
2.362176416314884
100
AcDbArc
 50
317.4631018353199
 51
42.53689816468013
  0
ARC
  5
69B
330
2
100
AcDbEntity
  8
0
100
AcDbCircle
 10
21.55064506311808
 20
71.86778987532008
 30
0.0
 40
12.00773011628701
100
AcDbArc
 50
269.2178752421529
 51
311.8885969149984
  0
ARC
  5
69C
330
2
100
AcDbEntity
  8
0
100
AcDbCircle
 10
21.55064506311808
 20
71.86778987532008
 30
0.0
 40
11.81088208159804
100
AcDbArc
 50
269.2178790342924
 51
310.7527782603548
  0
ARC
  5
69D
330
2
100
AcDbEntity
  8
0
100
AcDbCircle
 10
21.31722494964041
 20
68.99967786071702
 30
0.0
 40
7.873921387735966
100
AcDbArc
 50
274.926205781492
 51
317.4631018353199
  0
ARC
  5
69E
330
2
100
AcDbEntity
  8
0
100
AcDbCircle
 10
21.31722638068485
 20
68.99967786071702
 30
0.0
 40
7.873921387735966
100
AcDbArc
 50
274.926205781492
 51
317.4631018353199
  0
LINE
  5
69F
330
2
100
AcDbEntity
  8
0
100
AcDbLine
 10
21.36281241359123
 20
66.06077384968246
 30
0.0
 11
21.9533565176819
 21
66.06077384968246
 31
0.0
  0
LINE
  5
6A0
330
2
100
AcDbEntity
  8
0
100
AcDbLine
 10
21.36281241359123
 20
65.94266403105219
 30
0.0
 11
21.99272586959663
 21
65.94266403105219
 31
0.0
  0
ARC
  5
6A1
330
2
100
AcDbEntity
  8
0
100
AcDbCircle
 10
21.12659477196465
 20
65.81076227460818
 30
0.0
 40
0.118108820813382
100
AcDbArc
 50
0.0
 51
76.38128910183486
  0
LINE
  5
6A2
330
2
100
AcDbEntity
  8
0
100
AcDbLine
 10
21.36281241359123
 20
65.86392481716479
 30
0.0
 11
21.24470359277783
 21
65.86392481716479
 31
0.0
  0
LINE
  5
6A3
330
2
100
AcDbEntity
  8
0
100
AcDbLine
 10
21.24470359277783
 20
65.86392481716479
 30
0.0
 11
21.36281241359123
 21
65.94266403105219
 31
0.0
  0
ARC
  5
6A4
330
2
100
AcDbEntity
  8
0
100
AcDbCircle
 10
21.24470359277783
 20
65.97436387057363
 30
0.0
 40
0.118108820813382
100
AcDbArc
 50
0.0
 51
72.63319170762809
  0
ARC
  5
6A5
330
2
100
AcDbEntity
  8
0
100
AcDbCircle
 10
21.9533565176819
 20
65.86392581498168
 30
0.0
 40
0.19684803468897
100
AcDbArc
 50
0.0
 51
90.0
  0
LINE
  5
6A6
330
2
100
AcDbEntity
  8
0
100
AcDbLine
 10
21.36281241359123
 20
64.48598957213526
 30
0.0
 11
21.9533565176819
 21
64.48598957213526
 31
0.0
  0
LINE
  5
6A7
330
2
100
AcDbEntity
  8
0
100
AcDbLine
 10
21.36281241359123
 20
64.68283660900734
 30
0.0
 11
21.68319321585594
 21
64.68283660900734
 31
0.0
  0
ARC
  5
6A8
330
2
100
AcDbEntity
  8
0
100
AcDbCircle
 10
21.12659477196465
 20
64.73599915157574
 30
0.0
 40
0.118108820813382
100
AcDbArc
 50
283.6187108981651
 51
0.0
  0
LINE
  5
6A9
330
2
100
AcDbEntity
  8
0
100
AcDbLine
 10
21.36281241359123
 20
64.68283660900734
 30
0.0
 11
21.24470359277783
 21
64.68283660900734
 31
0.0
  0
LINE
  5
6AA
330
2
100
AcDbEntity
  8
0
100
AcDbLine
 10
21.36281241359123
 20
64.60409739513176
 30
0.0
 11
21.24470359277783
 21
64.68283660900734
 31
0.0
  0
ARC
  5
6AB
330
2
100
AcDbEntity
  8
0
100
AcDbCircle
 10
21.24470359277783
 20
64.57239755559848
 30
0.0
 40
0.118108820813382
100
AcDbArc
 50
287.366808292372
 51
0.0
  0
ARC
  5
6AD
330
2
100
AcDbEntity
  8
0
100
AcDbCircle
 10
21.9533565176819
 20
64.68283760682424
 30
0.0
 40
0.19684803468897
100
AcDbArc
 50
270.0
 51
0.0
  0
LINE
  5
6AE
330
2
100
AcDbEntity
  8
0
100
AcDbLine
 10
21.36281241359123
 20
64.57239755559848
 30
0.0
 11
21.36281241359123
 21
65.97436387057363
 31
0.0
  0
LINE
  5
6AF
330
2
100
AcDbEntity
  8
0
100
AcDbLine
 10
22.15020455237075
 20
64.68283760682424
 30
0.0
 11
22.15020455237075
 21
65.86392581498168
 31
0.0
  0
ARC
  5
6B2
330
2
100
AcDbEntity
  8
0
100
AcDbCircle
 10
21.55064506311808
 20
58.67897155086382
 30
0.0
 40
12.00773011628701
100
AcDbArc
 50
48.11140308500171
 51
90.78211743698359
  0
ARC
  5
6B3
330
2
100
AcDbEntity
  8
0
100
AcDbCircle
 10
21.55064506311808
 20
58.67897155086382
 30
0.0
 40
11.81088208159804
100
AcDbArc
 50
49.24722011518166
 51
90.78211743698359
  0
ARC
  5
6B4
330
2
100
AcDbEntity
  8
0
100
AcDbCircle
 10
21.31722494964041
 20
61.54708356545509
 30
0.0
 40
7.873921387735966
100
AcDbArc
 50
42.53689816468013
 51
85.07379421850799
  0
ARC
  5
6B5
330
2
100
AcDbEntity
  8
0
100
AcDbCircle
 10
21.31722638068485
 20
61.54708356545509
 30
0.0
 40
7.873921387735966
100
AcDbArc
 50
42.53689816468013
 51
85.07379421850799
  0
LINE
  5
80F
330
2
100
AcDbEntity
  8
0
100
AcDbLine
 10
27.08423739853996
 20
10.10103417095737
 30
0.0
 11
4.630675568518228
 21
10.10103417095737
 31
0.0
  0
ENDSEC
  0
SECTION
  2
OBJECTS
  0
DICTIONARY
  5
1A
330
0
100
AcDbDictionary
281
     1
  3
ACAD_COLOR
350
6BE
  3
ACAD_GROUP
350
18
  3
ACAD_LAYOUT
350
6C1
  3
ACAD_MATERIAL
350
6BD
  3
ACAD_MLINESTYLE
350
19
  3
ACAD_PLOTSETTINGS
350
6C2
  3
ACAD_PLOTSTYLENAME
350
6BB
  3
ACAD_TABLESTYLE
350
6BF
  3
ACAD_VISUALSTYLE
350
822
  3
AcDbVariableDictionary
350
6CC
  3
ASE_INDEX_DICTIONARY
350
81B
  3
DWGPROPS
350
894
  0
DICTIONARY
  5
85B
330
12
100
AcDbDictionary
280
     1
281
     1
  0
DICTIONARY
  5
6BE
102
{ACAD_REACTORS
330
1A
102
}
330
1A
100
AcDbDictionary
281
     1
  0
DICTIONARY
  5
18
102
{ACAD_REACTORS
330
1A
102
}
330
0
100
AcDbDictionary
281
     1
  0
DICTIONARY
  5
6C1
102
{ACAD_REACTORS
330
1A
102
}
330
1A
100
AcDbDictionary
281
     1
  3
Layout1
350
6C4
  3
Model
350
6C3
  0
DICTIONARY
  5
6BD
102
{ACAD_REACTORS
330
1A
102
}
330
1A
100
AcDbDictionary
281
     1
  3
ByBlock
350
820
  3
ByLayer
350
81F
  3
Global
350
821
  0
DICTIONARY
  5
19
102
{ACAD_REACTORS
330
1A
102
}
330
0
100
AcDbDictionary
281
     1
  3
STANDARD
350
1B
  0
DICTIONARY
  5
6C2
102
{ACAD_REACTORS
330
1A
102
}
330
1A
100
AcDbDictionary
281
     1
  0
ACDBDICTIONARYWDFLT
  5
6BB
102
{ACAD_REACTORS
330
1A
102
}
330
1A
100
AcDbDictionary
281
     1
  3
Normal
350
6BC
100
AcDbDictionaryWithDefault
340
6BC
  0
DICTIONARY
  5
6BF
102
{ACAD_REACTORS
330
1A
102
}
330
1A
100
AcDbDictionary
281
     1
  3
Standard
350
6C0
  0
DICTIONARY
  5
822
102
{ACAD_REACTORS
330
1A
102
}
330
1A
100
AcDbDictionary
281
     1
  3
2dWireframe
350
828
  3
3D Hidden
350
82A
  3
3dWireframe
350
829
  3
Basic
350
827
  3
Brighten
350
82E
  3
ColorChange
350
832
  3
Conceptual
350
82B
  3
Dim
350
82D
  3
Facepattern
350
831
  3
Flat
350
823
  3
FlatWithEdges
350
824
  3
Gouraud
350
825
  3
GouraudWithEdges
350
826
  3
Linepattern
350
830
  3
Realistic
350
82C
  3
Thicken
350
82F
  0
DICTIONARY
  5
6CC
102
{ACAD_REACTORS
330
1A
102
}
330
1A
100
AcDbDictionary
281
     1
  3
CTABLESTYLE
350
6CD
  3
DIMASSOC
350
86D
  3
INDEXCTL
350
86C
  3
SORTENTS
350
86B
  0
DICTIONARY
  5
81B
102
{ACAD_REACTORS
330
1A
102
}
330
1A
100
AcDbDictionary
281
     1
  3
ASEBlockHierarchyIndexRecord
350
81C
1001
DCO15
1040
1629010353.994
  0
XRECORD
  5
894
102
{ACAD_REACTORS
330
1A
102
}
330
1A
100
AcDbXrecord
280
     1
  1
DWGPROPS COOKIE
  2

  3

  4

  6

  7

  8
jgayle
  9

300
=
301
=
302
=
303
=
304
=
305
=
306
=
307
=
308
=
309
=
 40
0.0710386342592593
 41
2452678.558744884
 42
2455223.389293067
  1

 90
        0
  0
LAYOUT
  5
6C4
102
{ACAD_XDICTIONARY
360
899
102
}
102
{ACAD_REACTORS
330
6C1
102
}
330
6C1
100
AcDbPlotSettings
  1

  2
\\totosrv3\RD-01-HPLJ4050
  4

  6

 40
0.0
 41
0.0
 42
0.0
 43
0.0
 44
0.0
 45
0.0
 46
0.0
 47
0.0
 48
0.0
 49
0.0
140
0.0
141
0.0
142
1.0
143
1.0
 70
   688
 72
     0
 73
     0
 74
     5
  7

 75
    16
147
1.0
148
0.0
149
0.0
100
AcDbLayout
  1
Layout1
 70
     1
 71
     1
 10
0.0
 20
0.0
 11
12.0
 21
9.0
 12
0.0
 22
0.0
 32
0.0
 14
1.000000000000000E+20
 24
1.000000000000000E+20
 34
1.000000000000000E+20
 15
-1.000000000000000E+20
 25
-1.000000000000000E+20
 35
-1.000000000000000E+20
146
0.0
 13
0.0
 23
0.0
 33
0.0
 16
1.0
 26
0.0
 36
0.0
 17
0.0
 27
1.0
 37
0.0
 76
     0
330
7
  0
LAYOUT
  5
6C3
102
{ACAD_XDICTIONARY
360
897
102
}
102
{ACAD_REACTORS
330
6C1
102
}
330
6C1
100
AcDbPlotSettings
  1

  2
\\totosrv3\RD-01-HPLJ4050
  4

  6

 40
0.0
 41
0.0
 42
0.0
 43
0.0
 44
0.0
 45
0.0
 46
0.0
 47
0.0
 48
0.0
 49
0.0
140
0.0
141
0.0
142
1.0
143
1.0
 70
  1712
 72
     0
 73
     0
 74
     0
  7

 75
     0
147
1.0
148
0.0
149
0.0
100
AcDbLayout
  1
Model
 70
     1
 71
     0
 10
0.0
 20
0.0
 11
12.0
 21
9.0
 12
0.0
 22
0.0
 32
0.0
 14
0.0
 24
0.0
 34
0.0
 15
0.0
 25
0.0
 35
0.0
146
0.0
 13
0.0
 23
0.0
 33
0.0
 16
1.0
 26
0.0
 36
0.0
 17
0.0
 27
1.0
 37
0.0
 76
     0
330
2
331
81D
  0
MATERIAL
  5
820
102
{ACAD_XDICTIONARY
360
89D
102
}
102
{ACAD_REACTORS
330
6BD
102
}
330
6BD
100
AcDbMaterial
  1
ByBlock
  0
MATERIAL
  5
81F
102
{ACAD_XDICTIONARY
360
89B
102
}
102
{ACAD_REACTORS
330
6BD
102
}
330
6BD
100
AcDbMaterial
  1
ByLayer
  0
MATERIAL
  5
821
102
{ACAD_XDICTIONARY
360
89F
102
}
102
{ACAD_REACTORS
330
6BD
102
}
330
6BD
100
AcDbMaterial
  1
Global
  0
MLINESTYLE
  5
1B
102
{ACAD_REACTORS
330
19
102
}
330
0
100
AcDbMlineStyle
  2
STANDARD
 70
     0
  3

 62
     0
 51
90.0
 52
90.0
 71
     2
 49
0.5
 62
   256
  6
BYLAYER
 49
-0.5
 62
   256
  6
BYLAYER
  0
ACDBPLACEHOLDER
  5
6BC
102
{ACAD_REACTORS
330
6BB
102
}
330
6BB
  0
TABLESTYLE
  5
6C0
102
{ACAD_XDICTIONARY
360
895
102
}
102
{ACAD_REACTORS
330
6BF
102
}
330
6BF
100
AcDbTableStyle
  3
Standard
 70
     0
 71
     0
 40
0.06
 41
0.06
280
     0
281
     0
  7
STANDARD
140
0.18
170
     2
 62
     0
 63
     7
283
     0
274
    -2
284
     1
 64
     0
275
    -2
285
     1
 65
     0
276
    -2
286
     1
 66
     0
277
    -2
287
     1
 67
     0
278
    -2
288
     1
 68
     0
279
    -2
289
     1
 69
     0
  7
STANDARD
140
0.25
170
     5
 62
     0
 63
     7
283
     0
274
    -2
284
     1
 64
     0
275
    -2
285
     1
 65
     0
276
    -2
286
     1
 66
     0
277
    -2
287
     1
 67
     0
278
    -2
288
     1
 68
     0
279
    -2
289
     1
 69
     0
  7
STANDARD
140
0.18
170
     5
 62
     0
 63
     7
283
     0
274
    -2
284
     1
 64
     0
275
    -2
285
     1
 65
     0
276
    -2
286
     1
 66
     0
277
    -2
287
     1
 67
     0
278
    -2
288
     1
 68
     0
279
    -2
289
     1
 69
     0
  0
VISUALSTYLE
  5
828
102
{ACAD_REACTORS
330
822
102
}
330
822
100
AcDbVisualStyle
  2
2dWireframe
 70
     4
 71
     0
 72
     2
 73
     0
 90
        0
 40
-0.6
 41
-30.0
 62
     5
 63
     7
 74
     1
 91
        4
 64
     7
 65
   257
 75
     1
175
     1
 42
1.0
 92
        0
 66
   257
 43
1.0
 76
     1
 77
     6
 78
     2
 67
     7
 79
     5
170
     0
171
     0
290
     0
174
     0
 93
        1
 44
0.0
173
     0
291
     0
 45
0.0
1001
ACAD
1000
AcDbSavedByObjectVersion
1070
     0
  0
VISUALSTYLE
  5
82A
102
{ACAD_REACTORS
330
822
102
}
330
822
100
AcDbVisualStyle
  2
3D Hidden
 70
     6
 71
     1
 72
     2
 73
     2
 90
        0
 40
-0.6
 41
-30.0
 62
     5
 63
     7
 74
     2
 91
        2
 64
     7
 65
   257
 75
     2
175
     1
 42
40.0
 92
        0
 66
   257
 43
1.0
 76
     1
 77
     6
 78
     2
 67
     7
 79
     3
170
     0
171
     0
290
     0
174
     0
 93
        1
 44
0.0
173
     0
291
     0
 45
0.0
1001
ACAD
1000
AcDbSavedByObjectVersion
1070
     0
  0
VISUALSTYLE
  5
829
102
{ACAD_REACTORS
330
822
102
}
330
822
100
AcDbVisualStyle
  2
3dWireframe
 70
     5
 71
     0
 72
     2
 73
     0
 90
        0
 40
-0.6
 41
-30.0
 62
     5
 63
     7
 74
     1
 91
        4
 64
     7
 65
   257
 75
     1
175
     1
 42
1.0
 92
        0
 66
   257
 43
1.0
 76
     1
 77
     6
 78
     2
 67
     7
 79
     5
170
     0
171
     0
290
     0
174
     0
 93
        1
 44
0.0
173
     0
291
     0
 45
0.0
1001
ACAD
1000
AcDbSavedByObjectVersion
1070
     0
  0
VISUALSTYLE
  5
827
102
{ACAD_REACTORS
330
822
102
}
330
822
100
AcDbVisualStyle
  2
Basic
 70
     7
 71
     1
 72
     0
 73
     1
 90
        0
 40
-0.6
 41
-30.0
 62
     5
 63
     7
 74
     0
 91
        4
 64
     7
 65
   257
 75
     1
175
     1
 42
1.0
 92
        8
 66
     7
 43
1.0
 76
     1
 77
     6
 78
     2
 67
     7
 79
     5
170
     0
171
     0
290
     0
174
     0
 93
        1
 44
0.0
173
     0
291
     1
 45
0.0
1001
ACAD
1000
AcDbSavedByObjectVersion
1070
     0
  0
VISUALSTYLE
  5
82E
102
{ACAD_REACTORS
330
822
102
}
330
822
100
AcDbVisualStyle
  2
Brighten
 70
    12
 71
     2
 72
     2
 73
     0
 90
        0
 40
-0.6
 41
-30.0
 62
     5
 63
     7
 74
     1
 91
        4
 64
     7
 65
   257
 75
     1
175
     1
 42
1.0
 92
        8
 66
     7
 43
1.0
 76
     1
 77
     6
 78
     2
 67
     7
 79
     5
170
     0
171
     0
290
     0
174
     0
 93
        1
 44
50.0
173
     0
291
     1
 45
0.0
1001
ACAD
1000
AcDbSavedByObjectVersion
1070
     0
  0
VISUALSTYLE
  5
832
102
{ACAD_REACTORS
330
822
102
}
330
822
100
AcDbVisualStyle
  2
ColorChange
 70
    16
 71
     2
 72
     2
 73
     3
 90
        0
 40
-0.6
 41
-30.0
 62
     5
 63
     8
 74
     1
 91
        4
 64
     7
 65
   257
 75
     1
175
     1
 42
1.0
 92
        8
 66
     8
 43
1.0
 76
     1
 77
     6
 78
     2
 67
     7
 79
     5
170
     0
171
     0
290
     0
174
     0
 93
        1
 44
0.0
173
     0
291
     1
 45
0.0
1001
ACAD
1000
AcDbSavedByObjectVersion
1070
     0
  0
VISUALSTYLE
  5
82B
102
{ACAD_REACTORS
330
822
102
}
330
822
100
AcDbVisualStyle
  2
Conceptual
 70
     9
 71
     3
 72
     2
 73
     0
 90
        0
 40
-0.6
 41
-30.0
 62
     5
 63
     7
 74
     2
 91
        2
 64
     7
 65
   257
 75
     1
175
     1
 42
40.0
 92
        8
 66
     7
 43
1.0
 76
     1
 77
     6
 78
     2
 67
     7
 79
     3
170
     0
171
     0
290
     0
174
     0
 93
        1
 44
0.0
173
     0
291
     0
 45
0.0
1001
ACAD
1000
AcDbSavedByObjectVersion
1070
     0
  0
VISUALSTYLE
  5
82D
102
{ACAD_REACTORS
330
822
102
}
330
822
100
AcDbVisualStyle
  2
Dim
 70
    11
 71
     2
 72
     2
 73
     0
 90
        0
 40
-0.6
 41
-30.0
 62
     5
 63
     7
 74
     1
 91
        4
 64
     7
 65
   257
 75
     1
175
     1
 42
1.0
 92
        8
 66
     7
 43
1.0
 76
     1
 77
     6
 78
     2
 67
     7
 79
     5
170
     0
171
     0
290
     0
174
     0
 93
        1
 44
-50.0
173
     0
291
     1
 45
0.0
1001
ACAD
1000
AcDbSavedByObjectVersion
1070
     0
  0
VISUALSTYLE
  5
831
102
{ACAD_REACTORS
330
822
102
}
330
822
100
AcDbVisualStyle
  2
Facepattern
 70
    15
 71
     2
 72
     2
 73
     0
 90
        0
 40
-0.6
 41
-30.0
 62
     5
 63
     7
 74
     1
 91
        4
 64
     7
 65
   257
 75
     1
175
     1
 42
1.0
 92
        8
 66
     7
 43
1.0
 76
     1
 77
     6
 78
     2
 67
     7
 79
     5
170
     0
171
     0
290
     0
174
     0
 93
        1
 44
0.0
173
     0
291
     1
 45
0.0
1001
ACAD
1000
AcDbSavedByObjectVersion
1070
     0
  0
VISUALSTYLE
  5
823
102
{ACAD_REACTORS
330
822
102
}
330
822
100
AcDbVisualStyle
  2
Flat
 70
     0
 71
     2
 72
     1
 73
     1
 90
        2
 40
-0.6
 41
30.0
 62
     5
 63
     7
 74
     0
 91
        4
 64
     7
 65
   257
 75
     1
175
     1
 42
1.0
 92
        8
 66
     7
 43
1.0
 76
     1
 77
     6
 78
     2
 67
     7
 79
     5
170
     0
171
     0
290
     0
174
     0
 93
       13
 44
0.0
173
     0
291
     1
 45
0.0
1001
ACAD
1000
AcDbSavedByObjectVersion
1070
     0
  0
VISUALSTYLE
  5
824
102
{ACAD_REACTORS
330
822
102
}
330
822
100
AcDbVisualStyle
  2
FlatWithEdges
 70
     1
 71
     2
 72
     1
 73
     1
 90
        2
 40
-0.6
 41
30.0
 62
     5
 63
     7
 74
     1
 91
        4
 64
     7
 65
   257
 75
     1
175
     1
 42
1.0
 92
        0
 66
   257
 43
1.0
 76
     1
 77
     6
 78
     2
 67
     7
 79
     5
170
     0
171
     0
290
     0
174
     0
 93
       13
 44
0.0
173
     0
291
     1
 45
0.0
1001
ACAD
1000
AcDbSavedByObjectVersion
1070
     0
  0
VISUALSTYLE
  5
825
102
{ACAD_REACTORS
330
822
102
}
330
822
100
AcDbVisualStyle
  2
Gouraud
 70
     2
 71
     2
 72
     2
 73
     1
 90
        2
 40
-0.6
 41
30.0
 62
     5
 63
     7
 74
     0
 91
        4
 64
     7
 65
   257
 75
     1
175
     1
 42
1.0
 92
        0
 66
     7
 43
1.0
 76
     1
 77
     6
 78
     2
 67
     7
 79
     5
170
     0
171
     0
290
     0
174
     0
 93
       13
 44
0.0
173
     0
291
     1
 45
0.0
1001
ACAD
1000
AcDbSavedByObjectVersion
1070
     0
  0
VISUALSTYLE
  5
826
102
{ACAD_REACTORS
330
822
102
}
330
822
100
AcDbVisualStyle
  2
GouraudWithEdges
 70
     3
 71
     2
 72
     2
 73
     1
 90
        2
 40
-0.6
 41
30.0
 62
     5
 63
     7
 74
     1
 91
        4
 64
     7
 65
   257
 75
     1
175
     1
 42
1.0
 92
        0
 66
   257
 43
1.0
 76
     1
 77
     6
 78
     2
 67
     7
 79
     5
170
     0
171
     0
290
     0
174
     0
 93
       13
 44
0.0
173
     0
291
     1
 45
0.0
1001
ACAD
1000
AcDbSavedByObjectVersion
1070
     0
  0
VISUALSTYLE
  5
830
102
{ACAD_REACTORS
330
822
102
}
330
822
100
AcDbVisualStyle
  2
Linepattern
 70
    14
 71
     2
 72
     2
 73
     0
 90
        0
 40
-0.6
 41
-30.0
 62
     5
 63
     7
 74
     1
 91
        4
 64
     7
 65
   257
 75
     7
175
     7
 42
1.0
 92
        8
 66
     7
 43
1.0
 76
     1
 77
     6
 78
     2
 67
     7
 79
     5
170
     0
171
     0
290
     0
174
     0
 93
        1
 44
0.0
173
     0
291
     1
 45
0.0
1001
ACAD
1000
AcDbSavedByObjectVersion
1070
     0
  0
VISUALSTYLE
  5
82C
102
{ACAD_REACTORS
330
822
102
}
330
822
100
AcDbVisualStyle
  2
Realistic
 70
     8
 71
     2
 72
     2
 73
     0
 90
        0
 40
-0.6
 41
-30.0
 62
     5
 63
     7
 74
     1
 91
        0
 64
     7
 65
   257
 75
     1
175
     1
 42
1.0
 92
        8
 66
     8
 43
1.0
 76
     1
 77
     6
 78
     2
 67
     7
 79
     5
170
     0
171
     0
290
     0
174
     0
 93
       13
 44
0.0
173
     0
291
     0
 45
0.0
1001
ACAD
1000
AcDbSavedByObjectVersion
1070
     0
  0
VISUALSTYLE
  5
82F
102
{ACAD_REACTORS
330
822
102
}
330
822
100
AcDbVisualStyle
  2
Thicken
 70
    13
 71
     2
 72
     2
 73
     0
 90
        0
 40
-0.6
 41
-30.0
 62
     5
 63
     7
 74
     1
 91
        4
 64
     7
 65
   257
 75
     1
175
     1
 42
1.0
 92
       12
 66
     7
 43
1.0
 76
     1
 77
     6
 78
     2
 67
     7
 79
     5
170
     0
171
     0
290
     0
174
     0
 93
        1
 44
0.0
173
     0
291
     1
 45
0.0
1001
ACAD
1000
AcDbSavedByObjectVersion
1070
     0
  0
DICTIONARYVAR
  5
6CD
102
{ACAD_REACTORS
330
6CC
102
}
330
6CC
100
DictionaryVariables
280
     0
  1
STANDARD
  0
DICTIONARYVAR
  5
86D
102
{ACAD_REACTORS
330
6CC
102
}
330
6CC
100
DictionaryVariables
280
     0
  1
1
  0
DICTIONARYVAR
  5
86C
102
{ACAD_REACTORS
330
6CC
102
}
330
6CC
100
DictionaryVariables
280
     0
  1
0
  0
DICTIONARYVAR
  5
86B
102
{ACAD_REACTORS
330
6CC
102
}
330
6CC
100
DictionaryVariables
280
     0
  1
127
  0
XRECORD
  5
81C
102
{ACAD_REACTORS
330
81B
102
}
330
81B
100
AcDbXrecord
280
     1
330
537
330
92
330
464
  0
DICTIONARY
  5
899
330
6C4
100
AcDbDictionary
280
     1
281
     1
  3
ACAD_XREC_ROUNDTRIP
360
89A
  0
DICTIONARY
  5
897
330
6C3
100
AcDbDictionary
280
     1
281
     1
  3
ACAD_XREC_ROUNDTRIP
360
898
  0
DICTIONARY
  5
89D
330
820
100
AcDbDictionary
280
     1
281
     1
  3
ACAD_XREC_ROUNDTRIP
360
89E
  0
DICTIONARY
  5
89B
330
81F
100
AcDbDictionary
280
     1
281
     1
  3
ACAD_XREC_ROUNDTRIP
360
89C
  0
DICTIONARY
  5
89F
330
821
100
AcDbDictionary
280
     1
281
     1
  3
ACAD_XREC_ROUNDTRIP
360
8A0
  0
DICTIONARY
  5
895
330
6C0
100
AcDbDictionary
280
     1
281
     1
  3
ACAD_XREC_ROUNDTRIP
360
896
  0
XRECORD
  5
89A
102
{ACAD_REACTORS
330
899
102
}
330
899
100
AcDbXrecord
280
     1
102
SHADEPLOT
 70
     0
102
SHADEPLOTRESLEVEL
 70
     2
102
SHADEPLOTCUSTOMDPI
 70
   300
  0
XRECORD
  5
898
102
{ACAD_REACTORS
330
897
102
}
330
897
100
AcDbXrecord
280
     1
102
SHADEPLOT
 70
     0
102
SHADEPLOTRESLEVEL
 70
     2
102
SHADEPLOTCUSTOMDPI
 70
   300
  0
XRECORD
  5
89E
102
{ACAD_REACTORS
330
89D
102
}
330
89D
100
AcDbXrecord
280
     1
102
MATERIAL
148
0.0
149
0.0
149
0.0
 93
        0
 94
       63
282
     0
 72
     1
 77
     1
171
     1
175
     1
179
     1
273
     0
  0
XRECORD
  5
89C
102
{ACAD_REACTORS
330
89B
102
}
330
89B
100
AcDbXrecord
280
     1
102
MATERIAL
148
0.0
149
0.0
149
0.0
 93
        0
 94
       63
282
     0
 72
     1
 77
     1
171
     1
175
     1
179
     1
273
     0
  0
XRECORD
  5
8A0
102
{ACAD_REACTORS
330
89F
102
}
330
89F
100
AcDbXrecord
280
     1
102
MATERIAL
148
0.0
149
0.0
149
0.0
 93
        0
 94
       63
282
     0
 72
     1
 77
     1
171
     1
175
     1
179
     1
273
     0
  0
XRECORD
  5
896
102
{ACAD_REACTORS
330
895
102
}
330
895
100
AcDbXrecord
280
     1
102
ACAD_ROUNDTRIP_PRE2007_TABLESTYLE
 90
        4
 91
        0
  1

 92
        4
 93
        0
  2

 94
        4
 95
        0
  3

  0
ENDSEC
  0
EOF
