  0
SECTION
  2
HEADER
  9
$ACADVER
  1
AC1015
  9
$ACADMAINTVER
 70
    20
  9
$DWGCODEPAGE
  3
ANSI_1252
  9
$INSBASE
 10
0.0
 20
0.0
 30
0.0
  9
$EXTMIN
 10
208.222259410856
 20
212.6515615759721
 30
-0.0015258207003583
  9
$EXTMAX
 10
244.2408751254914
 20
236.6655009964305
 30
0.0000000349246037
  9
$LIMMIN
 10
0.0
 20
0.0
  9
$LIMMAX
 10
12.0
 20
9.0
  9
$ORTHOMODE
 70
     0
  9
$REGENMODE
 70
     1
  9
$FILLMODE
 70
     1
  9
$QTEXTMODE
 70
     0
  9
$MIRRTEXT
 70
     1
  9
$LTSCALE
 40
1.0
  9
$ATTMODE
 70
     1
  9
$TEXTSIZE
 40
0.25
  9
$TRACEWID
 40
0.05
  9
$TEXTSTYLE
  7
LUCIDA
  9
$CLAYER
  8
GR-DIMENSI
  9
$CELTYPE
  6
BYLAYER
  9
$CECOLOR
 62
   256
  9
$CELTSCALE
 40
1.0
  9
$DISPSILH
 70
     0
  9
$DIMSCALE
 40
5.0
  9
$DIMASZ
 40
0.18
  9
$DIMEXO
 40
0.625
  9
$DIMDLI
 40
0.2
  9
$DIMRND
 40
0.0
  9
$DIMDLE
 40
0.0
  9
$DIMEXE
 40
0.12
  9
$DIMTP
 40
0.0
  9
$DIMTM
 40
0.0
  9
$DIMTXT
 40
0.2
  9
$DIMCEN
 40
1.0
  9
$DIMTSZ
 40
0.0
  9
$DIMTOL
 70
     0
  9
$DIMLIM
 70
     0
  9
$DIMTIH
 70
     0
  9
$DIMTOH
 70
     0
  9
$DIMSE1
 70
     0
  9
$DIMSE2
 70
     0
  9
$DIMTAD
 70
     1
  9
$DIMZIN
 70
     0
  9
$DIMBLK
  1

  9
$DIMASO
 70
     1
  9
$DIMSHO
 70
     1
  9
$DIMPOST
  1

  9
$DIMAPOST
  1

  9
$DIMALT
 70
     0
  9
$DIMALTD
 70
     2
  9
$DIMALTF
 40
25.4
  9
$DIMLFAC
 40
1.0
  9
$DIMTOFL
 70
     0
  9
$DIMTVP
 40
0.0
  9
$DIMTIX
 70
     0
  9
$DIMSOXD
 70
     0
  9
$DIMSAH
 70
     0
  9
$DIMBLK1
  1

  9
$DIMBLK2
  1

  9
$DIMSTYLE
  2
STANDARD
  9
$DIMCLRD
 70
   256
  9
$DIMCLRE
 70
   256
  9
$DIMCLRT
 70
   256
  9
$DIMTFAC
 40
1.0
  9
$DIMGAP
 40
0.1
  9
$DIMJUST
 70
     0
  9
$DIMSD1
 70
     0
  9
$DIMSD2
 70
     0
  9
$DIMTOLJ
 70
     1
  9
$DIMTZIN
 70
     0
  9
$DIMALTZ
 70
     0
  9
$DIMALTTZ
 70
     0
  9
$DIMUPT
 70
     0
  9
$DIMDEC
 70
     4
  9
$DIMTDEC
 70
     4
  9
$DIMALTU
 70
     2
  9
$DIMALTTD
 70
     2
  9
$DIMTXSTY
  7
ROMANS
  9
$DIMAUNIT
 70
     0
  9
$DIMADEC
 70
     0
  9
$DIMALTRND
 40
0.0
  9
$DIMAZIN
 70
     0
  9
$DIMDSEP
 70
    46
  9
$DIMATFIT
 70
     3
  9
$DIMFRAC
 70
     0
  9
$DIMLDRBLK
  1

  9
$DIMLUNIT
 70
     2
  9
$DIMLWD
 70
    -2
  9
$DIMLWE
 70
    -2
  9
$DIMTMOVE
 70
     0
  9
$LUNITS
 70
     2
  9
$LUPREC
 70
     4
  9
$SKETCHINC
 40
0.1
  9
$FILLETRAD
 40
0.5
  9
$AUNITS
 70
     0
  9
$AUPREC
 70
     0
  9
$MENU
  1
.
  9
$ELEVATION
 40
0.0
  9
$PELEVATION
 40
0.0
  9
$THICKNESS
 40
0.0
  9
$LIMCHECK
 70
     0
  9
$CHAMFERA
 40
0.5
  9
$CHAMFERB
 40
0.5
  9
$CHAMFERC
 40
1.0
  9
$CHAMFERD
 40
0.0
  9
$SKPOLY
 70
     1
  9
$TDCREATE
 40
2451163.057091898
  9
$TDUCREATE
 40
2451163.348758565
  9
$TDUPDATE
 40
2454917.696409896
  9
$TDUUPDATE
 40
2454917.988076563
  9
$TDINDWG
 40
2.4682487153
  9
$TDUSRTIMER
 40
2.4682487153
  9
$USRTIMER
 70
     1
  9
$ANGBASE
 50
0.0
  9
$ANGDIR
 70
     0
  9
$PDMODE
 70
     0
  9
$PDSIZE
 40
0.0
  9
$PLINEWID
 40
0.0
  9
$SPLFRAME
 70
     0
  9
$SPLINETYPE
 70
     6
  9
$SPLINESEGS
 70
     8
  9
$HANDSEED
  5
2575
  9
$SURFTAB1
 70
     6
  9
$SURFTAB2
 70
     6
  9
$SURFTYPE
 70
     6
  9
$SURFU
 70
     6
  9
$SURFV
 70
     6
  9
$UCSBASE
  2

  9
$UCSNAME
  2

  9
$UCSORG
 10
0.0
 20
0.0
 30
0.0
  9
$UCSXDIR
 10
1.0
 20
0.0
 30
0.0
  9
$UCSYDIR
 10
0.0
 20
1.0
 30
0.0
  9
$UCSORTHOREF
  2

  9
$UCSORTHOVIEW
 70
     0
  9
$UCSORGTOP
 10
0.0
 20
0.0
 30
0.0
  9
$UCSORGBOTTOM
 10
0.0
 20
0.0
 30
0.0
  9
$UCSORGLEFT
 10
0.0
 20
0.0
 30
0.0
  9
$UCSORGRIGHT
 10
0.0
 20
0.0
 30
0.0
  9
$UCSORGFRONT
 10
0.0
 20
0.0
 30
0.0
  9
$UCSORGBACK
 10
0.0
 20
0.0
 30
0.0
  9
$PUCSBASE
  2

  9
$PUCSNAME
  2

  9
$PUCSORG
 10
0.0
 20
0.0
 30
0.0
  9
$PUCSXDIR
 10
1.0
 20
0.0
 30
0.0
  9
$PUCSYDIR
 10
0.0
 20
1.0
 30
0.0
  9
$PUCSORTHOREF
  2

  9
$PUCSORTHOVIEW
 70
     0
  9
$PUCSORGTOP
 10
0.0
 20
0.0
 30
0.0
  9
$PUCSORGBOTTOM
 10
0.0
 20
0.0
 30
0.0
  9
$PUCSORGLEFT
 10
0.0
 20
0.0
 30
0.0
  9
$PUCSORGRIGHT
 10
0.0
 20
0.0
 30
0.0
  9
$PUCSORGFRONT
 10
0.0
 20
0.0
 30
0.0
  9
$PUCSORGBACK
 10
0.0
 20
0.0
 30
0.0
  9
$USERI1
 70
     0
  9
$USERI2
 70
     0
  9
$USERI3
 70
     0
  9
$USERI4
 70
     0
  9
$USERI5
 70
     0
  9
$USERR1
 40
0.0
  9
$USERR2
 40
0.0
  9
$USERR3
 40
0.0
  9
$USERR4
 40
0.0
  9
$USERR5
 40
0.0
  9
$WORLDVIEW
 70
     1
  9
$SHADEDGE
 70
     3
  9
$SHADEDIF
 70
    70
  9
$TILEMODE
 70
     1
  9
$MAXACTVP
 70
    48
  9
$PINSBASE
 10
0.0
 20
0.0
 30
0.0
  9
$PLIMCHECK
 70
     0
  9
$PEXTMIN
 10
-0.0257682342921726
 20
0.0727869870636369
 30
-0.0015258207003583
  9
$PEXTMAX
 10
36.05251134623609
 20
24.0010518946242
 30
0.0000000349246037
  9
$PLIMMIN
 10
3.613279811924683
 20
2.322979072913298
  9
$PLIMMAX
 10
844.4379258080184
 20
596.2596245807258
  9
$UNITMODE
 70
     0
  9
$VISRETAIN
 70
     1
  9
$PLINEGEN
 70
     0
  9
$PSLTSCALE
 70
     1
  9
$TREEDEPTH
 70
  3020
  9
$CMLSTYLE
  2
STANDARD
  9
$CMLJUST
 70
     0
  9
$CMLSCALE
 40
1.0
  9
$PROXYGRAPHICS
 70
     1
  9
$MEASUREMENT
 70
     0
  9
$CELWEIGHT
370
    -1
  9
$ENDCAPS
280
     0
  9
$JOINSTYLE
280
     0
  9
$LWDISPLAY
290
     0
  9
$INSUNITS
 70
     0
  9
$HYPERLINKBASE
  1

  9
$STYLESHEET
  1

  9
$XEDIT
290
     1
  9
$CEPSNTYPE
380
     0
  9
$PSTYLEMODE
290
     1
  9
$FINGERPRINTGUID
  2
{3DFF78D4-CC7F-11D3-AC06-00A0C98A02AE}
  9
$VERSIONGUID
  2
{19BED187-A035-4B28-9911-8E0E20BA78B1}
  9
$EXTNAMES
290
     1
  9
$PSVPSCALE
 40
0.0
  9
$OLESTARTUP
290
     0
  0
ENDSEC
  0
SECTION
  2
CLASSES
  0
CLASS
  1
DICTIONARYVAR
  2
AcDbDictionaryVar
  3
ObjectDBX Classes
 90
        0
280
     0
281
     0
  0
CLASS
  1
ACDBDICTIONARYWDFLT
  2
AcDbDictionaryWithDefault
  3
ObjectDBX Classes
 90
        0
280
     0
281
     0
  0
CLASS
  1
ACDBPLACEHOLDER
  2
AcDbPlaceHolder
  3
ObjectDBX Classes
 90
        0
280
     0
281
     0
  0
CLASS
  1
LAYOUT
  2
AcDbLayout
  3
ObjectDBX Classes
 90
        0
280
     0
281
     0
  0
CLASS
  1
PLOTSETTINGS
  2
AcDbPlotSettings
  3
ObjectDBX Classes
 90
        0
280
     0
281
     0
  0
CLASS
  1
TABLESTYLE
  2
AcDbTableStyle
  3
ObjectDBX Classes
 90
     4095
280
     0
281
     0
  0
CLASS
  1
MATERIAL
  2
AcDbMaterial
  3
ObjectDBX Classes
 90
     1024
280
     0
281
     0
  0
CLASS
  1
VISUALSTYLE
  2
AcDbVisualStyle
  3
ObjectDBX Classes
 90
     4095
280
     0
281
     0
  0
ENDSEC
  0
SECTION
  2
TABLES
  0
TABLE
  2
VPORT
  5
8
330
0
100
AcDbSymbolTable
 70
     1
  0
VPORT
  5
2534
330
8
100
AcDbSymbolTableRecord
100
AcDbViewportTableRecord
  2
*Active
 70
     0
 10
0.0
 20
0.0
 11
1.0
 21
1.0
 12
226.2315672681737
 22
224.6585312862013
 13
0.0
 23
0.0
 14
0.5
 24
0.5
 15
0.5
 25
0.5
 16
0.0
 26
0.0
 36
1.0
 17
0.0
 27
0.0
 37
0.0
 40
24.21602025709609
 41
1.644662921348314
 42
50.0
 43
0.0
 44
0.0
 50
0.0
 51
0.0
 71
     0
 72
   100
 73
     1
 74
     1
 75
     0
 76
     0
 77
     0
 78
     0
281
     0
 65
     1
110
0.0
120
0.0
130
0.0
111
1.0
121
0.0
131
0.0
112
0.0
122
1.0
132
0.0
 79
     0
146
0.0
  0
ENDTAB
  0
TABLE
  2
LTYPE
  5
5
330
0
100
AcDbSymbolTable
 70
     4
  0
LTYPE
  5
13
330
5
100
AcDbSymbolTableRecord
100
AcDbLinetypeTableRecord
  2
BYBLOCK
 70
     0
  3

 72
    65
 73
     0
 40
0.0
  0
LTYPE
  5
14
330
5
100
AcDbSymbolTableRecord
100
AcDbLinetypeTableRecord
  2
BYLAYER
 70
     0
  3

 72
    65
 73
     0
 40
0.0
  0
LTYPE
  5
15
330
5
100
AcDbSymbolTableRecord
100
AcDbLinetypeTableRecord
  2
CONTINUOUS
 70
     0
  3
Solid line
 72
    65
 73
     0
 40
0.0
  0
LTYPE
  5
2027
330
5
100
AcDbSymbolTableRecord
100
AcDbLinetypeTableRecord
  2
CENTER
 70
     0
  3
--- - --- - --- - --- - --- - 
 72
    65
 73
     4
 40
6.0
 49
3.0
 74
     0
 49
-1.0
 74
     0
 49
1.0
 74
     0
 49
-1.0
 74
     0
  0
LTYPE
  5
2303
330
5
100
AcDbSymbolTableRecord
100
AcDbLinetypeTableRecord
  2
DASHED
 70
     0
  3
-- -- -- -- -- -- -- -- -- --
 72
    65
 73
     2
 40
3.0
 49
2.0
 74
     0
 49
-1.0
 74
     0
  0
LTYPE
  5
2304
330
5
100
AcDbSymbolTableRecord
100
AcDbLinetypeTableRecord
  2
PHANTOM
 70
     0
  3
----- - - ----- - - ----- - -
 72
    65
 73
     6
 40
12.0
 49
7.0
 74
     0
 49
-1.0
 74
     0
 49
1.0
 74
     0
 49
-1.0
 74
     0
 49
1.0
 74
     0
 49
-1.0
 74
     0
  0
ENDTAB
  0
TABLE
  2
LAYER
  5
2
102
{ACAD_XDICTIONARY
360
242F
102
}
330
0
100
AcDbSymbolTable
 70
    10
  0
LAYER
  5
F
330
2
100
AcDbSymbolTableRecord
100
AcDbLayerTableRecord
  2
0
 70
     0
 62
     7
  6
CONTINUOUS
370
    -3
390
14BA
  0
LAYER
  5
1F8
330
2
100
AcDbSymbolTableRecord
100
AcDbLayerTableRecord
  2
DIVIDE
 70
     0
 62
     7
  6
CONTINUOUS
370
    -3
390
14BA
  0
LAYER
  5
937
330
2
100
AcDbSymbolTableRecord
100
AcDbLayerTableRecord
  2
DIM
 70
     0
 62
     7
  6
CONTINUOUS
370
    -3
390
14BA
  0
LAYER
  5
1EF8
330
2
100
AcDbSymbolTableRecord
100
AcDbLayerTableRecord
  2
KOP
 70
     0
 62
     7
  6
CONTINUOUS
370
    -3
390
14BA
  0
LAYER
  5
1EFA
330
2
100
AcDbSymbolTableRecord
100
AcDbLayerTableRecord
  2
VP
 70
     0
 62
     7
  6
CONTINUOUS
370
    -3
390
14BA
  0
LAYER
  5
1EFE
330
2
100
AcDbSymbolTableRecord
100
AcDbLayerTableRecord
  2
GR-DIMENSI
 70
     0
 62
     7
  6
CONTINUOUS
370
    -3
390
14BA
  0
LAYER
  5
2028
330
2
100
AcDbSymbolTableRecord
100
AcDbLayerTableRecord
  2
1
 70
     0
 62
     7
  6
CONTINUOUS
370
    -3
390
14BA
  0
LAYER
  5
2029
330
2
100
AcDbSymbolTableRecord
100
AcDbLayerTableRecord
  2
G__TOTO
 70
     0
 62
     7
  6
CONTINUOUS
370
    -3
390
14BA
  0
LAYER
  5
2305
330
2
100
AcDbSymbolTableRecord
100
AcDbLayerTableRecord
  2
PIC06
 70
     0
 62
     7
  6
CONTINUOUS
370
    -3
390
14BA
  0
LAYER
  5
2459
330
2
100
AcDbSymbolTableRecord
100
AcDbLayerTableRecord
  2
LINE_TEX
 70
     0
 62
     6
  6
CONTINUOUS
370
    -3
390
14BA
  0
ENDTAB
  0
TABLE
  2
STYLE
  5
3
330
0
100
AcDbSymbolTable
 70
    12
  0
STYLE
  5
10
330
3
100
AcDbSymbolTableRecord
100
AcDbTextStyleTableRecord
  2
STANDARD
 70
     0
 40
0.0
 41
1.0
 50
0.0
 71
     0
 42
0.2
  3
txt
  4

  0
STYLE
  5
1F9
330
3
100
AcDbSymbolTableRecord
100
AcDbTextStyleTableRecord
  2
ROMANS
 70
     0
 40
0.3
 41
1.0
 50
0.0
 71
     0
 42
0.4
  3
romans
  4

  0
STYLE
  5
1148
330
3
100
AcDbSymbolTableRecord
100
AcDbTextStyleTableRecord
  2
SWISS
 70
     0
 40
0.0
 41
1.0
 50
0.0
 71
     0
 42
0.5
  3
swissel.ttf
  4

1001
ACAD
1000
Swis721 LtEx BT
1071
       34
  0
STYLE
  5
114A
330
3
100
AcDbSymbolTableRecord
100
AcDbTextStyleTableRecord
  2
DUTCH
 70
     0
 40
0.0
 41
1.0
 50
0.0
 71
     0
 42
0.2
  3
dutcheb.ttf
  4

1001
ACAD
1000
Dutch801 XBd BT
1071
       18
  0
STYLE
  5
126A
330
3
100
AcDbSymbolTableRecord
100
AcDbTextStyleTableRecord
  2
SWISS1
 70
     0
 40
0.0
 41
1.0
 50
0.0
 71
     0
 42
0.25
  3
swissl.ttf
  4

1001
ACAD
1000
Swis721 Lt BT
1071
       34
  0
STYLE
  5
140F
330
3
100
AcDbSymbolTableRecord
100
AcDbTextStyleTableRecord
  2
STYLE4
 70
     0
 40
0.0
 41
1.0
 50
0.0
 71
     0
 42
0.25
  3
swisscl.ttf
  4

1001
ACAD
1000
Swis721 LtCn BT
1071
       34
  0
STYLE
  5
143C
330
3
100
AcDbSymbolTableRecord
100
AcDbTextStyleTableRecord
  2
LUCIDA
 70
     0
 40
0.0
 41
1.0
 50
0.0
 71
     0
 42
0.25
  3
LHANDW.TTF
  4

1001
ACAD
1000
Lucida Handwriting
1071
       66
  0
STYLE
  5
1549
330
3
100
AcDbSymbolTableRecord
100
AcDbTextStyleTableRecord
  2
BLACK
 70
     0
 40
0.4
 41
1.0
 50
0.0
 71
     0
 42
0.4
  3
ARIAL.TTF
  4

1001
ACAD
1000
Arial
1071
       34
  0
STYLE
  5
16C2
330
3
100
AcDbSymbolTableRecord
100
AcDbTextStyleTableRecord
  2
ARIAL
 70
     0
 40
4.0
 41
1.0
 50
0.0
 71
     0
 42
4.0
  3
ARIAL.TTF
  4

1001
ACAD
1000
Arial
1071
       34
  0
STYLE
  5
2162
330
3
100
AcDbSymbolTableRecord
100
AcDbTextStyleTableRecord
  2
TIMES_NEW_ROMANS
 70
     0
 40
0.0
 41
1.0
 50
0.0
 71
     0
 42
3.0
  3
TIMESI.TTF
  4

1001
ACAD
1000
Times New Roman
1071
 16777234
  0
STYLE
  5
2163
330
3
100
AcDbSymbolTableRecord
100
AcDbTextStyleTableRecord
  2
CLARENDON
 70
     0
 40
0.0
 41
1.0
 50
0.0
 71
     0
 42
0.2
  3
clar45w.ttf
  4

1001
ACAD
1000
Clarendon
1071
        2
  0
STYLE
  5
2164
330
3
100
AcDbSymbolTableRecord
100
AcDbTextStyleTableRecord
  2
ARIAL_REGULER
 70
     0
 40
0.0
 41
1.0
 50
0.0
 71
     0
 42
3.0
  3
ARIAL.TTF
  4

1001
ACAD
1000
Arial
1071
       34
  0
ENDTAB
  0
TABLE
  2
VIEW
  5
6
330
0
100
AcDbSymbolTable
 70
     1
  0
ENDTAB
  0
TABLE
  2
UCS
  5
7
330
0
100
AcDbSymbolTable
 70
     0
  0
ENDTAB
  0
TABLE
  2
APPID
  5
9
330
0
100
AcDbSymbolTable
 70
     8
  0
APPID
  5
11
330
9
100
AcDbSymbolTableRecord
100
AcDbRegAppTableRecord
  2
ACAD
 70
     0
  0
APPID
  5
226E
330
9
100
AcDbSymbolTableRecord
100
AcDbRegAppTableRecord
  2
DCO15
 70
     0
  0
APPID
  5
241E
330
9
100
AcDbSymbolTableRecord
100
AcDbRegAppTableRecord
  2
ACAD_EXEMPT_FROM_CAD_STANDARDS
 70
     0
  0
APPID
  5
2428
330
9
100
AcDbSymbolTableRecord
100
AcDbRegAppTableRecord
  2
ACAD_PSEXT
 70
     0
  0
APPID
  5
24BA
330
9
100
AcDbSymbolTableRecord
100
AcDbRegAppTableRecord
  2
ACAD_DSTYLE_DIMEXT_LENGTH
 70
     0
  0
APPID
  5
24BB
330
9
100
AcDbSymbolTableRecord
100
AcDbRegAppTableRecord
  2
ACAD_DSTYLE_DIMEXT_ENABLED
 70
     0
  0
APPID
  5
24BC
330
9
100
AcDbSymbolTableRecord
100
AcDbRegAppTableRecord
  2
ACAD_DSTYLE_DIMJOGGED_JOGANGLE_SYMBOL
 70
     0
  0
APPID
  5
24BD
330
9
100
AcDbSymbolTableRecord
100
AcDbRegAppTableRecord
  2
ACAD_DSTYLE_DIMARC_LENGTH_SYMBOL
 70
     0
  0
ENDTAB
  0
TABLE
  2
DIMSTYLE
  5
A
330
0
100
AcDbSymbolTable
 70
     2
100
AcDbDimStyleTable
 71
     1
340
1D
  0
DIMSTYLE
105
1D
330
A
100
AcDbSymbolTableRecord
100
AcDbDimStyleTableRecord
  2
STANDARD
 70
     0
 40
5.0
 42
0.625
 43
0.2
 44
0.12
 73
     0
 74
     0
 77
     1
140
0.2
141
0.0
147
0.1
176
   256
177
   256
178
   256
340
1F9
  0
DIMSTYLE
105
245A
330
A
100
AcDbSymbolTableRecord
100
AcDbDimStyleTableRecord
  2
DIM-1
 70
     0
 40
2.0
 41
2.1
 42
0.5
 43
5.0
 44
0.5
 73
     0
 74
     0
 77
     1
140
2.799999999999998
141
0.0
147
0.5
174
     1
176
   256
177
   256
178
   256
271
     0
272
     0
340
1F9
  0
ENDTAB
  0
TABLE
  2
BLOCK_RECORD
  5
1
330
0
100
AcDbSymbolTable
 70
    13
  0
BLOCK_RECORD
  5
19
102
{ACAD_XDICTIONARY
360
1507
102
}
330
1
100
AcDbSymbolTableRecord
100
AcDbBlockTableRecord
  2
*MODEL_SPACE
340
2263
  0
BLOCK_RECORD
  5
1F11
102
{ACAD_XDICTIONARY
360
224F
102
}
330
1
100
AcDbSymbolTableRecord
100
AcDbBlockTableRecord
  2
*PAPER_SPACE
340
2264
  0
BLOCK_RECORD
  5
2272
330
1
100
AcDbSymbolTableRecord
100
AcDbBlockTableRecord
  2
MARK1_1
340
0
102
{BLKREFS
331
227A
331
227C
331
2286
331
2288
331
2291
331
2295
331
229E
331
22A0
331
22AA
331
22AC
331
22B6
331
22B8
331
22C2
331
22C4
331
22CE
331
22D0
331
22D9
331
22DB
331
22E5
331
22E9
331
22F0
331
22F4
331
22FB
331
22FF
102
}
  0
BLOCK_RECORD
  5
2277
330
1
100
AcDbSymbolTableRecord
100
AcDbBlockTableRecord
  2
COMP1
340
0
  0
BLOCK_RECORD
  5
2283
330
1
100
AcDbSymbolTableRecord
100
AcDbBlockTableRecord
  2
COMP2
340
0
  0
BLOCK_RECORD
  5
228E
330
1
100
AcDbSymbolTableRecord
100
AcDbBlockTableRecord
  2
COMP3
340
0
  0
BLOCK_RECORD
  5
229B
330
1
100
AcDbSymbolTableRecord
100
AcDbBlockTableRecord
  2
COMP4
340
0
  0
BLOCK_RECORD
  5
22A7
330
1
100
AcDbSymbolTableRecord
100
AcDbBlockTableRecord
  2
COMP5
340
0
  0
BLOCK_RECORD
  5
22B3
330
1
100
AcDbSymbolTableRecord
100
AcDbBlockTableRecord
  2
COMP6
340
0
  0
BLOCK_RECORD
  5
22BF
330
1
100
AcDbSymbolTableRecord
100
AcDbBlockTableRecord
  2
COMP13
340
0
  0
BLOCK_RECORD
  5
22CB
330
1
100
AcDbSymbolTableRecord
100
AcDbBlockTableRecord
  2
COMP15
340
0
  0
BLOCK_RECORD
  5
22D6
330
1
100
AcDbSymbolTableRecord
100
AcDbBlockTableRecord
  2
COMP17
340
0
  0
BLOCK_RECORD
  5
22E2
330
1
100
AcDbSymbolTableRecord
100
AcDbBlockTableRecord
  2
COMP18
340
0
  0
BLOCK_RECORD
  5
22ED
330
1
100
AcDbSymbolTableRecord
100
AcDbBlockTableRecord
  2
COMP19
340
0
  0
BLOCK_RECORD
  5
22F8
330
1
100
AcDbSymbolTableRecord
100
AcDbBlockTableRecord
  2
COMP20
340
0
  0
ENDTAB
  0
ENDSEC
  0
SECTION
  2
BLOCKS
  0
BLOCK
  5
1A
330
19
100
AcDbEntity
  8
0
100
AcDbBlockBegin
  2
*MODEL_SPACE
 70
     0
 10
0.0
 20
0.0
 30
0.0
  3
*MODEL_SPACE
  1

  0
ENDBLK
  5
1B
330
19
100
AcDbEntity
  8
0
100
AcDbBlockEnd
  0
BLOCK
  5
1F61
330
1F11
100
AcDbEntity
 67
     1
  8
0
100
AcDbBlockBegin
  2
*PAPER_SPACE
 70
     0
 10
0.0
 20
0.0
 30
0.0
  3
*PAPER_SPACE
  1

  0
ENDBLK
  5
1F62
330
1F11
100
AcDbEntity
 67
     1
  8
0
100
AcDbBlockEnd
  0
BLOCK
  5
2273
330
2272
100
AcDbEntity
  8
0
100
AcDbBlockBegin
  2
MARK1_1
 70
     0
 10
0.0
 20
0.0
 30
0.0
  3
MARK1_1
  1

  0
LINE
  5
2274
330
2272
100
AcDbEntity
  8
0
  6
Continuous
 62
     0
100
AcDbLine
 10
1.0
 20
-0.25
 30
0.0
 11
0.0
 21
0.0
 31
0.0
  0
LINE
  5
2275
330
2272
100
AcDbEntity
  8
0
  6
Continuous
 62
     0
100
AcDbLine
 10
0.0
 20
0.0
 30
0.0
 11
1.0
 21
0.25
 31
0.0
  0
ENDBLK
  5
2276
330
2272
100
AcDbEntity
  8
0
100
AcDbBlockEnd
  0
BLOCK
  5
2278
330
2277
100
AcDbEntity
  8
PIC06
100
AcDbBlockBegin
  2
COMP1
 70
     0
 10
0.0
 20
0.0
 30
0.0
  3
COMP1
  1

  0
LINE
  5
2279
330
2277
100
AcDbEntity
  8
PIC06
  6
Continuous
 62
     7
100
AcDbLine
 10
3.756631520177791
 20
-57.99516638077147
 30
0.0
 11
3.756631520177791
 21
-38.41141149794566
 31
0.0
  0
INSERT
  5
227A
330
2277
100
AcDbEntity
  8
PIC06
  6
Continuous
 62
     7
100
AcDbBlockReference
  2
MARK1_1
 10
3.756631520177791
 20
-57.99516638077147
 30
0.0
 41
2.5
 42
2.5
 50
90.0
  0
LINE
  5
227B
330
2277
100
AcDbEntity
  8
PIC06
  6
Continuous
 62
     7
100
AcDbLine
 10
3.756631520177791
 20
-18.82765915830214
 30
0.0
 11
3.756631520177791
 21
-38.41141149794566
 31
0.0
  0
INSERT
  5
227C
330
2277
100
AcDbEntity
  8
PIC06
  6
Continuous
 62
     7
100
AcDbBlockReference
  2
MARK1_1
 10
3.756631520177791
 20
-18.82765915830214
 30
0.0
 41
2.5
 42
2.5
 50
270.0
  0
LINE
  5
227D
330
2277
100
AcDbEntity
  8
PIC06
  6
Continuous
 62
     7
100
AcDbLine
 10
-41.86889325375432
 20
-57.99516638077147
 30
0.0
 11
4.756631142275465
 21
-57.99516638077147
 31
0.0
  0
LINE
  5
227E
330
2277
100
AcDbEntity
  8
PIC06
  6
Continuous
 62
     7
100
AcDbLine
 10
-46.89232933223228
 20
-18.82765915830214
 30
0.0
 11
4.756631142275465
 21
-18.82765915830214
 31
0.0
  0
TEXT
  5
227F
330
2277
100
AcDbEntity
  8
PIC06
  6
Continuous
 62
     7
100
AcDbText
 10
3.156631238282728
 20
-40.75516251962381
 30
0.0
 40
2.5
  1
2
 50
90.0
 41
0.6547619344966496
100
AcDbText
  0
TEXT
  5
2280
330
2277
100
AcDbEntity
  8
PIC06
  6
Continuous
 62
     7
100
AcDbText
 10
3.156631799961456
 20
-39.0364125196239
 30
0.0
 40
2.5
  1
3
 50
90.0
 41
0.6547619344966496
100
AcDbText
  0
TEXT
  5
2281
330
2277
100
AcDbEntity
  8
PIC06
  6
Continuous
 62
     7
100
AcDbText
 10
3.156632361640183
 20
-37.31766251962397
 30
0.0
 40
2.5
  1
5
 50
90.0
 41
0.6547619344966496
100
AcDbText
  0
ENDBLK
  5
2282
330
2277
100
AcDbEntity
  8
PIC06
100
AcDbBlockEnd
  0
BLOCK
  5
2284
330
2283
100
AcDbEntity
  8
PIC06
100
AcDbBlockBegin
  2
COMP2
 70
     0
 10
0.0
 20
0.0
 30
0.0
  3
COMP2
  1

  0
LINE
  5
2285
330
2283
100
AcDbEntity
  8
PIC06
  6
Continuous
 62
     7
100
AcDbLine
 10
-41.64222450256327
 20
-37.00119148601971
 30
0.0
 11
-46.89232933223228
 21
-37.00119148601971
 31
0.0
  0
INSERT
  5
2286
330
2283
100
AcDbEntity
  8
PIC06
  6
Continuous
 62
     7
100
AcDbBlockReference
  2
MARK1_1
 10
-41.64222450256327
 20
-37.00119148601971
 30
0.0
 41
2.5
 42
2.5
 50
180.0
  0
LINE
  5
2287
330
2283
100
AcDbEntity
  8
PIC06
  6
Continuous
 62
     7
100
AcDbLine
 10
-52.14243416190129
 20
-37.00119148601971
 30
0.0
 11
-46.89232933223228
 21
-37.00119148601971
 31
0.0
  0
INSERT
  5
2288
330
2283
100
AcDbEntity
  8
PIC06
  6
Continuous
 62
     7
100
AcDbBlockReference
  2
MARK1_1
 10
-52.14243416190129
 20
-37.00119148601971
 30
0.0
 41
2.5
 42
2.5
  0
LINE
  5
2289
330
2283
100
AcDbEntity
  8
PIC06
  6
Continuous
 62
     7
100
AcDbLine
 10
-41.64222450256327
 20
-28.41124234057314
 30
0.0
 11
-41.64222450256327
 21
-38.00119110811738
 31
0.0
  0
LINE
  5
228A
330
2283
100
AcDbEntity
  8
PIC06
  6
Continuous
 62
     7
100
AcDbLine
 10
-52.14243416190129
 20
-28.41124234057314
 30
0.0
 11
-52.14243416190129
 21
-38.00119110811738
 31
0.0
  0
TEXT
  5
228B
330
2283
100
AcDbEntity
  8
PIC06
  6
Continuous
 62
     7
100
AcDbText
 10
-50.4045149391104
 20
-35.7105849667646
 30
0.0
 40
2.5
  1
6
 41
0.6547619344966496
100
AcDbText
  0
TEXT
  5
228C
330
2283
100
AcDbEntity
  8
PIC06
  6
Continuous
 62
     7
100
AcDbText
 10
-48.6857649391104
 20
-35.7105849667646
 30
0.0
 40
2.5
  1
3
 41
0.6547619344966496
100
AcDbText
  0
ENDBLK
  5
228D
330
2283
100
AcDbEntity
  8
PIC06
100
AcDbBlockEnd
  0
BLOCK
  5
228F
330
228E
100
AcDbEntity
  8
PIC06
100
AcDbBlockBegin
  2
COMP3
 70
     0
 10
0.0
 20
0.0
 30
0.0
  3
COMP3
  1

  0
LINE
  5
2290
330
228E
100
AcDbEntity
  8
PIC06
  6
Continuous
 62
     7
100
AcDbLine
 10
-38.58379347996289
 20
-27.32788737572082
 30
0.0
 11
-38.58379347996289
 21
-23.35847828392069
 31
0.0
  0
INSERT
  5
2291
330
228E
100
AcDbEntity
  8
PIC06
  6
Continuous
 62
     7
100
AcDbBlockReference
  2
MARK1_1
 10
-38.58379347996289
 20
-27.32788737572082
 30
0.0
 41
2.5
 42
2.5
 50
90.0
  0
LINE
  5
2292
330
228E
100
AcDbEntity
  8
PIC06
  6
Continuous
 62
     7
100
AcDbLine
 10
-38.58379347996289
 20
-27.32788737572082
 30
0.0
 11
-38.58379347996289
 21
-28.41124234057314
 31
0.0
  0
LINE
  5
2293
330
228E
100
AcDbEntity
  8
PIC06
  6
Continuous
 62
     7
100
AcDbLine
 10
-38.58379347996289
 20
-29.49459730542548
 30
0.0
 11
-38.58379347996289
 21
-28.41124234057314
 31
0.0
  0
LINE
  5
2294
330
228E
100
AcDbEntity
  8
PIC06
  6
Continuous
 62
     7
100
AcDbLine
 10
-38.58379347996289
 20
-29.49459730542548
 30
0.0
 11
-38.58379347996289
 21
-32.49459617171851
 31
0.0
  0
INSERT
  5
2295
330
228E
100
AcDbEntity
  8
PIC06
  6
Continuous
 62
     7
100
AcDbBlockReference
  2
MARK1_1
 10
-38.58379347996289
 20
-29.49459730542548
 30
0.0
 41
2.5
 42
2.5
 50
270.0
  0
LINE
  5
2296
330
228E
100
AcDbEntity
  8
PIC06
  6
Continuous
 62
     7
100
AcDbLine
 10
-42.72557946741563
 20
-27.32788737572082
 30
0.0
 11
-37.58379385786521
 21
-27.32788737572082
 31
0.0
  0
LINE
  5
2297
330
228E
100
AcDbEntity
  8
PIC06
  6
Continuous
 62
     7
100
AcDbLine
 10
-42.72557946741563
 20
-29.49459730542548
 30
0.0
 11
-37.58379385786521
 21
-29.49459730542548
 31
0.0
  0
TEXT
  5
2298
330
228E
100
AcDbEntity
  8
PIC06
  6
Continuous
 62
     7
100
AcDbText
 10
-39.93922062943921
 20
-26.59181412537055
 30
0.0
 40
2.5
  1
1
 50
90.0
 41
0.6547619344966496
100
AcDbText
  0
TEXT
  5
2299
330
228E
100
AcDbEntity
  8
PIC06
  6
Continuous
 62
     7
100
AcDbText
 10
-39.93922006776047
 20
-24.87306412537064
 30
0.0
 40
2.5
  1
3
 50
90.0
 41
0.6547619344966496
100
AcDbText
  0
ENDBLK
  5
229A
330
228E
100
AcDbEntity
  8
PIC06
100
AcDbBlockEnd
  0
BLOCK
  5
229C
330
229B
100
AcDbEntity
  8
PIC06
100
AcDbBlockBegin
  2
COMP4
 70
     0
 10
0.0
 20
0.0
 30
0.0
  3
COMP4
  1

  0
LINE
  5
229D
330
229B
100
AcDbEntity
  8
PIC06
  6
Continuous
 62
     7
100
AcDbLine
 10
11.30023885793071
 20
17.15855844829321
 30
0.0
 11
11.30023885793071
 21
53.15925947803314
 31
0.0
  0
INSERT
  5
229E
330
229B
100
AcDbEntity
  8
PIC06
  6
Continuous
 62
     7
100
AcDbBlockReference
  2
MARK1_1
 10
11.30023885793071
 20
17.15855844829321
 30
0.0
 41
2.5
 42
2.5
 50
90.0
  0
LINE
  5
229F
330
229B
100
AcDbEntity
  8
PIC06
  6
Continuous
 62
     7
100
AcDbLine
 10
11.30023885793071
 20
89.15994270549708
 30
0.0
 11
11.30023885793071
 21
53.15925947803314
 31
0.0
  0
INSERT
  5
22A0
330
229B
100
AcDbEntity
  8
PIC06
  6
Continuous
 62
     7
100
AcDbBlockReference
  2
MARK1_1
 10
11.30023885793071
 20
89.15994270549708
 30
0.0
 41
2.5
 42
2.5
 50
270.0
  0
LINE
  5
22A1
330
229B
100
AcDbEntity
  8
PIC06
  6
Continuous
 62
     7
100
AcDbLine
 10
-46.89232933223228
 20
17.15855844829321
 30
0.0
 11
12.30023848002838
 21
17.15855844829321
 31
0.0
  0
LINE
  5
22A2
330
229B
100
AcDbEntity
  8
PIC06
  6
Continuous
 62
     7
100
AcDbLine
 10
-46.89232933223228
 20
89.15994270549708
 30
0.0
 11
12.30023848002838
 21
89.15994270549708
 31
0.0
  0
TEXT
  5
22A3
330
229B
100
AcDbEntity
  8
PIC06
  6
Continuous
 62
     7
100
AcDbText
 10
10.70023857603564
 20
50.81549828362586
 30
0.0
 40
2.5
  1
4
 50
90.0
 41
0.6547619344966496
100
AcDbText
  0
TEXT
  5
22A4
330
229B
100
AcDbEntity
  8
PIC06
  6
Continuous
 62
     7
100
AcDbText
 10
10.70023913771436
 20
52.53424828362574
 30
0.0
 40
2.5
  1
3
 50
90.0
 41
0.6547619344966496
100
AcDbText
  0
TEXT
  5
22A5
330
229B
100
AcDbEntity
  8
PIC06
  6
Continuous
 62
     7
100
AcDbText
 10
10.70023969939309
 20
54.25299828362567
 30
0.0
 40
2.5
  1
2
 50
90.0
 41
0.6547619344966496
100
AcDbText
  0
ENDBLK
  5
22A6
330
229B
100
AcDbEntity
  8
PIC06
100
AcDbBlockEnd
  0
BLOCK
  5
22A8
330
22A7
100
AcDbEntity
  8
PIC06
100
AcDbBlockBegin
  2
COMP5
 70
     0
 10
0.0
 20
0.0
 30
0.0
  3
COMP5
  1

  0
LINE
  5
22A9
330
22A7
100
AcDbEntity
  8
PIC06
  6
Continuous
 62
     7
100
AcDbLine
 10
3.756631520177791
 20
24.65866497086427
 30
0.0
 11
3.756631520177791
 21
48.24248955118492
 31
0.0
  0
INSERT
  5
22AA
330
22A7
100
AcDbEntity
  8
PIC06
  6
Continuous
 62
     7
100
AcDbBlockReference
  2
MARK1_1
 10
3.756631520177791
 20
24.65866497086427
 30
0.0
 41
2.5
 42
2.5
 50
90.0
  0
LINE
  5
22AB
330
22A7
100
AcDbEntity
  8
PIC06
  6
Continuous
 62
     7
100
AcDbLine
 10
3.756631520177791
 20
71.82629887241183
 30
0.0
 11
3.756631520177791
 21
48.24247937845576
 31
0.0
  0
INSERT
  5
22AC
330
22A7
100
AcDbEntity
  8
PIC06
  6
Continuous
 62
     7
100
AcDbBlockReference
  2
MARK1_1
 10
3.756631520177791
 20
71.82629887241183
 30
0.0
 41
2.5
 42
2.5
 50
270.0
  0
LINE
  5
22AD
330
22A7
100
AcDbEntity
  8
PIC06
  6
Continuous
 62
     7
100
AcDbLine
 10
-46.89232933223228
 20
24.65866497086427
 30
0.0
 11
4.756631142275465
 21
24.65866497086427
 31
0.0
  0
LINE
  5
22AE
330
22A7
100
AcDbEntity
  8
PIC06
  6
Continuous
 62
     7
100
AcDbLine
 10
-46.89232933223228
 20
71.82629887241183
 30
0.0
 11
4.756631142275465
 21
71.82629887241183
 31
0.0
  0
TEXT
  5
22AF
330
22A7
100
AcDbEntity
  8
PIC06
  6
Continuous
 62
     7
100
AcDbText
 10
3.156631238282728
 20
45.89873344314217
 30
0.0
 40
2.5
  1
2
 50
90.0
 41
0.6547619344966496
100
AcDbText
  0
TEXT
  5
22B0
330
22A7
100
AcDbEntity
  8
PIC06
  6
Continuous
 62
     7
100
AcDbText
 10
3.156631799961456
 20
47.61748344314209
 30
0.0
 40
2.5
  1
8
 50
90.0
 41
0.6547619344966496
100
AcDbText
  0
TEXT
  5
22B1
330
22A7
100
AcDbEntity
  8
PIC06
  6
Continuous
 62
     7
100
AcDbText
 10
3.156632361640183
 20
49.33623344314201
 30
0.0
 40
2.5
  1
3
 50
90.0
 41
0.6547619344966496
100
AcDbText
  0
ENDBLK
  5
22B2
330
22A7
100
AcDbEntity
  8
PIC06
100
AcDbBlockEnd
  0
BLOCK
  5
22B4
330
22B3
100
AcDbEntity
  8
PIC06
100
AcDbBlockBegin
  2
COMP6
 70
     0
 10
0.0
 20
0.0
 30
0.0
  3
COMP6
  1

  0
LINE
  5
22B5
330
22B3
100
AcDbEntity
  8
PIC06
  6
Continuous
 62
     7
100
AcDbLine
 10
-89.22655373605083
 20
6.320598921678084
 30
0.0
 11
-46.89237002314892
 21
6.320598921678084
 31
0.0
  0
INSERT
  5
22B6
330
22B3
100
AcDbEntity
  8
PIC06
  6
Continuous
 62
     7
100
AcDbBlockReference
  2
MARK1_1
 10
-89.22655373605083
 20
6.320598921678084
 30
0.0
 41
2.5
 42
2.5
  0
LINE
  5
22B7
330
22B3
100
AcDbEntity
  8
PIC06
  6
Continuous
 62
     7
100
AcDbLine
 10
-4.558191078713831
 20
6.320598921678084
 30
0.0
 11
-46.89237002314892
 21
6.320598921678084
 31
0.0
  0
INSERT
  5
22B8
330
22B3
100
AcDbEntity
  8
PIC06
  6
Continuous
 62
     7
100
AcDbBlockReference
  2
MARK1_1
 10
-4.558191078713831
 20
6.320598921678084
 30
0.0
 41
2.5
 42
2.5
 50
180.0
  0
LINE
  5
22B9
330
22B3
100
AcDbEntity
  8
PIC06
  6
Continuous
 62
     7
100
AcDbLine
 10
-89.22655373605083
 20
53.13157948198295
 30
0.0
 11
-89.22655373605083
 21
5.320599617478193
 31
0.0
  0
LINE
  5
22BA
330
22B3
100
AcDbEntity
  8
PIC06
  6
Continuous
 62
     7
100
AcDbLine
 10
-4.558191078713831
 20
53.13157948198295
 30
0.0
 11
-4.558191078713831
 21
5.320599617478193
 31
0.0
  0
TEXT
  5
22BB
330
22B3
100
AcDbEntity
  8
PIC06
  6
Continuous
 62
     7
100
AcDbText
 10
-49.23611595846249
 20
6.920599203573146
 30
0.0
 40
2.5
  1
5
 41
0.6547619344966496
100
AcDbText
  0
TEXT
  5
22BC
330
22B3
100
AcDbEntity
  8
PIC06
  6
Continuous
 62
     7
100
AcDbText
 10
-47.51736595846249
 20
6.920599203573146
 30
0.0
 40
2.5
  1
0
 41
0.6547619344966496
100
AcDbText
  0
TEXT
  5
22BD
330
22B3
100
AcDbEntity
  8
PIC06
  6
Continuous
 62
     7
100
AcDbText
 10
-45.79861595846249
 20
6.920599203573146
 30
0.0
 40
2.5
  1
8
 41
0.6547619344966496
100
AcDbText
  0
ENDBLK
  5
22BE
330
22B3
100
AcDbEntity
  8
PIC06
100
AcDbBlockEnd
  0
BLOCK
  5
22C0
330
22BF
100
AcDbEntity
  8
PIC06
100
AcDbBlockBegin
  2
COMP13
 70
     0
 10
0.0
 20
0.0
 30
0.0
  3
COMP13
  1

  0
LINE
  5
22C1
330
22BF
100
AcDbEntity
  8
PIC06
  6
Continuous
 62
     7
100
AcDbLine
 10
-15.89158826524636
 20
40.64798264517139
 30
0.0
 11
-46.89224795039899
 21
40.64798264517139
 31
0.0
  0
INSERT
  5
22C2
330
22BF
100
AcDbEntity
  8
PIC06
  6
Continuous
 62
     7
100
AcDbBlockReference
  2
MARK1_1
 10
-15.89158826524636
 20
40.64798264517139
 30
0.0
 41
2.5
 42
2.5
 50
180.0
  0
LINE
  5
22C3
330
22BF
100
AcDbEntity
  8
PIC06
  6
Continuous
 62
     7
100
AcDbLine
 10
-77.89290763555164
 20
40.64798264517139
 30
0.0
 11
-46.89224795039899
 21
40.64798264517139
 31
0.0
  0
INSERT
  5
22C4
330
22BF
100
AcDbEntity
  8
PIC06
  6
Continuous
 62
     7
100
AcDbBlockReference
  2
MARK1_1
 10
-77.89290763555164
 20
40.64798264517139
 30
0.0
 41
2.5
 42
2.5
  0
LINE
  5
22C5
330
22BF
100
AcDbEntity
  8
PIC06
  6
Continuous
 62
     7
100
AcDbLine
 10
-15.89158826524636
 20
53.15923913257485
 30
0.0
 11
-15.89158826524636
 21
39.64798302307372
 31
0.0
  0
LINE
  5
22C6
330
22BF
100
AcDbEntity
  8
PIC06
  6
Continuous
 62
     7
100
AcDbLine
 10
-77.89290763555164
 20
53.15923913257485
 30
0.0
 11
-77.89290763555164
 21
39.64798302307372
 31
0.0
  0
TEXT
  5
22C7
330
22BF
100
AcDbEntity
  8
PIC06
  6
Continuous
 62
     7
100
AcDbText
 10
-45.84106932788654
 20
41.57615008347284
 30
0.0
 40
2.5
  1
3
 41
0.6547619344966496
100
AcDbText
  0
TEXT
  5
22C8
330
22BF
100
AcDbEntity
  8
PIC06
  6
Continuous
 62
     7
100
AcDbText
 10
-44.12231932788654
 20
41.57615008347284
 30
0.0
 40
2.5
  1
7
 41
0.6547619344966496
100
AcDbText
  0
TEXT
  5
22C9
330
22BF
100
AcDbEntity
  8
PIC06
  6
Continuous
 62
     7
100
AcDbText
 10
-42.40356932788652
 20
41.57615008347284
 30
0.0
 40
2.5
  1
2
 41
0.6547619344966496
100
AcDbText
  0
ENDBLK
  5
22CA
330
22BF
100
AcDbEntity
  8
PIC06
100
AcDbBlockEnd
  0
BLOCK
  5
22CC
330
22CB
100
AcDbEntity
  8
PIC06
100
AcDbBlockBegin
  2
COMP15
 70
     0
 10
0.0
 20
0.0
 30
0.0
  3
COMP15
  1

  0
LINE
  5
22CD
330
22CB
100
AcDbEntity
  8
PIC06
  6
Continuous
 62
     7
100
AcDbLine
 10
3.756631520177791
 20
89.15994270549708
 30
0.0
 11
3.756631520177791
 21
84.15984795408167
 31
0.0
  0
INSERT
  5
22CE
330
22CB
100
AcDbEntity
  8
PIC06
  6
Continuous
 62
     7
100
AcDbBlockReference
  2
MARK1_1
 10
3.756631520177791
 20
89.15994270549708
 30
0.0
 41
2.5
 42
2.5
 50
270.0
  0
LINE
  5
22CF
330
22CB
100
AcDbEntity
  8
PIC06
  6
Continuous
 62
     7
100
AcDbLine
 10
3.756631520177791
 20
79.15974811630167
 30
0.0
 11
3.756631520177791
 21
84.15984795408167
 31
0.0
  0
INSERT
  5
22D0
330
22CB
100
AcDbEntity
  8
PIC06
  6
Continuous
 62
     7
100
AcDbBlockReference
  2
MARK1_1
 10
3.756631520177791
 20
79.15974811630167
 30
0.0
 41
2.5
 42
2.5
 50
90.0
  0
LINE
  5
22D1
330
22CB
100
AcDbEntity
  8
PIC06
  6
Continuous
 62
     7
100
AcDbLine
 10
-46.89232933223228
 20
89.15994270549708
 30
0.0
 11
4.756631460173252
 21
89.15994270549708
 31
0.0
  0
LINE
  5
22D2
330
22CB
100
AcDbEntity
  8
PIC06
  6
Continuous
 62
     7
100
AcDbLine
 10
-34.97542980522121
 20
79.15974811630167
 30
0.0
 11
4.756631460173252
 21
79.15974811630167
 31
0.0
  0
TEXT
  5
22D3
330
22CB
100
AcDbEntity
  8
PIC06
  6
Continuous
 62
     7
100
AcDbText
 10
3.156631556180512
 20
82.6754738329282
 30
0.0
 40
2.5
  1
6
 50
90.0
 41
0.6547619344966496
100
AcDbText
  0
TEXT
  5
22D4
330
22CB
100
AcDbEntity
  8
PIC06
  6
Continuous
 62
     7
100
AcDbText
 10
3.156632117859242
 20
84.39422383292813
 30
0.0
 40
2.5
  1
0
 50
90.0
 41
0.6547619344966496
100
AcDbText
  0
ENDBLK
  5
22D5
330
22CB
100
AcDbEntity
  8
PIC06
100
AcDbBlockEnd
  0
BLOCK
  5
22D7
330
22D6
100
AcDbEntity
  8
PIC06
100
AcDbBlockBegin
  2
COMP17
 70
     0
 10
0.0
 20
0.0
 30
0.0
  3
COMP17
  1

  0
LINE
  5
22D8
330
22D6
100
AcDbEntity
  8
PIC06
  6
Continuous
 62
     7
100
AcDbLine
 10
-38.39216469437089
 20
95.08707317909466
 30
0.0
 11
-46.89233441859687
 21
95.08707317909466
 31
0.0
  0
INSERT
  5
22D9
330
22D6
100
AcDbEntity
  8
PIC06
  6
Continuous
 62
     7
100
AcDbBlockReference
  2
MARK1_1
 10
-38.39216469437089
 20
95.08707317909466
 30
0.0
 41
2.5
 42
2.5
 50
180.0
  0
LINE
  5
22DA
330
22D6
100
AcDbEntity
  8
PIC06
  6
Continuous
 62
     7
100
AcDbLine
 10
-55.39250414282285
 20
95.08707317909466
 30
0.0
 11
-46.89233441859687
 21
95.08707317909466
 31
0.0
  0
INSERT
  5
22DB
330
22D6
100
AcDbEntity
  8
PIC06
  6
Continuous
 62
     7
100
AcDbBlockReference
  2
MARK1_1
 10
-55.39250414282285
 20
95.08707317909466
 30
0.0
 41
2.5
 42
2.5
  0
LINE
  5
22DC
330
22D6
100
AcDbEntity
  8
PIC06
  6
Continuous
 62
     7
100
AcDbLine
 10
-38.39216469437089
 20
82.57648300545135
 30
0.0
 11
-38.39216469437089
 21
96.08707280119233
 31
0.0
  0
LINE
  5
22DD
330
22D6
100
AcDbEntity
  8
PIC06
  6
Continuous
 62
     7
100
AcDbLine
 10
-55.39250414282285
 20
82.57648300545135
 30
0.0
 11
-55.39250414282285
 21
96.08707280119233
 31
0.0
  0
TEXT
  5
22DE
330
22D6
100
AcDbEntity
  8
PIC06
  6
Continuous
 62
     7
100
AcDbText
 10
-49.23608544027501
 20
95.68707091780744
 30
0.0
 40
2.5
  1
1
 41
0.6547619344966496
100
AcDbText
  0
TEXT
  5
22DF
330
22D6
100
AcDbEntity
  8
PIC06
  6
Continuous
 62
     7
100
AcDbText
 10
-47.51733544027501
 20
95.68707091780744
 30
0.0
 40
2.5
  1
0
 41
0.6547619344966496
100
AcDbText
  0
TEXT
  5
22E0
330
22D6
100
AcDbEntity
  8
PIC06
  6
Continuous
 62
     7
100
AcDbText
 10
-45.79858544027501
 20
95.68707091780744
 30
0.0
 40
2.5
  1
2
 41
0.6547619344966496
100
AcDbText
  0
ENDBLK
  5
22E1
330
22D6
100
AcDbEntity
  8
PIC06
100
AcDbBlockEnd
  0
BLOCK
  5
22E3
330
22E2
100
AcDbEntity
  8
PIC06
100
AcDbBlockBegin
  2
COMP18
 70
     0
 10
0.0
 20
0.0
 30
0.0
  3
COMP18
  1

  0
LINE
  5
22E4
330
22E2
100
AcDbEntity
  8
PIC06
  6
Continuous
 62
     7
100
AcDbLine
 10
-40.76232157777167
 20
77.45985455511891
 30
0.0
 11
-43.91198417868053
 21
75.2008932310073
 31
0.0
  0
INSERT
  5
22E5
330
22E2
100
AcDbEntity
  8
PIC06
  6
Continuous
 62
     7
100
AcDbBlockReference
  2
MARK1_1
 10
-40.76232157777167
 20
77.45985455511891
 30
0.0
 41
2.5
 42
2.5
 50
216.0
  0
LINE
  5
22E6
330
22E2
100
AcDbEntity
  8
PIC06
  6
Continuous
 62
     7
100
AcDbLine
 10
-40.76232157777167
 20
77.45985455511891
 30
0.0
 11
-38.39216469437089
 21
79.15974811630167
 31
0.0
  0
LINE
  5
22E7
330
22E2
100
AcDbEntity
  8
PIC06
  6
Continuous
 62
     7
100
AcDbLine
 10
-36.02200781097008
 20
80.85964167748443
 30
0.0
 11
-38.39216469437089
 21
79.15974811630167
 31
0.0
  0
LINE
  5
22E8
330
22E2
100
AcDbEntity
  8
PIC06
  6
Continuous
 62
     7
100
AcDbLine
 10
-36.02200781097008
 20
80.85964167748443
 30
0.0
 11
-32.42991033015869
 21
83.435920942351
 31
0.0
  0
INSERT
  5
22E9
330
22E2
100
AcDbEntity
  8
PIC06
  6
Continuous
 62
     7
100
AcDbBlockReference
  2
MARK1_1
 10
-36.02200781097008
 20
80.85964167748443
 30
0.0
 41
2.5
 42
2.5
 50
36.0
  0
TEXT
  5
22EA
330
22E2
100
AcDbEntity
  8
PIC06
  6
Continuous
 62
     7
100
AcDbText
 10
-36.57438191811024
 20
81.75254280696298
 30
0.0
 40
2.5
  1
3
 50
36.0
 41
0.6547619344966496
100
AcDbText
  0
TEXT
  5
22EB
330
22E2
100
AcDbEntity
  8
PIC06
  6
Continuous
 62
     7
100
AcDbText
 10
-35.18388382696972
 20
82.76279852757763
 30
0.0
 40
2.5
  1
5
 50
36.0
 41
0.6547619344966496
100
AcDbText
  0
ENDBLK
  5
22EC
330
22E2
100
AcDbEntity
  8
PIC06
100
AcDbBlockEnd
  0
BLOCK
  5
22EE
330
22ED
100
AcDbEntity
  8
PIC06
100
AcDbBlockBegin
  2
COMP19
 70
     0
 10
0.0
 20
0.0
 30
0.0
  3
COMP19
  1

  0
LINE
  5
22EF
330
22ED
100
AcDbEntity
  8
PIC06
  6
Continuous
 62
     7
100
AcDbLine
 10
-53.06331538294035
 20
80.91535771510553
 30
0.0
 11
-49.04512296844314
 21
83.94403859127123
 31
0.0
  0
INSERT
  5
22F0
330
22ED
100
AcDbEntity
  8
PIC06
  6
Continuous
 62
     7
100
AcDbBlockReference
  2
MARK1_1
 10
-53.06331538294035
 20
80.91535771510553
 30
0.0
 41
2.5
 42
2.5
 50
37.0
  0
LINE
  5
22F1
330
22ED
100
AcDbEntity
  8
PIC06
  6
Continuous
 62
     7
100
AcDbLine
 10
-53.06331538294035
 20
80.91535771510553
 30
0.0
 11
-55.39250414282285
 21
79.15974811630167
 31
0.0
  0
LINE
  5
22F2
330
22ED
100
AcDbEntity
  8
PIC06
  6
Continuous
 62
     7
100
AcDbLine
 10
-57.72169290270539
 20
77.40413851749782
 30
0.0
 11
-55.39250414282285
 21
79.15974811630167
 31
0.0
  0
LINE
  5
22F3
330
22ED
100
AcDbEntity
  8
PIC06
  6
Continuous
 62
     7
100
AcDbLine
 10
-57.72169290270539
 20
77.40413851749782
 30
0.0
 11
-60.1173807931209
 21
75.59840788211204
 31
0.0
  0
INSERT
  5
22F4
330
22ED
100
AcDbEntity
  8
PIC06
  6
Continuous
 62
     7
100
AcDbBlockReference
  2
MARK1_1
 10
-57.72169290270539
 20
77.40413851749782
 30
0.0
 41
2.5
 42
2.5
 50
217.0
  0
TEXT
  5
22F5
330
22ED
100
AcDbEntity
  8
PIC06
  6
Continuous
 62
     7
100
AcDbText
 10
-52.46598289926806
 20
82.48406884737777
 30
0.0
 40
2.5
  1
3
 50
37.0
 41
0.6547619344966496
100
AcDbText
  0
TEXT
  5
22F6
330
22ED
100
AcDbEntity
  8
PIC06
  6
Continuous
 62
     7
100
AcDbText
 10
-51.09332797740775
 20
83.51843823400555
 30
0.0
 40
2.5
  1
5
 50
37.0
 41
0.6547619344966496
100
AcDbText
  0
ENDBLK
  5
22F7
330
22ED
100
AcDbEntity
  8
PIC06
100
AcDbBlockEnd
  0
BLOCK
  5
22F9
330
22F8
100
AcDbEntity
  8
PIC06
100
AcDbBlockBegin
  2
COMP20
 70
     0
 10
0.0
 20
0.0
 30
0.0
  3
COMP20
  1

  0
LINE
  5
22FA
330
22F8
100
AcDbEntity
  8
PIC06
  6
Continuous
 62
     7
100
AcDbLine
 10
-45.90919100872087
 20
79.93175144605266
 30
0.0
 11
-41.3201558972896
 21
83.53525255625482
 31
0.0
  0
INSERT
  5
22FB
330
22F8
100
AcDbEntity
  8
PIC06
  6
Continuous
 62
     7
100
AcDbBlockReference
  2
MARK1_1
 10
-45.90919100872087
 20
79.93175144605266
 30
0.0
 41
2.5
 42
2.5
 50
38.0
  0
LINE
  5
22FC
330
22F8
100
AcDbEntity
  8
PIC06
  6
Continuous
 62
     7
100
AcDbLine
 10
-45.90919100872087
 20
79.93175144605266
 30
0.0
 11
-46.89233441859687
 21
79.15974811630167
 31
0.0
  0
LINE
  5
22FD
330
22F8
100
AcDbEntity
  8
PIC06
  6
Continuous
 62
     7
100
AcDbLine
 10
-47.87547782847287
 20
78.38773970018609
 30
0.0
 11
-46.89233441859687
 21
79.15974302993709
 31
0.0
  0
LINE
  5
22FE
330
22F8
100
AcDbEntity
  8
PIC06
  6
Continuous
 62
     7
100
AcDbLine
 10
-47.87547782847287
 20
78.38773970018609
 30
0.0
 11
-50.23497623489403
 21
76.53496527878997
 31
0.0
  0
INSERT
  5
22FF
330
22F8
100
AcDbEntity
  8
PIC06
  6
Continuous
 62
     7
100
AcDbBlockReference
  2
MARK1_1
 10
-47.87547782847287
 20
78.38773970018609
 30
0.0
 41
2.5
 42
2.5
 50
217.9999999999999
  0
TEXT
  5
2300
330
22F8
100
AcDbEntity
  8
PIC06
  6
Continuous
 62
     7
100
AcDbText
 10
-43.80945832781981
 20
82.24712055336841
 30
0.0
 40
2.5
  1
1
 50
38.0
 41
0.6547619344966496
100
AcDbText
  0
TEXT
  5
2301
330
22F8
100
AcDbEntity
  8
PIC06
  6
Continuous
 62
     7
100
AcDbText
 10
-42.45506469905214
 20
83.30528852720506
 30
0.0
 40
2.5
  1
5
 50
38.0
 41
0.6547619344966496
100
AcDbText
  0
ENDBLK
  5
2302
330
22F8
100
AcDbEntity
  8
PIC06
100
AcDbBlockEnd
  0
ENDSEC
  0
SECTION
  2
ENTITIES
  0
TEXT
  5
136F
330
19
100
AcDbEntity
  8
DIVIDE
100
AcDbText
 10
139.5846174258477
 20
-22.08994519154071
 30
0.0
 40
0.25
  1

  7
SWISS1
100
AcDbText
  0
LINE
  5
206D
330
19
100
AcDbEntity
  8
1
  6
CENTER
100
AcDbLine
 10
225.2362949404181
 20
215.8727631724188
 30
0.0
 11
225.2362949404181
 21
216.4016702894047
 31
0.0
  0
HATCH
  5
2070
330
19
100
AcDbEntity
  8
G__TOTO
100
AcDbHatch
 10
0.0
 20
0.0
 30
0.0
210
0.0
220
0.0
230
1.0
  2
SOLID
 70
     1
 71
     0
 91
       10
 92
        7
 72
     1
 73
     1
 93
       20
 10
213.6834216096328
 20
233.1187331745763
 42
0.0
 10
213.7789440629475
 20
233.1187331745763
 42
-0.4142752124674323
 10
213.9925810522498
 20
232.9050512138002
 42
0.0
 10
213.9925689425481
 20
232.8475180216192
 42
0.0
 10
214.1191569923821
 20
232.8475180216192
 42
0.0
 10
214.1192407227968
 20
233.2453212216061
 42
0.0
 10
212.9908315223537
 20
233.2453212216061
 42
0.0
 10
212.9908232808823
 20
232.8475180216192
 42
0.0
 10
213.1173861514532
 20
232.8475180216192
 42
0.0
 10
213.1173982800841
 20
232.9051411472832
 42
-0.4141519149660894
 10
213.3310352693864
 20
233.1187331745763
 42
0.0
 10
213.4266534294444
 20
233.1187331745763
 42
0.0
 10
213.4264975128807
 20
232.4026595999603
 42
-0.4141497897727592
 10
213.3469211430323
 20
232.3231005550402
 42
0.0
 10
213.2112962365241
 20
232.3231005550402
 42
0.0
 10
213.2112686734719
 20
232.1965125080104
 42
0.0
 10
213.8984047602888
 20
232.1965125080104
 42
0.0
 10
213.8984323233409
 20
232.3231005550402
 42
0.0
 10
213.7628420704629
 20
232.3231005550402
 42
-0.4142773378492039
 10
213.6832657006145
 20
232.4026942535897
 42
0.0
 97
        0
 92
        7
 72
     1
 73
     1
 93
       20
 10
216.3890488549132
 20
233.1187331745763
 42
0.0
 10
216.4845713082279
 20
233.1187331745763
 42
-0.4142752124674332
 10
216.6982082975301
 20
232.9050512138002
 42
0.0
 10
216.6981961878286
 20
232.8475180216192
 42
0.0
 10
216.8247842376625
 20
232.8475180216192
 42
0.0
 10
216.8248679680772
 20
233.2453212216061
 42
0.0
 10
215.6964587676341
 20
233.2453212216061
 42
0.0
 10
215.6964505261627
 20
232.8475180216192
 42
0.0
 10
215.8230133967336
 20
232.8475180216192
 42
0.0
 10
215.8230255253645
 20
232.9051411472832
 42
-0.414151914966089
 10
216.0366625146668
 20
233.1187331745763
 42
0.0
 10
216.1322806747247
 20
233.1187331745763
 42
0.0
 10
216.1321247581611
 20
232.4026595999603
 42
-0.41414978977276
 10
216.0525483883127
 20
232.3231005550402
 42
0.0
 10
215.9169234818044
 20
232.3231005550402
 42
0.0
 10
215.9168959187523
 20
232.1965125080104
 42
0.0
 10
216.6040320055691
 20
232.1965125080104
 42
0.0
 10
216.6040595686213
 20
232.3231005550402
 42
0.0
 10
216.4684693157433
 20
232.3231005550402
 42
-0.4142773378492051
 10
216.3888929458949
 20
232.4026942535897
 42
0.0
 97
        0
 92
       16
 93
        4
 72
     2
 10
214.9077511714473
 20
232.5796331635002
 40
0.2926893718666405
 50
199.1202649999999
 51
340.867675
 73
     1
 72
     2
 10
214.5009324498379
 20
232.7207638461128
 40
0.7232928518242965
 50
340.867675
 51
379.193527
 73
     1
 72
     2
 10
214.9077809185581
 20
232.8623919333039
 40
0.2924979962958983
 50
19.193527
 51
160.7944129999999
 73
     1
 72
     2
 10
215.3145995654262
 20
232.7206782297424
 40
0.7232928518242965
 50
160.7944129999999
 51
199.1202649999999
 73
     1
 97
        0
 92
        1
 93
        4
 72
     2
 10
214.8408645312605
 20
232.7207280823125
 40
0.5424827373133591
 50
142.997119
 51
216.4375859999999
 73
     1
 72
     2
 10
214.9077831981734
 20
232.8113350163173
 40
0.6509793071984767
 50
219.356321
 51
320.61032
 73
     1
 72
     2
 10
214.9746675213742
 20
232.7207139935427
 40
0.5424827373133591
 50
323.5257889999999
 51
396.965523
 73
     1
 72
     2
 10
214.9077488918321
 20
232.6304987049161
 40
0.6509793071984767
 50
39.769149
 51
140.196876
 73
     1
 97
        0
 92
        1
 93
        4
 72
     2
 10
217.5464414647686
 20
232.7207280823125
 40
0.5424827373133591
 50
142.997119
 51
216.4375859999999
 73
     1
 72
     2
 10
217.6133601316815
 20
232.8113350163173
 40
0.6509793071984767
 50
219.356321
 51
320.61032
 73
     1
 72
     2
 10
217.6802444548823
 20
232.7207139935427
 40
0.5424827373133591
 50
323.5257889999999
 51
396.965523
 73
     1
 72
     2
 10
217.6133258253401
 20
232.6304987049161
 40
0.6509793071984767
 50
39.769149
 51
140.196876
 73
     1
 97
        0
 92
       16
 93
        4
 72
     2
 10
217.6133281049554
 20
232.5796331635002
 40
0.2926893718666405
 50
199.1202649999999
 51
340.867675
 73
     1
 72
     2
 10
217.206509383346
 20
232.7207638461128
 40
0.7232928518242965
 50
340.867675
 51
379.193527
 73
     1
 72
     2
 10
217.6133578520662
 20
232.8623919333039
 40
0.2924979962958983
 50
19.193527
 51
160.7944129999999
 73
     1
 72
     2
 10
218.0201764989342
 20
232.7206782297424
 40
0.7232928518242965
 50
160.7944129999999
 51
199.1202649999999
 73
     1
 97
        0
 92
        0
 93
       67
 72
     1
 10
218.3948323902459
 20
233.2048070763204
 11
218.3956807060936
 21
233.2047954540196
 72
     1
 10
218.3956807060935
 20
233.2047954540196
 11
218.3974238643628
 21
233.2047373425155
 72
     1
 10
218.3974238643629
 20
233.2047373425155
 11
218.3991089111281
 21
233.2046095345772
 72
     1
 10
218.3991089111281
 20
233.2046095345772
 11
218.4007590536201
 21
233.2044235777641
 72
     1
 10
218.4007590536201
 20
233.2044235777641
 11
218.4023511219788
 21
233.2041679245168
 72
     1
 10
218.4023511219788
 20
233.2041679245168
 11
218.4039083608057
 21
233.2038425374646
 72
     1
 10
218.4039083608058
 20
233.2038425374646
 11
218.4054190730587
 21
233.2034706612091
 72
     1
 10
218.4054190730587
 20
233.2034706612091
 11
218.4068716738075
 21
233.2030174288478
 72
     1
 10
218.4068716738075
 20
233.2030174288478
 11
218.4082894450246
 21
233.2025061223532
 72
     1
 10
218.4082894450246
 20
233.2025061223532
 11
218.4096607270384
 21
233.2019367043545
 72
     1
 10
218.4096607270384
 20
233.2019367043545
 11
218.410985519849
 21
233.2012975525509
 72
     1
 10
218.410985519849
 20
233.2012975525509
 11
218.4122638234563
 21
233.2006002892431
 72
     1
 10
218.4122638234562
 20
233.2006002892431
 11
218.4134840155594
 21
233.1998332921305
 72
     1
 10
218.4134840155594
 20
233.1998332921305
 11
218.4146693407601
 21
233.1990082208844
 72
     1
 10
218.4146693407601
 20
233.1990082208844
 11
218.4158082141283
 21
233.1981134158335
 72
     1
 10
218.4158082141283
 20
233.1981134158335
 11
218.4167611306833
 21
233.1972534403143
 72
     1
 10
218.4167611306833
 20
233.1972534403143
 11
218.417818610575
 21
233.1961843381218
 72
     1
 10
218.417818610575
 20
233.1961843381218
 11
218.4187831494309
 21
233.1950570870545
 72
     1
 10
218.4187831494309
 20
233.1950570870545
 11
218.4196663695517
 21
233.1938833841546
 72
     1
 10
218.4196663695518
 20
233.1938833841546
 11
218.4204681961961
 21
233.1926515697506
 72
     1
 10
218.4204681961961
 20
233.1926515697506
 11
218.4211887041055
 21
233.1913732661433
 72
     1
 10
218.4211887041055
 20
233.1913732661433
 11
218.4218162336083
 21
233.190036851032
 72
     1
 10
218.4218162336083
 20
233.190036851032
 11
218.4223624070054
 21
233.1886423244165
 72
     1
 10
218.4223624070054
 20
233.1886423244164
 11
218.4228272616675
 21
233.1872013459685
 72
     1
 10
218.4228272616675
 20
233.1872013459685
 11
218.4231991379229
 21
233.1857138409465
 72
     1
 10
218.4231991379229
 20
233.1857138409465
 11
218.4235012803735
 21
233.1841566394902
 72
     1
 10
218.4235012803735
 20
233.1841566394902
 11
218.4237104444175
 21
233.1825645711315
 72
     1
 10
218.4237104444175
 20
233.1825645711315
 11
218.4238382897266
 21
233.1809027689679
 72
     1
 10
218.4238382897266
 20
233.180902768968
 11
218.423873156629
 21
233.1791945149718
 72
     1
 10
218.423873156629
 20
233.1791945149718
 11
218.4238615343282
 21
233.1779510408963
 72
     1
 10
218.4238615343282
 20
233.1779510408963
 11
218.4238150451249
 21
233.1761614307944
 72
     1
 10
218.4238150451249
 20
233.1761614307944
 11
218.4237104444175
 21
233.1744298948259
 72
     1
 10
218.4237104444175
 20
233.1744298948259
 11
218.4235477695768
 21
233.1727565077322
 72
     1
 10
218.4235477695768
 20
233.1727565077322
 11
218.4233501904628
 21
233.1711295724711
 72
     1
 10
218.4233501904629
 20
233.1711295724711
 11
218.4231061595164
 21
233.1695491264132
 72
     1
 10
218.4231061595164
 20
233.1695491264132
 11
218.4228040170658
 21
233.1680383767896
 72
     1
 10
218.4228040170658
 20
233.1680383767896
 11
218.4224670077128
 21
233.1665625314391
 72
     1
 10
218.4224670077127
 20
233.1665625314391
 11
218.4220718868556
 21
233.1651563825228
 72
     1
 10
218.4220718868556
 20
233.1651563825228
 11
218.4216303141659
 21
233.1637967228098
 72
     1
 10
218.4216303141659
 20
233.1637967228098
 11
218.4211422149022
 21
233.1624835523001
 72
     1
 10
218.4211422149022
 20
233.1624835523001
 11
218.4206076638059
 21
233.1612401155952
 72
     1
 10
218.420607663806
 20
233.1612401155953
 11
218.4200266235065
 21
233.1600315457929
 72
     1
 10
218.4200266235064
 20
233.1600315457929
 11
218.4193874343321
 21
233.1588927097955
 72
     1
 10
218.4193874343321
 20
233.1588927097955
 11
218.4187134529967
 21
233.1578003256306
 72
     1
 10
218.4187134529967
 20
233.1578003256306
 11
218.4179813227865
 21
233.156754430669
 72
     1
 10
218.4179813227865
 20
233.156754430669
 11
218.4172143256739
 21
233.1557666472115
 72
     1
 10
218.4172143256738
 20
233.1557666472115
 11
218.4163892544278
 21
233.1548369752581
 72
     1
 10
218.4163892544278
 20
233.1548369752581
 11
218.4155176939786
 21
233.1539654148088
 72
     1
 10
218.4155176939785
 20
233.1539654148088
 11
218.4145996069552
 21
233.1531287212619
 72
     1
 10
218.4145996069553
 20
233.1531287212619
 11
218.4136350680994
 21
233.1523617241493
 72
     1
 10
218.4136350680994
 20
233.1523617241493
 11
218.4126124551101
 21
233.15164121624
 72
     1
 10
218.4126124551101
 20
233.1516412162399
 11
218.4115549378477
 21
233.1509788198347
 72
     1
 10
218.4115549378477
 20
233.1509788198347
 11
218.4104393090812
 21
233.1503629126327
 72
     1
 10
218.4104393090812
 20
233.1503629126327
 11
218.409288850783
 21
233.1498051169348
 72
     1
 10
218.4092888507829
 20
233.1498051169348
 11
218.4080802809806
 21
233.1492937730695
 72
     1
 10
218.4080802809806
 20
233.1492937730694
 11
218.406825221975
 21
233.148840578079
 72
     1
 10
218.406825221975
 20
233.1488405780789
 11
218.4055236737661
 21
233.1484454572218
 72
     1
 10
218.405523673766
 20
233.1484454572218
 11
218.4041756363539
 21
233.1480968255679
 72
     1
 10
218.4041756363539
 20
233.1480968255679
 11
218.4027694874376
 21
233.1478063054182
 72
     1
 10
218.4027694874376
 20
233.1478063054182
 11
218.4013285089896
 21
233.1475622744717
 72
     1
 10
218.4013285089896
 20
233.1475622744717
 11
218.3998293816667
 21
233.1473763176586
 72
     1
 10
218.3998293816667
 20
233.1473763176585
 11
218.3982954248122
 21
233.1472485097203
 72
     1
 10
218.3982954248122
 20
233.1472485097203
 11
218.3967033564536
 21
233.1471671536145
 72
     1
 10
218.3967033564535
 20
233.1471671536145
 11
218.3950647988915
 21
233.1471322867121
 72
     1
 10
218.3950647988915
 20
233.1471322867121
 11
218.3385986164563
 21
233.1471322867121
 72
     1
 10
218.3385986164563
 20
233.1471322867121
 11
218.3385986164563
 21
233.2048070763204
 72
     1
 10
218.3385986164563
 20
233.2048070763204
 11
218.3948323902459
 21
233.2048070763204
 97
        0
 92
        0
 93
      207
 72
     1
 10
218.428591250201
 20
233.1352905448936
 11
218.4270456710456
 21
233.1364410031919
 72
     1
 10
218.4270456710456
 20
233.1364410031919
 11
218.4253954911828
 21
233.1376263657633
 72
     1
 10
218.4253954911828
 20
233.1376263657633
 11
218.4236523329134
 21
233.1388349355656
 72
     1
 10
218.4236523329134
 20
233.1388349355656
 11
218.4246749832734
 21
233.1395786880767
 72
     1
 10
218.4246749832734
 20
233.1395786880766
 11
218.4260927544905
 21
233.14065941257
 72
     1
 10
218.4260927544905
 20
233.14065941257
 11
218.4274523768328
 21
233.141740174434
 72
     1
 10
218.4274523768328
 20
233.141740174434
 11
218.4287655473425
 21
233.1428441808998
 72
     1
 10
218.4287655473425
 20
233.1428441808998
 11
218.4300322286489
 21
233.1439597722956
 72
     1
 10
218.430032228649
 20
233.1439597722955
 11
218.4312524581229
 21
233.1450870233628
 72
     1
 10
218.4312524581229
 20
233.1450870233629
 11
218.4324145387219
 21
233.1462258593603
 72
     1
 10
218.4324145387219
 20
233.1462258593603
 11
218.4335301674884
 21
233.1473879399594
 72
     1
 10
218.4335301674884
 20
233.1473879399593
 11
218.434599269681
 21
233.14856168023
 72
     1
 10
218.4345992696809
 20
233.14856168023
 11
218.4356219200409
 21
233.1497470054307
 72
     1
 10
218.4356219200409
 20
233.1497470054307
 11
218.4365864588968
 21
233.1509439529322
 72
     1
 10
218.4365864588968
 20
233.1509439529322
 11
218.4375045085494
 21
233.1521641824061
 72
     1
 10
218.4375045085494
 20
233.1521641824061
 11
218.4383760689986
 21
233.1533843745093
 72
     1
 10
218.4383760689986
 20
233.1533843745093
 11
218.4391895553146
 21
233.1546278112141
 72
     1
 10
218.4391895553146
 20
233.1546278112141
 11
218.4399565524273
 21
233.1558828702197
 72
     1
 10
218.4399565524273
 20
233.1558828702197
 11
218.4406770229659
 21
233.157161173827
 72
     1
 10
218.4406770229659
 20
233.157161173827
 11
218.441351041672
 21
233.1584394774342
 72
     1
 10
218.441351041672
 20
233.1584394774342
 11
218.441966948874
 21
233.1597410256432
 72
     1
 10
218.441966948874
 20
233.1597410256431
 11
218.4425364042434
 21
233.1610541961528
 72
     1
 10
218.4425364042434
 20
233.1610541961528
 11
218.4430593330388
 21
233.1623789889634
 72
     1
 10
218.4430593330389
 20
233.1623789889635
 11
218.443535772631
 21
233.1637270263756
 72
     1
 10
218.443535772631
 20
233.1637270263756
 11
218.4439541380898
 21
233.1650750264171
 72
     1
 10
218.4439541380898
 20
233.1650750264171
 11
218.4443260143453
 21
233.1664463084309
 72
     1
 10
218.4443260143453
 20
233.1664463084309
 11
218.4446514013975
 21
233.1678292127456
 72
     1
 10
218.4446514013975
 20
233.1678292127455
 11
218.4449186769456
 21
233.1692353616618
 72
     1
 10
218.4449186769456
 20
233.1692353616618
 11
218.4451510855913
 21
233.1706414732074
 72
     1
 10
218.4451510855913
 20
233.1706414732074
 11
218.4453137978028
 21
233.1720708667253
 72
     1
 10
218.4453137978028
 20
233.1720708667253
 11
218.445441605741
 21
233.1735118451733
 72
     1
 10
218.4454416057411
 20
233.1735118451733
 11
218.4455229618468
 21
233.1749644832929
 72
     1
 10
218.4455229618468
 20
233.1749644832929
 11
218.4455462064485
 21
233.1764287063425
 72
     1
 10
218.4455462064485
 20
233.1764287063425
 11
218.4455345841476
 21
233.1777999883564
 72
     1
 10
218.4455345841476
 20
233.1777999883563
 11
218.4454880949443
 21
233.1796941991656
 72
     1
 10
218.4454880949443
 20
233.1796941991656
 11
218.4454067762093
 21
233.1815535430724
 72
     1
 10
218.4454067762093
 20
233.1815535430724
 11
218.4452905532011
 21
233.1833548128458
 72
     1
 10
218.4452905532012
 20
233.1833548128458
 11
218.4451394632905
 21
233.1851328006469
 72
     1
 10
218.4451394632905
 20
233.1851328006469
 11
218.4449419215473
 21
233.1868527143146
 72
     1
 10
218.4449419215472
 20
233.1868527143146
 11
218.4447095129016
 21
233.1885493460099
 72
     1
 10
218.4447095129016
 20
233.1885493460099
 11
218.4444422373535
 21
233.1901879035719
 72
     1
 10
218.4444422373535
 20
233.1901879035719
 11
218.4441400949029
 21
233.1917915942314
 72
     1
 10
218.4441400949029
 20
233.1917915942313
 11
218.4438030855499
 21
233.1933488330583
 72
     1
 10
218.4438030855499
 20
233.1933488330583
 11
218.4434312092943
 21
233.1948711676121
 72
     1
 10
218.4434312092943
 20
233.1948711676121
 11
218.4430128438356
 21
233.1963470129625
 72
     1
 10
218.4430128438356
 20
233.1963470129625
 11
218.4425596114744
 21
233.1977764064805
 72
     1
 10
218.4425596114743
 20
233.1977764064804
 11
218.4420715495813
 21
233.1991708957251
 72
     1
 10
218.4420715495813
 20
233.1991708957251
 11
218.4415486207859
 21
233.2005305554382
 72
     1
 10
218.4415486207859
 20
233.2005305554381
 11
218.4409907877173
 21
233.2018321036471
 72
     1
 10
218.4409907877173
 20
233.2018321036471
 11
218.4403865028161
 21
233.2030987849535
 72
     1
 10
218.4403865028162
 20
233.2030987849535
 11
218.4397589733134
 21
233.2043305993575
 72
     1
 10
218.4397589733134
 20
233.2043305993575
 11
218.4390849546073
 21
233.205515961929
 72
     1
 10
218.4390849546072
 20
233.205515961929
 11
218.4383760689986
 21
233.2066547979264
 72
     1
 10
218.4383760689986
 20
233.2066547979264
 11
218.4376323538584
 21
233.2077588043921
 72
     1
 10
218.4376323538584
 20
233.2077588043921
 11
218.436842112144
 21
233.2088162842838
 72
     1
 10
218.4368421121441
 20
233.2088162842838
 11
218.4360286631989
 21
233.2098273123429
 72
     1
 10
218.4360286631989
 20
233.2098273123429
 11
218.4351686876797
 21
233.2108034734996
 72
     1
 10
218.4351686876797
 20
233.2108034734996
 11
218.4344017279378
 21
233.2116053375147
 72
     1
 10
218.4344017279378
 20
233.2116053375147
 11
218.433495300586
 21
233.2124652756632
 72
     1
 10
218.433495300586
 20
233.2124652756632
 11
218.4325540063318
 21
233.2133020065808
 72
     1
 10
218.4325540063317
 20
233.2133020065807
 11
218.4315778451751
 21
233.2141038332252
 72
     1
 10
218.4315778451751
 20
233.2141038332252
 11
218.4305551948151
 21
233.2148708303378
 72
     1
 10
218.4305551948151
 20
233.2148708303378
 11
218.4294860552519
 21
233.2156145454781
 72
     1
 10
218.4294860552518
 20
233.2156145454781
 11
218.4283820861569
 21
233.2163234310866
 72
     1
 10
218.4283820861569
 20
233.2163234310866
 11
218.4272432127888
 21
233.2169974497927
 72
     1
 10
218.4272432127888
 20
233.2169974497927
 11
218.4260578875881
 21
233.2176482238971
 72
     1
 10
218.4260578875881
 20
233.2176482238972
 11
218.4248376954849
 21
233.2182641310992
 72
     1
 10
218.4248376954849
 20
233.2182641310991
 11
218.4235709768077
 21
233.2188451713987
 72
     1
 10
218.4235709768077
 20
233.2188451713987
 11
218.4222694659695
 21
233.2194030044673
 72
     1
 10
218.4222694659696
 20
233.2194030044673
 11
218.4209214285574
 21
233.2199143109619
 72
     1
 10
218.4209214285573
 20
233.2199143109619
 11
218.4195385242427
 21
233.2204023728549
 72
     1
 10
218.4195385242428
 20
233.2204023728549
 11
218.4181091307248
 21
233.2208672275169
 72
     1
 10
218.4181091307248
 20
233.220867227517
 11
218.4166449076751
 21
233.2212855929757
 72
     1
 10
218.4166449076751
 20
233.2212855929757
 11
218.4151341954222
 21
233.2216806764622
 72
     1
 10
218.4151341954222
 20
233.2216806764622
 11
218.4135886162668
 21
233.2220409304169
 72
     1
 10
218.4135886162668
 20
233.2220409304169
 11
218.4120081328382
 21
233.2223779397699
 72
     1
 10
218.4120081328383
 20
233.2223779397699
 11
218.4103696126471
 21
233.2226684599197
 72
     1
 10
218.410369612647
 20
233.2226684599197
 11
218.4087078104834
 21
233.2229473951394
 72
     1
 10
218.4087078104834
 20
233.2229473951394
 11
218.4069995191165
 21
233.223179803785
 72
     1
 10
218.4069995191165
 20
233.223179803785
 11
218.4052563608472
 21
233.2233773455282
 72
     1
 10
218.4052563608472
 20
233.2233773455282
 11
218.4034667507453
 21
233.2235516800405
 72
     1
 10
218.4034667507453
 20
233.2235516800405
 11
218.4016306514402
 21
233.2237027325804
 72
     1
 10
218.4016306514402
 20
233.2237027325804
 11
218.3997596852325
 21
233.2238073332878
 72
     1
 10
218.3997596852325
 20
233.2238073332879
 11
218.3978538147517
 21
233.2238886893936
 72
     1
 10
218.3978538147517
 20
233.2238886893936
 11
218.3959014924384
 21
233.2239351412261
 72
     1
 10
218.3959014924384
 20
233.2239351412261
 11
218.3939143405933
 21
233.223946763527
 72
     1
 10
218.3939143405932
 20
233.223946763527
 11
218.3169371515669
 21
233.223946763527
 72
     1
 10
218.3169371515669
 20
233.223946763527
 11
218.3169371515669
 21
233.0557916155552
 72
     1
 10
218.3169371515669
 20
233.0557916155552
 11
218.3385986164563
 21
233.0557916155552
 72
     1
 10
218.3385986164563
 20
233.0557916155552
 11
218.3385986164563
 21
233.1279925995056
 72
     1
 10
218.3385986164563
 20
233.1279925995055
 11
218.3950647988916
 21
233.1279925995055
 72
     1
 10
218.3950647988915
 20
233.1279925995055
 11
218.3963431024988
 21
233.1279693549039
 72
     1
 10
218.3963431024988
 20
233.1279693549039
 11
218.3978538147517
 21
233.1278879987981
 72
     1
 10
218.3978538147517
 20
233.1278879987981
 11
218.399329697473
 21
233.1277485311883
 72
     1
 10
218.399329697473
 20
233.1277485311883
 11
218.4007474313193
 21
233.1275509894451
 72
     1
 10
218.4007474313193
 20
233.1275509894451
 11
218.4021187133331
 21
233.1272953361978
 72
     1
 10
218.4021187133331
 20
233.1272953361978
 11
218.4034435061437
 21
233.1269699491456
 72
     1
 10
218.4034435061437
 20
233.1269699491456
 11
218.4047218097509
 21
233.12659807289
 72
     1
 10
218.4047218097509
 20
233.12659807289
 11
218.4059536241549
 21
233.1261564628297
 72
     1
 10
218.4059536241549
 20
233.1261564628297
 11
218.4071389867264
 21
233.1256567786359
 72
     1
 10
218.4071389867264
 20
233.1256567786359
 11
218.408266200423
 21
233.1250873606371
 72
     1
 10
218.408266200423
 20
233.1250873606371
 11
218.4093585845879
 21
233.1244714534351
 72
     1
 10
218.4093585845879
 20
233.1244714534352
 11
218.4103928198779
 21
233.1237858124282
 72
     1
 10
218.4103928198779
 20
233.1237858124282
 11
218.4113806033354
 21
233.123053682218
 72
     1
 10
218.4113806033354
 20
233.1230536822181
 11
218.4123218975897
 21
233.1222518555737
 72
     1
 10
218.4123218975896
 20
233.1222518555737
 11
218.4132167400113
 21
233.1213918800544
 72
     1
 10
218.4132167400113
 20
233.1213918800544
 11
218.4140650558589
 21
233.1204622081011
 72
     1
 10
218.414065055859
 20
233.1204622081011
 11
218.4148669198741
 21
233.1194860469444
 72
     1
 10
218.4148669198741
 20
233.1194860469444
 11
218.4156106350144
 21
233.1184401519827
 72
     1
 10
218.4156106350144
 20
233.1184401519828
 11
218.4163195206229
 21
233.1173361828878
 72
     1
 10
218.4163195206229
 20
233.1173361828878
 11
218.4169702947273
 21
233.116174064918
 72
     1
 10
218.4169702947273
 20
233.116174064918
 11
218.4175862019293
 21
233.1149538728149
 72
     1
 10
218.4175862019293
 20
233.1149538728148
 11
218.4181439976272
 21
233.1136755692075
 72
     1
 10
218.4181439976272
 20
233.1136755692076
 11
218.4186553414926
 21
233.1123275317954
 72
     1
 10
218.4186553414926
 20
233.1123275317954
 11
218.4191201587839
 21
233.1109330425507
 72
     1
 10
218.4191201587839
 20
233.1109330425507
 11
218.4195385242427
 21
233.1094687821303
 72
     1
 10
218.4195385242428
 20
233.1094687821303
 11
218.4198987781974
 21
233.1079464475765
 72
     1
 10
218.4198987781974
 20
233.1079464475765
 11
218.4202241652496
 21
233.1063543792178
 72
     1
 10
218.4202241652496
 20
233.1063543792178
 11
218.4204914407977
 21
233.1047158216559
 72
     1
 10
218.4204914407978
 20
233.1047158216559
 11
218.4207238494434
 21
233.103007530289
 72
     1
 10
218.4207238494434
 20
233.103007530289
 11
218.4208981839557
 21
233.1012527870896
 72
     1
 10
218.4208981839557
 20
233.1012527870896
 11
218.421025991894
 21
233.0994283100853
 72
     1
 10
218.421025991894
 20
233.0994283100852
 11
218.4211073479997
 21
233.0975456842061
 72
     1
 10
218.4211073479997
 20
233.0975456842061
 11
218.4210608587964
 21
233.0964998266152
 72
     1
 10
218.4210608587964
 20
233.0964998266152
 11
218.4209679177606
 21
233.0945126373994
 72
     1
 10
218.4209679177606
 20
233.0945126373994
 11
218.4208865616549
 21
233.0925835596877
 72
     1
 10
218.4208865616549
 20
233.0925835596877
 11
218.4208284501508
 21
233.0907125934801
 72
     1
 10
218.4208284501508
 20
233.0907125934801
 11
218.4207935832484
 21
233.0888997014058
 72
     1
 10
218.4207935832484
 20
233.0888997014058
 11
218.4207819609475
 21
233.0871449582064
 72
     1
 10
218.4207819609475
 20
233.0871449582064
 11
218.4207819609475
 21
233.0854366668395
 72
     1
 10
218.4207819609475
 20
233.0854366668395
 11
218.4207935832483
 21
233.0837864869768
 72
     1
 10
218.4207935832484
 20
233.0837864869768
 11
218.4208400724516
 21
233.0821944186181
 72
     1
 10
218.4208400724516
 20
233.0821944186181
 11
218.4208865616549
 21
233.0806604617635
 72
     1
 10
218.4208865616549
 20
233.0806604617635
 11
218.4209679177606
 21
233.0791845790423
 72
     1
 10
218.4209679177606
 20
233.0791845790423
 11
218.4210608587964
 21
233.0777552228951
 72
     1
 10
218.4210608587964
 20
233.0777552228951
 11
218.4211654595038
 21
233.0763955631821
 72
     1
 10
218.4211654595038
 20
233.0763955631821
 11
218.4213049271137
 21
233.0750823926724
 72
     1
 10
218.4213049271137
 20
233.0750823926724
 11
218.4214443573528
 21
233.0738273336667
 72
     1
 10
218.4214443573528
 20
233.0738273336667
 11
218.4216186918651
 21
233.0726187638644
 72
     1
 10
218.4216186918651
 20
233.0726187638644
 11
218.4218046113075
 21
233.0714798904962
 72
     1
 10
218.4218046113075
 20
233.0714798904962
 11
218.4218743451124
 21
233.0710383178066
 72
     1
 10
218.4218743451124
 20
233.0710383178066
 11
218.4221648652621
 21
233.069434627147
 72
     1
 10
218.4221648652621
 20
233.0694346271471
 11
218.4224786300136
 21
233.0678541810892
 72
     1
 10
218.4224786300136
 20
233.0678541810892
 11
218.4228272616675
 21
233.0662853573322
 72
     1
 10
218.4228272616675
 20
233.0662853573322
 11
218.4231875156221
 21
233.0647281185052
 72
     1
 10
218.4231875156221
 20
233.0647281185052
 11
218.4235825991085
 21
233.0631941616507
 72
     1
 10
218.4235825991085
 20
233.0631941616506
 11
218.4240125868682
 21
233.0616834493977
 72
     1
 10
218.4240125868682
 20
233.0616834493977
 11
218.4244541969285
 21
233.0601843594456
 72
     1
 10
218.4244541969286
 20
233.0601843594456
 11
218.4249306365207
 21
233.0586968544236
 72
     1
 10
218.4249306365207
 20
233.0586968544236
 11
218.4254303580853
 21
233.0572326313739
 72
     1
 10
218.4254303580852
 20
233.057232631374
 11
218.4259532868806
 21
233.0557916155552
 72
     1
 10
218.4259532868807
 20
233.0557916155552
 11
218.4519958359889
 21
233.0557916155552
 72
     1
 10
218.4519958359889
 20
233.0557916155552
 11
218.4519958359889
 21
233.061323195443
 72
     1
 10
218.4519958359889
 20
233.061323195443
 11
218.4509383187265
 21
233.0622296227948
 72
     1
 10
218.4509383187264
 20
233.0622296227948
 11
218.449799482729
 21
233.0633220069596
 72
     1
 10
218.4497994827291
 20
233.0633220069597
 11
218.4487652100683
 21
233.064472465258
 72
     1
 10
218.4487652100683
 20
233.0644724652579
 11
218.4478355381149
 21
233.0656694127594
 72
     1
 10
218.4478355381148
 20
233.0656694127594
 11
218.4470104668688
 21
233.0669361314366
 72
     1
 10
218.4470104668688
 20
233.0669361314367
 11
218.4462783366587
 21
233.0682492645756
 72
     1
 10
218.4462783366587
 20
233.0682492645756
 11
218.4456508071558
 21
233.0696089242886
 72
     1
 10
218.4456508071558
 20
233.0696089242886
 11
218.4451278409897
 21
233.0710383178066
 72
     1
 10
218.4451278409896
 20
233.0710383178066
 11
218.4446978906007
 21
233.072514163157
 72
     1
 10
218.4446978906008
 20
233.072514163157
 11
218.4443841258494
 21
233.0740364977108
 72
     1
 10
218.4443841258494
 20
233.0740364977108
 11
218.4441633021338
 21
233.0756285660694
 72
     1
 10
218.4441633021338
 20
233.0756285660694
 11
218.4441400949029
 21
233.0759655754225
 72
     1
 10
218.4441400949029
 20
233.0759655754225
 11
218.4440006272931
 21
233.0781387214514
 72
     1
 10
218.4440006272931
 20
233.0781387214514
 11
218.4438611596832
 21
233.0802537186055
 72
     1
 10
218.4438611596832
 20
233.0802537186055
 11
218.4437333517449
 21
233.0823106416263
 72
     1
 10
218.4437333517449
 20
233.0823106416263
 11
218.4436055064359
 21
233.0843094531429
 72
     1
 10
218.443605506436
 20
233.084309453143
 11
218.4434893207985
 21
233.0862617380855
 72
     1
 10
218.4434893207984
 20
233.0862617380855
 11
218.4433730977902
 21
233.0881443639647
 72
     1
 10
218.4433730977902
 20
233.0881443639647
 11
218.443256874782
 21
233.0899804632699
 72
     1
 10
218.443256874782
 20
233.0899804632699
 11
218.4431639337462
 21
233.0917584510709
 72
     1
 10
218.4431639337462
 20
233.0917584510709
 11
218.4430593330389
 21
233.0934783647386
 72
     1
 10
218.4430593330389
 20
233.0934783647386
 11
218.4429663546323
 21
233.0951401669022
 72
     1
 10
218.4429663546322
 20
233.0951401669022
 11
218.4428849985265
 21
233.0967438575617
 72
     1
 10
218.4428849985265
 20
233.0967438575617
 11
218.4428036797915
 21
233.0982894367171
 72
     1
 10
218.4428036797915
 20
233.0982894367171
 11
218.4427339459866
 21
233.0997885266692
 72
     1
 10
218.4427339459866
 20
233.0997885266692
 11
218.4426642121817
 21
233.1012179201871
 72
     1
 10
218.4426642121817
 20
233.1012179201871
 11
218.4425944783768
 21
233.1026008245018
 72
     1
 10
218.4425944783768
 20
233.1026008245018
 11
218.4425479891735
 21
233.1039256173124
 72
     1
 10
218.4425479891735
 20
233.1039256173123
 11
218.4424899150402
 21
233.1051922986187
 72
     1
 10
218.4424899150401
 20
233.1051922986187
 11
218.4424434258368
 21
233.1064124907219
 72
     1
 10
218.4424434258369
 20
233.1064124907219
 11
218.4424085589344
 21
233.1075629490202
 72
     1
 10
218.4424085589344
 20
233.1075629490202
 11
218.4423736920319
 21
233.1086669554859
 72
     1
 10
218.4423736920319
 20
233.1086669554859
 11
218.4423388251294
 21
233.1097012281467
 72
     1
 10
218.4423388251295
 20
233.1097012281467
 11
218.4423155805278
 21
233.1106890116042
 72
     1
 10
218.4423155805279
 20
233.1106890116042
 11
218.4421645279879
 21
233.1122810799628
 72
     1
 10
218.4421645279879
 20
233.1122810799628
 11
218.4419204596707
 21
233.1142449872063
 72
     1
 10
218.4419204596707
 20
233.1142449872063
 11
218.4416415618217
 21
233.1160811238822
 72
     1
 10
218.4416415618217
 20
233.1160811238822
 11
218.4413277970703
 21
233.1178010001791
 72
     1
 10
218.4413277970703
 20
233.1178010001791
 11
218.4409791654165
 21
233.1193930685378
 72
     1
 10
218.4409791654165
 20
233.1193930685378
 11
218.4405840819301
 21
233.1208573289582
 72
     1
 10
218.4405840819301
 20
233.1208573289582
 11
218.4401540941705
 21
233.1221937440695
 72
     1
 10
218.4401540941704
 20
233.1221937440695
 11
218.4396892395084
 21
233.1234023138719
 72
     1
 10
218.4396892395084
 20
233.1234023138719
 11
218.4391779330138
 21
233.1244946980368
 72
     1
 10
218.4391779330138
 20
233.1244946980368
 11
218.4386317596167
 21
233.1254476145918
 72
     1
 10
218.4386317596167
 20
233.1254476145919
 11
218.438143660353
 21
233.1261913297321
 72
     1
 10
218.438143660353
 20
233.1261913297321
 11
218.4374696416469
 21
233.1270861721538
 72
     1
 10
218.4374696416469
 20
233.1270861721538
 11
218.436702681905
 21
233.1280158441071
 72
     1
 10
218.436702681905
 20
233.1280158441071
 11
218.4358427063858
 21
233.1289687606622
 72
     1
 10
218.4358427063857
 20
233.1289687606622
 11
218.4348781675299
 21
233.1299565441197
 72
     1
 10
218.4348781675299
 20
233.1299565441197
 11
218.4338206876382
 21
233.1309675348081
 72
     1
 10
218.4338206876382
 20
233.1309675348081
 11
218.4326585696684
 21
233.1320018074689
 72
     1
 10
218.4326585696684
 20
233.1320018074689
 11
218.4314035106627
 21
233.1330709470321
 72
     1
 10
218.4314035106628
 20
233.1330709470321
 11
218.4300438509498
 21
233.1341749161271
 72
     1
 10
218.4300438509498
 20
233.1341749161271
 11
218.4285912502009
 21
233.1352905448936
 97
        0
 92
       16
 93
        1
 72
     2
 10
218.3722101609457
 20
233.1319950433645
 40
0.13079759765625
 50
0.0
 51
360.0
 73
     1
 97
        0
 92
        1
 93
        1
 72
     2
 10
218.3722101609457
 20
233.1319950433645
 40
0.14948296875
 50
0.0
 51
360.0
 73
     1
 97
        0
 75
     0
 76
     1
 47
0.5016490000000001
 98
        2
 10
213.5274843342995
 20
232.7042201548831
 10
216.3233989829857
 20
232.7604611785967
  0
LINE
  5
2072
330
19
100
AcDbEntity
  8
1
  6
CENTER
100
AcDbLine
 10
215.6996695739432
 20
224.511602680234
 30
0.0
 11
216.417502986305
 21
224.511602680234
 31
0.0
  0
LINE
  5
208A
330
19
100
AcDbEntity
  8
1
  6
CENTER
100
AcDbLine
 10
225.2362949404181
 20
232.3067972242184
 30
0.0
 11
225.2362949404181
 21
232.75029488028
 31
0.0
  0
TEXT
  5
208C
330
19
100
AcDbEntity
  8
DIM
  6
Continuous
 62
     7
100
AcDbText
 10
235.1270949675981
 20
215.4908872121922
 30
0.0
 40
0.19685
  1
# 0GU116
  7
BLACK
100
AcDbText
  0
TEXT
  5
208D
330
19
100
AcDbEntity
  8
DIM
  6
Continuous
 62
     7
100
AcDbText
 10
235.1548680561217
 20
215.8946946809983
 30
0.0
 40
0.19685
  1
REV:Dec. 2003
  7
BLACK
100
AcDbText
  0
LINE
  5
208F
330
19
100
AcDbEntity
  8
1
  6
CENTER
100
AcDbLine
 10
234.0550868945312
 20
224.511602680234
 30
0.0
 11
234.7565333392733
 21
224.511602680234
 31
0.0
  0
ARC
  5
20B0
330
19
100
AcDbEntity
  8
1
  6
Continuous
 62
     6
100
AcDbCircle
 10
228.0160189707227
 20
223.4945916524491
 30
0.0
 40
5.905441040669088
100
AcDbArc
 50
315.7098116600299
 51
345.0293686700102
  0
LINE
  5
20B1
330
19
100
AcDbEntity
  8
1
  6
Continuous
 62
     1
100
AcDbLine
 10
233.7210196862109
 20
221.9690751100614
 30
0.0
 11
233.7210196858963
 21
221.9690751095878
 31
0.0
  0
ARC
  5
20B2
330
19
100
AcDbEntity
  8
1
  6
Continuous
 62
     6
100
AcDbCircle
 10
224.2126851600827
 20
224.5116026802341
 30
0.0
 40
9.842401734448507
100
AcDbArc
 50
345.0293686700102
 51
15.54590451001638
  0
LINE
  5
20B3
330
19
100
AcDbEntity
  8
1
  6
Continuous
100
AcDbLine
 10
233.6950128299055
 20
227.1494680794511
 30
0.0
 11
233.6950128295721
 21
227.149468080534
 31
0.0
  0
ARC
  5
20B4
330
19
100
AcDbEntity
  8
1
  6
Continuous
 62
     6
100
AcDbCircle
 10
227.2470300150029
 20
225.3557196093197
 30
0.0
 40
6.692833178480095
100
AcDbArc
 50
15.54590451001638
 51
75.28564255999405
  0
LINE
  5
20B5
330
19
100
AcDbEntity
  8
1
  6
Continuous
100
AcDbLine
 10
228.9470117774735
 20
231.8290555315649
 30
0.0
 11
228.9470117780067
 21
231.8290555315439
 31
0.0
  0
ARC
  5
20B6
330
19
100
AcDbEntity
  8
1
  6
Continuous
 62
     6
100
AcDbCircle
 10
225.2468632814882
 20
217.7390668535956
 30
0.0
 40
14.5677342040895
100
AcDbArc
 50
75.28588914239191
 51
90.1086340338351
  0
LINE
  5
20B7
330
19
100
AcDbEntity
  8
1
  6
Continuous
 62
     1
100
AcDbLine
 10
225.2192425597626
 20
232.3067748729352
 30
0.0
 11
225.2192425597627
 21
232.3067748729352
 31
0.0
  0
ARC
  5
20B8
330
19
100
AcDbEntity
  8
1
  6
Continuous
 62
     6
100
AcDbCircle
 10
225.2362949404181
 20
217.7400302867917
 30
0.0
 40
14.56675456722001
100
AcDbArc
 50
90.06707257000234
 51
104.8016863899992
  0
LINE
  5
20B9
330
19
100
AcDbEntity
  8
1
  6
Continuous
 62
     1
100
AcDbLine
 10
221.5148647610891
 20
231.8233997714713
 30
0.0
 11
221.5148647617091
 21
231.8233997704111
 31
0.0
  0
ARC
  5
20BA
330
19
100
AcDbEntity
  8
1
  6
Continuous
 62
     6
100
AcDbCircle
 10
223.2247110600506
 20
225.3526624406308
 30
0.0
 40
6.692833178480093
100
AcDbArc
 50
104.8016863899992
 51
164.5118141299916
  0
LINE
  5
20BB
330
19
100
AcDbEntity
  8
1
  6
Continuous
100
AcDbLine
 10
216.7749245306547
 20
227.1399144318697
 30
0.0
 11
216.7749245291264
 21
227.139914432427
 31
0.0
  0
ARC
  5
20BC
330
19
100
AcDbEntity
  8
1
  6
Continuous
 62
     6
100
AcDbCircle
 10
226.2599047207535
 20
224.5116026802341
 30
0.0
 40
9.842401734448491
100
AcDbArc
 50
164.5118141299916
 51
194.7409109400124
  0
LINE
  5
20BD
330
19
100
AcDbEntity
  8
1
  6
Continuous
 62
     1
100
AcDbLine
 10
216.7414526939066
 20
222.0072179424414
 30
0.0
 11
216.7414526938316
 21
222.0072179430387
 31
0.0
  0
ARC
  5
20BE
330
19
100
AcDbEntity
  8
1
  6
Continuous
 62
     6
100
AcDbCircle
 10
222.4525239099398
 20
223.5098487857143
 30
0.0
 40
5.905441040669103
100
AcDbArc
 50
194.7409109400124
 51
223.9808063100067
  0
LINE
  5
20BF
330
19
100
AcDbEntity
  8
1
  6
Continuous
100
AcDbLine
 10
218.2031311391225
 20
219.4090080226336
 30
0.0
 11
218.2031311392972
 21
219.4090080230174
 31
0.0
  0
ARC
  5
20C0
330
19
100
AcDbEntity
  8
1
  6
Continuous
 62
     6
100
AcDbCircle
 10
225.2854524239927
 20
226.2437426281519
 30
0.0
 40
9.8424017344485
100
AcDbArc
 50
223.9808063100067
 51
269.5771606000053
  0
LINE
  5
20C1
330
19
100
AcDbEntity
  8
1
  6
Continuous
 62
     1
100
AcDbLine
 10
225.2128167516616
 20
216.4016089183622
 30
0.0
 11
225.2128167516582
 21
216.4016089183622
 31
0.0
  0
ARC
  5
20C2
330
19
100
AcDbEntity
  8
1
  6
Continuous
 62
     6
100
AcDbCircle
 10
225.1988325687216
 20
226.2423712520268
 30
0.0
 40
9.840772269748137
100
AcDbArc
 50
270.0814199241396
 51
315.711711141787
  0
LINE
  5
20C3
330
19
100
AcDbEntity
  8
1
  6
Continuous
 62
     1
100
AcDbLine
 10
232.2432064453368
 20
219.3708651906523
 30
0.0
 11
232.2432064455457
 21
219.3708651899496
 31
0.0
  0
TEXT
  5
226B
330
19
100
AcDbEntity
  8
DIM
  6
Continuous
 62
     7
100
AcDbText
 10
235.1548680561217
 20
216.2687096809984
 30
0.0
 40
0.19685
  1
LT511G/LT511/LT501
  7
BLACK
100
AcDbText
  0
ARC
  5
2394
330
19
100
AcDbEntity
  8
PIC06
  6
PHANTOM
 62
     7
100
AcDbCircle
 10
223.0900874223848
 20
224.3476270416302
 30
0.0
 40
7.874025710839167
100
AcDbArc
 50
180.2389232103053
 51
237.3164534621591
  0
ARC
  5
2395
330
19
100
AcDbEntity
  8
PIC06
  6
PHANTOM
 62
     7
100
AcDbCircle
 10
225.2160296557105
 20
227.6612843306971
 30
0.0
 40
11.81102393383746
100
AcDbArc
 50
237.3166348347213
 51
302.6833651652787
  0
ARC
  5
2396
330
19
100
AcDbEntity
  8
PIC06
  6
PHANTOM
 62
     7
100
AcDbCircle
 10
223.0900874223848
 20
224.3607372615175
 30
0.0
 40
7.87403896540813
100
AcDbArc
 50
122.6834846588122
 51
179.7610767896947
  0
ARC
  5
2397
330
19
100
AcDbEntity
  8
PIC06
  6
PHANTOM
 62
     7
100
AcDbCircle
 10
225.2160296557105
 20
221.0471193424804
 30
0.0
 40
11.81100405195739
100
AcDbArc
 50
57.31657295570249
 51
122.6834270442975
  0
ARC
  5
2398
330
19
100
AcDbEntity
  8
PIC06
  6
PHANTOM
 62
     7
100
AcDbCircle
 10
227.3420112590658
 20
224.3607372615175
 30
0.0
 40
7.874017705750996
100
AcDbArc
 50
0.2389244049078973
 51
57.31675646052833
  0
ARC
  5
2399
330
19
100
AcDbEntity
  8
PIC06
  6
Continuous
 62
     7
100
AcDbCircle
 10
225.7672100709379
 20
224.354201836588
 30
0.0
 40
9.448807126481122
100
AcDbArc
 50
359.7610282472473
 51
0.2387330225256533
  0
ARC
  5
239A
330
19
100
AcDbEntity
  8
PIC06
  6
PHANTOM
 62
     7
100
AcDbCircle
 10
227.3420112590658
 20
224.3476270416302
 30
0.0
 40
7.874004451146229
100
AcDbArc
 50
302.6833054182521
 51
359.7610755950921
  0
ARC
  5
23A1
330
19
100
AcDbEntity
  8
PIC06
  6
Continuous
 62
     7
100
AcDbCircle
 10
224.546733040208
 20
224.3547136724449
 30
0.0
 40
9.330697036948526
100
AcDbArc
 50
179.7613878283838
 51
180.2388539237747
  0
CIRCLE
  5
23D8
330
19
100
AcDbEntity
  8
PIC06
  6
Continuous
 62
     7
100
AcDbCircle
 10
225.2160296557105
 20
225.9290030242593
 30
0.0
 40
1.259843187459492
  0
CIRCLE
  5
23FB
330
19
100
AcDbEntity
  8
PIC06
  6
Continuous
 62
     7
100
AcDbCircle
 10
225.2160296557105
 20
225.9290030242593
 30
0.0
 40
0.8070856086812016
  0
LINE
  5
2404
330
19
100
AcDbEntity
  8
PIC06
  6
CENTER
 62
     7
100
AcDbLine
 10
223.715270067721
 20
225.9290030242593
 30
0.0
 11
226.6715077821564
 21
225.9290030242593
 31
0.0
  0
LINE
  5
2429
330
19
100
AcDbEntity
  8
GR-DIMENSI
100
AcDbLine
 10
225.0191796557105
 20
225.9290030242593
 30
0.0
 11
225.4128796557105
 21
225.9290030242593
 31
0.0
  0
LINE
  5
242A
330
19
100
AcDbEntity
  8
GR-DIMENSI
100
AcDbLine
 10
225.2160296557105
 20
225.7321530242593
 30
0.0
 11
225.2160296557105
 21
226.1258530242594
 31
0.0
  0
ARC
  5
242B
330
19
100
AcDbEntity
  8
PIC06
  6
Continuous
 62
     7
100
AcDbCircle
 10
225.8853262712129
 20
224.3547136724449
 30
0.0
 40
9.330697036948532
100
AcDbArc
 50
359.7611460762252
 51
0.2386121716162165
  0
MTEXT
  5
2465
330
19
100
AcDbEntity
  8
DIM
  6
Continuous
 62
     7
100
AcDbMText
 10
227.2795223421165
 20
230.2642939222426
 30
0.0
 40
0.25
 41
0.0
 71
     9
 72
     1
  1
RIM OF LAVATORY\PBORDE DEL LAVABO\PBORD DU LAVABO
  7
BLACK
 73
     1
 44
1.0
1001
ACAD
1000
MTEXTBEGIN
1070
    73
1070
     1
1070
    44
1040
1.0
1070
    74
1070
     0
1000
MTEXTEND
  0
MTEXT
  5
2466
330
19
100
AcDbEntity
  8
DIM
  6
Continuous
 62
     7
100
AcDbMText
 10
225.8655440005772
 20
218.7858795957625
 30
0.0
 40
0.25
 41
0.0
 71
     9
 72
     1
  1
CUT ALONG THIS LINE\PCORTE A LO LARGO DE ESTA LINEA\PDECOUPER AU LONG DE CETTE LIGNE
  7
BLACK
 73
     1
 44
1.0
1001
ACAD
1000
MTEXTBEGIN
1070
    73
1070
     1
1070
    44
1040
1.0
1070
    74
1070
     0
1000
MTEXTEND
  0
LEADER
  5
2467
330
19
100
AcDbEntity
  8
0
100
AcDbLeader
  3
STANDARD
 76
     3
 10
229.3918333033308
 20
217.4595178698932
 30
0.0
 10
226.0189975099795
 20
218.8722089295513
 30
0.0
 10
225.9739110984591
 20
218.8722089295513
 30
0.0
1001
ACAD
1000
DSTYLE
1002
{
1070
    41
1040
0.12
1002
}
  0
LEADER
  5
2468
330
19
100
AcDbEntity
  8
GR-DIMENSI
100
AcDbLeader
  3
STANDARD
 76
     3
 10
230.0238500544956
 20
231.7963516354704
 30
0.0
 10
228.0013964819644
 20
230.5525580416107
 30
0.0
 10
227.4720346287714
 20
230.5525580416107
 30
0.0
1001
ACAD
1000
DSTYLE
1002
{
1070
    41
1040
0.12
1070
   147
1040
0.1
1070
    77
1070
     0
1070
   141
1040
1.0
1002
}
  0
LWPOLYLINE
  5
24A1
330
19
100
AcDbEntity
  8
GR-DIMENSI
100
AcDbPolyline
 90
        4
 70
     1
 43
0.0
 10
208.233421144322
 20
236.658278207915
 10
208.233421144322
 20
212.6582782079149
 10
244.233421144322
 20
212.6582782079149
 10
244.233421144322
 20
236.6582782079149
  0
VIEWPORT
  5
1F12
102
{ACAD_XDICTIONARY
360
2566
102
}
330
1F11
100
AcDbEntity
 67
     1
  8
0
100
AcDbViewport
 10
18.01337155597196
 20
12.03691944084391
 30
0.0
 40
42.39692610637938
 41
24.25016981663088
 68
     1
 69
     1
 12
18.01337155597196
 22
12.03691944084391
 13
0.0
 23
0.0
 14
0.5
 24
0.5
 15
0.5
 25
0.5
 16
0.0
 26
0.0
 36
1.0
 17
0.0
 27
0.0
 37
0.0
 42
50.0
 43
0.0
 44
0.0
 45
24.25016981663088
 50
0.0
 51
0.0
 72
   100
 90
    32800
  1

281
     0
 71
     1
 74
     0
110
0.0
120
0.0
130
0.0
111
1.0
121
0.0
131
0.0
112
0.0
122
1.0
132
0.0
 79
     0
146
0.0
  0
TEXT
  5
21E6
330
1F11
100
AcDbEntity
 67
     1
  8
KOP
100
AcDbText
 10
775.923674413698
 20
33.07227043665682
 30
0.0
 40
5.0
  1

 41
0.9
  7
ARIAL
 72
     1
 11
775.923674413698
 21
33.07227043665682
 31
0.0
100
AcDbText
  0
VIEWPORT
  5
2438
102
{ACAD_XDICTIONARY
360
256D
102
}
330
1F11
100
AcDbEntity
 67
     1
  8
GR-DIMENSI
100
AcDbViewport
 10
17.99758324253112
 20
12.04290697721267
 30
0.0
 40
35.99516648506224
 41
23.91418604557465
 68
     2
 69
     2
 12
226.2358378874117
 22
224.6153712402554
 13
0.0
 23
0.0
 14
0.5
 24
0.5
 15
0.5
 25
0.5
 16
0.0
 26
0.0
 36
1.0
 17
0.0
 27
0.0
 37
0.0
 42
50.0
 43
0.0
 44
0.0
 45
23.91418606468095
 50
0.0
 51
0.0
 72
   100
 90
    33056
  1

281
     0
 71
     1
 74
     0
110
0.0
120
0.0
130
0.0
111
1.0
121
0.0
131
0.0
112
0.0
122
1.0
132
0.0
 79
     0
146
0.0
  0
ENDSEC
  0
SECTION
  2
OBJECTS
  0
DICTIONARY
  5
C
330
0
100
AcDbDictionary
281
     1
  3
ACAD_COLOR
350
2260
  3
ACAD_GROUP
350
D
  3
ACAD_LAYOUT
350
14BB
  3
ACAD_MATERIAL
350
225F
  3
ACAD_MLINESTYLE
350
E
  3
ACAD_PLOTSETTINGS
350
14BC
  3
ACAD_PLOTSTYLENAME
350
14B9
  3
ACAD_TABLESTYLE
350
2261
  3
ACAD_VISUALSTYLE
350
2539
  3
ACDBVARIABLEDICTIONARY
350
119E
  3
ASE_INDEX_DICTIONARY
350
250F
  3
DWGPROPS
350
255B
  0
DICTIONARY
  5
242F
330
2
100
AcDbDictionary
280
     1
281
     1
  3
ACAD_LAYERSTATES
360
2430
  0
DICTIONARY
  5
1507
330
19
100
AcDbDictionary
280
     1
281
     1
  3
ACAD_LAYOUTSELFREF
360
224E
  0
DICTIONARY
  5
224F
330
1F11
100
AcDbDictionary
280
     1
281
     1
  3
ACAD_LAYOUTSELFREF
360
2250
  0
DICTIONARY
  5
2566
330
1F12
100
AcDbDictionary
280
     1
281
     1
  3
ACAD_XREC_ROUNDTRIP
360
2567
  0
DICTIONARY
  5
256D
330
2438
100
AcDbDictionary
280
     1
281
     1
  3
ACAD_XREC_ROUNDTRIP
360
256E
  0
DICTIONARY
  5
2260
102
{ACAD_REACTORS
330
C
102
}
330
C
100
AcDbDictionary
281
     1
  0
DICTIONARY
  5
D
102
{ACAD_REACTORS
330
C
102
}
330
C
100
AcDbDictionary
281
     1
  0
DICTIONARY
  5
14BB
102
{ACAD_REACTORS
330
C
102
}
330
C
100
AcDbDictionary
281
     1
  3
Layout1
350
2264
  3
Model
350
2263
  0
DICTIONARY
  5
225F
102
{ACAD_REACTORS
330
C
102
}
330
C
100
AcDbDictionary
281
     1
  3
ByBlock
350
2537
  3
ByLayer
350
2536
  3
Global
350
2538
  0
DICTIONARY
  5
E
102
{ACAD_REACTORS
330
C
102
}
330
C
100
AcDbDictionary
281
     1
  3
STANDARD
350
1C
  0
DICTIONARY
  5
14BC
102
{ACAD_REACTORS
330
C
102
}
330
C
100
AcDbDictionary
281
     1
  3
RESMI
350
1781
  3
SANAGLOS
350
16B8
  3
SANAGLOS_KOP
350
1796
  3
TEMP
350
1534
  3
USA
350
16AA
  0
ACDBDICTIONARYWDFLT
  5
14B9
102
{ACAD_REACTORS
330
C
102
}
330
C
100
AcDbDictionary
281
     1
  3
Normal
350
14BA
100
AcDbDictionaryWithDefault
340
14BA
  0
DICTIONARY
  5
2261
102
{ACAD_REACTORS
330
C
102
}
330
C
100
AcDbDictionary
281
     1
  3
Standard
350
2262
  0
DICTIONARY
  5
2539
102
{ACAD_REACTORS
330
C
102
}
330
C
100
AcDbDictionary
281
     1
  3
2dWireframe
350
253F
  3
3D Hidden
350
2541
  3
3dWireframe
350
2540
  3
Basic
350
253E
  3
Brighten
350
2545
  3
ColorChange
350
2549
  3
Conceptual
350
2542
  3
Dim
350
2544
  3
Facepattern
350
2548
  3
Flat
350
253A
  3
FlatWithEdges
350
253B
  3
Gouraud
350
253C
  3
GouraudWithEdges
350
253D
  3
Linepattern
350
2547
  3
Realistic
350
2543
  3
Thicken
350
2546
  0
DICTIONARY
  5
119E
102
{ACAD_REACTORS
330
C
102
}
330
C
100
AcDbDictionary
281
     1
  3
CTABLESTYLE
350
2271
  3
DIMASSOC
350
222B
  3
INDEXCTL
350
255A
  3
PROJECTNAME
350
246F
  3
SORTENTS
350
119F
  0
DICTIONARY
  5
250F
102
{ACAD_REACTORS
330
C
102
}
330
C
100
AcDbDictionary
281
     1
  3
ASEBlockHierarchyIndexRecord
350
2510
1001
DCO15
1040
1651491465.815
  0
XRECORD
  5
255B
102
{ACAD_REACTORS
330
C
102
}
330
C
100
AcDbXrecord
280
     1
  1
DWGPROPS COOKIE
  2

  3

  4

  6

  7

  8
nnguyen
  9

300
=
301
=
302
=
303
=
304
=
305
=
306
=
307
=
308
=
309
=
 40
2.468248715277777
 41
2451163.057091898
 42
2454917.696409896
  1

 90
        0
  0
DICTIONARY
  5
2430
102
{ACAD_REACTORS
330
242F
102
}
330
242F
100
AcDbDictionary
281
     1
  0
XRECORD
  5
224E
102
{ACAD_REACTORS
330
1507
102
}
330
1507
100
AcDbXrecord
280
     1
340
19
  0
XRECORD
  5
2250
102
{ACAD_REACTORS
330
224F
102
}
330
224F
100
AcDbXrecord
280
     1
340
1F11
  0
XRECORD
  5
2567
102
{ACAD_REACTORS
330
2566
102
}
330
2566
100
AcDbXrecord
280
     1
102
SHADEPLOT
 70
     0
  0
XRECORD
  5
256E
102
{ACAD_REACTORS
330
256D
102
}
330
256D
100
AcDbXrecord
280
     1
102
SHADEPLOT
 70
     0
  0
LAYOUT
  5
2264
102
{ACAD_XDICTIONARY
360
2432
102
}
102
{ACAD_REACTORS
330
14BB
102
}
330
14BB
100
AcDbPlotSettings
  1

  2
none_device
  4
Letter_(8.50_x_11.00_Inches)
  6

 40
6.349999904632568
 41
6.349999904632568
 42
6.350006103515625
 43
6.350006103515625
 44
215.8999938964844
 45
279.3999938964844
 46
0.0
 47
0.0
 48
0.0
 49
0.0
140
0.0
141
0.0
142
1.0
143
76.85760880588252
 70
   688
 72
     0
 73
     1
 74
     1
  7

 75
     0
147
0.0130110735363323
148
-521.2886922711187
149
-185.1499890653403
100
AcDbLayout
  1
Layout1
 70
     1
 71
     1
 10
3.613279811924683
 20
2.322979072913298
 11
844.4379258080184
 21
596.2596245807258
 12
0.0
 22
0.0
 32
0.0
 14
-0.0257682342921726
 24
0.0727869870636369
 34
-0.0015258207003583
 15
36.05251134623609
 25
24.0010518946242
 35
0.0000000349246037
146
0.0
 13
0.0
 23
0.0
 33
0.0
 16
1.0
 26
0.0
 36
0.0
 17
0.0
 27
1.0
 37
0.0
 76
     0
330
1F11
331
1F12
1001
ACAD_PSEXT
1000
None
1000
None
1000
Not applicable
1000
The layout will not be plotted unless a new plotter configuration name is selected.
1070
     0
  0
LAYOUT
  5
2263
102
{ACAD_XDICTIONARY
360
256A
102
}
102
{ACAD_REACTORS
330
14BB
102
}
330
14BB
100
AcDbPlotSettings
  1

  2
Symantec Fax Starter Edition
  4

  6

 40
0.0
 41
0.0
 42
0.0
 43
0.0
 44
0.0
 45
0.0
 46
0.0
 47
0.0
 48
0.0
 49
0.0
140
0.0
141
0.0
142
1.0
143
1.0
 70
  1712
 72
     0
 73
     0
 74
     0
  7

 75
     0
147
1.0
148
0.0
149
0.0
100
AcDbLayout
  1
Model
 70
     1
 71
     0
 10
0.0
 20
0.0
 11
12.0
 21
9.0
 12
0.0
 22
0.0
 32
0.0
 14
0.0
 24
0.0
 34
0.0
 15
0.0
 25
0.0
 35
0.0
146
0.0
 13
0.0
 23
0.0
 33
0.0
 16
1.0
 26
0.0
 36
0.0
 17
0.0
 27
1.0
 37
0.0
 76
     0
330
19
331
2534
  0
MATERIAL
  5
2537
102
{ACAD_XDICTIONARY
360
2571
102
}
102
{ACAD_REACTORS
330
225F
102
}
330
225F
100
AcDbMaterial
  1
ByBlock
  0
MATERIAL
  5
2536
102
{ACAD_XDICTIONARY
360
256F
102
}
102
{ACAD_REACTORS
330
225F
102
}
330
225F
100
AcDbMaterial
  1
ByLayer
  0
MATERIAL
  5
2538
102
{ACAD_XDICTIONARY
360
2573
102
}
102
{ACAD_REACTORS
330
225F
102
}
330
225F
100
AcDbMaterial
  1
Global
  0
MLINESTYLE
  5
1C
102
{ACAD_REACTORS
330
E
102
}
330
E
100
AcDbMlineStyle
  2
STANDARD
 70
     0
  3

 62
     0
 51
90.0
 52
90.0
 71
     2
 49
0.5
 62
   256
  6
BYLAYER
 49
-0.5
 62
   256
  6
BYLAYER
  0
PLOTSETTINGS
  5
1781
102
{ACAD_XDICTIONARY
360
2562
102
}
102
{ACAD_REACTORS
330
14BC
102
}
330
14BC
100
AcDbPlotSettings
  1
resmi
  2
HP DesignJet 750C_ (D_A1) by HP.pc3
  4
User271
  6

 40
4.995333194732666
 41
16.93330574035644
 42
4.99530029296875
 43
16.933349609375
 44
593.9366455078125
 45
840.8246459960937
 46
12.73
 47
5.459999999999999
 48
121.5413916889992
 49
-83.8940029268142
140
917.5781473949667
141
474.5976073368559
142
1.0
143
1.0
 70
  1684
 72
     1
 73
     1
 74
     4
  7

 75
    16
147
1.0
148
-121.5413916889992
149
83.8940029268142
  0
PLOTSETTINGS
  5
16B8
102
{ACAD_XDICTIONARY
360
2560
102
}
102
{ACAD_REACTORS
330
14BC
102
}
330
14BC
100
AcDbPlotSettings
  1
SANAGLOS
  2
HP DesignJet 750C_ (D_A1) by HP.pc3
  4
User271
  6

 40
4.995333194732666
 41
16.93330574035644
 42
4.99530029296875
 43
16.933349609375
 44
593.9366455078125
 45
840.8246459960937
 46
70.22
 47
140.2899999999999
 48
884.1571555583097
 49
-28.41034649634593
140
1410.541761106084
141
415.0992331712386
142
1.0
143
1.0
 70
  1684
 72
     1
 73
     1
 74
     4
  7

 75
    16
147
1.0
148
-884.1571555583097
149
28.41034649634593
  0
PLOTSETTINGS
  5
1796
102
{ACAD_XDICTIONARY
360
2564
102
}
102
{ACAD_REACTORS
330
14BC
102
}
330
14BC
100
AcDbPlotSettings
  1
SANAGLOS KOP
  2
HP DesignJet 750C_ (D_A1) by HP.pc3
  4
User271
  6

 40
4.995333194732666
 41
16.93330574035644
 42
4.99530029296875
 43
16.933349609375
 44
593.9366455078125
 45
840.8246459960937
 46
13.23
 47
0.0
 48
947.7484951603528
 49
-83.20854767816172
140
1742.778375702499
141
474.2696480066475
142
1.0
143
1.0
 70
  1680
 72
     1
 73
     1
 74
     4
  7

 75
    16
147
1.0
148
-947.7484951603528
149
83.20854767816172
  0
PLOTSETTINGS
  5
1534
102
{ACAD_XDICTIONARY
360
255C
102
}
102
{ACAD_REACTORS
330
14BC
102
}
330
14BC
100
AcDbPlotSettings
  1
TEMP
  2
HP DesignJet 750C_ (D_A1) by HP.pc3
  4
User271
  6

 40
4.995333194732666
 41
16.93330574035644
 42
4.99530029296875
 43
16.933349609375
 44
593.9366455078125
 45
840.8246459960937
 46
51.00999999999999
 47
128.3199999999999
 48
109.908988113364
 49
-38.99547487346746
140
164.941556954735
141
9.196502937298363
142
10.0
143
1.0
 70
  1668
 72
     1
 73
     1
 74
     4
  7

 75
     0
147
10.0
148
-109.908988113364
149
38.99547487346746
  0
PLOTSETTINGS
  5
16AA
102
{ACAD_XDICTIONARY
360
255E
102
}
102
{ACAD_REACTORS
330
14BC
102
}
330
14BC
100
AcDbPlotSettings
  1
USA
  2
HP DesignJet 750C_ (D_A1) by HP.pc3
  4
User271
  6

 40
4.995333194732666
 41
16.93330574035644
 42
4.99530029296875
 43
16.933349609375
 44
593.9366455078125
 45
840.8246459960937
 46
69.59999999999999
 47
141.6299999999999
 48
219.4289734572398
 49
-28.76637557791037
140
743.1276709188352
141
415.9782963690848
142
1.0
143
1.0
 70
  1668
 72
     1
 73
     1
 74
     4
  7

 75
     0
147
1.0
148
-219.4289734572398
149
28.76637557791037
  0
ACDBPLACEHOLDER
  5
14BA
102
{ACAD_REACTORS
330
14B9
102
}
330
14B9
  0
TABLESTYLE
  5
2262
102
{ACAD_XDICTIONARY
360
2568
102
}
102
{ACAD_REACTORS
330
2261
102
}
330
2261
100
AcDbTableStyle
  3
Standard
 70
     0
 71
     0
 40
0.06
 41
0.06
280
     0
281
     0
  7
STANDARD
140
0.18
170
     2
 62
     0
 63
     7
283
     0
274
    -2
284
     1
 64
     0
275
    -2
285
     1
 65
     0
276
    -2
286
     1
 66
     0
277
    -2
287
     1
 67
     0
278
    -2
288
     1
 68
     0
279
    -2
289
     1
 69
     0
  7
STANDARD
140
0.25
170
     5
 62
     0
 63
     7
283
     0
274
    -2
284
     1
 64
     0
275
    -2
285
     1
 65
     0
276
    -2
286
     1
 66
     0
277
    -2
287
     1
 67
     0
278
    -2
288
     1
 68
     0
279
    -2
289
     1
 69
     0
  7
STANDARD
140
0.18
170
     5
 62
     0
 63
     7
283
     0
274
    -2
284
     1
 64
     0
275
    -2
285
     1
 65
     0
276
    -2
286
     1
 66
     0
277
    -2
287
     1
 67
     0
278
    -2
288
     1
 68
     0
279
    -2
289
     1
 69
     0
  0
VISUALSTYLE
  5
253F
102
{ACAD_REACTORS
330
2539
102
}
330
2539
100
AcDbVisualStyle
  2
2dWireframe
 70
     4
 71
     0
 72
     2
 73
     0
 90
        0
 40
-0.6
 41
-30.0
 62
     5
 63
     7
 74
     1
 91
        4
 64
     7
 65
   257
 75
     1
175
     1
 42
1.0
 92
        0
 66
   257
 43
1.0
 76
     1
 77
     6
 78
     2
 67
     7
 79
     5
170
     0
171
     0
290
     0
174
     0
 93
        1
 44
0.0
173
     0
291
     0
 45
0.0
1001
ACAD
1000
AcDbSavedByObjectVersion
1070
     0
  0
VISUALSTYLE
  5
2541
102
{ACAD_REACTORS
330
2539
102
}
330
2539
100
AcDbVisualStyle
  2
3D Hidden
 70
     6
 71
     1
 72
     2
 73
     2
 90
        0
 40
-0.6
 41
-30.0
 62
     5
 63
     7
 74
     2
 91
        2
 64
     7
 65
   257
 75
     2
175
     1
 42
40.0
 92
        0
 66
   257
 43
1.0
 76
     1
 77
     6
 78
     2
 67
     7
 79
     3
170
     0
171
     0
290
     0
174
     0
 93
        1
 44
0.0
173
     0
291
     0
 45
0.0
1001
ACAD
1000
AcDbSavedByObjectVersion
1070
     0
  0
VISUALSTYLE
  5
2540
102
{ACAD_REACTORS
330
2539
102
}
330
2539
100
AcDbVisualStyle
  2
3dWireframe
 70
     5
 71
     0
 72
     2
 73
     0
 90
        0
 40
-0.6
 41
-30.0
 62
     5
 63
     7
 74
     1
 91
        4
 64
     7
 65
   257
 75
     1
175
     1
 42
1.0
 92
        0
 66
   257
 43
1.0
 76
     1
 77
     6
 78
     2
 67
     7
 79
     5
170
     0
171
     0
290
     0
174
     0
 93
        1
 44
0.0
173
     0
291
     0
 45
0.0
1001
ACAD
1000
AcDbSavedByObjectVersion
1070
     0
  0
VISUALSTYLE
  5
253E
102
{ACAD_REACTORS
330
2539
102
}
330
2539
100
AcDbVisualStyle
  2
Basic
 70
     7
 71
     1
 72
     0
 73
     1
 90
        0
 40
-0.6
 41
-30.0
 62
     5
 63
     7
 74
     0
 91
        4
 64
     7
 65
   257
 75
     1
175
     1
 42
1.0
 92
        8
 66
     7
 43
1.0
 76
     1
 77
     6
 78
     2
 67
     7
 79
     5
170
     0
171
     0
290
     0
174
     0
 93
        1
 44
0.0
173
     0
291
     1
 45
0.0
1001
ACAD
1000
AcDbSavedByObjectVersion
1070
     0
  0
VISUALSTYLE
  5
2545
102
{ACAD_REACTORS
330
2539
102
}
330
2539
100
AcDbVisualStyle
  2
Brighten
 70
    12
 71
     2
 72
     2
 73
     0
 90
        0
 40
-0.6
 41
-30.0
 62
     5
 63
     7
 74
     1
 91
        4
 64
     7
 65
   257
 75
     1
175
     1
 42
1.0
 92
        8
 66
     7
 43
1.0
 76
     1
 77
     6
 78
     2
 67
     7
 79
     5
170
     0
171
     0
290
     0
174
     0
 93
        1
 44
50.0
173
     0
291
     1
 45
0.0
1001
ACAD
1000
AcDbSavedByObjectVersion
1070
     0
  0
VISUALSTYLE
  5
2549
102
{ACAD_REACTORS
330
2539
102
}
330
2539
100
AcDbVisualStyle
  2
ColorChange
 70
    16
 71
     2
 72
     2
 73
     3
 90
        0
 40
-0.6
 41
-30.0
 62
     5
 63
     8
 74
     1
 91
        4
 64
     7
 65
   257
 75
     1
175
     1
 42
1.0
 92
        8
 66
     8
 43
1.0
 76
     1
 77
     6
 78
     2
 67
     7
 79
     5
170
     0
171
     0
290
     0
174
     0
 93
        1
 44
0.0
173
     0
291
     1
 45
0.0
1001
ACAD
1000
AcDbSavedByObjectVersion
1070
     0
  0
VISUALSTYLE
  5
2542
102
{ACAD_REACTORS
330
2539
102
}
330
2539
100
AcDbVisualStyle
  2
Conceptual
 70
     9
 71
     3
 72
     2
 73
     0
 90
        0
 40
-0.6
 41
-30.0
 62
     5
 63
     7
 74
     2
 91
        2
 64
     7
 65
   257
 75
     1
175
     1
 42
40.0
 92
        8
 66
     7
 43
1.0
 76
     1
 77
     6
 78
     2
 67
     7
 79
     3
170
     0
171
     0
290
     0
174
     0
 93
        1
 44
0.0
173
     0
291
     0
 45
0.0
1001
ACAD
1000
AcDbSavedByObjectVersion
1070
     0
  0
VISUALSTYLE
  5
2544
102
{ACAD_REACTORS
330
2539
102
}
330
2539
100
AcDbVisualStyle
  2
Dim
 70
    11
 71
     2
 72
     2
 73
     0
 90
        0
 40
-0.6
 41
-30.0
 62
     5
 63
     7
 74
     1
 91
        4
 64
     7
 65
   257
 75
     1
175
     1
 42
1.0
 92
        8
 66
     7
 43
1.0
 76
     1
 77
     6
 78
     2
 67
     7
 79
     5
170
     0
171
     0
290
     0
174
     0
 93
        1
 44
-50.0
173
     0
291
     1
 45
0.0
1001
ACAD
1000
AcDbSavedByObjectVersion
1070
     0
  0
VISUALSTYLE
  5
2548
102
{ACAD_REACTORS
330
2539
102
}
330
2539
100
AcDbVisualStyle
  2
Facepattern
 70
    15
 71
     2
 72
     2
 73
     0
 90
        0
 40
-0.6
 41
-30.0
 62
     5
 63
     7
 74
     1
 91
        4
 64
     7
 65
   257
 75
     1
175
     1
 42
1.0
 92
        8
 66
     7
 43
1.0
 76
     1
 77
     6
 78
     2
 67
     7
 79
     5
170
     0
171
     0
290
     0
174
     0
 93
        1
 44
0.0
173
     0
291
     1
 45
0.0
1001
ACAD
1000
AcDbSavedByObjectVersion
1070
     0
  0
VISUALSTYLE
  5
253A
102
{ACAD_REACTORS
330
2539
102
}
330
2539
100
AcDbVisualStyle
  2
Flat
 70
     0
 71
     2
 72
     1
 73
     1
 90
        2
 40
-0.6
 41
30.0
 62
     5
 63
     7
 74
     0
 91
        4
 64
     7
 65
   257
 75
     1
175
     1
 42
1.0
 92
        8
 66
     7
 43
1.0
 76
     1
 77
     6
 78
     2
 67
     7
 79
     5
170
     0
171
     0
290
     0
174
     0
 93
       13
 44
0.0
173
     0
291
     1
 45
0.0
1001
ACAD
1000
AcDbSavedByObjectVersion
1070
     0
  0
VISUALSTYLE
  5
253B
102
{ACAD_REACTORS
330
2539
102
}
330
2539
100
AcDbVisualStyle
  2
FlatWithEdges
 70
     1
 71
     2
 72
     1
 73
     1
 90
        2
 40
-0.6
 41
30.0
 62
     5
 63
     7
 74
     1
 91
        4
 64
     7
 65
   257
 75
     1
175
     1
 42
1.0
 92
        0
 66
   257
 43
1.0
 76
     1
 77
     6
 78
     2
 67
     7
 79
     5
170
     0
171
     0
290
     0
174
     0
 93
       13
 44
0.0
173
     0
291
     1
 45
0.0
1001
ACAD
1000
AcDbSavedByObjectVersion
1070
     0
  0
VISUALSTYLE
  5
253C
102
{ACAD_REACTORS
330
2539
102
}
330
2539
100
AcDbVisualStyle
  2
Gouraud
 70
     2
 71
     2
 72
     2
 73
     1
 90
        2
 40
-0.6
 41
30.0
 62
     5
 63
     7
 74
     0
 91
        4
 64
     7
 65
   257
 75
     1
175
     1
 42
1.0
 92
        0
 66
     7
 43
1.0
 76
     1
 77
     6
 78
     2
 67
     7
 79
     5
170
     0
171
     0
290
     0
174
     0
 93
       13
 44
0.0
173
     0
291
     1
 45
0.0
1001
ACAD
1000
AcDbSavedByObjectVersion
1070
     0
  0
VISUALSTYLE
  5
253D
102
{ACAD_REACTORS
330
2539
102
}
330
2539
100
AcDbVisualStyle
  2
GouraudWithEdges
 70
     3
 71
     2
 72
     2
 73
     1
 90
        2
 40
-0.6
 41
30.0
 62
     5
 63
     7
 74
     1
 91
        4
 64
     7
 65
   257
 75
     1
175
     1
 42
1.0
 92
        0
 66
   257
 43
1.0
 76
     1
 77
     6
 78
     2
 67
     7
 79
     5
170
     0
171
     0
290
     0
174
     0
 93
       13
 44
0.0
173
     0
291
     1
 45
0.0
1001
ACAD
1000
AcDbSavedByObjectVersion
1070
     0
  0
VISUALSTYLE
  5
2547
102
{ACAD_REACTORS
330
2539
102
}
330
2539
100
AcDbVisualStyle
  2
Linepattern
 70
    14
 71
     2
 72
     2
 73
     0
 90
        0
 40
-0.6
 41
-30.0
 62
     5
 63
     7
 74
     1
 91
        4
 64
     7
 65
   257
 75
     7
175
     7
 42
1.0
 92
        8
 66
     7
 43
1.0
 76
     1
 77
     6
 78
     2
 67
     7
 79
     5
170
     0
171
     0
290
     0
174
     0
 93
        1
 44
0.0
173
     0
291
     1
 45
0.0
1001
ACAD
1000
AcDbSavedByObjectVersion
1070
     0
  0
VISUALSTYLE
  5
2543
102
{ACAD_REACTORS
330
2539
102
}
330
2539
100
AcDbVisualStyle
  2
Realistic
 70
     8
 71
     2
 72
     2
 73
     0
 90
        0
 40
-0.6
 41
-30.0
 62
     5
 63
     7
 74
     1
 91
        0
 64
     7
 65
   257
 75
     1
175
     1
 42
1.0
 92
        8
 66
     8
 43
1.0
 76
     1
 77
     6
 78
     2
 67
     7
 79
     5
170
     0
171
     0
290
     0
174
     0
 93
       13
 44
0.0
173
     0
291
     0
 45
0.0
1001
ACAD
1000
AcDbSavedByObjectVersion
1070
     0
  0
VISUALSTYLE
  5
2546
102
{ACAD_REACTORS
330
2539
102
}
330
2539
100
AcDbVisualStyle
  2
Thicken
 70
    13
 71
     2
 72
     2
 73
     0
 90
        0
 40
-0.6
 41
-30.0
 62
     5
 63
     7
 74
     1
 91
        4
 64
     7
 65
   257
 75
     1
175
     1
 42
1.0
 92
       12
 66
     7
 43
1.0
 76
     1
 77
     6
 78
     2
 67
     7
 79
     5
170
     0
171
     0
290
     0
174
     0
 93
        1
 44
0.0
173
     0
291
     1
 45
0.0
1001
ACAD
1000
AcDbSavedByObjectVersion
1070
     0
  0
DICTIONARYVAR
  5
2271
102
{ACAD_REACTORS
330
119E
102
}
330
119E
100
DictionaryVariables
280
     0
  1
STANDARD
  0
DICTIONARYVAR
  5
222B
102
{ACAD_REACTORS
330
119E
102
}
330
119E
100
DictionaryVariables
280
     0
  1
1
  0
DICTIONARYVAR
  5
255A
102
{ACAD_REACTORS
330
119E
102
}
330
119E
100
DictionaryVariables
280
     0
  1
0
  0
DICTIONARYVAR
  5
246F
102
{ACAD_REACTORS
330
119E
102
}
330
119E
100
DictionaryVariables
280
     0
  1

  0
DICTIONARYVAR
  5
119F
102
{ACAD_REACTORS
330
119E
102
}
330
119E
100
DictionaryVariables
280
     0
  1
96
  0
XRECORD
  5
2510
102
{ACAD_REACTORS
330
250F
102
}
330
250F
100
AcDbXrecord
280
     1
330
227A
330
227C
330
2286
330
2288
330
2291
330
2295
330
229E
330
22A0
330
22AA
330
22AC
330
22B6
330
22B8
330
22C2
330
22C4
330
22CE
330
22D0
330
22D9
330
22DB
330
22E5
330
22E9
330
22F0
330
22F4
330
22FB
330
22FF
  0
DICTIONARY
  5
2432
330
2264
100
AcDbDictionary
280
     1
281
     1
  3
ACAD_XREC_ROUNDTRIP
360
256C
  3
ADSK_XREC_LAYOUTTHUMBNAIL
360
2433
  0
DICTIONARY
  5
256A
330
2263
100
AcDbDictionary
280
     1
281
     1
  3
ACAD_XREC_ROUNDTRIP
360
256B
  0
DICTIONARY
  5
2571
330
2537
100
AcDbDictionary
280
     1
281
     1
  3
ACAD_XREC_ROUNDTRIP
360
2572
  0
DICTIONARY
  5
256F
330
2536
100
AcDbDictionary
280
     1
281
     1
  3
ACAD_XREC_ROUNDTRIP
360
2570
  0
DICTIONARY
  5
2573
330
2538
100
AcDbDictionary
280
     1
281
     1
  3
ACAD_XREC_ROUNDTRIP
360
2574
  0
DICTIONARY
  5
2562
330
1781
100
AcDbDictionary
280
     1
281
     1
  3
ACAD_XREC_ROUNDTRIP
360
2563
  0
DICTIONARY
  5
2560
330
16B8
100
AcDbDictionary
280
     1
281
     1
  3
ACAD_XREC_ROUNDTRIP
360
2561
  0
DICTIONARY
  5
2564
330
1796
100
AcDbDictionary
280
     1
281
     1
  3
ACAD_XREC_ROUNDTRIP
360
2565
  0
DICTIONARY
  5
255C
330
1534
100
AcDbDictionary
280
     1
281
     1
  3
ACAD_XREC_ROUNDTRIP
360
255D
  0
DICTIONARY
  5
255E
330
16AA
100
AcDbDictionary
280
     1
281
     1
  3
ACAD_XREC_ROUNDTRIP
360
255F
  0
DICTIONARY
  5
2568
330
2262
100
AcDbDictionary
280
     1
281
     1
  3
ACAD_XREC_ROUNDTRIP
360
2569
  0
XRECORD
  5
256C
102
{ACAD_REACTORS
330
2432
102
}
330
2432
100
AcDbXrecord
280
     1
102
SHADEPLOT
 70
     0
102
SHADEPLOTRESLEVEL
 70
     2
102
SHADEPLOTCUSTOMDPI
 70
   300
  0
XRECORD
  5
2433
102
{ACAD_REACTORS
330
2432
102
}
330
2432
100
AcDbXrecord
280
     1
310
28000000B40000007E000000010008000000000098580000000000000000000000010000000000000000000000000000FFFFFF000000000000000000000000000000000000000000000000000000000000000000330000006600000099000000CC000000FF00000000330000333300006633000099330000CC330000FF3300
310
0000660000336600006666000099660000CC660000FF66000000990000339900006699000099990000CC990000FF99000000CC000033CC000066CC000099CC0000CCCC0000FFCC000000FF000033FF000066FF000099FF0000CCFF0000FFFF000000003300330033006600330099003300CC003300FF003300003333003333
310
33006633330099333300CC333300FF33330000663300336633006666330099663300CC663300FF66330000993300339933006699330099993300CC993300FF99330000CC330033CC330066CC330099CC3300CCCC3300FFCC330000FF330033FF330066FF330099FF3300CCFF3300FFFF330000006600330066006600660099
310
006600CC006600FF00660000336600333366006633660099336600CC336600FF33660000666600336666006666660099666600CC666600FF66660000996600339966006699660099996600CC996600FF99660000CC660033CC660066CC660099CC6600CCCC6600FFCC660000FF660033FF660066FF660099FF6600CCFF6600
310
FFFF660000009900330099006600990099009900CC009900FF00990000339900333399006633990099339900CC339900FF33990000669900336699006666990099669900CC669900FF66990000999900339999006699990099999900CC999900FF99990000CC990033CC990066CC990099CC9900CCCC9900FFCC990000FF99
310
0033FF990066FF990099FF9900CCFF9900FFFF99000000CC003300CC006600CC009900CC00CC00CC00FF00CC000033CC003333CC006633CC009933CC00CC33CC00FF33CC000066CC003366CC006666CC009966CC00CC66CC00FF66CC000099CC003399CC006699CC009999CC00CC99CC00FF99CC0000CCCC0033CCCC0066CC
310
CC0099CCCC00CCCCCC00FFCCCC0000FFCC0033FFCC0066FFCC0099FFCC00CCFFCC00FFFFCC000000FF003300FF006600FF009900FF00CC00FF00FF00FF000033FF003333FF006633FF009933FF00CC33FF00FF33FF000066FF003366FF006666FF009966FF00CC66FF00FF66FF000099FF003399FF006699FF009999FF00CC
310
99FF00FF99FF0000CCFF0033CCFF0066CCFF0099CCFF00CCCCFF00FFCCFF0000FFFF0033FFFF0066FFFF0099FFFF00CCFFFF00FFFFFF00000000000D0D0D001A1A1A00282828003535350043434300505050005D5D5D006B6B6B00787878008686860093939300A1A1A100AEAEAE00BBBBBB00C9C9C900D6D6D600E4E4E400
310
F1F1F100FFFFFF0000000000000000000000000000000000000000000000000000000000000000000000000000000000F5F5F5F5F5F5F5F5E2E2E2E2E2E2E2E2E2E2E2E2E2E2E2E2E2E2E2E2E2E2E2E2E2E2E2E2E2E2E2E2E2E2E2E2E2E2E2E2E2E2E2E2E2E2E2E2E2E2E2E2E2E2E2E2E2E2E2E2E2E2E2E2E2E2E2E2E2E2E2
310
E2E2E2E2E2E2E2E2E2E2E2E2E2E2E2E2E2E2E2E2E2E2E2E2E2E2E2E2E2E2E2E2E2E2E2E2E2E2E2E2E2E2E2E2E2E2E2E2E2E2E2E2E2E2E2E2E2E2E2E2E2E2E2E2E2E2E2E2E2E2E2E2E2E2E2E2E2E2E2E2E2E2E2E2E2E2E2E2E2E2E2E2E2E2E2E2E2E2E2E2E2F5F5F5F5F5F5E2F5E2E2E2E2E2E2E2E2E2E2E2E2E2E2E2E2E2E2
310
E2E2E2E2E2E2E2E2E2E2E2E2E2E2E2E2E2E2E2E2E2E2E2E2E2E2E2E2E2E2E2E2E2E2E2E2E2E2E2E2E2E2E2E2E2E2E2E2E2E2E2E2E2E2E2E2E2E2E2E2E2E2E2E2E2E2E2E2E2E2E2E2E2E2E2E2E2E2E2E2E2E2E2E2E2E2E2E2E2E2E2E2E2E2E2E2E2E2E2E2E2E2E2E2E2E2E2E2E2E2E2E2E2E2E2E2E2E2E2E2E2E2E2E2E2E2E2
310
E2E2E2E2E2E2E2E2E2E2E2E2E2E2E2E2E2E2E2E2E2E2E2E2E2E2E2F5F5C3F5F5F5E2F5E2E2E2E2E2E2E2E2E2E2E2E2E2E2E2E2E2E2E2E2E2E2E2E2E2E2E2E2E2E2E2E2E2E2E2E2E2E2E2E2E2E2E2E2E2E2E2E2E2E2E2E2E2E2E2E2E2E2E2E2E2E2E2E2E2E2E2E2E2E2E2E2E2E2E2E2E2E2E2E2E2E2E2E2E2E2E2E2E2E2E2E2
310
E2E2E2E2E2E2E2E2E2E2E2E2E2E2E2E2E2E2E2E2E2E2E2E2E2E2E2E2E2E2E2E2E2E2E2E2E2E2E2E2E2E2E2E2E2E2E2E2E2E2E2E2E2E2E2E2E2E2E2E2E2E2E2E2E2E2E2E2E2E2E2E2E2E2E2E2E2E2E2E2F5F5F5F5F5F5E2F5E2E2E2E2E2E2E2E2E2E2E2E2E2E2E2E2E2E2E2E2E2E2E2E2E2E2E2E2E2E2E2E2E2E2E2E2E2E2E2
310
E2E2E2E2E2E2E2E2E2E2E2E2E2E2E2E2E2E2E2E2E2E2E2E2E2E2E2E2E2E2E2E2E2E2E2E2E2E2E2E2E2E2E2E2E2E2E2E2E2E2E2E2E2E2E2E2E2E2E2E2E2E2E2E2E2E2E2E2E2E2E2E2E2E2E2E2E2E2E2E2E2E2E2E2E2E2E2E2E2E2E2E2E2E2E2E2E2E2E2E2E2E2E2E2E2E2E2E2E2E2E2E2E2E2E2E2E2E2E2E2E2E2E2E2E2E2E2
310
E2E2E2E2E2E2F5F5F5F5F5F5F5F5E2E2E2E2E2E2E2E2E2E2E2E2E2E2E2E2E2E2E2E2E2E2E2E2E2E2E2E2E2E2E2E2E2E2E2E2E2E2E2E2E2E2E2E2E2E2E2E2E2E2E2E2E2E2E2E2E2E2E2E2E2E2E2E2E2E2E2E2E2E2E2E2E2E2E2E2E2E2E2E2E2E2E2E2E2E2E2E2E2E2E2E2E2E2E2E2E2E2E2E2E2E2E2E2E2E2E2E2E2E2E2E2E2
310
E2E2E2E2E2E2E2E2E2E2E2E2E2E2E2E2E2E2E2E2E2E2E2E2E2E2E2E2E2E2E2E2E2E2E2E2E2E2E2E2E2E2E2E2E2E2E2E2E2E2E2E2E2E2E2E2E2E2E2F5F5F5F5F5F5F5F5E2E2E2E2E2E2E2E2E2E2E2E2E2E2E2E2E2E2E2E2E2E2E2E2E2E2E2E2E2E2E2E2E2E2E2E2E2E2E2E2E2E2E2E2E2E2E2E2E2E2E2E2E2E2E2E2E2E2E2E2
310
E2E2E2E2E2E2E2E2E2E2E2E2E2E2E2E2E2E2E2E2E2E2E2E2E2E2E2E2E2E2E2E2E2E2E2E2E2E2E2E2E2E2E2E2E2E2E2E2E2E2E2E2E2E2E2E2E2E2E2E2E2E2E2E2E2E2E2E2E2E2E2E2E2E2E2E2E2E2E2E2E2E2E2E2E2E2E2E2E2E2E2E2E2E2E2E2E2E2E2E2E2E2E2E2E2E2E2E2E2E2E2E2E2E2E2E2E2E2E2E2E2E2E2E2E2E2E2
310
E2E2E2E2E2E2E2E2E2E2E2E2E2E2E2E2E2E2E2E2E2E2E2E2E2E2E2E2E2E2E2E2E2E2E2E2E2E2E2E2E2E2E2E2E2E2E2E2E2E2E2E2E2E2E2E2E2E2E2E2E2E2E2E2E2E2E2E2E2E2E2E2E2E2E2E2E2E2E2E2E2E2E2E2E2E2E2E2E2E2E2E2E2E2E2E2E2E2E2E2E2E2E2E2E2E2E2E2E2E2E2E2E2E2E2E2E2E2E2E2E2E2E2E2E2E2E2
310
E2E2E2E2E2E2E2E2E2E2E2E2E2E2E2E2E2E2E2E2E2E2E2E2E2E2E2E2E2E2E2E2E2E2E2E2E2E2E2E2E2E2E2E2E2E2E2E2E2E2E2E2E2E2E2E2E2E2E2E2E2E2E2E2E2E2E2E2E2E2E2E2E2E2E2E2E2E2E2E2E2E2E2E2E2E2E2E2E2E2E2E2E2E2E2E2E2E2E2E2E2E2E2E2E2E2E2E2E2E2E2E2E2E2E2E2E2E2E2E2E2E2E2E2E2E2E2
310
E2E2E2E2E2E2E2E2E2E2E2E2E2E2E2E2E2E2E2E2E2E2E2E2E2E2E2E2E2E2E2E2E2E2E2E2E2E2E2E2E2E2E2E2E2E2E2E2E2E2E2E2E2E2E2E2E2E2E2E2E2E2E2E2E2E2E2E2E2E2E2E2E2E2E2E2E2E2E2E2E2E2E2E2E2E2E2E2E2E2E2E2E2E2E2E2E2E2E2E2E2E2E2E2E2E2E2E2E2E2E2E2E2E2E2E2E2E2E2E2E2E2E2E2E2E2E2
310
E2E2E2E2E2E2E2E2E2E2E2E2E2E2E2E2E2E2E2E2E2E2E2E2E2E2E2E2E2E2E2E2E2E2E2E2E2E2E2E2E2E2E2E2E2E2E2E2E2E2E2E2E2E2E2E2E2E2E2E2E2E2E2E2E2E2E2E2E2E2E2E2E2E2E2E2E2E2E2E2E2E2E2E2E2E2E2E2E2E2E2E2E2E2E2E2E2E2E2E2E2E2E2E2E2E2E2E2E2E2E2E2E2E2E2E2E2E2E2E2E2E2E2E2E2E2E2
310
E2E2E2E2E2E2E2E2E2E2E2E2E2E2E2E2E2E2E2E2E2E2E2E2E2E2E2E2E2E2E2E2E2E2E2E2E2E2E2E2E2E2E2E2E2E2E2E2E2E2E2E2E2E2E2E2E2E2E2E2E2E2E2E2E2E2E2E2E2E2E2E2E2E2E2E2E2E2E2E2E2E2E2E2E2E2E2E2E2E2E2E2E2E2E2E2E2E2E2E2E2E2E2E2E2E2E2E2E2E2E2E2E2E2E2E2E2E2E2E2E2E2E2E2E2E2E2
310
E2E2E2E2E2E2E2E2E2E2E2E2E2E2E2E2E2E2E2E2E2E2E2E2E2E2E2E2E2E2E2E2E2E2E2E2E2E2E2E2E2E2E2E2E2E2E2E2E2E2E2E2E2E2E2E2E2E2E2E2E2E2E2E2E2E2E2E2E2E2E2E2E2E2E2E2E2E2E2E2E2E2E2E2E2E2E2E2E2E2E2E2E2E2E2E2E2E2E2E2E2E2E2E2E2E2E2E2E2E2E2E2E2E2E2E2E2E2E2E2E2E2E2E2E2E2E2
310
E2E2E2E2E2E2E2E2E2E2E2E2E2E2E2E2E2E2E2E2E2E2E2E2E2E2E2E2E2E2E2E2E2E2E2E2E2E2E2E2E2E2E2E2E2E2E2E2E2E2E2E2E2E2E2E2E2E2E2E2E2E2E2E2E2E2E2E2E2E2E2E2E2E2E2E2E2E2E2E2E2E2E2E2E2E2E2E2E2E2E2E2E2E2E2E2E2E2E2E2E2E2E2E2E2E2E2E2E2E2E2E2E2E2E2E2E2E2E2E2E2E2E2E2E2E2E2
310
E2E2E2E2E2E2E2E2E2E2E2E2E2E2E2E2E2E2E2E2E2E2E2E2E2E2E2E2E2E2E2E2E2E2E2E2E2E2E2E2E2E2E2E2E2E2E2E2E2E2E2E2E2E2E2E2E2E2E2E2E2E2E2E2E2E2E2E2E2E2E2E2E2E2E2E2E2E2E2E2E2E2E2E2E2E2E2E2E2E2E2E2E2E2E2E2E2E2E2E2E2E2E2E2E2E2E2E2E2E2E2E2E2E2E2E2E2E2E2E2E2E2E2E2E2E2E2
310
E2E2E2E2E2E2E2E2E2E2E2E2E2E2E2E2E2E2E2E2E2E2E2E2E2E2E2E2E2E2E2E2E2E2E2E2E2E2E2E2E2E2E2E2E2E2E2E2E2E2E2E2E2E2E2E2E2E2E2E2E2E2E2E2E2E2E2E2E2E2E2E2E2E2E2E2E2E2E2E2E2E2E2E2E2E2E2E2E2E2E2E2E2E2E2E2E2E2E2E2E2E2E2E2E2E2E2E2E2E2E2E2E2E2E2E2E2E2E2E2E2E2E2E2E2E2E2
310
E2E2E2E2E2E2E2E2E2E2E2E2E2E2E2E2E2E2E2E2E2E2E2E2E2E2E2E2E2E2E2E2E2E2E2E2E2E2E2E2E2E2E2E2E2E2E2E2E2E2E2E2E2E2E2E2E2E2E2E2E2E2E2E2E2E2E2E2E2E2E2E2E2E2E2E2E2E2E2E2E2E2E2E2E2E2E2E2E2E2E2E2E2E2E2E2E2E2E2E2E2E2E2E2E2E2E2E2E2E2E2E2E2E2E2E2E2E2E2E2E2E2E2E2E2E2E2
310
E2E2E2E2E2E2E2E2E2E2E2E2E2E2E2E2E2E2E2E2E2E2E2E2E2E2E2E2E2E2E2E2E2E2E2E2E2E2E2E2E2E2E2E2E2E2E2E2E2E2E2E2E2E2E2E2E2E2E2E2E2E2E2E2E2E2E2E2E2E2E2E2E2E2E2E2E2E2E2E2E2E2E2E2E2E2E2E2E2E2E2E2E2E2E2E2E2E2E2E2E2E2E2E2E2E2E2E2E2E2E2E2E2E2E2E2E2E2E2E2E2E2E2E2E2E2E2
310
E2E2E2E2E2E2E2E2E2E2E2E2E2E2E2E2E2E2E2E2E2E2E2E2E2E2E2E2E2E2E2E2E2E2E2E2E2E2E2E2E2E2E2E2E2E2E2E2E2E2E2E2E2E2E2E2E2E2E2E2E2E2E2E2E2E2E2E2E2E2E2E2E2E2E2E2E2E2E2E2E2E2E2E2E2E2E2E2E2E2E2E2E2E2E2E2E2E2E2E2E2E2E2E2E2E2E2E2E2E2E2E2E2E2E2E2E2E2E2E2E2E2E2E2E2E2E2
310
E2E2E2E2E2E2E2E2E2E2E2E2E2E2E2E2E2E2E2E2E2E2E2E2E2E2E2E2E2E2E2E2E2E2E2E2E2E2E2E2E2E2E2E2E2E2E2E2E2E2E2E2E2E2E2E2E2E2E2E2E2E2E2E2E2E2E2E2E2E2E2E2E2E2E2E2E2E2E2E2E2E2E2E2E2E2E2E2E2E2E2E2E2E2E2E2E2E2E2E2E2E2E2E2E2E2E2E2E2E2E2E2E2E2E2E2E2E2E2E2E2E2E2E2E2E2E2
310
E2E2E2E2E2E2E2E2E2E2E2E2E2E2E2E2E2E2E2E2E2E2E2E2E2E2E2E2E2E2E2E2E2E2E2E2E2E2E2E2E2E2E2E2E2E2E2E2E2E2E2E2E2E2E2E2E2E2E2E2E2E2E2E2E2E2E2E2E2E2E2E2E2E2E2E2E2E2E2E2E2E2E2E2E2E2E2E2E2E2E2E2E2E2E2E2E2E2E2E2E2E2E2E2E2E2E2E2E2E2E2E2E2E2E2E2E2E2E2E2E2E2E2E2E2E2E2
310
E2E2E2E2E2E2E2E2E2E2E2E2E2E2E2E2E2E2E2E2E2E2E2E2E2E2E2E2E2E2E2E2E2E2E2E2E2E2E2E2E2E2E2E2E2E2E2E2E2E2E2E2E2E2E2E2E2E2E2E2E2E2E2E2E2E2E2E2E2E2E2E2E2E2E2E2E2E2E2E2E2E2E2E2E2E2E2E2E2E2E2E2E2E2E2E2E2E2E2E2E2E2E2E2E2E2E2E2E2E2E2E2E2E2E2E2E2E2E2E2E2E2E2E2E2E2E2
310
E2E2E2E2E2E2E2E2E2E2E2E2E2E2E2E2E2E2E2E2E2E2E2E2E2E2E2E2E2E2E2E2E2E2E2E2E2E2E2E2E2E2E2E2E2E2E2E2E2E2E2E2E2E2E2E2E2E2E2E2E2E2E2E2E2E2E2E2E2E2E2E2E2E2E2E2E2E2E2E2E2E2E2E2E2E2E2E2E2E2E2E2E2E2E2E2E2E2E2E2E2E2E2E2E2E2E2E2E2E2E2E2E2E2E2E2E2E2E2E2E2E2E2E2E2E2E2
310
E2E2E2E2E2E2E2E2E2E2E2E2E2E2E2E2E2E2E2E2E2E2E2E2E2E2E2E2E2E2E2E2E2E2E2E2E2E2E2E2E2E2E2E2E2E2E2E2E2E2E2E2E2E2E2E2E2E2E2E2E2E2E2E2E2E2E2E2E2E2E2E2E2E2E2E2E2E2E2E2E2E2E2E2E2E2E2E2E2E2E2E2E2E2E2E2E2E2E2E2E2E2E2E2E2E2E2E2E2E2E2E2E2E2E2E2E2E2E2E2E2E2E2E2E2E2E2
310
E2E2E2E2E2E2E2E2E2E2E2E2E2E2E2E2E2E2E2E2E2E2E2E2E2E2E2E2E2E2E2E2E2E2E2E2E2E2E2E2E2E2E2E2E2E2E2E2E2E2E2E2E2E2E2E2E2E2E2E2E2E2E2E2E2E2E2E2E2E2E2E2E2E2E2E2E2E2E2E2E2E2E2E2E2E2E2E2E2E2E2E2E2E2E2E2E2E2E2E2E2E2E2E2E2E2E2E2E2E2E2E2E2E2E2E2E2E2E2E2E2E2E2E2E2E2E2
310
E2E2E2E2E2E2E2E2E2E2E2E2E2E2E2E2E2E2E2E2E2E2E2E2E2E2E2E2E2E2E2E2E2E2E2E2E2E2E2E2E2E2E2E2E2E2E2E2E2E2E2E2E2E2E2E2E2E2E2E2E2E2E2E2E2E2E2E2E2E2E2E2E2E2E2E2E2E2E2E2E2E2E2E2E2E2E2E2E2E2E2E2E2E2E2E2E2E2E2E2E2E2E2E2E2E2E2E2E2E2E2E2E2E2E2E2E2E2E2E2E2E2E2E2E2E2E2
310
E2E2E2E2E2E2E2E2E2E2E2E2E2E2E2E2E2E2E2E2E2E2E2E2E2E2E2E2E2E2E2E2E2E2E2E2E2E2E2E2E2E2E2E2E2E2E2E2E2E2E2E2E2E2E2E2E2E2E2E2E2E2E2E2E2E2E2E2E2E2E2E2E2E2E2E2E2E2E2E2E2E2E2E2E2E2E2E2E2E2E2E2E2E2E2E2E2E2E2E2E2E2E2E2E2E2E2E2E2E2E2E2E2E2E2E2E2E2E2E2E2E2E2E2E2E2E2
310
E2E2E2E2E2E2E2E2E2E2E2E2E2E2E2E2E2E2E2E2E2E2E2E2E2E2E2E2E2E2E2E2E2E2E2E2E2E2E2E2E2E2E2E2E2E2E2E2E2E2E2E2E2E2E2E2E2E2E2E2E2E2E2E2E2E2E2E2E2E2E2E2E2E2E2E2E2E2E2E2E2E2E2E2E2E2E2E2E2E2E2E2E2E2E2E2E2E2E2E2E2E2E2E2E2E2E2E2E2E2E2E2E2E2E2E2E2E2E2E2E2E2E2E2E2E2E2
310
E2E2E2E2E2E2E2E2E2E2E2E2E2E2E2E2E2E2E2E2E2E2E2E2E2E2E2E2E2E2E2E2E2E2E2E2E2E2E2E2E2E2E2E2E2E2E2E2E2E2E2E2E2E2E2E2E2E2E2E2E2E2E2E2E2E2E2E2E2E2E2E2E2E2E2E2E2E2E2E2E2E2E2E2E2E2E2E2E2E2E2E2E2E2E2E2E2E2E2E2E2E2E2E2E2E2E2E2E2E2E2E2E2E2E2E2E2E2E2E2E2E2E2E2E2E2E2
310
E2E2E2E2E2E2E2E2E2E2E2E2E2E2E2E2E2E2E2E2E2E2E2E2E2E2E2E2E2E2E2E2E2E2E2E2E2E2E2E2E2E2E2E2E2E2E2E2E2E2E2E2E2E2E2E2E2E2E2E2E2E2E2E2E2E2E2E2E2E2E2E2E2E2E2E2E2E2E2E2E2E2E2E2E2E2E2E2E2E2E2E2E2E2E2E2E2E2E2E2E2E2E2E2E2E2E2E2E2E2E2E2E2E2E2E2E2E2E2E2E2E2E2E2E2E2E2
310
E2E2E2E2E2E2E2E2E2E2E2E2E2E2E2E2E2E2E2E2E2E2E2E2E2E2E2E2E2E2E2E2E2E2E2E2E2E2E2E2E2E2E2E2E2E2E2E2E2E2E2E2E2E2E2E2E2E2E2E2E2E2E2E2E2E2E2E2E2E2E2E2E2E2E2E2E2E2E2E2E2E2E2E2E2E2E2E2E2E2E2E2E2E2E2E2E2E2E2E2E2E2E2E2E2E2E2E2E2E2E2E2E2E2E2E2E2E2E2E2E2E2E2E2E2E2E2
310
E2E2E2E2E2E2E2E2E2E2E2E2E2E2E2E2E2E2E2E2E2E2E2E2E2E2E2E2E2E2E2E2E2E2E2E2E2E2E2E2E2E2E2E2E2E2E2E2E2E2E2E2E2E2E2E2E2E2E2E2E2E2E2E2E2E2E2E2E2E2E2E2E2E2E2E2E2E2E2E2E2E2E2E2E2E2E2E2E2E2E2E2E2E2E2E2E2E2E2E2E2E2E2E2E2E2E2E2E2E2E2E2E2E2E2E2E2E2E2E2E2E2E2E2E2E2E2
310
E2E2E2E2E2E2E2E2E2E2E2E2E2E2E2E2E2E2E2E2E2E2E2E2E2E2E2E2E2E2E2E2E2E2E2E2E2E2E2E2E2E2E2E2E2E2E2E2E2E2E2E2E2E2E2E2E2E2E2E2E2E2E2E2E2E2E2E2E2E2E2E2E2E2E2E2E2E2E2E2E2E2E2E2E2E2E2E2E2E2E2E2E2E2E2E2E2E2E2E2E2E2E2E2E2E2E2E2E2E2E2E2E2E2E2E2E2E2E2E2E2E2E2E2E2E2E2
310
E2E2E2E2E2E2E2E2E2E2E2E2E2E2E2E2E2E2E2E2E2E2E2E2E2E2E2E2E2E2E2E2E2E2E2E2E2E2E2E2E2E2E2E2E2E2E2E2E2E2E2E2E2E2E2E2E2E2E2E2E2E2E2E2E2E2E2E2E2E2E2E2E2E2E2E2E2E2E2E2E2E2E2E2E2E2E2E2E2E2E2E2E2E2E2E2E2E2E2E2E2E2E2E2E2E2E2E2E2E2E2E2E2E2E2E2E2E2E2E2E2E2E2E2E2E2E2
310
E2E2E2E2E2E2E2E2E2E2E2E2E2E2E2E2E2E2E2E2E2E2E2E2E2E2E2E2E2E2E2E2E2E2E2E2E2E2E2E2E2E2E2E2E2E2E2E2E2E2E2E2E2E2E2E2E2E2E2E2E2E2E2E2E2E2E2E2E2E2E2E2E2E2E2E2E2E2E2E2E2E2E2E2E2E2E2E2E2E2E2E2E2E2E2E2E2E2E2E2E2E2E2E2E2E2E2E2E2E2E2E2E2E2E2E2E2E2E2E2E2E2E2E2E2E2E2
310
E2E2E2E2E2E2E2E2E2E2E2E2E2E2E2E2E2E2E2E2E2E2E2E2E2E2E2E2E2E2E2E2E2E2E2E2E2E2E2E2E2E2E2E2E2E2E2E2E2E2E2E2E2E2E2E2E2E2E2E2E2E2E2E2E2E2E2E2E2E2E2E2E2E2E2E2E2E2E2E2E2E2E2E2E2E2E2E2E2E2E2E2E2E2E2E2E2E2E2E2E2E2E2E2E2E2E2E2E2E2E2E2E2E2E2E2E2E2E2E2E2E2E2E2E2E2E2
310
E2E2E2E2E2E2E2E2E2E2E2E2E2E2E2E2E2E2E2E2E2E2E2E2E2E2E2E2E2E2E2E2E2E2E2E2E2E2E2E2E2E2E2E2E2E2E2E2E2E2E2E2E2E2E2E2E2E2E2E2E2E2E2E2E2E2E2E2E2E2E2E2E2E2E2E2E2E2E2E2E2E2E2E2E2E2E2E2E2E2E2E2E2E2E2E2E2E2E2E2E2E2E2E2E2E2E2E2E2E2E2E2E2E2E2E2E2E2E2E2E2E2E2E2E2E2E2
310
E2E2E2E2E2E2E2E2E2E2E2E2E2E2E2E2E2E2E2E2E2E2E2E2E2E2E2E2E2E2E2E2E2E2E2E2E2E2E2E2E2E2E2E2E2E2E2E2E2E2E2E2E2E2E2E2E2E2E2E2E2E2E2E2E2E2E2E2E2E2E2E2E2E2E2E2E2E2E2E2E2E2E2E2E2E2E2E2E2E2E2E2E2E2E2E2E2E2E2E2E2E2E2E2E2E2E2E2E2E2E2E2E2E2E2E2E2E2E2E2E2E2E2E2E2E2E2
310
E2E2E2E2E2E2E2E2E2E2E2E2E2E2E2E2E2E2E2E2E2E2E2E2E2E2E2E2E2E2E2E2E2E2E2E2E2E2E2E2E2E2E2E2E2E2E2E2E2E2E2E2E2E2E2E2E2E2E2E2E2E2E2E2E2E2E2E2E2E2E2E2E2E2E2E2E2E2E2E2E2E2E2E2E2E2E2E2E2E2E2E2E2E2E2E2E2E2E2E2E2E2E2E2E2E2E2E2E2E2E2E2E2E2E2E2E2E2E2E2E2E2E2E2E2E2E2
310
E2E2E2E2E2E2E2E2E2E2E2E2E2E2E2E2E2E2E2E2E2E2E2E2E2E2E2E2E2E2E2E2E2E2E2E2E2E2E2E2E2E2E2E2E2E2E2E2E2E2E2E2E2E2E2E2E2E2E2E2E2E2E2E2E2E2E2E2E2E2E2E2E2E2E2E2E2E2E2E2E2E2E2E2E2E2E2E2E2E2E2E2E2E2E2E2E2E2E2E2E2E2E2E2E2E2E2E2E2E2E2E2E2E2E2E2E2E2E2E2E2E2E2E2E2E2E2
310
E2E2E2E2E2E2E2E2E2E2E2E2E2E2E2E2E2E2E2E2E2E2E2E2E2E2E2E2E2E2E2E2E2E2E2E2E2E2E2E2E2E2E2E2E2E2E2E2E2E2E2E2E2E2E2E2E2E2E2E2E2E2E2E2E2E2E2E2E2E2E2E2E2E2E2E2E2E2E2E2E2E2E2E2E2E2E2E2E2E2E2E2E2E2E2E2E2E2E2E2E2E2E2E2E2E2E2E2E2E2E2E2E2E2E2E2E2E2E2E2E2E2E2E2E2E2E2
310
E2E2E2E2E2E2E2E2E2E2E2E2E2E2E2E2E2E2E2E2E2E2E2E2E2E2E2E2E2E2E2E2E2E2E2E2E2E2E2E2E2E2E2E2E2E2E2E2E2E2E2E2E2E2E2E2E2E2E2E2E2E2E2E2E2E2E2E2E2E2E2E2E2E2E2E2E2E2E2E2E2E2E2E2E2E2E2E2E2E2E2E2E2E2E2E2E2E2E2E2E2E2E2E2E2E2E2E2E2E2E2E2E2E2E2E2E2E2E2E2E2E2E2E2E2E2E2
310
E2E2E2E2E2E2E2E2E2E2E2E2E2E2E2E2E2E2E2E2E2E2E2E2E2E2E2E2E2E2E2E2E2E2E2E2E2E2E2E2E2E2E2E2E2E2E2E2E2E2E2E2E2E2E2E2E2E2E2E2E2E2E2E2E2E2E2E2E2E2E2E2E2E2E2E2E2E2E2E2E2E2E2E2E2E2E2E2E2E2E2E2E2E2E2E2E2E2E2E2E2E2E2E2E2E2E2E2E2E2E2E2E2E2E2E2E2E2E2E2E2E2E2E2E2E2E2
310
E2E2E2E2E2E2E2E2E2E2E2E2E2E2E2E2E2E2E2E2E2E2E2E2E2E2E2E2E2E2E2E2E2E2E2E2E2E2E2E2E2E2E2E2E2E2E2E2E2E2E2E2E2E2E2E2E2E2E2E2E2E2E2E2E2E2E2E2E2E2E2E2E2E2E2E2E2E2E2E2E2E2E2E2E2E2E2E2E2E2E2E2E2E2E2E2E2E2E2E2E2E2E2E2E2E2E2E2E2E2E2E2E2E2E2E2E2E2E2E2E2E2E2E2E2E2E2
310
E2E2E2E2E2E2E2E2E2E2E2E2E2E2E2E2E2E2E2E2E2E2E2E2E2E2E2E2E2E2E2E2E2E2E2E2E2E2E2E2E2E2E2E2E2E2E2E2E2E2E2E2E2E2E2E2E2E2E2E2E2E2E2E2E2E2E2E2E2E2E2E2E2E2E2E2E2E2E2E2E2E2E2E2E2E2E2E2E2E2E2E2E2E2E2E2E2E2E2E2E2E2E2E2E2E2E2E2E2E2E2E2E2E2E2E2E2E2E2E2E2E2E2E2E2E2E2
310
E2E2E2E2E2E2E2E2E2E2E2E2E2E2E2E2E2E2E2E2E2E2E2E2E2E2E2E2E2E2E2E2E2E2E2E2E2E2E2E2E2E2E2E2E2E2E2E2E2E2E2E2E2E2E2E2E2E2E2E2E2E2E2E2E2E2E2E2E2E2E2E2E2E2E2E2E2E2E2E2E2E2E2E2E2E2E2E2E2E2E2E2E2E2E2E2E2E2E2E2E2E2E2E2E2E2E2E2E2E2E2E2E2E2E2E2E2E2E2E2E2E2E2E2E2E2E2
310
E2E2E2E2E2E2E2E2E2E2E2E2E2E2E2E2E2E2E2E2E2E2E2E2E2E2E2E2E2E2E2E2E2E2E2E2E2E2E2E2E2E2E2E2E2E2E2E2E2E2E2E2E2E2E2E2E2E2E2E2E2E2E2E2E2E2E2E2E2E2E2E2E2E2E2E2E2E2E2E2E2E2E2E2E2E2E2E2E2E2E2E2E2E2E2E2E2E2E2E2E2E2E2E2E2E2E2E2E2E2E2E2E2E2E2E2E2E2E2E2E2E2E2E2E2E2E2
310
E2E2E2E2E2E2E2E2E2E2E2E2E2E2E2E2E2E2E2E2E2E2E2E2E2E2E2E2E2E2E2E2E2E2E2E2E2E2E2E2E2E2E2E2E2E2E2E2E2E2E2E2E2E2E2E2E2E2E2E2E2E2E2E2E2E2E2E2E2E2E2E2E2E2E2E2E2E2E2E2E2E2E2E2E2E2E2E2E2E2E2E2E2E2E2E2E2E2E2E2E2E2E2E2E2E2E2E2E2E2E2E2E2E2E2E2E2E2E2E2E2E2E2E2E2E2E2
310
E2E2E2E2E2E2E2E2E2E2E2E2E2E2E2E2E2E2E2E2E2E2E2E2E2E2E2E2E2E2E2E2E2E2E2E2E2E2E2E2E2E2E2E2E2E2E2E2E2E2E2E2E2E2E2E2E2E2E2E2E2E2E2E2E2E2E2E2E2E2E2E2E2E2E2E2E2E2E2E2E2E2E2E2E2E2E2E2E2E2E2E2E2E2E2E2E2E2E2E2E2E2E2E2E2E2E2E2E2E2E2E2E2E2E2E2E2E2E2E2E2E2E2E2E2E2E2
310
E2E2E2E2E2E2E2E2E2E2E2E2E2E2E2E2E2E2E2E2E2E2E2E2E2E2E2E2E2E2E2E2E2E2E2E2E2E2E2E2E2E2E2E2E2E2E2E2E2E2E2E2E2E2E2E2E2E2E2E2E2E2E2E2E2E2E2E2E2E2E2E2E2E2E2E2E2E2E2E2E2E2E2E2E2E2E2E2E2E2E2E2E2E2E2E2E2E2E2E2E2E2E2E2E2E2E2E2E2E2E2E2E2E2E2E2E2E2E2E2E2E2E2E2E2E2E2
310
E2E2E2E2E2E2E2E2E2E2E2E2E2E2E2E2E2E2E2E2E2E2E2E2E2E2E2E2E2E2E2E2E2E2E2E2E2E2E2E2E2E2E2E2E2E2E2E2E2E2E2E2E2E2E2E2E2E2E2E2E2E2E2E2E2E2E2E2E2E2E2E2E2E2E2E2E2E2E2E2E2E2E2E2E2E2E2E2E2E2E2E2E2E2E2E2E2E2E2E2E2E2E2E2E2E2E2E2E2E2E2E2E2E2E2E2E2E2E2E2E2E2E2E2E2E2E2
310
E2E2E2E2E2E2E2E2E2E2E2E2E2E2E2E2E2E2E2E2E2E2E2E2E2E2E2E2E2E2E2E2E2E2E2E2E2E2E2E2E2E2E2E2E2E2E2E2E2E2E2E2E2E2E2E2E2E2E2E2E2E2E2E2E2E2E2E2E2E2E2E2E2E2E2E2E2E2E2E2E2E2E2E2E2E2E2E2E2E2E2E2E2E2E2E2E2E2E2E2E2E2E2E2E2E2E2E2E2E2E2E2E2E2E2E2E2E2E2E2E2E2E2E2E2E2E2
310
E2E2E2E2E2E2E2E2E2E2E2E2E2E2E2E2E2E2E2E2E2E2E2E2E2E2E2E2E2E2E2E2E2E2E2E2E2E2E2E2E2E2E2E2E2E2E2E2E2E2E2E2E2E2E2E2E2E2E2E2E2E2E2E2E2E2E2E2E2E2E2E2E2E2E2E2E2E2E2E2E2E2E2E2E2E2E2E2E2E2E2E2E2E2E2E2E2E2E2E2E2E2E2E2E2E2E2E2E2E2E2E2E2E2E2E2E2E2E2E2E2E2E2E2E2E2E2
310
E2E2E2E2E2E2E2E2E2E2E2E2E2E2E2E2E2E2E2E2E2E2E2E2E2E2E2E2E2E2E2E2E2E2E2E2E2E2E2E2E2E2E2E2E2E2E2E2E2E2E2E2E2E2E2E2E2E2E2E2E2E2E2E2E2E2E2E2E2E2E2E2E2E2E2E2E2E2E2E2E2E2E2E2E2E2E2E2E2E2E2E2E2E2E2E2E2E2E2E2E2E2E2E2E2E2E2E2E2E2E2E2E2E2E2E2E2E2E2E2E2E2E2E2E2E2E2
310
E2E2E2E2E2E2E2E2E2E2E2E2E2E2E2E2E2E2E2E2E2E2E2E2E2E2E2E2E2E2E2E2E2E2E2E2E2E2E2E2E2E2E2E2E2E2E2E2E2E2E2E2E2E2E2E2E2E2E2E2E2E2E2E2E2E2E2E2E2E2E2E2E2E2E2E2E2E2E2E2E2E2E2E2E2E2E2E2E2E2E2E2E2E2E2E2E2E2E2E2E2E2E2E2E2E2E2E2E2E2E2E2E2E2E2E2E2E2E2E2E2E2E2E2E2E2E2
310
E2E2E2E2E2E2E2E2E2E2E2E2E2E2E2E2E2E2E2E2E2E2E2E2E2E2E2E2E2E2E2E2E2E2E2E2E2E2E2E2E2E2E2E2E2E2E2E2E2E2E2E2E2E2E2E2E2E2E2E2E2E2E2E2E2E2E2E2E2E2E2E2E2E2E2E2E2E2E2E2E2E2E2E2E2E2E2E2E2E2E2E2E2E2E2E2E2E2E2E2E2E2E2E2E2E2E2E2E2E2E2E2E2E2E2E2E2E2E2E2E2E2E2E2E2E2E2
310
E2E2E2E2E2E2E2E2E2E2E2E2E2E2E2E2E2E2E2E2E2E2E2E2E2E2E2E2E2E2E2E2E2E2E2E2E2E2E2E2E2E2E2E2E2E2E2E2E2E2E2E2E2E2E2E2E2E2E2E2E2E2E2E2E2E2E2E2E2E2E2E2E2E2E2E2E2E2E2E2E2E2E2E2E2E2E2E2E2E2E2E2E2E2E2E2E2E2E2E2E2E2E2E2E2E2E2E2E2E2E2E2E2E2E2E2E2E2E2E2E2E2E2E2E2E2E2
310
E2E2E2E2E2E2E2E2E2E2E2E2E2E2E2E2E2E2E2E2E2E2E2E2E2E2E2E2E2E2E2E2E2E2E2E2E2E2E2E2E2E2E2E2E2E2E2E2E2E2E2E2E2E2E2E2E2E2E2E2E2E2E2E2E2E2E2E2E2E2E2E2E2E2E2E2E2E2E2E2E2E2E2E2E2E2E2E2E2E2E2E2E2E2E2E2E2E2E2E2E2E2E2E2E2E2E2E2E2E2E2E2E2E2E2E2E2E2E2E2E2E2E2E2E2E2E2
310
E2E2E2E2E2E2E2E2E2E2E2E2E2E2E2E2E2E2E2E2E2E2E2E2E2E2E2E2E2E2E2E2E2E2E2E2E2E2E2E2E2E2E2E2E2E2E2E2E2E2E2E2E2E2E2E2E2E2E2E2E2E2E2E2E2E2E2E2E2E2E2E2E2E2E2E2E2E2E2E2E2E2E2E2E2E2E2E2E2E2E2E2E2E2E2E2E2E2E2E2E2E2E2E2E2E2E2E2E2E2E2E2E2E2E2E2E2E2E2E2E2E2E2E2E2E2E2
310
E2E2E2E2E2E2E2E2E2E2E2E2E2E2E2E2E2E2E2E2E2E2E2E2E2E2E2E2E2E2E2E2E2E2E2E2E2E2E2E2E2E2E2E2E2E2E2E2E2E2E2E2E2E2E2E2E2E2E2E2E2E2E2E2E2E2E2E2E2E2E2E2E2E2E2E2E2E2E2E2E2E2E2E2E2E2E2E2E2E2E2E2E2E2E2E2E2E2E2E2E2E2E2E2E2E2E2E2E2E2E2E2E2E2E2E2E2E2E2E2E2E2E2E2E2E2E2
310
E2E2E2E2E2E2E2E2E2E2E2E2E2E2E2E2E2E2E2E2E2E2E2E2E2E2E2E2E2E2E2E2E2E2E2E2E2E2E2E2E2E2E2E2E2E2E2E2E2E2E2E2E2E2E2E2E2E2E2E2E2E2E2E2E2E2E2E2E2E2E2E2E2E2E2E2E2E2E2E2E2E2E2E2E2E2E2E2E2E2E2E2E2E2E2E2E2E2E2E2E2E2E2E2E2E2E2E2E2E2E2E2E2E2E2E2E2E2E2E2E2E2E2E2E2E2E2
310
E2E2E2E2E2E2E2E2E2E2E2E2E2E2E2E2E2E2E2E2E2E2E2E2E2E2E2E2E2E2E2E2E2E2E2E2E2E2E2E2E2E2E2E2E2E2E2E2E2E2E2E2E2E2E2E2E2E2E2E2E2E2E2E2E2E2E2E2E2E2E2E2E2E2E2E2E2E2E2E2E2E2E2E2E2E2E2E2E2E2E2E2E2E2E2E2E2E2E2E2E2E2E2E2E2E2E2E2E2E2E2E2E2E2E2E2E2E2E2E2E2E2E2E2E2E2E2
310
E2E2E2E2E2E2E2E2E2E2E2E2E2E2E2E2E2E2E2E2E2E2E2E2E2E2E2E2E2E2E2E2E2E2E2E2E2E2E2E2E2E2E2E2E2E2E2E2E2E2E2E2E2E2E2E2E2E2E2E2E2E2E2E2E2E2E2E2E2E2E2E2E2E2E2E2E2E2E2E2E2E2E2E2E2E2E2E2E2E2E2E2E2E2E2E2E2E2E2E2E2E2E2E2E2E2E2E2E2E2E2E2E2E2E2E2E2E2E2E2E2E2E2E2E2E2E2
310
E2E2E2E2E2E2E2E2E2E2E2E2E2E2E2E2E2E2E2E2E2E2E2E2E2E2E2E2E2E2E2E2E2E2E2E2E2E2E2E2E2E2E2E2E2E2E2E2E2E2E2E2E2E2E2E2E2E2E2E2E2E2E2E2E2E2E2E2E2E2E2E2E2E2E2E2E2E2E2E2E2E2E2E2E2E2E2E2E2E2E2E2E2E2E2E2E2E2E2E2E2E2E2E2E2E2E2E2E2E2E2E2E2E2E2E2E2E2E2E2E2E2E2E2E2E2E2
310
E2E2E2E2E2E2E2E2E2E2E2E2E2E2E2E2E2E2E2E2E2E2E2E2E2E2E2E2E2E2E2E2E2E2E2E2E2E2E2E2E2E2E2E2E2E2E2E2E2E2E2E2E2E2E2E2E2E2E2E2E2E2E2E2E2E2E2E2E2E2E2E2E2E2E2E2E2E2E2E2E2E2E2E2E2E2E2E2E2E2E2E2E2E2E2E2E2E2E2E2E2E2E2E2E2E2E2E2E2E2E2E2E2E2E2E2E2E2E2E2E2E2E2E2E2E2E2
310
E2E2E2E2E2E2E2E2E2E2E2E2E2E2E2E2E2E2E2E2E2E2E2E2E2E2E2E2E2E2E2E2E2E2E2E2E2E2E2E2E2E2E2E2E2E2E2E2E2E2E2E2E2E2E2E2E2E2E2E2E2E2E2E2E2E2E2E2E2E2E2E2E2E2E2E2E2E2E2E2E2E2E2E2E2E2E2E2E2E2E2E2E2E2E2E2E2E2E2E2E2E2E2E2E2E2E2E2E2E2E2E2E2E2E2E2E2E2E2E2E2E2E2E2E2E2E2
310
E2E2E2E2E2E2E2E2E2E2E2E2E2E2E2E2E2E2E2E2E2E2E2E2E2E2E2E2E2E2E2E2E2E2E2E2E2E2E2E2E2E2E2E2E2E2E2E2E2E2E2E2E2E2E2E2E2E2E2E2E2E2E2E2E2E2E2E2E2E2E2E2E2E2E2E2E2E2E2E2E2E2E2E2E2E2E2E2E2E2E2E2E2E2E2E2E2E2E2E2E2E2E2E2E2E2E2E2E2E2E2E2E2E2E2E2E2E2E2E2E2E2E2E2E2E2E2
310
E2E2E2E2E2E2E2E2E2E2E2E2E2E2E2E2E2E2E2E2E2E2E2E2E2E2E2E2E2E2E2E2E2E2E2E2E2E2E2E2E2E2E2E2E2E2E2E2E2E2E2E2E2E2E2E2E2E2E2E2E2E2E2E2E2E2E2E2E2E2E2E2E2E2E2E2E2E2E2E2E2E2E2E2E2E2E2E2E2E2E2E2E2E2E2E2E2E2E2E2E2E2E2E2E2E2E2E2E2E2E2E2E2E2E2E2E2E2E2E2E2E2E2E2E2E2E2
310
E2E2E2E2E2E2E2E2E2E2E2E2E2E2E2E2E2E2E2E2E2E2E2E2E2E2E2E2E2E2E2E2E2E2E2E2E2E2E2E2E2E2E2E2E2E2E2E2E2E2E2E2E2E2E2E2E2E2E2E2E2E2E2E2E2E2E2E2E2E2E2E2E2E2E2E2E2E2E2E2E2E2E2E2E2E2E2E2E2E2E2E2E2E2E2E2E2E2E2E2E2E2E2E2E2E2E2E2E2E2E2E2E2E2E2E2E2E2E2E2E2E2E2E2E2E2E2
310
E2E2E2E2E2E2E2E2E2E2E2E2E2E2E2E2E2E2E2E2E2E2E2E2E2E2E2E2E2E2E2E2E2E2E2E2E2E2E2E2E2E2E2E2E2E2E2E2E2E2E2E2E2E2E2E2E2E2E2E2E2E2E2E2E2E2E2E2E2E2E2E2E2E2E2E2E2E2E2E2E2E2E2E2E2E2E2E2E2E2E2E2E2E2E2E2E2E2E2E2E2E2E2E2E2E2E2E2E2E2E2E2E2E2E2E2E2E2E2E2E2E2E2E2E2E2E2
310
E2E2E2E2E2E2E2E2E2E2E2E2E2E2E2E2E2E2E2E2E2E2E2E2E2E2E2E2E2E2E2E2E2E2E2E2E2E2E2E2E2E2E2E2E2E2E2E2E2E2E2E2E2E2E2E2E2E2E2E2E2E2E2E2E2E2E2E2E2E2E2E2E2E2E2E2E2E2E2E2E2E2E2E2E2E2E2E2E2E2E2E2E2E2E2E2E2E2E2E2E2E2E2E2E2E2E2E2E2E2E2E2E2E2E2E2E2E2E2E2E2E2E2E2E2E2E2
310
E2E2E2E2E2E2E2E2E2E2E2E2E2E2E2E2E2E2E2E2E2E2E2E2E2E2E2E2E2E2E2E2E2E2E2E2E2E2E2E2E2E2E2E2E2E2E2E2E2E2E2E2E2E2E2E2E2E2E2E2E2E2E2E2E2E2E2E2E2E2E2E2E2E2E2E2E2E2E2E2E2E2E2E2E2E2E2E2E2E2E2E2E2E2E2E2E2E2E2E2E2E2E2E2E2E2E2E2E2E2E2E2E2E2E2E2E2E2E2E2E2E2E2E2E2E2E2
310
E2E2E2E2E2E2E2E2E2E2E2E2E2E2E2E2E2E2E2E2E2E2E2E2E2E2E2E2E2E2E2E2E2E2E2E2E2E2E2E2E2E2E2E2E2E2E2E2E2E2E2E2E2E2E2E2E2E2E2E2E2E2E2E2E2E2E2E2E2E2E2E2E2E2E2E2E2E2E2E2E2E2E2E2E2E2E2E2E2E2E2E2E2E2E2E2E2E2E2E2E2E2E2E2E2E2E2E2E2E2E2E2E2E2E2E2E2E2E2E2E2E2E2E2E2E2E2
310
E2E2E2E2E2E2E2E2E2E2E2E2E2E2E2E2E2E2E2E2E2E2E2E2E2E2E2E2E2E2E2E2E2E2E2E2E2E2E2E2E2E2E2E2E2E2E2E2E2E2E2E2E2E2E2E2E2E2E2E2E2E2E2E2E2E2E2E2E2E2E2E2E2E2E2E2E2E2E2E2E2E2E2E2E2E2E2E2E2E2E2E2E2E2E2E2E2E2E2E2E2E2E2E2E2E2E2E2E2E2E2E2E2E2E2E2E2E2E2E2E2E2E2E2E2E2E2
310
E2E2E2E2E2E2E2E2E2E2E2E2E2E2E2E2E2E2E2E2E2E2E2E2E2E2E2E2E2E2E2E2E2E2E2E2E2E2E2E2E2E2E2E2E2E2E2E2E2E2E2E2E2E2E2E2E2E2E2E2E2E2E2E2E2E2E2E2E2E2E2E2E2E2E2E2E2E2E2E2E2E2E2E2E2E2E2E2E2E2E2E2E2E2E2E2E2E2E2E2E2E2E2E2E2E2E2E2E2E2E2E2E2E2E2E2E2E2E2E2E2E2E2E2E2E2E2
310
E2E2E2E2E2E2E2E2E2E2E2E2E2E2E2E2E2E2E2E2E2E2E2E2E2E2E2E2E2E2E2E2E2E2E2E2E2E2E2E2E2E2E2E2E2E2E2E2E2E2E2E2E2E2E2E2E2E2E2E2E2E2E2E2E2E2E2E2E2E2E2E2E2E2E2E2E2E2E2E2E2E2E2E2E2E2E2E2E2E2E2E2E2E2E2E2E2E2E2E2E2E2E2E2E2E2E2E2E2E2E2E2E2E2E2E2E2E2E2E2E2E2E2E2E2E2E2
310
E2E2E2E2E2E2E2E2E2E2E2E2E2E2E2E2E2E2E2E2E2E2E2E2E2E2E2E2E2E2E2E2E2E2E2E2E2E2E2E2E2E2E2E2E2E2E2E2E2E2E2E2E2E2E2E2E2E2E2E2E2E2E2E2E2E2E2E2E2E2E2E2E2E2E2E2E2E2E2E2E2E2E2E2E2E2E2E2E2E2E2E2E2E2E2E2E2E2E2E2E2E2E2E2E2E2E2E2E2E2E2E2E2E2E2E2E2E2E2E2E2E2E2E2E2E2E2
310
E2E2E2E2E2E2E2E2E2E2E2E2E2E2E2E2E2E2E2E2E2E2E2E2E2E2E2E2E2E2E2E2E2E2E2E2E2E2E2E2E2E2E2E2E2E2E2E2E2E2E2E2E2E2E2E2E2E2E2E2E2E2E2E2E2E2E2E2E2E2E2E2E2E2E2E2E2E2E2E2E2E2E2E2E2E2E2E2E2E2E2E2E2E2E2E2E2E2E2E2E2E2E2E2E2E2E2E2E2E2E2E2E2E2E2E2E2E2E2E2E2E2E2E2E2E2E2
310
E2E2E2E2E2E2E2E2E2E2E2E2E2E2E2E2E2E2E2E2E2E2E2E2E2E2E2E2E2E2E2E2E2E2E2E2E2E2E2E2E2E2E2E2E2E2E2E2E2E2E2E2E2E2E2E2E2E2E2E2E2E2E2E2E2E2E2E2E2E2E2E2E2E2E2E2E2E2E2E2E2E2E2E2E2E2E2E2E2E2E2E2E2E2E2E2E2E2E2E2E2E2E2E2E2E2E2E2E2E2E2E2E2E2E2E2E2E2E2E2E2E2E2E2E2E2E2
310
E2E2E2E2E2E2E2E2E2E2E2E2E2E2E2E2E2E2E2E2E2E2E2E2E2E2E2E2E2E2E2E2E2E2E2E2E2E2E2E2E2E2E2E2E2E2E2E2E2E2E2E2E2E2E2E2E2E2E2E2E2E2E2E2E2E2E2E2E2E2E2E2E2E2E2E2E2E2E2E2E2E2E2E2E2E2E2E2E2E2E2E2E2E2E2E2E2E2E2E2E2E2E2E2E2E2E2E2E2E2E2E2E2E2E2E2E2E2E2E2E2E2E2E2E2E2E2
310
E2E2E2E2E2E2E2E2E2E2E2E2E2E2E2E2E2E2E2E2E2E2E2E2E2E2E2E2E2E2E2E2E2E2E2E2E2E2E2E2E2E2E2E2E2E2E2E2E2E2E2E2E2E2E2E2E2E2E2E2E2E2E2E2E2E2E2E2E2E2E2E2E2E2E2E2E2E2E2E2E2E2E2E2E2E2E2E2E2E2E2E2E2E2E2E2E2E2E2E2E2E2E2E2E2E2E2E2E2E2E2E2E2E2E2E2E2E2E2E2E2E2E2E2E2E2E2
310
E2E2E2E2E2E2E2E2E2E2E2E2E2E2E2E2E2E2E2E2E2E2E2E2E2E2E2E2E2E2E2E2E2E2E2E2E2E2E2E2E2E2E2E2E2E2E2E2E2E2E2E2E2E2E2E2E2E2E2E2E2E2E2E2E2E2E2E2E2E2E2E2E2E2E2E2E2E2E2E2E2E2E2E2E2E2E2E2E2E2E2E2E2E2E2E2E2E2E2E2E2E2E2E2E2E2E2E2E2E2E2E2E2E2E2E2E2E2E2E2E2E2E2E2E2E2E2
310
E2E2E2E2E2E2E2E2E2E2E2E2E2E2E2E2E2E2E2E2E2E2E2E2E2E2E2E2E2E2E2E2E2E2E2E2E2E2E2E2E2E2E2E2E2E2E2E2E2E2E2E2E2E2E2E2E2E2E2E2E2E2E2E2E2E2E2E2E2E2E2E2E2E2E2E2E2E2E2E2E2E2E2E2E2E2E2E2E2E2E2E2E2E2E2E2E2E2E2E2E2E2E2E2E2E2E2E2E2E2E2E2E2E2E2E2E2E2E2E2E2E2E2E2E2E2E2
310
E2E2E2E2E2E2E2E2E2E2E2E2E2E2E2E2E2E2E2E2E2E2E2E2E2E2E2E2E2E2E2E2E2E2E2E2E2E2E2E2E2E2E2E2E2E2E2E2E2E2E2E2E2E2E2E2E2E2E2E2E2E2E2E2E2E2E2E2E2E2E2E2E2E2E2E2E2E2E2E2E2E2E2E2E2E2E2E2E2E2E2E2E2E2E2E2E2E2E2E2E2E2E2E2E2E2E2E2E2E2E2E2E2E2E2E2E2E2E2E2E2E2E2E2E2E2E2
310
E2E2E2E2E2E2E2E2E2E2E2E2E2E2E2E2E2E2E2E2E2E2E2E2E2E2E2E2E2E2E2E2E2E2E2E2E2E2E2E2E2E2E2E2E2E2E2E2E2E2E2E2E2E2E2E2E2E2E2E2E2E2E2E2E2E2E2E2E2E2E2E2E2E2E2E2E2E2E2E2E2E2E2E2E2E2E2E2E2E2E2E2E2E2E2E2E2E2E2E2E2E2E2E2E2E2E2E2E2E2E2E2E2E2E2E2E2E2E2E2E2E2E2E2E2E2E2
310
E2E2E2E2E2E2E2E2E2E2E2E2E2E2E2E2E2E2E2E2E2E2E2E2E2E2E2E2E2E2E2E2E2E2E2E2E2E2E2E2E2E2E2E2E2E2E2E2E2E2E2E2E2E2E2E2E2E2E2E2E2E2E2E2E2E2E2E2E2E2E2E2E2E2E2E2E2E2E2E2E2E2E2E2E2E2E2E2E2E2E2E2E2E2E2E2E2E2E2E2E2E2E2E2E2E2E2E2E2E2E2E2E2E2E2E2E2E2E2E2E2E2E2E2E2E2E2
310
E2E2E2E2E2E2E2E2E2E2E2E2E2E2E2E2E2E2E2E2E2E2E2E2E2E2E2E2E2E2E2E2E2E2E2E2E2E2E2E2E2E2E2E2E2E2E2E2E2E2E2E2E2E2E2E2E2E2E2E2E2E2E2E2E2E2E2E2E2E2E2E2E2E2E2E2E2E2E2E2E2E2E2E2E2E2E2E2E2E2E2E2E2E2E2E2E2E2E2E2E2E2E2E2E2E2E2E2E2E2E2E2E2E2E2E2E2E2E2E2E2E2E2E2E2E2E2
310
E2E2E2E2E2E2E2E2E2E2E2E2E2E2E2E2E2E2E2E2E2E2E2E2E2E2E2E2E2E2E2E2E2E2E2E2E2E2E2E2E2E2E2E2E2E2E2E2E2E2E2E2E2E2E2E2E2E2E2E2E2E2E2E2E2E2E2E2E2E2E2E2E2E2E2E2E2E2E2E2E2E2E2E2E2E2E2E2E2E2E2E2E2E2E2E2E2E2E2E2E2E2E2E2E2E2E2E2E2E2E2E2E2E2E2E2E2E2E2E2E2E2E2E2E2E2E2
310
E2E2E2E2E2E2E2E2E2E2E2E2E2E2E2E2E2E2E2E2E2E2E2E2E2E2E2E2E2E2E2E2E2E2E2E2E2E2E2E2E2E2E2E2E2E2E2E2E2E2E2E2E2E2E2E2E2E2E2E2E2E2E2E2E2E2E2E2E2E2E2E2E2E2E2E2E2E2E2E2E2E2E2E2E2E2E2E2E2E2E2E2E2E2E2E2E2E2E2E2E2E2E2E2E2E2E2E2E2E2E2E2E2E2E2E2E2E2E2E2E2E2E2E2E2E2E2
310
E2E2E2E2E2E2E2E2E2E2E2E2E2E2E2E2E2E2E2E2E2E2E2E2E2E2E2E2E2E2E2E2E2E2E2E2E2E2E2E2E2E2E2E2E2E2E2E2E2E2E2E2E2E2E2E2E2E2E2E2E2E2E2E2E2E2E2E2E2E2E2E2E2E2E2E2E2E2E2E2E2E2E2E2E2E2E2E2E2E2E2E2E2E2E2E2E2E2E2E2E2E2E2E2E2E2E2E2E2E2E2E2E2E2E2E2E2E2E2E2E2E2E2E2E2E2E2
310
E2E2E2E2E2E2E2E2E2E2E2E2E2E2E2E2E2E2E2E2E2E2E2E2E2E2E2E2E2E2E2E2E2E2E2E2E2E2E2E2E2E2E2E2E2E2E2E2E2E2E2E2E2E2E2E2E2E2E2E2E2E2E2E2E2E2E2E2E2E2E2E2E2E2E2E2E2E2E2E2E2E2E2E2E2E2E2E2E2E2E2E2E2E2E2E2E2E2E2E2E2E2E2E2E2E2E2E2E2E2E2E2E2E2E2E2E2E2E2E2E2E2E2E2E2E2E2
310
E2E2E2E2E2E2E2E2E2E2E2E2E2E2E2E2E2E2E2E2E2E2E2E2E2E2E2E2E2E2E2E2E2E2E2E2E2E2E2E2E2E2E2E2E2E2E2E2E2E2E2E2E2E2E2E2E2E2E2E2E2E2E2E2E2E2E2E2E2E2E2E2E2E2E2E2E2E2E2E2E2E2E2E2E2E2E2E2E2E2E2E2E2E2E2E2E2E2E2E2E2E2E2E2E2E2E2E2E2E2E2E2E2E2E2E2E2E2E2E2E2E2E2E2E2E2E2
310
E2E2E2E2E2E2E2E2E2E2E2E2E2E2E2E2E2E2E2E2E2E2E2E2E2E2E2E2E2E2E2E2E2E2E2E2E2E2E2E2E2E2E2E2E2E2E2E2E2E2E2E2E2E2E2E2E2E2E2E2E2E2E2E2E2E2E2E2E2E2E2E2E2E2E2E2E2E2E2E2E2E2E2E2E2E2E2E2E2E2E2E2E2E2E2E2E2E2E2E2E2E2E2E2E2E2E2E2E2E2E2E2E2E2E2E2E2E2E2E2E2E2E2E2E2E2E2
310
E2E2E2E2E2E2E2E2E2E2E2E2E2E2E2E2E2E2E2E2E2E2E2E2E2E2E2E2E2E2E2E2E2E2E2E2E2E2E2E2E2E2E2E2E2E2E2E2E2E2E2E2E2E2E2E2E2E2E2E2E2E2E2E2E2E2E2E2E2E2E2E2E2E2E2E2E2E2E2E2E2E2E2E2E2E2E2E2E2E2E2E2E2E2E2E2E2E2E2E2E2E2E2E2E2E2E2E2E2E2E2E2E2E2E2E2E2E2E2E2E2E2E2E2E2E2E2
310
E2E2E2E2E2E2E2E2E2E2E2E2E2E2E2E2E2E2E2E2E2E2E2E2E2E2E2E2E2E2E2E2E2E2E2E2E2E2E2E2E2E2E2E2E2E2E2E2E2E2E2E2E2E2E2E2E2E2E2E2E2E2E2E2E2E2E2E2E2E2E2E2E2E2E2E2E2E2E2E2E2E2E2E2E2E2E2E2E2E2E2E2E2E2E2E2E2E2E2E2E2E2E2E2E2E2E2E2E2E2E2E2E2E2E2E2E2E2E2E2E2E2E2E2E2E2E2
310
E2E2E2E2E2E2E2E2E2E2E2E2E2E2E2E2E2E2E2E2E2E2E2E2E2E2E2E2E2E2E2E2E2E2E2E2E2E2E2E2E2E2E2E2E2E2E2E2E2E2E2E2E2E2E2E2E2E2E2E2E2E2E2E2E2E2E2E2E2E2E2E2E2E2E2E2E2E2E2E2E2E2E2E2E2E2E2E2E2E2E2E2E2E2E2E2E2E2E2E2E2E2E2E2E2E2E2E2E2E2E2E2E2E2E2E2E2E2E2E2E2E2E2E2E2E2E2
310
E2E2E2E2E2E2E2E2E2E2E2E2E2E2E2E2E2E2E2E2E2E2E2E2E2E2E2E2E2E2E2E2E2E2E2E2E2E2E2E2E2E2E2E2E2E2E2E2E2E2E2E2E2E2E2E2E2E2E2E2E2E2E2E2E2E2E2E2E2E2E2E2E2E2E2E2E2E2E2E2E2E2E2E2E2E2E2E2E2E2E2E2E2E2E2E2E2E2E2E2E2E2E2E2E2E2E2E2E2E2E2E2E2E2E2E2E2E2E2E2E2E2E2E2E2E2E2
310
E2E2E2E2E2E2E2E2E2E2E2E2E2E2E2E2E2E2E2E2E2E2E2E2E2E2E2E2E2E2E2E2E2E2E2E2E2E2E2E2E2E2E2E2E2E2E2E2E2E2E2E2E2E2E2E2E2E2E2E2E2E2E2E2E2E2E2E2E2E2E2E2E2E2E2E2E2E2E2E2E2E2E2E2E2E2E2E2E2E2E2E2E2E2E2E2E2E2E2E2E2E2E2E2E2E2E2E2E2E2E2E2E2E2E2E2E2E2E2E2E2E2E2E2E2E2E2
310
E2E2E2E2E2E2E2E2E2E2E2E2E2E2E2E2E2E2E2E2E2E2E2E2E2E2E2E2E2E2E2E2E2E2E2E2E2E2E2E2E2E2E2E2E2E2E2E2E2E2E2E2E2E2E2E2E2E2E2E2E2E2E2E2E2E2E2E2E2E2E2E2E2E2E2E2E2E2E2E2E2E2E2E2E2E2E2E2E2E2E2E2E2E2E2E2E2E2E2E2E2E2E2E2E2E2E2E2E2E2E2E2E2E2E2E2E2E2E2E2E2E2E2E2E2E2E2
310
E2E2E2E2E2E2E2E2E2E2E2E2E2E2E2E2E2E2E2E2E2E2E2E2E2E2E2E2E2E2E2E2E2E2E2E2E2E2E2E2E2E2E2E2E2E2E2E2E2E2E2E2E2E2E2E2E2E2E2E2E2E2E2E2E2E2E2E2E2E2E2E2E2E2E2E2E2E2E2E2E2E2E2E2E2E2E2E2E2E2E2E2E2E2E2E2E2E2E2E2E2E2E2E2E2E2E2E2E2E2E2E2E2E2E2E2E2E2E2E2E2E2E2E2E2E2E2
310
E2E2E2E2E2E2E2E2E2E2E2E2E2E2E2E2E2E2E2E2E2E2E2E2E2E2E2E2E2E2E2E2E2E2E2E2E2E2E2E2E2E2E2E2E2E2E2E2E2E2E2E2E2E2E2E2E2E2E2E2E2E2E2E2E2E2E2E2E2E2E2E2E2E2E2E2E2E2E2E2E2E2E2E2E2E2E2E2E2E2E2E2E2E2E2E2E2E2E2E2E2E2E2E2E2E2E2E2E2E2E2E2E2E2E2E2E2E2E2E2E2E2E2E2E2E2E2
310
E2E2E2E2E2E2E2E2E2E2E2E2E2E2E2E2E2E2E2E2E2E2E2E2E2E2E2E2E2E2E2E2E2E2E2E2E2E2E2E2E2E2E2E2E2E2E2E2E2E2E2E2E2E2E2E2E2E2E2E2E2E2E2E2E2E2E2E2E2E2E2E2E2E2E2E2E2E2E2E2E2E2E2E2E2E2E2E2E2E2E2E2E2E2E2E2E2E2E2E2E2E2E2E2E2E2E2E2E2E2E2E2E2E2E2E2E2E2E2E2E2E2E2E2E2E2E2
310
E2E2E2E2E2E2E2E2E2E2E2E2E2E2E2E2E2E2E2E2E2E2E2E2E2E2E2E2E2E2E2E2E2E2E2E2E2E2E2E2E2E2E2E2E2E2E2E2E2E2E2E2E2E2E2E2E2E2E2E2E2E2E2E2E2E2E2E2E2E2E2E2E2E2E2E2E2E2E2E2E2E2E2E2E2E2E2E2E2E2E2E2E2E2E2E2E2E2E2E2E2E2E2E2E2E2E2E2E2E2E2E2E2E2E2E2E2E2E2E2E2E2E2E2E2E2E2
310
E2E2E2E2E2E2E2E2E2E2E2E2E2E2E2E2E2E2E2E2E2E2E2E2E2E2E2E2E2E2E2E2E2E2E2E2E2E2E2E2E2E2E2E2E2E2E2E2E2E2E2E2E2E2E2E2E2E2E2E2E2E2E2E2E2E2E2E2E2E2E2E2E2E2E2E2E2E2E2E2E2E2E2E2E2E2E2E2E2E2E2E2E2E2E2E2E2E2E2E2E2E2E2E2E2E2E2E2E2E2E2E2E2E2E2E2E2E2E2E2E2E2E2E2E2E2E2
310
E2E2E2E2E2E2E2E2E2E2E2E2E2E2E2E2E2E2E2E2E2E2E2E2E2E2E2E2E2E2E2E2E2E2E2E2E2E2E2E2E2E2E2E2E2E2E2E2E2E2E2E2E2E2E2E2E2E2E2E2E2E2E2E2E2E2E2E2E2E2E2E2E2E2E2E2E2E2E2E2E2E2E2E2E2E2E2E2E2E2E2E2E2E2E2E2E2E2E2E2E2E2E2E2E2E2E2E2E2E2E2E2E2E2E2E2E2E2E2E2E2E2E2E2E2E2E2
310
E2E2E2E2E2E2E2E2E2E2E2E2E2E2E2E2E2E2E2E2E2E2E2E2E2E2E2E2E2E2E2E2E2E2E2E2E2E2E2E2E2E2E2E2E2E2E2E2E2E2E2E2E2E2E2E2E2E2E2E2E2E2E2E2E2E2E2E2E2E2E2E2E2E2E2E2E2E2E2E2E2E2E2E2E2E2E2E2E2E2E2E2E2E2E2E2E2E2E2E2E2E2E2E2E2E2E2E2E2E2E2E2E2E2E2E2E2E2E2E2E2E2E2E2E2E2E2
310
E2E2E2E2E2E2E2E2E2E2E2E2E2E2E2E2E2E2E2E2E2E2E2E2E2E2E2E2E2E2E2E2E2E2E2E2E2E2E2E2E2E2E2E2E2E2E2E2E2E2E2E2E2E2E2E2E2E2E2E2E2E2E2E2E2E2E2E2E2E2E2E2E2E2E2E2E2E2E2E2E2E2E2E2E2E2E2E2E2E2E2E2E2E2E2E2E2E2E2E2E2E2E2E2E2E2E2E2E2E2E2E2E2E2E2E2E2E2E2E2E2E2E2E2E2E2E2
310
E2E2E2E2E2E2E2E2E2E2E2E2E2E2E2E2E2E2E2E2E2E2E2E2E2E2E2E2E2E2E2E2E2E2E2E2E2E2E2E2E2E2E2E2E2E2E2E2E2E2E2E2E2E2E2E2E2E2E2E2E2E2E2E2E2E2E2E2E2E2E2E2E2E2E2E2E2E2E2E2E2E2E2E2E2E2E2E2E2E2E2E2E2E2E2E2E2E2E2E2E2E2E2E2E2E2E2E2E2E2E2E2E2E2E2E2E2E2E2E2E2E2E2E2E2E2E2
310
E2E2E2E2E2E2E2E2E2E2E2E2E2E2E2E2E2E2E2E2E2E2E2E2E2E2E2E2E2E2E2E2E2E2E2E2E2E2E2E2E2E2E2E2E2E2E2E2E2E2E2E2E2E2E2E2E2E2E2E2E2E2E2E2E2E2E2E2E2E2E2E2E2E2E2E2E2E2E2E2E2E2E2E2E2E2E2E2E2E2E2E2E2E2E2E2E2E2E2E2E2E2E2E2E2E2E2E2E2E2E2E2E2E2E2E2E2E2E2E2E2E2E2E2E2E2E2
310
E2E2E2E2E2E2E2E2E2E2E2E2E2E2E2E2E2E2E2E2E2E2E2E2E2E2E2E2E2E2E2E2E2E2E2E2E2E2E2E2E2E2E2E2E2E2E2E2E2E2E2E2E2E2E2E2E2E2E2E2E2E2E2E2E2E2E2E2E2E2E2E2E2E2E2E2E2E2E2E2E2E2E2E2E2E2E2E2E2E2E2E2E2E2E2E2E2E2E2E2E2E2E2E2E2E2E2E2E2E2E2E2E2E2E2E2E2E2E2E2E2E2E2E2E2E2E2
310
E2E2E2E2E2E2E2E2E2E2E2E2E2E2E2E2E2E2E2E2E2E2E2E2E2E2E2E2E2E2E2E2E2E2E2E2E2E2E2E2E2E2E2E2E2E2E2E2E2E2E2E2E2E2E2E2E2E2E2E2E2E2E2E2E2E2E2E2E2E2E2E2E2E2E2E2E2E2E2E2E2E2E2E2E2E2E2E2E2E2E2E2E2E2E2E2E2E2E2E2E2E2E2E2E2E2E2E2E2E2E2E2E2E2E2E2E2E2E2E2E2E2E2E2E2E2E2
310
E2E2E2E2E2E2E2E2E2E2E2E2E2E2E2E2E2E2E2E2E2E2E2E2E2E2E2E2E2E2E2E2E2E2E2E2E2E2E2E2E2E2E2E2E2E2E2E2E2E2E2E2E2E2E2E2E2E2E2E2E2E2E2E2E2E2E2E2E2E2E2E2E2E2E2E2E2E2E2E2E2E2E2E2E2E2E2E2E2E2E2E2E2E2E2E2E2E2E2E2E2E2E2E2E2E2E2E2E2E2E2E2E2E2E2E2E2E2E2E2E2E2E2E2E2E2E2
310
E2E2E2E2E2E2E2E2E2E2E2E2E2E2E2E2E2E2E2E2E2E2E2E2E2E2E2E2E2E2E2E2E2E2E2E2E2E2E2E2E2E2E2E2E2E2E2E2E2E2E2E2E2E2E2E2E2E2E2E2E2E2E2E2E2E2E2E2E2E2E2E2E2E2E2E2E2E2E2E2E2E2E2E2E2E2E2E2E2E2E2E2E2E2E2E2E2E2E2E2E2E2E2E2E2E2E2E2E2E2E2E2E2E2E2E2E2E2E2E2E2E2E2E2E2E2E2
310
E2E2E2E2E2E2E2E2E2E2E2E2E2E2E2E2E2E2E2E2E2E2E2E2E2E2E2E2E2E2E2E2E2E2E2E2E2E2E2E2E2E2E2E2E2E2E2E2E2E2E2E2E2E2E2E2E2E2E2E2E2E2E2E2E2E2E2E2E2E2E2E2E2E2E2E2E2E2E2E2E2E2E2E2E2E2E2E2E2E2E2E2E2E2E2E2E2E2E2E2E2E2E2E2E2E2E2E2E2E2E2E2E2E2E2E2E2E2E2E2E2E2E2E2E2E2E2
310
E2E2E2E2E2E2E2E2E2E2E2E2E2E2E2E2E2E2E2E2E2E2E2E2E2E2E2E2E2E2E2E2E2E2E2E2E2E2E2E2E2E2E2E2E2E2E2E2E2E2E2E2E2E2E2E2E2E2E2E2E2E2E2E2E2E2E2E2E2E2E2E2E2E2E2E2E2E2E2E2E2E2E2E2E2E2E2E2E2E2E2E2E2E2E2E2E2E2E2E2E2E2E2E2E2E2E2E2E2E2E2E2E2E2E2E2E2E2E2E2E2E2E2E2E2E2E2
310
E2E2E2E2E2E2E2E2E2E2E2E2E2E2E2E2E2E2E2E2E2E2E2E2E2E2E2E2E2E2E2E2E2E2E2E2E2E2E2E2E2E2E2E2E2E2E2E2E2E2E2E2E2E2E2E2E2E2E2E2E2E2E2E2E2E2E2E2E2E2E2E2E2E2E2E2E2E2E2E2E2E2E2E2E2E2E2E2E2E2E2E2E2E2E2E2E2E2E2E2E2E2E2E2E2E2E2E2E2E2E2E2E2E2E2E2E2E2E2E2E2E2E2E2E2E2E2
310
E2E2E2E2E2E2E2E2E2E2E2E2E2E2E2E2E2E2E2E2E2E2E2E2E2E2E2E2E2E2E2E2E2E2E2E2E2E2E2E2E2E2E2E2E2E2E2E2E2E2E2E2E2E2E2E2E2E2E2E2E2E2E2E2E2E2E2E2E2E2E2E2E2E2E2E2E2E2E2E2E2E2E2E2E2E2E2E2E2E2E2E2E2E2E2E2E2E2E2E2E2E2E2E2E2E2E2E2E2E2E2E2E2E2E2E2E2E2E2E2E2E2E2E2E2E2E2
310
E2E2E2E2E2E2E2E2E2E2E2E2E2E2E2E2E2E2E2E2E2E2E2E2E2E2E2E2E2E2E2E2E2E2E2E2E2E2E2E2E2E2E2E2E2E2E2E2E2E2E2E2E2E2E2E2E2E2E2E2E2E2E2E2E2E2E2E2E2E2E2E2E2E2E2E2E2E2E2E2E2E2E2E2E2E2E2E2E2E2E2E2E2E2E2E2E2E2E2E2E2E2E2E2E2E2E2E2E2E2E2E2E2E2E2E2E2E2E2E2E2E2E2E2E2E2E2
310
E2E2E2E2E2E2E2E2E2E2E2E2E2E2E2E2E2E2E2E2E2E2E2E2E2E2E2E2E2E2E2E2E2E2E2E2E2E2E2E2E2E2E2E2E2E2E2E2E2E2E2E2E2E2E2E2E2E2E2E2E2E2E2E2E2E2E2E2E2E2E2E2E2E2E2E2E2E2E2E2E2E2E2E2E2E2E2E2E2E2E2E2E2E2E2E2E2E2E2E2E2E2E2E2E2E2E2E2E2E2E2E2E2E2E2E2E2E2E2E2E2E2E2E2E2E2E2
310
E2E2E2E2E2E2E2E2E2E2E2E2E2E2E2E2E2E2E2E2E2E2E2E2E2E2E2E2E2E2E2E2E2E2E2E2E2E2E2E2E2E2E2E2E2E2E2E2E2E2E2E2E2E2E2E2E2E2E2E2E2E2E2E2E2E2E2E2E2E2E2E2E2E2E2E2E2E2E2E2E2E2E2E2E2E2E2E2E2E2E2E2E2E2E2E2E2E2E2E2E2E2E2E2E2E2E2E2E2E2E2E2E2E2E2E2E2E2E2E2E2E2E2E2E2E2E2
310
E2E2E2E2E2E2E2E2E2E2E2E2E2E2E2E2E2E2E2E2E2E2E2E2E2E2E2E2E2E2E2E2E2E2E2E2E2E2E2E2E2E2E2E2E2E2E2E2E2E2E2E2E2E2E2E2E2E2E2E2E2E2E2E2E2E2E2E2E2E2E2E2E2E2E2E2E2E2E2E2E2E2E2E2E2E2E2E2E2E2E2E2E2E2E2E2E2E2E2E2E2E2E2E2E2E2E2E2E2E2E2E2E2E2E2E2E2E2E2E2E2E2E2E2E2E2E2
310
E2E2E2E2E2E2E2E2E2E2E2E2E2E2E2E2E2E2E2E2E2E2E2E2E2E2E2E2E2E2E2E2E2E2E2E2E2E2E2E2E2E2E2E2E2E2E2E2E2E2E2E2E2E2E2E2E2E2E2E2E2E2E2E2E2E2E2E2E2E2E2E2E2E2E2E2E2E2E2E2E2E2E2E2E2E2E2E2E2E2E2E2E2E2E2E2E2E2E2E2E2E2E2E2E2E2E2E2E2E2E2E2E2E2E2E2E2E2E2E2E2E2E2E2E2E2E2
310
E2E2E2E2E2E2E2E2E2E2E2E2E2E2E2E2E2E2E2E2E2E2E2E2E2E2E2E2E2E2E2E2E2E2E2E2E2E2E2E2E2E2E2E2E2E2E2E2E2E2E2E2E2E2E2E2E2E2E2E2E2E2E2E2E2E2E2E2E2E2E2E2E2E2E2E2E2E2E2E2E2E2E2E2E2E2E2E2E2E2E2E2E2E2E2E2E2E2E2E2E2E2E2E2E2E2E2E2E2E2E2E2E2E2E2E2E2E2E2E2E2E2E2E2E2E2E2
310
E2E2E2E2E2E2E2E2E2E2E2E2E2E2E2E2E2E2E2E2E2E2E2E2E2E2E2E2E2E2E2E2E2E2E2E2E2E2E2E2E2E2E2E2E2E2E2E2E2E2E2E2E2E2E2E2E2E2E2E2E2E2E2E2E2E2E2E2E2E2E2E2E2E2E2E2E2E2E2E2E2E2E2E2E2E2E2E2E2E2E2E2E2E2E2E2E2E2E2E2E2E2E2E2E2E2E2E2E2E2E2E2E2E2E2E2E2E2E2E2E2E2E2E2E2E2E2
310
E2E2E2E2E2E2E2E2E2E2E2E2E2E2E2E2E2E2E2E2E2E2E2E2E2E2E2E2E2E2E2E2E2E2E2E2E2E2E2E2E2E2E2E2E2E2E2E2E2E2E2E2E2E2E2E2E2E2E2E2E2E2E2E2E2E2E2E2E2E2E2E2E2E2E2E2E2E2E2E2E2E2E2E2E2E2E2E2E2E2E2E2E2E2E2E2E2E2E2E2E2E2E2E2E2E2E2E2E2E2E2E2E2E2E2E2E2E2E2E2E2E2E2E2E2E2E2
310
E2E2E2E2E2E2E2E2E2E2E2E2E2E2E2E2E2E2E2E2E2E2E2E2E2E2E2E2E2E2E2E2E2E2E2E2E2E2E2E2E2E2E2E2E2E2E2E2E2E2E2E2E2E2E2E2E2E2E2E2E2E2E2E2E2E2E2E2E2E2E2E2E2E2E2E2E2E2E2E2E2E2E2E2E2E2E2E2E2E2E2E2E2E2E2E2E2E2E2E2E2E2E2E2E2E2E2E2E2E2E2E2E2E2E2E2E2E2E2E2E2E2E2E2E2E2E2
310
E2E2E2E2E2E2E2E2E2E2E2E2E2E2E2E2E2E2E2E2E2E2E2E2E2E2E2E2E2E2E2E2E2E2E2E2E2E2E2E2E2E2E2E2E2E2E2E2E2E2E2E2E2E2E2E2E2E2E2E2E2E2E2E2E2E2E2E2E2E2E2E2E2E2E2E2E2E2E2E2E2E2E2E2E2E2E2E2E2E2E2E2E2E2E2E2E2E2E2E2E2E2E2E2E2E2E2E2E2E2E2E2E2E2E2E2E2E2E2E2E2E2E2E2E2E2E2
310
E2E2E2E2E2E2E2E2E2E2E2E2E2E2E2E2E2E2E2E2E2E2E2E2E2E2E2E2E2E2E2E2E2E2E2E2E2E2E2E2E2E2E2E2E2E2E2E2E2E2E2E2E2E2E2E2E2E2E2E2E2E2E2E2E2E2E2E2E2E2E2E2E2E2E2E2E2E2E2E2E2E2E2E2E2E2E2E2E2E2E2E2E2E2E2E2E2E2E2E2E2E2E2E2E2E2E2E2E2E2E2E2E2E2E2E2E2E2E2E2E2E2E2E2E2E2E2
310
E2E2E2E2E2E2E2E2E2E2E2E2E2E2E2E2E2E2E2E2E2E2E2E2E2E2E2E2E2E2E2E2E2E2E2E2E2E2E2E2E2E2E2E2E2E2E2E2E2E2E2E2E2E2E2E2E2E2E2E2E2E2E2E2E2E2E2E2E2E2E2E2E2E2E2E2E2E2E2E2E2E2E2E2E2E2E2E2E2E2E2E2E2E2E2E2E2E2E2E2E2E2E2E2E2E2E2E2E2E2E2E2E2E2E2E2E2E2E2E2E2E2E2E2E2E2E2
310
E2E2E2E2E2E2E2E2E2E2E2E2E2E2E2E2E2E2E2E2E2E2E2E2E2E2E2E2E2E2E2E2E2E2E2E2E2E2E2E2E2E2E2E2E2E2E2E2E2E2E2E2E2E2E2E2E2E2E2E2E2E2E2E2E2E2E2E2E2E2E2E2E2E2E2E2E2E2E2E2E2E2E2E2E2E2E2E2E2E2E2E2E2E2E2E2E2E2E2E2E2E2E2E2E2E2E2E2E2E2E2E2E2E2E2E2E2E2E2E2E2E2E2E2E2E2E2
310
E2E2E2E2E2E2E2E2E2E2E2E2E2E2E2E2E2E2E2E2E2E2E2E2E2E2E2E2E2E2E2E2E2E2E2E2E2E2E2E2E2E2E2E2E2E2E2E2E2E2E2E2E2E2E2E2E2E2E2E2E2E2E2E2E2E2E2E2E2E2E2E2E2E2E2E2E2E2E2E2E2E2E2E2E2E2E2E2E2E2E2E2E2E2E2E2E2E2E2E2E2E2E2E2E2E2E2E2E2E2E2E2E2E2E2E2E2E2E2E2E2E2E2E2E2E2E2
310
E2E2E2E2E2E2E2E2E2E2E2E2E2E2E2E2E2E2E2E2E2E2E2E2E2E2E2E2E2E2E2E2E2E2E2E2E2E2E2E2E2E2E2E2E2E2E2E2E2E2E2E2E2E2E2E2E2E2E2E2E2E2E2E2E2E2E2E2E2E2E2E2E2E2E2E2E2E2E2E2E2E2E2E2E2E2E2E2E2E2E2E2E2E2E2E2E2E2E2E2E2E2E2E2E2E2E2E2E2E2E2E2E2E2E2E2E2E2E2E2E2E2E2E2E2E2E2
310
E2E2E2E2E2E2E2E2E2E2E2E2E2E2E2E2E2E2E2E2E2E2E2E2E2E2E2E2E2E2E2E2E2E2E2E2E2E2E2E2E2E2E2E2E2E2E2E2E2E2E2E2E2E2E2E2E2E2E2E2E2E2E2E2E2E2E2E2E2E2E2E2E2E2E2E2E2E2E2E2E2E2E2E2E2E2E2E2E2E2E2E2E2E2E2E2E2E2E2E2E2E2E2E2E2E2E2E2E2E2E2E2E2E2E2E2E2E2E2E2E2E2E2E2E2E2E2
310
E2E2E2E2E2E2E2E2E2E2E2E2E2E2E2E2E2E2E2E2E2E2E2E2E2E2E2E2E2E2E2E2E2E2E2E2E2E2E2E2E2E2E2E2E2E2E2E2E2E2E2E2E2E2E2E2E2E2E2E2E2E2E2E2E2E2E2E2E2E2E2E2E2E2E2E2E2E2E2E2E2E2E2E2E2E2E2E2E2E2E2E2E2E2E2E2E2E2E2E2E2E2E2E2E2E2E2E2E2E2E2E2E2E2E2E2E2E2E2E2E2E2E2E2E2E2E2
310
E2E2E2E2E2E2E2E2E2E2E2E2E2E2E2E2E2E2E2E2E2E2E2E2E2E2E2E2E2E2E2E2E2E2E2E2E2E2E2E2E2E2E2E2E2E2E2E2E2E2E2E2E2E2E2E2E2E2E2E2E2E2E2E2E2E2E2E2E2E2E2E2E2E2E2E2E2E2E2E2E2E2E2E2E2E2E2E2E2E2E2E2E2E2E2E2E2E2E2E2E2E2E2E2E2E2E2E2E2E2E2E2E2E2E2E2E2E2E2E2E2E2E2E2E2E2E2
310
E2E2E2E2E2E2E2E2E2E2E2E2E2E2E2E2E2E2E2E2E2E2E2E2E2E2E2E2E2E2E2E2E2E2E2E2E2E2E2E2E2E2E2E2E2E2E2E2E2E2E2E2E2E2E2E2E2E2E2E2E2E2E2E2E2E2E2E2E2E2E2E2E2E2E2E2E2E2E2E2E2E2E2E2E2E2E2E2E2E2E2E2E2E2E2E2E2E2E2E2E2E2E2E2E2E2E2E2E2E2E2E2E2E2E2E2E2E2E2E2E2E2E2E2E2E2E2
310
E2E2E2E2E2E2E2E2E2E2E2E2E2E2E2E2E2E2E2E2E2E2E2E2E2E2E2E2E2E2E2E2E2E2E2E2E2E2E2E2E2E2E2E2E2E2E2E2E2E2E2E2E2E2E2E2E2E2E2E2E2E2E2E2E2E2E2E2E2E2E2E2E2E2E2E2E2E2E2E2E2E2E2E2E2E2E2E2E2E2E2E2E2E2E2E2E2E2E2E2E2E2E2E2E2E2E2E2E2E2E2E2E2E2E2E2E2E2E2E2E2E2E2E2E2E2E2
310
E2E2E2E2E2E2E2E2E2E2E2E2E2E2E2E2E2E2E2E2E2E2E2E2E2E2E2E2E2E2E2E2E2E2E2E2E2E2E2E2E2E2E2E2E2E2E2E2E2E2E2E2E2E2E2E2E2E2E2E2E2E2E2E2E2E2E2E2E2E2E2E2E2E2E2E2E2E2E2E2E2E2E2E2E2E2E2E2E2E2E2E2E2E2E2E2E2E2E2E2E2E2E2E2E2E2E2E2E2E2E2E2E2E2E2E2E2E2E2E2E2E2E2E2E2E2E2
310
E2E2E2E2E2E2E2E2E2E2E2E2E2E2E2E2E2E2E2E2E2E2E2E2E2E2E2E2E2E2E2E2E2E2E2E2E2E2E2E2E2E2E2E2E2E2E2E2E2E2E2E2E2E2E2E2E2E2E2E2E2E2E2E2E2E2E2E2E2E2E2E2E2E2E2E2E2E2E2E2E2E2E2E2E2E2E2E2E2E2E2E2E2E2E2E2E2E2E2E2E2E2E2E2E2E2E2E2E2E2E2E2E2E2E2E2E2E2E2E2E2E2E2E2E2E2E2
310
E2E2E2E2E2E2E2E2E2E2E2E2E2E2E2E2E2E2E2E2E2E2E2E2E2E2E2E2E2E2E2E2E2E2E2E2E2E2E2E2E2E2E2E2E2E2E2E2E2E2E2E2E2E2E2E2E2E2E2E2E2E2E2E2E2E2E2E2E2E2E2E2E2E2E2E2E2E2E2E2E2E2E2E2E2E2E2E2E2E2E2E2E2E2E2E2E2E2E2E2E2E2E2E2E2E2E2E2E2E2E2E2E2E2E2E2E2E2E2E2E2E2E2E2E2E2E2
310
E2E2E2E2E2E2E2E2E2E2E2E2E2E2E2E2E2E2E2E2E2E2E2E2E2E2E2E2E2E2E2E2E2E2E2E2E2E2E2E2E2E2E2E2E2E2E2E2E2E2E2E2E2E2E2E2E2E2E2E2E2E2E2E2E2E2E2E2E2E2E2E2E2E2E2E2E2E2E2E2E2E2E2E2E2E2E2E2E2E2E2E2E2E2E2E2E2E2E2E2E2E2E2E2E2E2E2E2E2E2E2E2E2E2E2E2E2E2E2E2E2E2E2E2E2E2E2
310
E2E2E2E2E2E2E2E2E2E2E2E2E2E2E2E2E2E2E2E2E2E2E2E2E2E2E2E2E2E2E2E2E2E2E2E2E2E2E2E2E2E2E2E2E2E2E2E2E2E2E2E2E2E2E2E2E2E2E2E2E2E2E2E2E2E2E2E2E2E2E2E2E2E2E2E2E2E2E2E2E2E2E2E2E2E2E2E2E2E2E2E2E2E2E2E2E2E2E2E2E2E2E2E2E2E2E2E2E2E2E2E2E2E2E2E2E2E2E2E2E2E2E2E2E2E2E2
310
E2E2E2E2E2E2E2E2E2E2E2E2E2E2E2E2E2E2E2E2E2E2E2E2E2E2E2E2E2E2E2E2E2E2E2E2E2E2E2E2E2E2E2E2E2E2E2E2E2E2E2E2E2E2E2E2E2E2E2E2E2E2E2E2E2E2E2E2E2E2E2E2E2E2E2E2E2E2E2E2E2E2E2E2E2E2E2E2E2E2E2E2E2E2E2E2E2E2E2E2E2E2E2E2E2E2E2E2E2E2E2E2E2E2E2E2E2E2E2E2E2E2E2E2E2E2E2
310
E2E2E2E2E2E2E2E2E2E2E2E2E2E2E2E2E2E2E2E2E2E2E2E2E2E2E2E2E2E2E2E2E2E2E2E2E2E2E2E2E2E2E2E2E2E2E2E2E2E2E2E2E2E2E2E2E2E2E2E2E2E2E2E2E2E2E2E2E2E2E2E2E2E2E2E2E2E2E2E2E2E2E2E2E2E2E2E2E2E2E2E2E2E2E2E2E2E2E2E2E2E2E2E2E2E2E2E2E2E2E2E2E2E2E2E2E2E2E2E2E2E2E2E2E2E2E2
310
E2E2E2E2E2E2E2E2E2E2E2E2E2E2E2E2E2E2E2E2E2E2E2E2E2E2E2E2E2E2E2E2E2E2E2E2E2E2E2E2E2E2E2E2E2E2E2E2E2E2E2E2E2E2E2E2E2E2E2E2E2E2E2E2E2E2E2E2E2E2E2E2E2E2E2E2E2E2E2E2E2E2E2E2E2E2E2E2E2E2E2E2E2E2E2E2E2E2E2E2E2E2E2E2E2E2E2E2E2E2E2E2E2E2E2E2E2E2E2E2E2E2E2E2E2E2E2
310
E2E2E2E2E2E2E2E2E2E2E2E2E2E2E2E2E2E2E2E2E2E2E2E2E2E2E2E2E2E2E2E2E2E2E2E2E2E2E2E2E2E2E2E2E2E2E2E2E2E2E2E2E2E2E2E2E2E2E2E2E2E2E2E2E2E2E2E2E2E2E2E2E2E2E2E2E2E2E2E2E2E2E2E2E2E2E2E2E2E2E2E2E2E2E2E2E2E2E2E2E2E2E2E2E2E2E2E2E2E2E2E2E2E2E2E2E2E2E2E2E2E2E2E2E2E2E2
310
E2E2E2E2E2E2E2E2E2E2E2E2E2E2E2E2E2E2E2E2E2E2E2E2E2E2E2E2E2E2E2E2E2E2E2E2E2E2E2E2E2E2E2E2E2E2E2E2E2E2E2E2E2E2E2E2E2E2E2E2E2E2E2E2E2E2E2E2E2E2E2E2E2E2E2E2E2E2E2E2E2E2E2E2E2E2E2E2E2E2E2E2E2E2E2E2E2E2E2E2E2E2E2E2E2E2E2E2E2E2E2E2E2E2E2E2E2E2E2E2E2E2E2E2E2E2E2
310
E2E2E2E2E2E2E2E2E2E2E2E2E2E2E2E2E2E2E2E2E2E2E2E2E2E2E2E2E2E2E2E2E2E2E2E2E2E2E2E2E2E2E2E2E2E2E2E2E2E2E2E2E2E2E2E2E2E2E2E2E2E2E2E2E2E2E2E2E2E2E2E2E2E2E2E2E2E2E2E2E2E2E2E2E2E2E2E2E2E2E2E2E2E2E2E2E2E2E2E2E2E2E2E2E2E2E2E2E2E2E2E2E2E2E2E2E2E2E2E2E2E2E2E2E2E2E2
310
E2E2E2E2E2E2E2E2E2E2E2E2E2E2E2E2E2E2E2E2E2E2E2E2E2E2E2E2E2E2E2E2E2E2E2E2E2E2E2E2E2E2E2E2E2E2E2E2E2E2E2E2E2E2E2E2E2E2E2E2E2E2E2E2E2E2E2E2E2E2E2E2E2E2E2E2E2E2E2E2E2E2E2E2E2E2E2E2E2E2E2E2E2E2E2E2E2E2E2E2E2E2E2E2E2E2E2E2E2E2E2E2E2E2E2E2E2E2E2E2E2E2E2E2E2E2E2
310
E2E2E2E2E2E2E2E2E2E2E2E2E2E2E2E2E2E2E2E2E2E2E2E2E2E2E2E2E2E2E2E2E2E2E2E2E2E2E2E2E2E2E2E2E2E2E2E2E2E2E2E2E2E2E2E2E2E2E2E2E2E2E2E2E2E2E2E2E2E2E2E2E2E2E2E2E2E2E2E2E2E2E2E2E2E2E2E2E2E2E2E2E2E2E2E2E2E2E2E2E2E2E2E2E2E2E2E2E2E2E2E2E2E2E2E2E2E2E2E2E2E2E2E2E2E2E2
310
E2E2E2E2E2E2E2E2E2E2E2E2E2E2E2E2E2E2E2E2E2E2E2E2E2E2E2E2E2E2E2E2E2E2E2E2E2E2E2E2E2E2E2E2E2E2E2E2E2E2E2E2E2E2E2E2E2E2E2E2E2E2E2E2E2E2E2E2E2E2E2E2E2E2E2E2E2E2E2E2E2E2E2E2E2E2E2E2E2E2E2E2E2E2E2E2E2E2E2E2E2E2E2E2E2E2E2E2E2E2E2E2E2E2E2E2E2E2E2E2E2E2E2E2E2E2E2
310
E2E2E2E2E2E2E2E2E2E2E2E2E2E2E2E2E2E2E2E2E2E2E2E2E2E2E2E2E2E2E2E2E2E2E2E2E2E2E2E2E2E2E2E2E2E2E2E2E2E2E2E2E2E2E2E2E2E2E2E2E2E2E2E2E2E2E2E2E2E2E2E2E2E2E2E2E2E2E2E2E2E2E2E2E2E2E2E2E2E2E2E2E2E2E2E2E2E2E2E2E2E2E2E2E2E2E2E2E2E2E2E2E2E2E2E2E2E2E2E2E2E2E2E2E2E2E2
310
E2E2E2E2E2E2E2E2E2E2E2E2E2E2E2E2E2E2E2E2E2E2E2E2E2E2E2E2E2E2E2E2E2E2E2E2E2E2E2E2E2E2E2E2E2E2E2E2E2E2E2E2E2E2E2E2E2E2E2E2E2E2E2E2E2E2E2E2E2E2E2E2E2E2E2E2E2E2E2E2E2E2E2E2E2E2E2E2E2E2E2E2E2E2E2E2E2E2E2E2E2E2E2E2E2E2E2E2E2E2E2E2E2E2E2E2E2E2E2E2E2E2E2E2E2E2E2
310
E2E2E2E2E2E2E2E2E2E2E2E2E2E2E2E2E2E2E2E2E2E2E2E2E2E2E2E2E2E2E2E2E2E2E2E2E2E2E2E2E2E2E2E2E2E2E2E2E2E2E2E2E2E2E2E2E2E2E2E2E2E2E2E2E2E2E2E2E2E2E2E2E2E2E2E2E2E2E2E2E2E2E2E2E2E2E2E2E2E2E2E2E2E2E2E2E2E2E2E2E2E2E2E2E2E2E2E2E2E2E2E2E2E2E2E2E2E2E2E2E2E2E2E2E2E2E2
310
E2E2E2E2E2E2E2E2E2E2E2E2E2E2E2E2E2E2E2E2E2E2E2E2E2E2E2E2E2E2E2E2E2E2E2E2E2E2E2E2E2E2E2E2E2E2E2E2E2E2E2E2E2E2E2E2E2E2E2E2E2E2E2E2E2E2E2E2E2E2E2E2E2E2E2E2E2E2E2E2E2E2E2E2E2E2E2E2E2E2E2E2E2E2E2E2E2E2E2E2E2E2E2E2E2E2E2E2E2E2E2E2E2E2E2E2E2E2E2E2E2E2E2E2E2E2E2
310
E2E2E2E2E2E2E2E2E2E2E2E2E2E2E2E2E2E2E2E2E2E2E2E2E2E2E2E2E2E2E2E2E2E2E2E2E2E2E2E2E2E2E2E2E2E2E2E2E2E2E2E2E2E2E2E2E2E2E2E2E2E2E2E2E2E2E2E2E2E2E2E2E2E2E2E2E2E2E2E2E2E2E2E2E2E2E2E2E2E2E2E2E2E2E2E2E2E2E2E2E2E2E2E2E2E2E2E2E2E2E2E2E2E2E2E2E2E2E2E2E2E2E2E2E2E2E2
310
E2E2E2E2E2E2E2E2E2E2E2E2E2E2E2E2E2E2E2E2E2E2E2E2E2E2E2E2E2E2E2E2E2E2E2E2E2E2E2E2E2E2E2E2E2E2E2E2E2E2E2E2E2E2E2E2E2E2E2E2E2E2E2E2E2E2E2E2E2E2E2E2E2E2E2E2E2E2E2E2E2E2E2E2E2E2E2E2E2E2E2E2E2E2E2E2E2E2E2E2E2E2E2E2E2E2E2E2E2E2E2E2E2E2E2E2E2E2E2E2E2E2E2E2E2E2E2
310
E2E2E2E2E2E2E2E2E2E2E2E2E2E2E2E2E2E2E2E2E2E2E2E2E2E2E2E2E2E2E2E2E2E2E2E2E2E2E2E2E2E2E2E2E2E2E2E2E2E2E2E2E2E2E2E2E2E2E2E2E2E2E2E2E2E2E2E2E2E2E2E2E2E2E2E2E2E2E2E2E2E2E2E2E2E2E2E2E2E2E2E2E2E2E2E2E2E2E2E2E2E2E2E2E2E2E2E2E2E2E2E2E2E2E2E2E2E2E2E2E2E2E2E2E2E2E2
310
E2E2E2E2E2E2E2E2E2E2E2E2E2E2E2E2E2E2E2E2E2E2E2E2E2E2E2E2E2E2E2E2E2E2E2E2E2E2E2E2E2E2E2E2E2E2E2E2E2E2E2E2E2E2E2E2E2E2E2E2E2E2E2E2E2E2E2E2E2E2E2E2E2E2E2E2E2E2E2E2E2E2E2E2E2E2E2E2E2E2E2E2E2E2E2E2E2E2E2E2E2E2E2E2E2E2E2E2E2E2E2E2E2E2E2E2E2E2E2E2E2E2E2E2E2E2E2
310
E2E2E2E2E2E2E2E2E2E2E2E2E2E2E2E2E2E2E2E2E2E2E2E2E2E2E2E2E2E2E2E2E2E2E2E2E2E2E2E2E2E2E2E2E2E2E2E2E2E2E2E2E2E2E2E2E2E2E2E2E2E2E2E2E2E2E2E2E2E2E2E2E2E2E2E2E2E2E2E2E2E2E2E2E2E2E2E2E2E2E2E2E2E2E2E2E2E2E2E2E2E2E2E2E2E2E2E2E2E2E2E2E2E2E2E2E2E2E2E2E2E2E2E2E2E2E2
310
E2E2E2E2E2E2E2E2E2E2E2E2E2E2E2E2E2E2E2E2E2E2E2E2E2E2E2E2E2E2E2E2E2E2E2E2E2E2E2E2E2E2E2E2E2E2E2E2E2E2E2E2E2E2E2E2E2E2E2E2E2E2E2E2E2E2E2E2E2E2E2E2E2E2E2E2E2E2E2E2E2E2E2E2E2E2E2E2E2E2E2E2E2E2E2E2E2E2E2E2E2E2E2E2E2E2E2E2E2E2E2E2E2E2E2E2E2E2E2E2E2E2E2E2E2E2E2
310
E2E2E2E2E2E2E2E2E2E2E2E2E2E2E2E2E2E2E2E2E2E2E2E2E2E2E2E2E2E2E2E2E2E2E2E2E2E2E2E2E2E2E2E2E2E2E2E2E2E2E2E2E2E2E2E2E2E2E2E2E2E2E2E2E2E2E2E2E2E2E2E2E2E2E2E2E2E2E2E2E2E2E2E2E2E2E2E2E2E2E2E2E2E2E2E2E2E2E2E2E2E2E2E2E2E2E2E2E2E2E2E2E2E2E2E2E2E2E2E2E2E2E2E2E2E2E2
310
E2E2E2E2E2E2E2E2E2E2E2E2E2E2E2E2E2E2E2E2E2E2E2E2E2E2E2E2E2E2E2E2E2E2E2E2E2E2E2E2E2E2E2E2E2E2E2E2E2E2E2E2E2E2E2E2E2E2E2E2E2E2E2E2E2E2E2E2E2E2E2E2E2E2E2E2E2E2E2E2E2E2E2E2E2E2E2E2E2E2E2E2E2E2E2E2E2E2E2E2E2E2E2E2E2E2E2E2E2E2E2E2E2E2E2E2E2E2E2E2E2E2E2E2E2E2E2
310
E2E2E2E2E2E2E2E2E2E2E2E2E2E2E2E2E2E2E2E2E2E2E2E2E2E2E2E2E2E2E2E2E2E2E2E2E2E2E2E2E2E2E2E2E2E2E2E2E2E2E2E2E2E2E2E2E2E2E2E2E2E2E2E2E2E2E2E2E2E2E2E2E2E2E2E2E2E2E2E2E2E2E2E2E2E2E2E2E2E2E2E2E2E2E2E2E2E2E2E2E2E2E2E2E2E2E2E2E2E2E2E2E2E2E2E2E2E2E2E2E2E2E2E2E2E2E2
310
E2E2E2E2E2E2E2E2E2E2E2E2E2E2E2E2E2E2E2E2E2E2E2E2E2E2E2E2E2E2E2E2E2E2E2E2E2E2E2E2E2E2E2E2E2E2E2E2E2E2E2E2E2E2E2E2E2E2E2E2E2E2E2E2E2E2E2E2E2E2E2E2E2E2E2E2E2E2E2E2E2E2E2E2E2E2E2E2E2E2E2E2E2E2E2E2E2E2E2E2E2E2E2E2E2E2E2E2E2E2E2E2E2E2E2E2E2E2E2E2E2E2E2E2E2E2E2
310
E2E2E2E2E2E2E2E2E2E2E2E2E2E2E2E2E2E2E2E2E2E2E2E2E2E2E2E2E2E2E2E2E2E2E2E2E2E2E2E2E2E2E2E2E2E2E2E2E2E2E2E2E2E2E2E2E2E2E2E2E2E2E2E2E2E2E2E2E2E2E2E2E2E2E2E2E2E2E2E2E2E2E2E2E2E2E2E2E2E2E2E2E2E2E2E2E2E2E2E2E2E2E2E2E2E2E2E2E2E2E2E2E2E2E2E2E2E2E2E2E2E2E2E2E2E2E2
310
E2E2E2E2E2E2E2E2E2E2E2E2E2E2E2E2E2E2E2E2E2E2E2E2E2E2E2E2E2E2E2E2E2E2E2E2E2E2E2E2E2E2E2E2E2E2E2E2E2E2E2E2E2E2E2E2E2E2E2E2E2E2E2E2E2E2E2E2E2E2E2E2E2E2E2E2E2E2E2E2E2E2E2E2E2E2E2E2E2E2E2E2E2E2E2E2E2E2E2E2E2E2E2E2E2E2E2E2E2E2E2E2E2E2E2E2E2E2E2E2E2E2E2E2E2E2E2
310
E2E2E2E2E2E2E2E2E2E2E2E2E2E2E2E2E2E2E2E2E2E2E2E2E2E2E2E2E2E2E2E2E2E2E2E2E2E2E2E2E2E2E2E2E2E2E2E2E2E2E2E2E2E2E2E2E2E2E2E2E2E2E2E2E2E2E2E2E2E2E2E2E2E2E2E2E2E2E2E2E2E2E2E2E2E2E2E2E2E2E2E2E2E2E2E2E2E2E2E2E2E2E2E2E2E2E2E2E2E2E2E2E2E2E2E2E2E2E2E2E2E2E2E2E2E2E2
310
E2E2E2E2E2E2E2E2E2E2E2E2E2E2E2E2E2E2E2E2E2E2E2E2E2E2E2E2E2E2E2E2E2E2E2E2E2E2E2E2E2E2E2E2E2E2E2E2E2E2E2E2E2E2E2E2E2E2E2E2E2E2E2E2E2E2E2E2E2E2E2E2E2E2E2E2E2E2E2E2E2E2E2E2E2E2E2E2E2E2E2E2E2E2E2E2E2E2E2E2E2E2E2E2E2E2E2E2E2E2E2E2E2E2E2E2E2E2E2E2E2E2E2E2E2E2E2
310
E2E2E2E2E2E2E2E2E2E2E2E2E2E2E2E2E2E2E2E2E2E2E2E2E2E2E2E2E2E2E2E2E2E2E2E2E2E2E2E2E2E2E2E2E2E2E2E2E2E2E2E2E2E2E2E2E2E2E2E2E2E2E2E2E2E2E2E2E2E2E2E2E2E2E2E2E2E2E2E2E2E2E2E2E2E2E2E2E2E2E2E2E2E2E2E2E2E2E2E2E2E2E2E2E2E2E2E2E2E2E2E2E2E2E2E2E2E2E2E2E2E2E2E2E2E2E2
310
E2E2E2E2E2E2E2E2E2E2E2E2E2E2E2E2E2E2E2E2E2E2E2E2E2E2E2E2E2E2E2E2E2E2E2E2E2E2E2E2E2E2E2E2E2E2E2E2E2E2E2E2E2E2E2E2E2E2E2E2E2E2E2E2E2E2E2E2E2E2E2E2E2E2E2E2E2E2E2E2E2E2E2E2E2E2E2E2E2E2E2E2E2E2E2E2E2E2E2E2E2E2E2E2E2E2E2E2E2E2E2E2E2E2E2E2E2E2E2E2E2E2E2E2E2E2E2
310
E2E2E2E2E2E2E2E2E2E2E2E2E2E2E2E2E2E2E2E2E2E2E2E2E2E2E2E2E2E2E2E2E2E2E2E2E2E2E2E2E2E2E2E2E2E2E2E2E2E2E2E2E2E2E2E2E2E2E2E2E2E2E2E2E2E2E2E2E2E2E2E2E2E2E2E2E2E2E2E2E2E2E2E2E2E2E2E2E2E2E2E2E2E2E2E2E2E2E2E2E2E2E2E2E2E2E2E2E2E2E2E2E2E2E2E2E2E2E2E2E2E2E2E2E2E2E2
310
E2E2E2E2E2E2E2E2E2E2E2E2E2E2E2E2E2E2E2E2E2E2E2E2E2E2E2E2E2E2E2E2E2E2E2E2E2E2E2E2E2E2E2E2E2E2E2E2E2E2E2E2E2E2E2E2E2E2E2E2E2E2E2E2E2E2E2E2E2E2E2E2E2E2E2E2E2E2E2E2E2E2E2E2E2E2E2E2E2E2E2E2E2E2E2E2E2E2E2E2E2E2E2E2E2E2E2E2E2E2E2E2E2E2E2E2E2E2E2E2E2E2E2E2E2E2E2
310
E2E2E2E2E2E2E2E2E2E2E2E2E2E2E2E2E2E2E2E2E2E2E2E2E2E2E2E2E2E2E2E2E2E2E2E2E2E2E2E2E2E2E2E2E2E2E2E2E2E2E2E2E2E2E2E2E2E2E2E2E2E2E2E2E2E2E2E2E2E2E2E2E2E2E2E2E2E2E2E2E2E2E2E2E2E2E2E2E2E2E2E2E2E2E2E2E2E2E2E2E2E2E2E2E2E2E2E2E2E2E2E2E2E2E2E2E2E2E2E2E2E2E2E2E2E2E2
310
E2E2E2E2E2E2E2E2E2E2E2E2E2E2E2E2E2E2E2E2E2E2E2E2E2E2E2E2E2E2E2E2E2E2E2E2E2E2E2E2E2E2E2E2E2E2E2E2E2E2E2E2E2E2E2E2E2E2E2E2E2E2E2E2E2E2E2E2E2E2E2E2E2E2E2E2E2E2E2E2E2E2E2E2E2E2E2E2E2E2E2E2E2E2E2E2E2E2E2E2E2E2E2E2E2E2E2E2E2E2E2E2E2E2E2E2E2E2E2E2E2E2E2E2E2E2E2
310
E2E2E2E2E2E2E2E2E2E2E2E2E2E2E2E2E2E2E2E2E2E2E2E2E2E2E2E2E2E2E2E2E2E2E2E2E2E2E2E2E2E2E2E2E2E2E2E2E2E2E2E2E2E2E2E2E2E2E2E2E2E2E2E2E2E2E2E2E2E2E2E2E2E2E2E2E2E2E2E2E2E2E2E2E2E2E2E2E2E2E2E2E2E2E2E2E2E2E2E2E2E2E2E2E2E2E2E2E2E2E2E2E2E2E2E2E2E2E2E2E2E2E2E2E2E2E2
310
E2E2E2E2E2E2E2E2E2E2E2E2E2E2E2E2E2E2E2E2E2E2E2E2E2E2E2E2E2E2E2E2E2E2E2E2E2E2E2E2E2E2E2E2E2E2E2E2E2E2E2E2E2E2E2E2E2E2E2E2E2E2E2E2E2E2E2E2E2E2E2E2E2E2E2E2E2E2E2E2E2E2E2E2E2E2E2E2E2E2E2E2E2E2E2E2E2E2E2E2E2E2E2E2E2E2E2E2E2E2E2E2E2E2E2E2E2E2E2E2E2E2
  0
XRECORD
  5
256B
102
{ACAD_REACTORS
330
256A
102
}
330
256A
100
AcDbXrecord
280
     1
102
SHADEPLOT
 70
     0
102
SHADEPLOTRESLEVEL
 70
     2
102
SHADEPLOTCUSTOMDPI
 70
   300
  0
XRECORD
  5
2572
102
{ACAD_REACTORS
330
2571
102
}
330
2571
100
AcDbXrecord
280
     1
102
MATERIAL
148
0.0
149
0.0
149
0.0
 93
        0
 94
       63
282
     0
 72
     1
 77
     1
171
     1
175
     1
179
     1
273
     0
  0
XRECORD
  5
2570
102
{ACAD_REACTORS
330
256F
102
}
330
256F
100
AcDbXrecord
280
     1
102
MATERIAL
148
0.0
149
0.0
149
0.0
 93
        0
 94
       63
282
     0
 72
     1
 77
     1
171
     1
175
     1
179
     1
273
     0
  0
XRECORD
  5
2574
102
{ACAD_REACTORS
330
2573
102
}
330
2573
100
AcDbXrecord
280
     1
102
MATERIAL
148
0.0
149
0.0
149
0.0
 93
        0
 94
       63
282
     0
 72
     1
 77
     1
171
     1
175
     1
179
     1
273
     0
  0
XRECORD
  5
2563
102
{ACAD_REACTORS
330
2562
102
}
330
2562
100
AcDbXrecord
280
     1
102
SHADEPLOT
 70
     0
102
SHADEPLOTRESLEVEL
 70
     2
102
SHADEPLOTCUSTOMDPI
 70
   300
  0
XRECORD
  5
2561
102
{ACAD_REACTORS
330
2560
102
}
330
2560
100
AcDbXrecord
280
     1
102
SHADEPLOT
 70
     0
102
SHADEPLOTRESLEVEL
 70
     2
102
SHADEPLOTCUSTOMDPI
 70
   300
  0
XRECORD
  5
2565
102
{ACAD_REACTORS
330
2564
102
}
330
2564
100
AcDbXrecord
280
     1
102
SHADEPLOT
 70
     0
102
SHADEPLOTRESLEVEL
 70
     2
102
SHADEPLOTCUSTOMDPI
 70
   300
  0
XRECORD
  5
255D
102
{ACAD_REACTORS
330
255C
102
}
330
255C
100
AcDbXrecord
280
     1
102
SHADEPLOT
 70
     0
102
SHADEPLOTRESLEVEL
 70
     2
102
SHADEPLOTCUSTOMDPI
 70
   300
  0
XRECORD
  5
255F
102
{ACAD_REACTORS
330
255E
102
}
330
255E
100
AcDbXrecord
280
     1
102
SHADEPLOT
 70
     0
102
SHADEPLOTRESLEVEL
 70
     2
102
SHADEPLOTCUSTOMDPI
 70
   300
  0
XRECORD
  5
2569
102
{ACAD_REACTORS
330
2568
102
}
330
2568
100
AcDbXrecord
280
     1
102
ACAD_ROUNDTRIP_PRE2007_TABLESTYLE
 90
        4
 91
        0
  1

 92
        4
 93
        0
  2

 94
        4
 95
        0
  3

  0
ENDSEC
  0
EOF
