  0
SECTION
  2
HEADER
  9
$ACADVER
  1
AC1015
  9
$ACADMAINTVER
 70
    20
  9
$DWGCODEPAGE
  3
ANSI_1252
  9
$INSBASE
 10
0.0
 20
0.0
 30
0.0
  9
$EXTMIN
 10
-229.9972887953909
 20
-38.48616275503582
 30
0.0
  9
$EXTMAX
 10
534.4636259239803
 20
513.8754113343477
 30
0.0
  9
$LIMMIN
 10
0.0
 20
0.0
  9
$LIMMAX
 10
560.0
 20
450.0
  9
$ORTHOMODE
 70
     0
  9
$REGENMODE
 70
     1
  9
$FILLMODE
 70
     1
  9
$QTEXTMODE
 70
     0
  9
$MIRRTEXT
 70
     1
  9
$LTSCALE
 40
5.0
  9
$ATTMODE
 70
     2
  9
$TEXTSIZE
 40
3.0
  9
$TRACEWID
 40
0.05
  9
$TEXTSTYLE
  7
Arial Reguler
  9
$CLAYER
  8
0
  9
$CELTYPE
  6
BYLAYER
  9
$CECOLOR
 62
   256
  9
$CELTSCALE
 40
1.0
  9
$DISPSILH
 70
     0
  9
$DIMSCALE
 40
10.0
  9
$DIMASZ
 40
2.1
  9
$DIMEXO
 40
0.5
  9
$DIMDLI
 40
5.0
  9
$DIMRND
 40
0.0
  9
$DIMDLE
 40
0.0
  9
$DIMEXE
 40
0.5
  9
$DIMTP
 40
0.0
  9
$DIMTM
 40
0.0
  9
$DIMTXT
 40
2.799999999999999
  9
$DIMCEN
 40
0.0
  9
$DIMTSZ
 40
0.0
  9
$DIMTOL
 70
     0
  9
$DIMLIM
 70
     0
  9
$DIMTIH
 70
     0
  9
$DIMTOH
 70
     0
  9
$DIMSE1
 70
     0
  9
$DIMSE2
 70
     0
  9
$DIMTAD
 70
     1
  9
$DIMZIN
 70
     0
  9
$DIMBLK
  1

  9
$DIMASO
 70
     1
  9
$DIMSHO
 70
     1
  9
$DIMPOST
  1

  9
$DIMAPOST
  1

  9
$DIMALT
 70
     0
  9
$DIMALTD
 70
     2
  9
$DIMALTF
 40
25.4
  9
$DIMLFAC
 40
1.0
  9
$DIMTOFL
 70
     0
  9
$DIMTVP
 40
0.0
  9
$DIMTIX
 70
     1
  9
$DIMSOXD
 70
     0
  9
$DIMSAH
 70
     0
  9
$DIMBLK1
  1

  9
$DIMBLK2
  1

  9
$DIMSTYLE
  2
DIM-1
  9
$DIMCLRD
 70
   256
  9
$DIMCLRE
 70
   256
  9
$DIMCLRT
 70
   256
  9
$DIMTFAC
 40
1.0
  9
$DIMGAP
 40
0.5
  9
$DIMJUST
 70
     0
  9
$DIMSD1
 70
     0
  9
$DIMSD2
 70
     0
  9
$DIMTOLJ
 70
     1
  9
$DIMTZIN
 70
     0
  9
$DIMALTZ
 70
     0
  9
$DIMALTTZ
 70
     0
  9
$DIMUPT
 70
     0
  9
$DIMDEC
 70
     0
  9
$DIMTDEC
 70
     0
  9
$DIMALTU
 70
     2
  9
$DIMALTTD
 70
     2
  9
$DIMTXSTY
  7
ROMANS
  9
$DIMAUNIT
 70
     0
  9
$DIMADEC
 70
     0
  9
$DIMALTRND
 40
0.0
  9
$DIMAZIN
 70
     0
  9
$DIMDSEP
 70
    46
  9
$DIMATFIT
 70
     0
  9
$DIMFRAC
 70
     0
  9
$DIMLDRBLK
  1

  9
$DIMLUNIT
 70
     2
  9
$DIMLWD
 70
    -1
  9
$DIMLWE
 70
    -1
  9
$DIMTMOVE
 70
     2
  9
$LUNITS
 70
     2
  9
$LUPREC
 70
     4
  9
$SKETCHINC
 40
0.1
  9
$FILLETRAD
 40
100.0
  9
$AUNITS
 70
     0
  9
$AUPREC
 70
     0
  9
$MENU
  1
acad
  9
$ELEVATION
 40
0.0
  9
$PELEVATION
 40
0.0
  9
$THICKNESS
 40
0.0
  9
$LIMCHECK
 70
     0
  9
$CHAMFERA
 40
60.0
  9
$CHAMFERB
 40
60.0
  9
$CHAMFERC
 40
0.0
  9
$CHAMFERD
 40
0.0
  9
$SKPOLY
 70
     0
  9
$TDCREATE
 40
2450935.841616320
  9
$TDUCREATE
 40
2450936.133282986
  9
$TDUPDATE
 40
2454918.385411239
  9
$TDUUPDATE
 40
2454918.677077905
  9
$TDINDWG
 40
19.0438085301
  9
$TDUSRTIMER
 40
19.0438085301
  9
$USRTIMER
 70
     1
  9
$ANGBASE
 50
0.0
  9
$ANGDIR
 70
     0
  9
$PDMODE
 70
     0
  9
$PDSIZE
 40
0.0
  9
$PLINEWID
 40
0.0
  9
$SPLFRAME
 70
     0
  9
$SPLINETYPE
 70
     6
  9
$SPLINESEGS
 70
     8
  9
$HANDSEED
  5
3D15E
  9
$SURFTAB1
 70
     6
  9
$SURFTAB2
 70
     6
  9
$SURFTYPE
 70
     6
  9
$SURFU
 70
     6
  9
$SURFV
 70
     6
  9
$UCSBASE
  2

  9
$UCSNAME
  2

  9
$UCSORG
 10
0.0
 20
0.0
 30
0.0
  9
$UCSXDIR
 10
1.0
 20
0.0
 30
0.0
  9
$UCSYDIR
 10
0.0
 20
1.0
 30
0.0
  9
$UCSORTHOREF
  2

  9
$UCSORTHOVIEW
 70
     0
  9
$UCSORGTOP
 10
0.0
 20
0.0
 30
0.0
  9
$UCSORGBOTTOM
 10
0.0
 20
0.0
 30
0.0
  9
$UCSORGLEFT
 10
0.0
 20
0.0
 30
0.0
  9
$UCSORGRIGHT
 10
0.0
 20
0.0
 30
0.0
  9
$UCSORGFRONT
 10
0.0
 20
0.0
 30
0.0
  9
$UCSORGBACK
 10
0.0
 20
0.0
 30
0.0
  9
$PUCSBASE
  2

  9
$PUCSNAME
  2

  9
$PUCSORG
 10
0.0
 20
0.0
 30
0.0
  9
$PUCSXDIR
 10
1.0
 20
0.0
 30
0.0
  9
$PUCSYDIR
 10
0.0
 20
1.0
 30
0.0
  9
$PUCSORTHOREF
  2

  9
$PUCSORTHOVIEW
 70
     0
  9
$PUCSORGTOP
 10
0.0
 20
0.0
 30
0.0
  9
$PUCSORGBOTTOM
 10
0.0
 20
0.0
 30
0.0
  9
$PUCSORGLEFT
 10
0.0
 20
0.0
 30
0.0
  9
$PUCSORGRIGHT
 10
0.0
 20
0.0
 30
0.0
  9
$PUCSORGFRONT
 10
673.6768453556942
 20
0.0
 30
0.0
  9
$PUCSORGBACK
 10
0.0
 20
0.0
 30
0.0
  9
$USERI1
 70
     0
  9
$USERI2
 70
     0
  9
$USERI3
 70
     0
  9
$USERI4
 70
     0
  9
$USERI5
 70
     0
  9
$USERR1
 40
0.0
  9
$USERR2
 40
0.0
  9
$USERR3
 40
0.0
  9
$USERR4
 40
0.0
  9
$USERR5
 40
0.0
  9
$WORLDVIEW
 70
     1
  9
$SHADEDGE
 70
     3
  9
$SHADEDIF
 70
    70
  9
$TILEMODE
 70
     1
  9
$MAXACTVP
 70
    16
  9
$PINSBASE
 10
0.0
 20
0.0
 30
0.0
  9
$PLIMCHECK
 70
     0
  9
$PEXTMIN
 10
20.54662942129971
 20
7.318312267645978
 30
0.0
  9
$PEXTMAX
 10
827.5046200676619
 20
591.264324287757
 30
0.0
  9
$PLIMMIN
 10
3.613279811924712
 20
2.322979072913312
  9
$PLIMMAX
 10
844.4379258080184
 20
596.2596245807258
  9
$UNITMODE
 70
     0
  9
$VISRETAIN
 70
     0
  9
$PLINEGEN
 70
     0
  9
$PSLTSCALE
 70
     1
  9
$TREEDEPTH
 70
  3020
  9
$CMLSTYLE
  2
STANDARD
  9
$CMLJUST
 70
     0
  9
$CMLSCALE
 40
1.0
  9
$PROXYGRAPHICS
 70
     1
  9
$MEASUREMENT
 70
     0
  9
$CELWEIGHT
370
    -1
  9
$ENDCAPS
280
     0
  9
$JOINSTYLE
280
     0
  9
$LWDISPLAY
290
     0
  9
$INSUNITS
 70
     0
  9
$HYPERLINKBASE
  1

  9
$STYLESHEET
  1

  9
$XEDIT
290
     1
  9
$CEPSNTYPE
380
     0
  9
$PSTYLEMODE
290
     1
  9
$FINGERPRINTGUID
  2
{C41AD9E5-F401-11D3-B46B-00A0C98A01ED}
  9
$VERSIONGUID
  2
{798F0A4C-06EA-4BA9-A62E-CBBFF8A0E000}
  9
$EXTNAMES
290
     1
  9
$PSVPSCALE
 40
0.0
  9
$OLESTARTUP
290
     0
  0
ENDSEC
  0
SECTION
  2
CLASSES
  0
CLASS
  1
ACDBDICTIONARYWDFLT
  2
AcDbDictionaryWithDefault
  3
ObjectDBX Classes
 90
        0
280
     0
281
     0
  0
CLASS
  1
ACDBPLACEHOLDER
  2
AcDbPlaceHolder
  3
ObjectDBX Classes
 90
        0
280
     0
281
     0
  0
CLASS
  1
LAYOUT
  2
AcDbLayout
  3
ObjectDBX Classes
 90
        0
280
     0
281
     0
  0
CLASS
  1
PLOTSETTINGS
  2
AcDbPlotSettings
  3
ObjectDBX Classes
 90
        0
280
     0
281
     0
  0
CLASS
  1
DICTIONARYVAR
  2
AcDbDictionaryVar
  3
ObjectDBX Classes
 90
        0
280
     0
281
     0
  0
CLASS
  1
TABLESTYLE
  2
AcDbTableStyle
  3
ObjectDBX Classes
 90
     4095
280
     0
281
     0
  0
CLASS
  1
SORTENTSTABLE
  2
AcDbSortentsTable
  3
ObjectDBX Classes
 90
        0
280
     0
281
     0
  0
CLASS
  1
MATERIAL
  2
AcDbMaterial
  3
ObjectDBX Classes
 90
     1024
280
     0
281
     0
  0
CLASS
  1
VISUALSTYLE
  2
AcDbVisualStyle
  3
ObjectDBX Classes
 90
     4095
280
     0
281
     0
  0
ENDSEC
  0
SECTION
  2
TABLES
  0
TABLE
  2
VPORT
  5
E80F
330
0
100
AcDbSymbolTable
 70
     1
  0
VPORT
  5
3D124
330
E80F
100
AcDbSymbolTableRecord
100
AcDbViewportTableRecord
  2
*Active
 70
     0
 10
0.0
 20
0.0
 11
1.0
 21
1.0
 12
-55.95540146927556
 22
229.2396715259314
 13
0.0
 23
0.0
 14
1.0
 24
1.0
 15
0.0
 25
0.0
 16
0.0
 26
0.0
 36
1.0
 17
0.0
 27
0.0
 37
0.0
 40
1268.811411800518
 41
1.644662921348314
 42
50.0
 43
0.0
 44
0.0
 50
0.0
 51
0.0
 71
     0
 72
   100
 73
     1
 74
     1
 75
     0
 76
     0
 77
     0
 78
     0
281
     0
 65
     1
110
0.0
120
0.0
130
0.0
111
1.0
121
0.0
131
0.0
112
0.0
122
1.0
132
0.0
 79
     0
146
0.0
  0
ENDTAB
  0
TABLE
  2
LTYPE
  5
E80C
330
0
100
AcDbSymbolTable
 70
     3
  0
LTYPE
  5
E819
330
E80C
100
AcDbSymbolTableRecord
100
AcDbLinetypeTableRecord
  2
BYBLOCK
 70
     0
  3

 72
    65
 73
     0
 40
0.0
  0
LTYPE
  5
E81A
330
E80C
100
AcDbSymbolTableRecord
100
AcDbLinetypeTableRecord
  2
BYLAYER
 70
     0
  3

 72
    65
 73
     0
 40
0.0
  0
LTYPE
  5
E81B
330
E80C
100
AcDbSymbolTableRecord
100
AcDbLinetypeTableRecord
  2
CONTINUOUS
 70
     0
  3
Solid line
 72
    65
 73
     0
 40
0.0
  0
LTYPE
  5
1234E
330
E80C
100
AcDbSymbolTableRecord
100
AcDbLinetypeTableRecord
  2
CENTER
 70
     0
  3
Center ____ _ ____ _ ____ _ ____ _ ____ _ ____
 72
    65
 73
     4
 40
2.0
 49
1.25
 74
     0
 49
-0.25
 74
     0
 49
0.25
 74
     0
 49
-0.25
 74
     0
  0
LTYPE
  5
3CF84
330
E80C
100
AcDbSymbolTableRecord
100
AcDbLinetypeTableRecord
  2
DASHDOT
 70
     0
  3
Dash dot __ . __ . __ . __ . __ . __ . __ . __
 72
    65
 73
     4
 40
1.0
 49
0.5
 74
     0
 49
-0.25
 74
     0
 49
0.0
 74
     0
 49
-0.25
 74
     0
  0
ENDTAB
  0
TABLE
  2
LAYER
  5
E809
102
{ACAD_XDICTIONARY
360
3BA57
102
}
330
0
100
AcDbSymbolTable
 70
    10
  0
LAYER
  5
E816
330
E809
100
AcDbSymbolTableRecord
100
AcDbLayerTableRecord
  2
0
 70
     0
 62
     7
  6
CONTINUOUS
370
    30
390
127E2
  0
LAYER
  5
E974
330
E809
100
AcDbSymbolTableRecord
100
AcDbLayerTableRecord
  2
KOP
 70
     0
 62
     7
  6
CONTINUOUS
370
    -3
390
127E2
  0
LAYER
  5
12350
330
E809
100
AcDbSymbolTableRecord
100
AcDbLayerTableRecord
  2
TEMPLATE
 70
     0
 62
     1
  6
CONTINUOUS
370
    50
390
127E2
  0
LAYER
  5
12351
330
E809
100
AcDbSymbolTableRecord
100
AcDbLayerTableRecord
  2
CENTER
 70
     0
 62
     3
  6
CENTER
370
    13
390
127E2
  0
LAYER
  5
127DD
330
E809
100
AcDbSymbolTableRecord
100
AcDbLayerTableRecord
  2
DIMENSI
 70
     0
 62
     4
  6
CONTINUOUS
370
    13
390
127E2
  0
LAYER
  5
23557
330
E809
100
AcDbSymbolTableRecord
100
AcDbLayerTableRecord
  2
VP
 70
     0
 62
    -7
  6
CONTINUOUS
370
    13
390
127E2
  0
LAYER
  5
3B430
330
E809
100
AcDbSymbolTableRecord
100
AcDbLayerTableRecord
  2
TOTO
 70
     0
 62
     7
  6
CONTINUOUS
370
    -3
390
127E2
  0
LAYER
  5
3B4E3
330
E809
100
AcDbSymbolTableRecord
100
AcDbLayerTableRecord
  2
Defpoints
 70
     0
 62
     7
  6
CONTINUOUS
290
     0
370
    -3
390
127E2
  0
LAYER
  5
3BCA0
330
E809
100
AcDbSymbolTableRecord
100
AcDbLayerTableRecord
  2
TEXT
 70
     0
 62
     7
  6
CONTINUOUS
370
    -3
390
127E2
  0
LAYER
  5
3CF86
330
E809
100
AcDbSymbolTableRecord
100
AcDbLayerTableRecord
  2
GRS. LW640J
 70
     0
 62
     6
  6
DASHDOT
370
    18
390
127E2
  0
ENDTAB
  0
TABLE
  2
STYLE
  5
E80A
330
0
100
AcDbSymbolTable
 70
     4
  0
STYLE
  5
E817
330
E80A
100
AcDbSymbolTableRecord
100
AcDbTextStyleTableRecord
  2
STANDARD
 70
     0
 40
0.0
 41
1.0
 50
0.0
 71
     0
 42
0.2
  3
TXT.shx
  4

  0
STYLE
  5
E95B
330
E80A
100
AcDbSymbolTableRecord
100
AcDbTextStyleTableRecord
  2
ROMANS
 70
     0
 40
0.0
 41
0.75
 50
10.0
 71
     0
 42
6.0
  3
romans.shx
  4

  0
STYLE
  5
20EB6
330
E80A
100
AcDbSymbolTableRecord
100
AcDbTextStyleTableRecord
  2
Arial Reguler
 70
     0
 40
0.0
 41
1.0
 50
0.0
 71
     0
 42
3.0
  3
ARIAL.TTF
  4

1001
ACAD
1000
Arial
1071
       34
  0
STYLE
  5
3C915
330
E80A
100
AcDbSymbolTableRecord
100
AcDbTextStyleTableRecord
  2
black
 70
     0
 40
0.4
 41
1.0
 50
0.0
 71
     0
 42
0.4
  3
ARIAL.TTF
  4

1001
ACAD
1000
Arial
1071
       34
  0
ENDTAB
  0
TABLE
  2
VIEW
  5
E80D
330
0
100
AcDbSymbolTable
 70
     1
  0
ENDTAB
  0
TABLE
  2
UCS
  5
E80E
330
0
100
AcDbSymbolTable
 70
     0
  0
ENDTAB
  0
TABLE
  2
APPID
  5
E810
330
0
100
AcDbSymbolTable
 70
    15
  0
APPID
  5
E818
330
E810
100
AcDbSymbolTableRecord
100
AcDbRegAppTableRecord
  2
ACAD
 70
     0
  0
APPID
  5
E965
330
E810
100
AcDbSymbolTableRecord
100
AcDbRegAppTableRecord
  2
AVE_RENDER
 70
     0
  0
APPID
  5
E966
330
E810
100
AcDbSymbolTableRecord
100
AcDbRegAppTableRecord
  2
AVE_MATERIAL
 70
     0
  0
APPID
  5
3BB9A
330
E810
100
AcDbSymbolTableRecord
100
AcDbRegAppTableRecord
  2
ACAD_EXEMPT_FROM_CAD_STANDARDS
 70
     0
  0
APPID
  5
3BDBD
330
E810
100
AcDbSymbolTableRecord
100
AcDbRegAppTableRecord
  2
ACAD_PSEXT
 70
     0
  0
APPID
  5
3BDBE
330
E810
100
AcDbSymbolTableRecord
100
AcDbRegAppTableRecord
  2
ACAD_DSTYLE_DIMEXT_LENGTH
 70
     0
  0
APPID
  5
3BDBF
330
E810
100
AcDbSymbolTableRecord
100
AcDbRegAppTableRecord
  2
ACAD_DSTYLE_DIMEXT_ENABLED
 70
     0
  0
APPID
  5
3BDC0
330
E810
100
AcDbSymbolTableRecord
100
AcDbRegAppTableRecord
  2
ACAD_DSTYLE_DIMJOGGED_JOGANGLE_SYMBOL
 70
     0
  0
APPID
  5
3BDC1
330
E810
100
AcDbSymbolTableRecord
100
AcDbRegAppTableRecord
  2
ACAD_DSTYLE_DIMARC_LENGTH_SYMBOL
 70
     0
  0
APPID
  5
3BDC2
330
E810
100
AcDbSymbolTableRecord
100
AcDbRegAppTableRecord
  2
AcAecLayerStandard
 70
     0
  0
APPID
  5
3BF84
330
E810
100
AcDbSymbolTableRecord
100
AcDbRegAppTableRecord
  2
ACAD_DSTYLE_DIM_LINETYPE
 70
     0
  0
APPID
  5
3BF85
330
E810
100
AcDbSymbolTableRecord
100
AcDbRegAppTableRecord
  2
ACAD_DSTYLE_DIM_EXT1_LINETYPE
 70
     0
  0
APPID
  5
3BF86
330
E810
100
AcDbSymbolTableRecord
100
AcDbRegAppTableRecord
  2
ACAD_DSTYLE_DIM_EXT2_LINETYPE
 70
     0
  0
APPID
  5
3C526
330
E810
100
AcDbSymbolTableRecord
100
AcDbRegAppTableRecord
  2
ACAD_DSTYLE_DIMTEXT_FILL
 70
     0
  0
APPID
  5
3D122
330
E810
100
AcDbSymbolTableRecord
100
AcDbRegAppTableRecord
  2
DCO15
 70
     0
  0
ENDTAB
  0
TABLE
  2
DIMSTYLE
  5
E811
330
0
100
AcDbSymbolTable
 70
     3
100
AcDbDimStyleTable
 71
     1
340
123A5
  0
DIMSTYLE
105
123A5
330
E811
100
AcDbSymbolTableRecord
100
AcDbDimStyleTableRecord
  2
DIM-1
 70
     0
 40
10.0
 41
2.1
 42
0.5
 43
5.0
 44
0.5
 73
     0
 74
     0
 77
     1
140
2.799999999999999
141
0.0
147
0.5
174
     1
176
   256
177
   256
178
   256
271
     0
272
     0
279
     2
289
     0
340
E95B
371
    -1
372
    -1
1001
ACAD_DSTYLE_DIMJOGGED_JOGANGLE_SYMBOL
1070
   384
1040
0.7853981633974483
1001
ACAD_DSTYLE_DIMEXT_LENGTH
1070
   378
1040
0.5
  0
DIMSTYLE
105
3BDBB
330
E811
100
AcDbSymbolTableRecord
100
AcDbDimStyleTableRecord
  2
Standard
 70
     0
340
E817
  0
DIMSTYLE
105
3CF87
102
{ACAD_REACTORS
330
3CF94
102
}
330
E811
100
AcDbSymbolTableRecord
100
AcDbDimStyleTableRecord
  2
DIM-1A
 70
     0
  3
mm
  4
"
 41
4.0
 42
0.5
 43
1.0
 44
0.5
 73
     0
 74
     0
 77
     1
140
3.0
141
0.0
143
0.03937
147
1.5
170
     1
171
     3
176
   256
177
   256
178
   256
271
     0
272
     0
273
     7
274
     3
289
     2
340
20EB6
371
    -1
372
    -1
1001
ACAD_DSTYLE_DIMJOGGED_JOGANGLE_SYMBOL
1070
   384
1040
0.7853981633974483
  0
ENDTAB
  0
TABLE
  2
BLOCK_RECORD
  5
E808
330
0
100
AcDbSymbolTable
 70
    19
  0
BLOCK_RECORD
  5
E81F
102
{ACAD_XDICTIONARY
360
3BBA3
102
}
330
E808
100
AcDbSymbolTableRecord
100
AcDbBlockTableRecord
  2
*MODEL_SPACE
340
127E5
  0
BLOCK_RECORD
  5
3B585
330
E808
100
AcDbSymbolTableRecord
100
AcDbBlockTableRecord
  2
*Paper_Space
340
3B5C8
  0
BLOCK_RECORD
  5
E823
330
E808
100
AcDbSymbolTableRecord
100
AcDbBlockTableRecord
  2
AVE_RENDER
340
0
102
{BLKREFS
331
77C
331
77D
331
77E
331
77F
331
780
331
781
331
782
331
783
331
12131
331
12132
331
12133
331
12134
331
12135
331
12136
331
12137
331
12138
331
1213C
331
1213D
331
1213E
331
1213F
331
12140
331
12141
331
12142
331
12143
331
12147
331
12148
331
12149
331
1214A
331
1214B
331
1214C
331
1214D
331
1214E
331
12258
331
12259
331
1225A
331
1225B
331
1225C
331
1225D
331
1225E
331
1225F
331
12263
331
12264
331
12265
331
12266
331
12267
331
12268
331
12269
331
1226A
331
1226E
331
1226F
331
12270
331
12271
331
12272
331
12273
331
12274
331
12275
331
12279
331
1227A
331
1227B
331
1227C
331
1227D
331
1227E
331
1227F
331
12280
102
}
  0
BLOCK_RECORD
  5
E824
330
E808
100
AcDbSymbolTableRecord
100
AcDbBlockTableRecord
  2
AVE_GLOBAL
340
0
102
{BLKREFS
331
78A
331
12139
331
12144
331
1214F
331
12260
331
1226B
331
12276
331
12281
102
}
  0
BLOCK_RECORD
  5
10B38
330
E808
100
AcDbSymbolTableRecord
100
AcDbBlockTableRecord
  2
*X2
340
0
102
{BLKREFS
331
10EE4
102
}
  0
BLOCK_RECORD
  5
10B3B
330
E808
100
AcDbSymbolTableRecord
100
AcDbBlockTableRecord
  2
*X3
340
0
102
{BLKREFS
331
10EE5
102
}
  0
BLOCK_RECORD
  5
11F83
330
E808
100
AcDbSymbolTableRecord
100
AcDbBlockTableRecord
  2
*X4
340
0
102
{BLKREFS
331
1213A
102
}
  0
BLOCK_RECORD
  5
11F86
330
E808
100
AcDbSymbolTableRecord
100
AcDbBlockTableRecord
  2
*X5
340
0
102
{BLKREFS
331
1213B
102
}
  0
BLOCK_RECORD
  5
11F89
330
E808
100
AcDbSymbolTableRecord
100
AcDbBlockTableRecord
  2
*X6
340
0
102
{BLKREFS
331
12145
102
}
  0
BLOCK_RECORD
  5
11F8C
330
E808
100
AcDbSymbolTableRecord
100
AcDbBlockTableRecord
  2
*X7
340
0
102
{BLKREFS
331
12146
102
}
  0
BLOCK_RECORD
  5
11F8F
330
E808
100
AcDbSymbolTableRecord
100
AcDbBlockTableRecord
  2
*X8
340
0
102
{BLKREFS
331
12150
102
}
  0
BLOCK_RECORD
  5
11F92
330
E808
100
AcDbSymbolTableRecord
100
AcDbBlockTableRecord
  2
*X9
340
0
102
{BLKREFS
331
12151
102
}
  0
BLOCK_RECORD
  5
1220C
330
E808
100
AcDbSymbolTableRecord
100
AcDbBlockTableRecord
  2
*X10
340
0
102
{BLKREFS
331
12261
102
}
  0
BLOCK_RECORD
  5
1220F
330
E808
100
AcDbSymbolTableRecord
100
AcDbBlockTableRecord
  2
*X11
340
0
102
{BLKREFS
331
12262
102
}
  0
BLOCK_RECORD
  5
12212
330
E808
100
AcDbSymbolTableRecord
100
AcDbBlockTableRecord
  2
*X12
340
0
102
{BLKREFS
331
1226C
102
}
  0
BLOCK_RECORD
  5
12215
330
E808
100
AcDbSymbolTableRecord
100
AcDbBlockTableRecord
  2
*X13
340
0
102
{BLKREFS
331
1226D
102
}
  0
BLOCK_RECORD
  5
12218
330
E808
100
AcDbSymbolTableRecord
100
AcDbBlockTableRecord
  2
*X14
340
0
102
{BLKREFS
331
12277
102
}
  0
BLOCK_RECORD
  5
1221B
330
E808
100
AcDbSymbolTableRecord
100
AcDbBlockTableRecord
  2
*X15
340
0
102
{BLKREFS
331
12278
102
}
  0
BLOCK_RECORD
  5
1221E
330
E808
100
AcDbSymbolTableRecord
100
AcDbBlockTableRecord
  2
*X16
340
0
102
{BLKREFS
331
12282
102
}
  0
BLOCK_RECORD
  5
12221
330
E808
100
AcDbSymbolTableRecord
100
AcDbBlockTableRecord
  2
*X17
340
0
102
{BLKREFS
331
12283
102
}
  0
BLOCK_RECORD
  5
3B421
330
E808
100
AcDbSymbolTableRecord
100
AcDbBlockTableRecord
  2
A$C74DC1801
340
0
102
{BLKREFS
331
3CFC2
102
}
  0
ENDTAB
  0
ENDSEC
  0
SECTION
  2
BLOCKS
  0
BLOCK
  5
E977
330
E81F
100
AcDbEntity
  8
0
100
AcDbBlockBegin
  2
*MODEL_SPACE
 70
     0
 10
0.0
 20
0.0
 30
0.0
  3
*MODEL_SPACE
  1

  0
ENDBLK
  5
E978
330
E81F
100
AcDbEntity
  8
0
100
AcDbBlockEnd
  0
BLOCK
  5
3B5C6
330
3B585
100
AcDbEntity
 67
     1
  8
0
100
AcDbBlockBegin
  2
*Paper_Space
 70
     0
 10
0.0
 20
0.0
 30
0.0
  3
*Paper_Space
  1

  0
ENDBLK
  5
3B5C7
330
3B585
100
AcDbEntity
 67
     1
  8
0
100
AcDbBlockEnd
  0
BLOCK
  5
77A
330
E823
100
AcDbEntity
  8
0
100
AcDbBlockBegin
  2
AVE_RENDER
 70
     0
 10
0.0
 20
0.0
 30
0.0
  3
AVE_RENDER
  1
AVE_RENDER
  0
ENDBLK
  5
77B
330
E823
100
AcDbEntity
  8
0
100
AcDbBlockEnd
  0
BLOCK
  5
788
330
E824
100
AcDbEntity
  8
0
100
AcDbBlockBegin
  2
AVE_GLOBAL
 70
     0
 10
0.0
 20
0.0
 30
0.0
  3
AVE_GLOBAL
  1
AVE_GLOBAL
  0
ENDBLK
  5
789
330
E824
100
AcDbEntity
  8
0
100
AcDbBlockEnd
  0
BLOCK
  5
10B39
330
10B38
100
AcDbEntity
  8
0
100
AcDbBlockBegin
  2
*X2
 70
     1
 10
0.0
 20
0.0
 30
0.0
  3
*X2
  1

  0
ENDBLK
  5
10B3A
330
10B38
100
AcDbEntity
  8
0
100
AcDbBlockEnd
  0
BLOCK
  5
10B3C
330
10B3B
100
AcDbEntity
  8
0
100
AcDbBlockBegin
  2
*X3
 70
     1
 10
0.0
 20
0.0
 30
0.0
  3
*X3
  1

  0
ENDBLK
  5
10B3D
330
10B3B
100
AcDbEntity
  8
0
100
AcDbBlockEnd
  0
BLOCK
  5
11F84
330
11F83
100
AcDbEntity
  8
0
100
AcDbBlockBegin
  2
*X4
 70
     1
 10
0.0
 20
0.0
 30
0.0
  3
*X4
  1

  0
ENDBLK
  5
11F85
330
11F83
100
AcDbEntity
  8
0
100
AcDbBlockEnd
  0
BLOCK
  5
11F87
330
11F86
100
AcDbEntity
  8
0
100
AcDbBlockBegin
  2
*X5
 70
     1
 10
0.0
 20
0.0
 30
0.0
  3
*X5
  1

  0
ENDBLK
  5
11F88
330
11F86
100
AcDbEntity
  8
0
100
AcDbBlockEnd
  0
BLOCK
  5
11F8A
330
11F89
100
AcDbEntity
  8
0
100
AcDbBlockBegin
  2
*X6
 70
     1
 10
0.0
 20
0.0
 30
0.0
  3
*X6
  1

  0
ENDBLK
  5
11F8B
330
11F89
100
AcDbEntity
  8
0
100
AcDbBlockEnd
  0
BLOCK
  5
11F8D
330
11F8C
100
AcDbEntity
  8
0
100
AcDbBlockBegin
  2
*X7
 70
     1
 10
0.0
 20
0.0
 30
0.0
  3
*X7
  1

  0
ENDBLK
  5
11F8E
330
11F8C
100
AcDbEntity
  8
0
100
AcDbBlockEnd
  0
BLOCK
  5
11F90
330
11F8F
100
AcDbEntity
  8
0
100
AcDbBlockBegin
  2
*X8
 70
     1
 10
0.0
 20
0.0
 30
0.0
  3
*X8
  1

  0
ENDBLK
  5
11F91
330
11F8F
100
AcDbEntity
  8
0
100
AcDbBlockEnd
  0
BLOCK
  5
11F93
330
11F92
100
AcDbEntity
  8
0
100
AcDbBlockBegin
  2
*X9
 70
     1
 10
0.0
 20
0.0
 30
0.0
  3
*X9
  1

  0
ENDBLK
  5
11F94
330
11F92
100
AcDbEntity
  8
0
100
AcDbBlockEnd
  0
BLOCK
  5
1220D
330
1220C
100
AcDbEntity
  8
0
100
AcDbBlockBegin
  2
*X10
 70
     1
 10
0.0
 20
0.0
 30
0.0
  3
*X10
  1

  0
ENDBLK
  5
1220E
330
1220C
100
AcDbEntity
  8
0
100
AcDbBlockEnd
  0
BLOCK
  5
12210
330
1220F
100
AcDbEntity
  8
0
100
AcDbBlockBegin
  2
*X11
 70
     1
 10
0.0
 20
0.0
 30
0.0
  3
*X11
  1

  0
ENDBLK
  5
12211
330
1220F
100
AcDbEntity
  8
0
100
AcDbBlockEnd
  0
BLOCK
  5
12213
330
12212
100
AcDbEntity
  8
0
100
AcDbBlockBegin
  2
*X12
 70
     1
 10
0.0
 20
0.0
 30
0.0
  3
*X12
  1

  0
ENDBLK
  5
12214
330
12212
100
AcDbEntity
  8
0
100
AcDbBlockEnd
  0
BLOCK
  5
12216
330
12215
100
AcDbEntity
  8
0
100
AcDbBlockBegin
  2
*X13
 70
     1
 10
0.0
 20
0.0
 30
0.0
  3
*X13
  1

  0
ENDBLK
  5
12217
330
12215
100
AcDbEntity
  8
0
100
AcDbBlockEnd
  0
BLOCK
  5
12219
330
12218
100
AcDbEntity
  8
0
100
AcDbBlockBegin
  2
*X14
 70
     1
 10
0.0
 20
0.0
 30
0.0
  3
*X14
  1

  0
ENDBLK
  5
1221A
330
12218
100
AcDbEntity
  8
0
100
AcDbBlockEnd
  0
BLOCK
  5
1221C
330
1221B
100
AcDbEntity
  8
0
100
AcDbBlockBegin
  2
*X15
 70
     1
 10
0.0
 20
0.0
 30
0.0
  3
*X15
  1

  0
ENDBLK
  5
1221D
330
1221B
100
AcDbEntity
  8
0
100
AcDbBlockEnd
  0
BLOCK
  5
1221F
330
1221E
100
AcDbEntity
  8
0
100
AcDbBlockBegin
  2
*X16
 70
     1
 10
0.0
 20
0.0
 30
0.0
  3
*X16
  1

  0
ENDBLK
  5
12220
330
1221E
100
AcDbEntity
  8
0
100
AcDbBlockEnd
  0
BLOCK
  5
12222
330
12221
100
AcDbEntity
  8
0
100
AcDbBlockBegin
  2
*X17
 70
     1
 10
0.0
 20
0.0
 30
0.0
  3
*X17
  1

  0
ENDBLK
  5
12223
330
12221
100
AcDbEntity
  8
0
100
AcDbBlockEnd
  0
BLOCK
  5
3B42D
330
3B421
100
AcDbEntity
  8
0
100
AcDbBlockBegin
  2
A$C74DC1801
 70
     0
 10
0.0
 20
0.0
 30
0.0
  3
A$C74DC1801
  1

  0
LWPOLYLINE
  5
3B422
330
3B421
100
AcDbEntity
  8
TOTO
100
AcDbPolyline
 90
        7
 70
     1
 43
0.0
 10
37.91232115383411
 20
23.73162294462236
 10
37.91232115383411
 20
23.73162294462236
 42
0.331883
 10
37.82668915383402
 20
6.373072944622206
 42
0.4729860000000001
 10
64.75835615383411
 20
6.365232944622333
 10
64.75835615383411
 20
6.365232944622333
 42
0.331879
 10
64.68393115383404
 20
23.72368594462227
 10
64.68393115383404
 20
23.72368594462227
 42
0.468582
  0
HATCH
  5
3B423
330
3B421
100
AcDbEntity
  8
TOTO
100
AcDbHatch
 10
0.0
 20
0.0
 30
0.0
210
0.0
220
0.0
230
1.0
  2
SOLID
 70
     1
 71
     0
 91
       10
 92
        7
 72
     1
 73
     1
 93
       20
 10
18.53316830636113
 20
25.64512690726724
 42
0.0
 10
21.08924420219011
 20
25.64512690726724
 42
-0.4142752124674323
 10
26.80593530322191
 20
19.92723241900728
 42
0.0
 10
26.80561126091433
 20
18.38770741058533
 42
0.0
 10
30.19296838640961
 20
18.38770741058533
 42
0.0
 10
30.19520892030833
 20
29.03248395772914
 42
0.0
 10
0.0002185510645631
 20
29.03248395772914
 42
0.0
 10
-0.0000019816554726
 20
18.38770741058533
 42
0.0
 10
3.386681374428674
 20
18.38770741058533
 42
0.0
 10
3.387005923266556
 20
19.92963894019908
 42
-0.4141519149660894
 10
9.103697024299107
 20
25.64512690726724
 42
0.0
 10
11.66233392741882
 20
25.64512690726724
 42
0.0
 10
11.65816177148882
 20
6.483784833212553
 42
-0.4141497897727592
 10
9.528785548528716
 20
4.354872206299546
 42
0.0
 10
5.899612067634492
 20
4.354872206299546
 42
0.0
 10
5.898874510644191
 20
0.9675151558371908
 42
0.0
 10
24.28588120613003
 20
0.9675151558371908
 42
0.0
 10
24.28661876312041
 20
4.354872206299546
 42
0.0
 10
20.65837257529541
 20
4.354872206299546
 42
-0.4142773378492039
 10
18.52899635233612
 20
6.484712126259638
 42
0.0
 97
        0
 92
        7
 72
     1
 73
     1
 93
       20
 10
90.93278059410906
 20
25.64512690726724
 42
0.0
 10
93.48885648993805
 20
25.64512690726724
 42
-0.4142752124674332
 10
99.20554759097059
 20
19.92723241900728
 42
0.0
 10
99.20522354866321
 20
18.38770741058533
 42
0.0
 10
102.5925806741584
 20
18.38770741058533
 42
0.0
 10
102.5948212080568
 20
29.03248395772914
 42
0.0
 10
72.3998308388133
 20
29.03248395772914
 42
0.0
 10
72.39961030609331
 20
18.38770741058533
 42
0.0
 10
75.78629366217744
 20
18.38770741058533
 42
0.0
 10
75.78661821101523
 20
19.92963894019908
 42
-0.414151914966089
 10
81.50330931204711
 20
25.64512690726724
 42
0.0
 10
84.0619462151678
 20
25.64512690726724
 42
0.0
 10
84.05777405923723
 20
6.483784833212553
 42
-0.41414978977276
 10
81.92839783627695
 20
4.354872206299546
 42
0.0
 10
78.29922435538242
 20
4.354872206299546
 42
0.0
 10
78.29848679839253
 20
0.9675151558371908
 42
0.0
 10
96.6854934938788
 20
0.9675151558371908
 42
0.0
 10
96.68623105086922
 20
4.354872206299546
 42
0.0
 10
93.05798486304381
 20
4.354872206299546
 42
-0.4142773378492051
 10
90.92860864008505
 20
6.484712126259638
 42
0.0
 97
        0
 92
       16
 93
        4
 72
     2
 10
51.29488215383403
 20
11.21940294462217
 40
7.832046
 50
199.1202649999999
 51
340.867675
 73
     1
 72
     2
 10
40.40886015383413
 20
14.99590494462222
 40
19.354522
 50
340.867675
 51
379.193527
 73
     1
 72
     2
 10
51.29567815383413
 20
18.78571694462243
 40
7.826925
 50
19.193527
 51
160.7944129999999
 73
     1
 72
     2
 10
62.18169815383413
 20
14.99361394462221
 40
19.354522
 50
160.7944129999999
 51
199.1202649999999
 73
     1
 97
        0
 92
        1
 93
        4
 72
     2
 10
49.50506915383403
 20
14.99494794462236
 40
14.516242
 50
142.997119
 51
216.4375859999999
 73
     1
 72
     2
 10
51.29573915383411
 20
17.41948994462222
 40
17.419491
 50
219.356321
 51
320.61032
 73
     1
 72
     2
 10
53.08549015383403
 20
14.99457094462241
 40
14.516242
 50
323.5257889999999
 51
396.965523
 73
     1
 72
     2
 10
51.29482115383414
 20
12.58050894462235
 40
17.419491
 50
39.769149
 51
140.196876
 73
     1
 97
        0
 92
        1
 93
        4
 72
     2
 10
121.9033351538341
 20
14.99494794462236
 40
14.516242
 50
142.997119
 51
216.4375859999999
 73
     1
 72
     2
 10
123.694005153834
 20
17.41948994462222
 40
17.419491
 50
219.356321
 51
320.61032
 73
     1
 72
     2
 10
125.4837561538341
 20
14.99457094462241
 40
14.516242
 50
323.5257889999999
 51
396.965523
 73
     1
 72
     2
 10
123.693087153834
 20
12.58050894462235
 40
17.419491
 50
39.769149
 51
140.196876
 73
     1
 97
        0
 92
       16
 93
        4
 72
     2
 10
123.6931481538341
 20
11.21940294462217
 40
7.832046
 50
199.1202649999999
 51
340.867675
 73
     1
 72
     2
 10
112.8071261538341
 20
14.99590494462222
 40
19.354522
 50
340.867675
 51
379.193527
 73
     1
 72
     2
 10
123.6939441538341
 20
18.78571694462243
 40
7.826925
 50
19.193527
 51
160.7944129999999
 73
     1
 72
     2
 10
134.579964153834
 20
14.99361394462221
 40
19.354522
 50
160.7944129999999
 51
199.1202649999999
 73
     1
 97
        0
 92
        0
 93
       67
 72
     1
 10
144.6053441538341
 20
27.94836994462218
 11
144.628044153834
 21
27.94805894462217
 72
     1
 10
144.628044153834
 20
27.94805894462217
 11
144.6746891538341
 21
27.94650394462223
 72
     1
 10
144.6746891538341
 20
27.94650394462223
 11
144.719779153834
 21
27.94308394462234
 72
     1
 10
144.719779153834
 20
27.94308394462234
 11
144.763935153834
 21
27.93810794462217
 72
     1
 10
144.763935153834
 20
27.93810794462217
 11
144.806537153834
 21
27.9312669446224
 72
     1
 10
144.806537153834
 20
27.9312669446224
 11
144.848207153834
 21
27.92255994462232
 72
     1
 10
144.848207153834
 20
27.92255994462232
 11
144.8886321538341
 21
27.91260894462232
 72
     1
 10
144.8886321538341
 20
27.91260894462232
 11
144.9275021538341
 21
27.90048094462235
 72
     1
 10
144.9275021538341
 20
27.90048094462235
 11
144.9654401538341
 21
27.88679894462234
 72
     1
 10
144.9654401538341
 20
27.88679894462234
 11
145.0021341538341
 21
27.87156194462227
 72
     1
 10
145.0021341538341
 20
27.87156194462227
 11
145.037584153834
 21
27.85445894462236
 72
     1
 10
145.037584153834
 20
27.85445894462236
 11
145.0717901538341
 21
27.83580094462218
 72
     1
 10
145.0717901538341
 20
27.83580094462218
 11
145.1044411538341
 21
27.81527694462238
 72
     1
 10
145.1044411538341
 20
27.81527694462238
 11
145.136159153834
 21
27.7931989446223
 72
     1
 10
145.136159153834
 20
27.7931989446223
 11
145.166634153834
 21
27.76925494462239
 72
     1
 10
145.166634153834
 20
27.76925494462239
 11
145.1921331538341
 21
27.74624294462239
 72
     1
 10
145.1921331538341
 20
27.74624294462239
 11
145.2204301538341
 21
27.7176349446222
 72
     1
 10
145.2204301538341
 20
27.7176349446222
 11
145.2462401538341
 21
27.68747094462219
 72
     1
 10
145.2462401538341
 20
27.68747094462219
 11
145.269874153834
 21
27.65606394462236
 72
     1
 10
145.269874153834
 20
27.65606394462236
 11
145.291330153834
 21
27.62310194462236
 72
     1
 10
145.291330153834
 20
27.62310194462236
 11
145.310610153834
 21
27.58889594462222
 72
     1
 10
145.310610153834
 20
27.58889594462222
 11
145.327402153834
 21
27.55313494462223
 72
     1
 10
145.327402153834
 20
27.55313494462223
 11
145.342017153834
 21
27.51581894462231
 72
     1
 10
145.342017153834
 20
27.51581894462231
 11
145.3544561538341
 21
27.47725994462234
 72
     1
 10
145.3544561538341
 20
27.47725994462234
 11
145.364407153834
 21
27.43745594462234
 72
     1
 10
145.364407153834
 20
27.43745594462234
 11
145.3724921538341
 21
27.39578694462227
 72
     1
 10
145.3724921538341
 20
27.39578694462227
 11
145.3780891538341
 21
27.35318494462218
 72
     1
 10
145.3780891538341
 20
27.35318494462218
 11
145.3815101538341
 21
27.30871694462234
 72
     1
 10
145.3815101538341
 20
27.30871694462234
 11
145.382443153834
 21
27.26300594462236
 72
     1
 10
145.382443153834
 20
27.26300594462236
 11
145.382132153834
 21
27.22973194462224
 72
     1
 10
145.382132153834
 20
27.22973194462224
 11
145.3808881538341
 21
27.18184394462218
 72
     1
 10
145.3808881538341
 20
27.18184394462218
 11
145.3780891538341
 21
27.13550994462218
 72
     1
 10
145.3780891538341
 20
27.13550994462218
 11
145.373736153834
 21
27.09073194462234
 72
     1
 10
145.373736153834
 20
27.09073194462234
 11
145.368449153834
 21
27.04719694462232
 72
     1
 10
145.368449153834
 20
27.04719694462232
 11
145.3619191538341
 21
27.00490594462223
 72
     1
 10
145.3619191538341
 20
27.00490594462223
 11
145.3538341538341
 21
26.96447994462233
 72
     1
 10
145.3538341538341
 20
26.96447994462233
 11
145.3448161538341
 21
26.92498794462233
 72
     1
 10
145.3448161538341
 20
26.92498794462233
 11
145.334243153834
 21
26.88736094462218
 72
     1
 10
145.334243153834
 20
26.88736094462218
 11
145.3224271538341
 21
26.85097794462218
 72
     1
 10
145.3224271538341
 20
26.85097794462218
 11
145.3093661538341
 21
26.81583894462232
 72
     1
 10
145.3093661538341
 20
26.81583894462232
 11
145.295062153834
 21
26.7825659446222
 72
     1
 10
145.295062153834
 20
26.7825659446222
 11
145.2795141538341
 21
26.75022594462223
 72
     1
 10
145.2795141538341
 20
26.75022594462223
 11
145.262410153834
 21
26.71975194462231
 72
     1
 10
145.262410153834
 20
26.71975194462231
 11
145.2443751538341
 21
26.69052094462232
 72
     1
 10
145.2443751538341
 20
26.69052094462232
 11
145.2247841538341
 21
26.66253394462251
 72
     1
 10
145.2247841538341
 20
26.66253394462251
 11
145.2042601538341
 21
26.63610194462239
 72
     1
 10
145.2042601538341
 20
26.63610194462239
 11
145.1821821538341
 21
26.61122494462233
 72
     1
 10
145.1821821538341
 20
26.61122494462233
 11
145.1588601538341
 21
26.58790294462221
 72
     1
 10
145.1588601538341
 20
26.58790294462221
 11
145.1342931538341
 21
26.56551394462224
 72
     1
 10
145.1342931538341
 20
26.56551394462224
 11
145.1084831538341
 21
26.54498994462233
 72
     1
 10
145.1084831538341
 20
26.54498994462233
 11
145.0811191538341
 21
26.52570994462235
 72
     1
 10
145.0811191538341
 20
26.52570994462235
 11
145.052821153834
 21
26.50798494462219
 72
     1
 10
145.052821153834
 20
26.50798494462219
 11
145.0229681538341
 21
26.4915039446223
 72
     1
 10
145.0229681538341
 20
26.4915039446223
 11
144.9921831538341
 21
26.47657794462236
 72
     1
 10
144.9921831538341
 20
26.47657794462236
 11
144.9598431538341
 21
26.46289494462223
 72
     1
 10
144.9598431538341
 20
26.46289494462223
 11
144.9262591538341
 21
26.45076794462238
 72
     1
 10
144.9262591538341
 20
26.45076794462238
 11
144.8914311538341
 21
26.44019494462236
 72
     1
 10
144.8914311538341
 20
26.44019494462236
 11
144.8553591538341
 21
26.43086594462227
 72
     1
 10
144.8553591538341
 20
26.43086594462227
 11
144.8177321538341
 21
26.42309194462234
 72
     1
 10
144.8177321538341
 20
26.42309194462234
 11
144.779173153834
 21
26.41656194462234
 72
     1
 10
144.779173153834
 20
26.41656194462234
 11
144.7390581538341
 21
26.41158594462218
 72
     1
 10
144.7390581538341
 20
26.41158594462218
 11
144.6980111538341
 21
26.40816594462228
 72
     1
 10
144.6980111538341
 20
26.40816594462228
 11
144.655409153834
 21
26.4059889446222
 72
     1
 10
144.655409153834
 20
26.4059889446222
 11
144.611563153834
 21
26.40505594462217
 72
     1
 10
144.611563153834
 20
26.40505594462217
 11
143.1005901538341
 21
26.40505594462217
 72
     1
 10
143.1005901538341
 20
26.40505594462217
 11
143.1005901538341
 21
27.94836994462218
 72
     1
 10
143.1005901538341
 20
27.94836994462218
 11
144.6053441538341
 21
27.94836994462218
 97
        0
 92
        0
 93
      207
 72
     1
 10
145.508694153834
 20
26.08818394462218
 11
145.467336153834
 21
26.11896894462233
 72
     1
 10
145.467336153834
 20
26.11896894462233
 11
145.4231791538341
 21
26.15068794462218
 72
     1
 10
145.4231791538341
 20
26.15068794462218
 11
145.3765341538341
 21
26.18302794462227
 72
     1
 10
145.3765341538341
 20
26.18302794462227
 11
145.4038991538341
 21
26.20292994462238
 72
     1
 10
145.4038991538341
 20
26.20292994462238
 11
145.4418371538341
 21
26.23184894462236
 72
     1
 10
145.4418371538341
 20
26.23184894462236
 11
145.4782191538341
 21
26.26076894462221
 72
     1
 10
145.4782191538341
 20
26.26076894462221
 11
145.5133581538341
 21
26.29031094462232
 72
     1
 10
145.5133581538341
 20
26.29031094462232
 11
145.547253153834
 21
26.32016294462232
 72
     1
 10
145.547253153834
 20
26.32016294462232
 11
145.5799051538341
 21
26.35032694462234
 72
     1
 10
145.5799051538341
 20
26.35032694462234
 11
145.611001153834
 21
26.38080094462236
 72
     1
 10
145.611001153834
 20
26.38080094462236
 11
145.640854153834
 21
26.41189694462218
 72
     1
 10
145.640854153834
 20
26.41189694462218
 11
145.6694621538341
 21
26.44330494462235
 72
     1
 10
145.6694621538341
 20
26.44330494462235
 11
145.6968271538341
 21
26.47502294462219
 72
     1
 10
145.6968271538341
 20
26.47502294462219
 11
145.722637153834
 21
26.50705194462239
 72
     1
 10
145.722637153834
 20
26.50705194462239
 11
145.7472031538341
 21
26.53970394462227
 72
     1
 10
145.7472031538341
 20
26.53970394462227
 11
145.7705251538341
 21
26.57235494462236
 72
     1
 10
145.7705251538341
 20
26.57235494462236
 11
145.7922931538341
 21
26.60562794462236
 72
     1
 10
145.7922931538341
 20
26.60562794462236
 11
145.812817153834
 21
26.63921194462227
 72
     1
 10
145.812817153834
 20
26.63921194462227
 11
145.8320961538341
 21
26.6734179446222
 72
     1
 10
145.8320961538341
 20
26.6734179446222
 11
145.850132153834
 21
26.70762394462224
 72
     1
 10
145.850132153834
 20
26.70762394462224
 11
145.8666131538341
 21
26.7424519446222
 72
     1
 10
145.8666131538341
 20
26.7424519446222
 11
145.8818511538341
 21
26.77759094462226
 72
     1
 10
145.8818511538341
 20
26.77759094462226
 11
145.8958441538341
 21
26.81304094462234
 72
     1
 10
145.8958441538341
 20
26.81304094462234
 11
145.908593153834
 21
26.84911294462233
 72
     1
 10
145.908593153834
 20
26.84911294462233
 11
145.9197881538341
 21
26.88518394462232
 72
     1
 10
145.9197881538341
 20
26.88518394462232
 11
145.9297391538341
 21
26.92187794462233
 72
     1
 10
145.9297391538341
 20
26.92187794462233
 11
145.938446153834
 21
26.95888294462235
 72
     1
 10
145.938446153834
 20
26.95888294462235
 11
145.945598153834
 21
26.99650994462218
 72
     1
 10
145.945598153834
 20
26.99650994462218
 11
145.9518171538341
 21
27.03413594462222
 72
     1
 10
145.9518171538341
 20
27.03413594462222
 11
145.9561711538341
 21
27.07238494462217
 72
     1
 10
145.9561711538341
 20
27.07238494462217
 11
145.9595911538341
 21
27.11094394462236
 72
     1
 10
145.9595911538341
 20
27.11094394462236
 11
145.9617681538341
 21
27.14981494462233
 72
     1
 10
145.9617681538341
 20
27.14981494462233
 11
145.9623901538341
 21
27.1889959446222
 72
     1
 10
145.9623901538341
 20
27.1889959446222
 11
145.962079153834
 21
27.22568994462221
 72
     1
 10
145.962079153834
 20
27.22568994462221
 11
145.960835153834
 21
27.27637694462237
 72
     1
 10
145.960835153834
 20
27.27637694462237
 11
145.958659153834
 21
27.32613094462237
 72
     1
 10
145.958659153834
 20
27.32613094462237
 11
145.9555491538341
 21
27.37433094462221
 72
     1
 10
145.9555491538341
 20
27.37433094462221
 11
145.951506153834
 21
27.42190794462227
 72
     1
 10
145.951506153834
 20
27.42190794462227
 11
145.9462201538341
 21
27.46793094462214
 72
     1
 10
145.9462201538341
 20
27.46793094462214
 11
145.9400011538341
 21
27.51333094462234
 72
     1
 10
145.9400011538341
 20
27.51333094462234
 11
145.932849153834
 21
27.55717694462237
 72
     1
 10
145.932849153834
 20
27.55717694462237
 11
145.9247641538341
 21
27.60008994462237
 72
     1
 10
145.9247641538341
 20
27.60008994462237
 11
145.9157461538341
 21
27.6417599446222
 72
     1
 10
145.9157461538341
 20
27.6417599446222
 11
145.9057951538341
 21
27.68249594462236
 72
     1
 10
145.9057951538341
 20
27.68249594462236
 11
145.8946001538341
 21
27.72198794462235
 72
     1
 10
145.8946001538341
 20
27.72198794462235
 11
145.882472153834
 21
27.7602369446222
 72
     1
 10
145.882472153834
 20
27.7602369446222
 11
145.8694121538341
 21
27.79755194462234
 72
     1
 10
145.8694121538341
 20
27.79755194462234
 11
145.8554191538341
 21
27.83393494462222
 72
     1
 10
145.8554191538341
 20
27.83393494462222
 11
145.8404921538341
 21
27.86876294462218
 72
     1
 10
145.8404921538341
 20
27.86876294462218
 11
145.8243221538341
 21
27.90265794462232
 72
     1
 10
145.8243221538341
 20
27.90265794462232
 11
145.8075301538341
 21
27.9356199446222
 72
     1
 10
145.8075301538341
 20
27.9356199446222
 11
145.789494153834
 21
27.96733894462238
 72
     1
 10
145.789494153834
 20
27.96733894462238
 11
145.7705251538341
 21
27.99781294462241
 72
     1
 10
145.7705251538341
 20
27.99781294462241
 11
145.750624153834
 21
28.02735494462218
 72
     1
 10
145.750624153834
 20
28.02735494462218
 11
145.729478153834
 21
28.05565194462235
 72
     1
 10
145.729478153834
 20
28.05565194462235
 11
145.707711153834
 21
28.08270594462237
 72
     1
 10
145.707711153834
 20
28.08270594462237
 11
145.684699153834
 21
28.10882694462236
 72
     1
 10
145.684699153834
 20
28.10882694462236
 11
145.6641761538341
 21
28.13028394462219
 72
     1
 10
145.6641761538341
 20
28.13028394462219
 11
145.639921153834
 21
28.1532949446223
 72
     1
 10
145.639921153834
 20
28.1532949446223
 11
145.614733153834
 21
28.1756849446224
 72
     1
 10
145.614733153834
 20
28.1756849446224
 11
145.5886121538341
 21
28.19714094462222
 72
     1
 10
145.5886121538341
 20
28.19714094462222
 11
145.561247153834
 21
28.21766494462235
 72
     1
 10
145.561247153834
 20
28.21766494462235
 11
145.532638153834
 21
28.23756594462236
 72
     1
 10
145.532638153834
 20
28.23756594462236
 11
145.503097153834
 21
28.25653494462221
 72
     1
 10
145.503097153834
 20
28.25653494462221
 11
145.472622153834
 21
28.27457094462238
 72
     1
 10
145.472622153834
 20
28.27457094462238
 11
145.440904153834
 21
28.29198494462231
 72
     1
 10
145.440904153834
 20
28.29198494462231
 11
145.408253153834
 21
28.30846594462218
 72
     1
 10
145.408253153834
 20
28.30846594462218
 11
145.374357153834
 21
28.32401394462237
 72
     1
 10
145.374357153834
 20
28.32401394462237
 11
145.3395301538341
 21
28.33894094462221
 72
     1
 10
145.3395301538341
 20
28.33894094462221
 11
145.3034581538341
 21
28.35262294462222
 72
     1
 10
145.3034581538341
 20
28.35262294462222
 11
145.2664531538341
 21
28.36568294462233
 72
     1
 10
145.2664531538341
 20
28.36568294462233
 11
145.2282041538341
 21
28.3781219446222
 72
     1
 10
145.2282041538341
 20
28.3781219446222
 11
145.1890231538341
 21
28.38931694462223
 72
     1
 10
145.1890231538341
 20
28.38931694462223
 11
145.148598153834
 21
28.39988894462237
 72
     1
 10
145.148598153834
 20
28.39988894462237
 11
145.107240153834
 21
28.40952894462214
 72
     1
 10
145.107240153834
 20
28.40952894462214
 11
145.064948153834
 21
28.41854694462222
 72
     1
 10
145.064948153834
 20
28.41854694462222
 11
145.0211031538341
 21
28.42632094462237
 72
     1
 10
145.0211031538341
 20
28.42632094462237
 11
144.976635153834
 21
28.43378494462217
 72
     1
 10
144.976635153834
 20
28.43378494462217
 11
144.930923153834
 21
28.44000394462227
 72
     1
 10
144.930923153834
 20
28.44000394462227
 11
144.8842781538341
 21
28.44528994462223
 72
     1
 10
144.8842781538341
 20
28.44528994462223
 11
144.8363901538341
 21
28.44995494462239
 72
     1
 10
144.8363901538341
 20
28.44995494462239
 11
144.787258153834
 21
28.45399694462241
 72
     1
 10
144.787258153834
 20
28.45399694462241
 11
144.737193153834
 21
28.45679594462217
 72
     1
 10
144.737193153834
 20
28.45679594462217
 11
144.686194153834
 21
28.45897294462236
 72
     1
 10
144.686194153834
 20
28.45897294462236
 11
144.6339521538341
 21
28.46021594462218
 72
     1
 10
144.6339521538341
 20
28.46021594462218
 11
144.580778153834
 21
28.46052694462219
 72
     1
 10
144.580778153834
 20
28.46052694462219
 11
142.5209531538341
 21
28.46052694462219
 72
     1
 10
142.5209531538341
 20
28.46052694462219
 11
142.5209531538341
 21
23.96087994462232
 72
     1
 10
142.5209531538341
 20
23.96087994462232
 11
143.1005901538341
 21
23.96087994462232
 72
     1
 10
143.1005901538341
 20
23.96087994462232
 11
143.1005901538341
 21
25.89289894462218
 72
     1
 10
143.1005901538341
 20
25.89289894462218
 11
144.611563153834
 21
25.89289894462218
 72
     1
 10
144.611563153834
 20
25.89289894462218
 11
144.6457691538341
 21
25.89227694462238
 72
     1
 10
144.6457691538341
 20
25.89227694462238
 11
144.686194153834
 21
25.8900999446222
 72
     1
 10
144.686194153834
 20
25.8900999446222
 11
144.7256871538341
 21
25.88636794462217
 72
     1
 10
144.7256871538341
 20
25.88636794462217
 11
144.7636241538341
 21
25.88108194462233
 72
     1
 10
144.7636241538341
 20
25.88108194462233
 11
144.800318153834
 21
25.87424094462233
 72
     1
 10
144.800318153834
 20
25.87424094462233
 11
144.835768153834
 21
25.86553394462237
 72
     1
 10
144.835768153834
 20
25.86553394462237
 11
144.8699741538341
 21
25.85558294462225
 72
     1
 10
144.8699741538341
 20
25.85558294462225
 11
144.9029361538341
 21
25.84376594462219
 72
     1
 10
144.9029361538341
 20
25.84376594462219
 11
144.9346551538341
 21
25.83039494462218
 72
     1
 10
144.9346551538341
 20
25.83039494462218
 11
144.9648181538341
 21
25.81515794462224
 72
     1
 10
144.9648181538341
 20
25.81515794462224
 11
144.9940491538341
 21
25.79867694462222
 72
     1
 10
144.9940491538341
 20
25.79867694462222
 11
145.021724153834
 21
25.78032994462251
 72
     1
 10
145.021724153834
 20
25.78032994462251
 11
145.0481561538341
 21
25.76073894462217
 72
     1
 10
145.0481561538341
 20
25.76073894462217
 11
145.0733441538341
 21
25.73928294462223
 72
     1
 10
145.0733441538341
 20
25.73928294462223
 11
145.097289153834
 21
25.71627094462235
 72
     1
 10
145.097289153834
 20
25.71627094462235
 11
145.119989153834
 21
25.69139394462217
 72
     1
 10
145.119989153834
 20
25.69139394462217
 11
145.1414461538341
 21
25.6652729446223
 72
     1
 10
145.1414461538341
 20
25.6652729446223
 11
145.161347153834
 21
25.63728594462236
 72
     1
 10
145.161347153834
 20
25.63728594462236
 11
145.180316153834
 21
25.60774494462236
 72
     1
 10
145.180316153834
 20
25.60774494462236
 11
145.197730153834
 21
25.57664794462232
 72
     1
 10
145.197730153834
 20
25.57664794462232
 11
145.2142111538341
 21
25.54399694462233
 72
     1
 10
145.2142111538341
 20
25.54399694462233
 11
145.2291371538341
 21
25.50979094462229
 72
     1
 10
145.2291371538341
 20
25.50979094462229
 11
145.242820153834
 21
25.47371894462219
 72
     1
 10
145.242820153834
 20
25.47371894462219
 11
145.255258153834
 21
25.43640394462227
 72
     1
 10
145.255258153834
 20
25.43640394462227
 11
145.2664531538341
 21
25.39722194462218
 72
     1
 10
145.2664531538341
 20
25.39722194462218
 11
145.2760931538341
 21
25.35648594462236
 72
     1
 10
145.2760931538341
 20
25.35648594462236
 11
145.2848001538341
 21
25.31388394462237
 72
     1
 10
145.2848001538341
 20
25.31388394462237
 11
145.2919521538341
 21
25.27003794462234
 72
     1
 10
145.2919521538341
 20
25.27003794462234
 11
145.2981711538341
 21
25.22432594462236
 72
     1
 10
145.2981711538341
 20
25.22432594462236
 11
145.3028361538341
 21
25.17737094462233
 72
     1
 10
145.3028361538341
 20
25.17737094462233
 11
145.306256153834
 21
25.12854994462213
 72
     1
 10
145.306256153834
 20
25.12854994462213
 11
145.308433153834
 21
25.07817294462233
 72
     1
 10
145.308433153834
 20
25.07817294462233
 11
145.3071891538341
 21
25.05018694462228
 72
     1
 10
145.3071891538341
 20
25.05018694462228
 11
145.3047021538341
 21
24.99701194462227
 72
     1
 10
145.3047021538341
 20
24.99701194462227
 11
145.3025251538341
 21
24.9453919446222
 72
     1
 10
145.3025251538341
 20
24.9453919446222
 11
145.300970153834
 21
24.89532694462218
 72
     1
 10
145.300970153834
 20
24.89532694462218
 11
145.300037153834
 21
24.84681594462222
 72
     1
 10
145.300037153834
 20
24.84681594462222
 11
145.2997261538341
 21
24.7998609446222
 72
     1
 10
145.2997261538341
 20
24.7998609446222
 11
145.2997261538341
 21
24.75414894462221
 72
     1
 10
145.2997261538341
 20
24.75414894462221
 11
145.300037153834
 21
24.70999194462218
 72
     1
 10
145.300037153834
 20
24.70999194462218
 11
145.301281153834
 21
24.66738994462218
 72
     1
 10
145.301281153834
 20
24.66738994462218
 11
145.3025251538341
 21
24.62634294462236
 72
     1
 10
145.3025251538341
 20
24.62634294462236
 11
145.3047021538341
 21
24.58684994462226
 72
     1
 10
145.3047021538341
 20
24.58684994462226
 11
145.3071891538341
 21
24.54860194462219
 72
     1
 10
145.3071891538341
 20
24.54860194462219
 11
145.3099881538341
 21
24.5122189446223
 72
     1
 10
145.3099881538341
 20
24.5122189446223
 11
145.3137201538341
 21
24.47707994462234
 72
     1
 10
145.3137201538341
 20
24.47707994462234
 11
145.3174511538341
 21
24.44349594462221
 72
     1
 10
145.3174511538341
 20
24.44349594462221
 11
145.3221161538341
 21
24.41115594462235
 72
     1
 10
145.3221161538341
 20
24.41115594462235
 11
145.3270911538341
 21
24.38068094462221
 72
     1
 10
145.3270911538341
 20
24.38068094462221
 11
145.3289571538341
 21
24.36886494462237
 72
     1
 10
145.3289571538341
 20
24.36886494462237
 11
145.3367311538341
 21
24.32595194462237
 72
     1
 10
145.3367311538341
 20
24.32595194462237
 11
145.3451271538341
 21
24.28366094462229
 72
     1
 10
145.3451271538341
 20
24.28366094462229
 11
145.3544561538341
 21
24.24168094462231
 72
     1
 10
145.3544561538341
 20
24.24168094462231
 11
145.364096153834
 21
24.20001094462236
 72
     1
 10
145.364096153834
 20
24.20001094462236
 11
145.3746681538341
 21
24.15896394462231
 72
     1
 10
145.3746681538341
 20
24.15896394462231
 11
145.386174153834
 21
24.11853894462217
 72
     1
 10
145.386174153834
 20
24.11853894462217
 11
145.397991153834
 21
24.07842494462227
 72
     1
 10
145.397991153834
 20
24.07842494462227
 11
145.410740153834
 21
24.03862094462238
 72
     1
 10
145.410740153834
 20
24.03862094462238
 11
145.424112153834
 21
23.99943994462228
 72
     1
 10
145.424112153834
 20
23.99943994462228
 11
145.438105153834
 21
23.96087994462232
 72
     1
 10
145.438105153834
 20
23.96087994462232
 11
146.1349751538341
 21
23.96087994462232
 72
     1
 10
146.1349751538341
 20
23.96087994462232
 11
146.1349751538341
 21
24.10889894462218
 72
     1
 10
146.1349751538341
 20
24.10889894462218
 11
146.1066771538341
 21
24.13315394462232
 72
     1
 10
146.1066771538341
 20
24.13315394462232
 11
146.076203153834
 21
24.16238494462231
 72
     1
 10
146.076203153834
 20
24.16238494462231
 11
146.0485271538341
 21
24.19316994462235
 72
     1
 10
146.0485271538341
 20
24.19316994462235
 11
146.0236501538341
 21
24.22519894462221
 72
     1
 10
146.0236501538341
 20
24.22519894462221
 11
146.0015721538341
 21
24.25909494462235
 72
     1
 10
146.0015721538341
 20
24.25909494462235
 11
145.9819811538341
 21
24.2942329446223
 72
     1
 10
145.9819811538341
 20
24.2942329446223
 11
145.9651891538341
 21
24.33061594462219
 72
     1
 10
145.9651891538341
 20
24.33061594462219
 11
145.9511951538341
 21
24.36886494462237
 72
     1
 10
145.9511951538341
 20
24.36886494462237
 11
145.939690153834
 21
24.40835694462236
 72
     1
 10
145.939690153834
 20
24.40835694462236
 11
145.9312941538341
 21
24.44909294462218
 72
     1
 10
145.9312941538341
 20
24.44909294462218
 11
145.9253851538341
 21
24.49169494462228
 72
     1
 10
145.9253851538341
 20
24.49169494462228
 11
145.9247641538341
 21
24.50071294462236
 72
     1
 10
145.9247641538341
 20
24.50071294462236
 11
145.9210321538341
 21
24.5588639446222
 72
     1
 10
145.9210321538341
 20
24.5588639446222
 11
145.9173001538341
 21
24.61545894462223
 72
     1
 10
145.9173001538341
 20
24.61545894462223
 11
145.913880153834
 21
24.67049994462218
 72
     1
 10
145.913880153834
 20
24.67049994462218
 11
145.9104591538341
 21
24.72398594462219
 72
     1
 10
145.9104591538341
 20
24.72398594462219
 11
145.9073501538341
 21
24.77622694462218
 72
     1
 10
145.9073501538341
 20
24.77622694462218
 11
145.904240153834
 21
24.82660394462232
 72
     1
 10
145.904240153834
 20
24.82660394462232
 11
145.901130153834
 21
24.8757359446223
 72
     1
 10
145.901130153834
 20
24.8757359446223
 11
145.898643153834
 21
24.92331294462235
 72
     1
 10
145.898643153834
 20
24.92331294462235
 11
145.8958441538341
 21
24.96933594462234
 72
     1
 10
145.8958441538341
 20
24.96933594462234
 11
145.8933561538341
 21
25.01380394462228
 72
     1
 10
145.8933561538341
 20
25.01380394462228
 11
145.891179153834
 21
25.0567169446224
 72
     1
 10
145.891179153834
 20
25.0567169446224
 11
145.8890031538341
 21
25.09807494462234
 72
     1
 10
145.8890031538341
 20
25.09807494462234
 11
145.887137153834
 21
25.13818894462235
 72
     1
 10
145.887137153834
 20
25.13818894462235
 11
145.8852711538341
 21
25.17643794462242
 72
     1
 10
145.8852711538341
 20
25.17643794462242
 11
145.8834051538341
 21
25.21344294462233
 72
     1
 10
145.8834051538341
 20
25.21344294462233
 11
145.882161153834
 21
25.24889294462218
 72
     1
 10
145.882161153834
 20
25.24889294462218
 11
145.8806071538341
 21
25.28278794462233
 72
     1
 10
145.8806071538341
 20
25.28278794462233
 11
145.8793631538341
 21
25.3154389446222
 72
     1
 10
145.8793631538341
 20
25.3154389446222
 11
145.8784301538341
 21
25.34622394462235
 72
     1
 10
145.8784301538341
 20
25.34622394462235
 11
145.8774971538341
 21
25.37576594462223
 72
     1
 10
145.8774971538341
 20
25.37576594462223
 11
145.876564153834
 21
25.40344194462238
 72
     1
 10
145.876564153834
 20
25.40344194462238
 11
145.8759421538341
 21
25.42987394462227
 72
     1
 10
145.8759421538341
 20
25.42987394462227
 11
145.871900153834
 21
25.47247594462237
 72
     1
 10
145.871900153834
 20
25.47247594462237
 11
145.865369153834
 21
25.52502794462236
 72
     1
 10
145.865369153834
 20
25.52502794462236
 11
145.8579061538341
 21
25.57416094462235
 72
     1
 10
145.8579061538341
 20
25.57416094462235
 11
145.8495101538341
 21
25.62018294462234
 72
     1
 10
145.8495101538341
 20
25.62018294462234
 11
145.840181153834
 21
25.66278494462233
 72
     1
 10
145.840181153834
 20
25.66278494462233
 11
145.8296091538341
 21
25.70196694462242
 72
     1
 10
145.8296091538341
 20
25.70196694462242
 11
145.818103153834
 21
25.73772794462218
 72
     1
 10
145.818103153834
 20
25.73772794462218
 11
145.8056641538341
 21
25.77006794462238
 72
     1
 10
145.8056641538341
 20
25.77006794462238
 11
145.791982153834
 21
25.79929894462236
 72
     1
 10
145.791982153834
 20
25.79929894462236
 11
145.7773671538341
 21
25.82479794462233
 72
     1
 10
145.7773671538341
 20
25.82479794462233
 11
145.7643061538341
 21
25.84469894462222
 72
     1
 10
145.7643061538341
 20
25.84469894462222
 11
145.746270153834
 21
25.86864394462236
 72
     1
 10
145.746270153834
 20
25.86864394462236
 11
145.7257471538341
 21
25.89352094462219
 72
     1
 10
145.7257471538341
 20
25.89352094462219
 11
145.702735153834
 21
25.91901994462228
 72
     1
 10
145.702735153834
 20
25.91901994462228
 11
145.6769251538341
 21
25.94545194462239
 72
     1
 10
145.6769251538341
 20
25.94545194462239
 11
145.6486281538341
 21
25.97250494462219
 72
     1
 10
145.6486281538341
 20
25.97250494462219
 11
145.617531153834
 21
26.00018094462234
 72
     1
 10
145.617531153834
 20
26.00018094462234
 11
145.5839471538341
 21
26.0287899446222
 72
     1
 10
145.5839471538341
 20
26.0287899446222
 11
145.5475641538341
 21
26.05833094462218
 72
     1
 10
145.5475641538341
 20
26.05833094462218
 11
145.508694153834
 21
26.08818394462218
 97
        0
 92
       16
 93
        1
 72
     2
 10
143.9999981538341
 20
25.99999994462223
 40
3.5
 50
0.0
 51
360.0
 73
     1
 97
        0
 92
        1
 93
        1
 72
     2
 10
143.9999981538341
 20
25.99999994462223
 40
4.0
 50
0.0
 51
360.0
 73
     1
 97
        0
 75
     0
 76
     1
 47
0.5016490000000001
 98
        2
 10
14.36045815383403
 20
14.55321394462237
 10
89.17606215383404
 20
16.05816194462227
  0
LWPOLYLINE
  5
3B424
330
3B421
100
AcDbEntity
  8
TOTO
100
AcDbPolyline
 90
       27
 70
     0
 43
0.0
 10
11.65816215383411
 20
6.483784944622357
 10
11.66233415383402
 20
25.64512694462234
 10
9.103697153834033
 20
25.64512694462234
 42
0.414152
 10
3.387006153834121
 20
19.92963894462218
 10
3.387006153834121
 20
19.92963894462218
 10
3.386681153834118
 20
18.38770694462221
 10
-0.0000018461658726
 20
18.38770694462221
 10
0.0002181538341262
 20
29.03248394462218
 10
30.19520915383411
 20
29.03248394462218
 10
30.19296815383404
 20
18.38770694462221
 10
26.80561115383402
 20
18.38770694462221
 10
26.80593515383411
 20
19.92723194462234
 10
26.80593515383411
 20
19.92723194462234
 42
0.4142750000000003
 10
21.08924415383403
 20
25.64512694462234
 10
21.08924415383403
 20
25.64512694462234
 10
18.53316815383412
 20
25.64512694462234
 10
18.52899615383412
 20
6.484711944622175
 10
18.52899615383412
 20
6.484711944622175
 42
0.4142770000000002
 10
20.65837215383412
 20
4.354871944622344
 10
20.65837215383412
 20
4.354871944622344
 10
24.28661915383412
 20
4.354871944622344
 10
24.28588115383411
 20
0.9675149446222803
 10
5.898874153834128
 20
0.9675149446222803
 10
5.899612153834112
 20
4.354871944622344
 10
9.528785153834023
 20
4.354871944622344
 10
9.528785153834023
 20
4.354871944622344
 42
0.4142140000000003
 10
11.65816215383411
 20
6.484248944622322
  0
CIRCLE
  5
3B425
330
3B421
100
AcDbEntity
  8
TOTO
100
AcDbCircle
 10
143.9999981538341
 20
25.99999994462223
 30
0.0
 40
3.5
  0
CIRCLE
  5
3B426
330
3B421
100
AcDbEntity
  8
TOTO
100
AcDbCircle
 10
143.9999981538341
 20
25.99999994462223
 30
0.0
 40
4.0
  0
LWPOLYLINE
  5
3B427
330
3B421
100
AcDbEntity
  8
TOTO
100
AcDbPolyline
 90
        6
 70
     0
 43
0.0
 10
116.2931711538341
 20
8.653999944622341
 42
0.7116310000000003
 10
131.0925851538341
 20
8.65244194462241
 42
0.168805
 10
131.0857981538341
 20
21.35889694462241
 42
0.7106690000000003
 10
116.302632153834
 20
21.36045294462235
 10
116.302632153834
 20
21.36045294462235
 42
0.168805
 10
116.2931711538341
 20
8.653999944622341
  0
LWPOLYLINE
  5
3B428
330
3B421
100
AcDbEntity
  8
TOTO
100
AcDbPolyline
 90
        7
 70
     1
 43
0.0
 10
110.310588153834
 20
23.73162294462236
 10
110.310588153834
 20
23.73162294462236
 42
0.331883
 10
110.224955153834
 20
6.373072944622206
 42
0.4729860000000001
 10
137.156622153834
 20
6.365232944622333
 10
137.156622153834
 20
6.365232944622333
 42
0.331879
 10
137.082197153834
 20
23.72368594462227
 10
137.082197153834
 20
23.72368594462227
 42
0.468582
  0
LWPOLYLINE
  5
3B429
330
3B421
100
AcDbEntity
  8
TOTO
100
AcDbPolyline
 90
        6
 70
     0
 43
0.0
 10
43.89490515383411
 20
8.653999944622341
 42
0.7116310000000003
 10
58.69431915383414
 20
8.65244194462241
 42
0.168805
 10
58.687532153834
 20
21.35889694462241
 42
0.7106690000000003
 10
43.90436615383413
 20
21.36045294462235
 10
43.90436615383413
 20
21.36045294462235
 42
0.168805
 10
43.89490515383411
 20
8.653999944622341
  0
LWPOLYLINE
  5
3B42A
330
3B421
100
AcDbEntity
  8
TOTO
100
AcDbPolyline
 90
       27
 70
     0
 43
0.0
 10
84.05777415383402
 20
6.483784944622357
 10
84.06194615383412
 20
25.64512694462234
 10
81.50330915383412
 20
25.64512694462234
 42
0.414152
 10
75.78661815383412
 20
19.92963894462218
 10
75.78661815383412
 20
19.92963894462218
 10
75.78629415383403
 20
18.38770694462221
 10
72.39961015383411
 20
18.38770694462221
 10
72.39983115383409
 20
29.03248394462218
 10
102.5948211538341
 20
29.03248394462218
 10
102.5925811538341
 20
18.38770694462221
 10
99.20522315383406
 20
18.38770694462221
 10
99.20554715383413
 20
19.92723194462234
 10
99.20554715383413
 20
19.92723194462234
 42
0.4142750000000003
 10
93.48885615383403
 20
25.64512694462234
 10
93.48885615383403
 20
25.64512694462234
 10
90.93278015383408
 20
25.64512694462234
 10
90.92860815383414
 20
6.484711944622175
 10
90.92860815383414
 20
6.484711944622175
 42
0.4142770000000002
 10
93.05798515383413
 20
4.354871944622344
 10
93.05798515383413
 20
4.354871944622344
 10
96.68623115383406
 20
4.354871944622344
 10
96.68549315383414
 20
0.9675149446222803
 10
78.29848715383412
 20
0.9675149446222803
 10
78.29922415383411
 20
4.354871944622344
 10
81.92839815383406
 20
4.354871944622344
 10
81.92839815383406
 20
4.354871944622344
 42
0.4142140000000003
 10
84.05777415383402
 20
6.484248944622322
  0
LWPOLYLINE
  5
3B42B
330
3B421
100
AcDbEntity
  8
TOTO
100
AcDbPolyline
 90
       67
 70
     1
 43
0.0
 10
144.6053441538341
 20
27.94836994462218
 10
144.628044153834
 20
27.94805894462217
 10
144.6746891538341
 20
27.94650394462223
 10
144.719779153834
 20
27.94308394462234
 10
144.763935153834
 20
27.93810794462217
 10
144.806537153834
 20
27.9312669446224
 10
144.848207153834
 20
27.92255994462232
 10
144.8886321538341
 20
27.91260894462232
 10
144.9275021538341
 20
27.90048094462235
 10
144.9654401538341
 20
27.88679894462234
 10
145.0021341538341
 20
27.87156194462227
 10
145.037584153834
 20
27.85445894462236
 10
145.0717901538341
 20
27.83580094462218
 10
145.1044411538341
 20
27.81527694462238
 10
145.136159153834
 20
27.7931989446223
 10
145.166634153834
 20
27.76925494462239
 10
145.1921331538341
 20
27.74624294462239
 10
145.2204301538341
 20
27.7176349446222
 10
145.2462401538341
 20
27.68747094462219
 10
145.269874153834
 20
27.65606394462236
 10
145.291330153834
 20
27.62310194462236
 10
145.310610153834
 20
27.58889594462222
 10
145.327402153834
 20
27.55313494462223
 10
145.342017153834
 20
27.51581894462231
 10
145.3544561538341
 20
27.47725994462234
 10
145.364407153834
 20
27.43745594462234
 10
145.3724921538341
 20
27.39578694462227
 10
145.3780891538341
 20
27.35318494462218
 10
145.3815101538341
 20
27.30871694462234
 10
145.382443153834
 20
27.26300594462236
 10
145.382132153834
 20
27.22973194462224
 10
145.3808881538341
 20
27.18184394462218
 10
145.3780891538341
 20
27.13550994462218
 10
145.373736153834
 20
27.09073194462234
 10
145.368449153834
 20
27.04719694462232
 10
145.3619191538341
 20
27.00490594462223
 10
145.3538341538341
 20
26.96447994462233
 10
145.3448161538341
 20
26.92498794462233
 10
145.334243153834
 20
26.88736094462218
 10
145.3224271538341
 20
26.85097794462218
 10
145.3093661538341
 20
26.81583894462232
 10
145.295062153834
 20
26.7825659446222
 10
145.2795141538341
 20
26.75022594462223
 10
145.262410153834
 20
26.71975194462231
 10
145.2443751538341
 20
26.69052094462232
 10
145.2247841538341
 20
26.66253394462251
 10
145.2042601538341
 20
26.63610194462239
 10
145.1821821538341
 20
26.61122494462233
 10
145.1588601538341
 20
26.58790294462221
 10
145.1342931538341
 20
26.56551394462224
 10
145.1084831538341
 20
26.54498994462233
 10
145.0811191538341
 20
26.52570994462235
 10
145.052821153834
 20
26.50798494462219
 10
145.0229681538341
 20
26.4915039446223
 10
144.9921831538341
 20
26.47657794462236
 10
144.9598431538341
 20
26.46289494462223
 10
144.9262591538341
 20
26.45076794462238
 10
144.8914311538341
 20
26.44019494462236
 10
144.8553591538341
 20
26.43086594462227
 10
144.8177321538341
 20
26.42309194462234
 10
144.779173153834
 20
26.41656194462234
 10
144.7390581538341
 20
26.41158594462218
 10
144.6980111538341
 20
26.40816594462228
 10
144.655409153834
 20
26.4059889446222
 10
144.611563153834
 20
26.40505594462217
 10
143.1005901538341
 20
26.40505594462217
 10
143.1005901538341
 20
27.94836994462218
  0
LWPOLYLINE
  5
3B42C
330
3B421
100
AcDbEntity
  8
TOTO
100
AcDbPolyline
 90
      207
 70
     1
 43
0.0
 10
145.508694153834
 20
26.08818394462218
 10
145.467336153834
 20
26.11896894462233
 10
145.4231791538341
 20
26.15068794462218
 10
145.3765341538341
 20
26.18302794462227
 10
145.4038991538341
 20
26.20292994462238
 10
145.4418371538341
 20
26.23184894462236
 10
145.4782191538341
 20
26.26076894462221
 10
145.5133581538341
 20
26.29031094462232
 10
145.547253153834
 20
26.32016294462232
 10
145.5799051538341
 20
26.35032694462234
 10
145.611001153834
 20
26.38080094462236
 10
145.640854153834
 20
26.41189694462218
 10
145.6694621538341
 20
26.44330494462235
 10
145.6968271538341
 20
26.47502294462219
 10
145.722637153834
 20
26.50705194462239
 10
145.7472031538341
 20
26.53970394462227
 10
145.7705251538341
 20
26.57235494462236
 10
145.7922931538341
 20
26.60562794462236
 10
145.812817153834
 20
26.63921194462227
 10
145.8320961538341
 20
26.6734179446222
 10
145.850132153834
 20
26.70762394462224
 10
145.8666131538341
 20
26.7424519446222
 10
145.8818511538341
 20
26.77759094462226
 10
145.8958441538341
 20
26.81304094462234
 10
145.908593153834
 20
26.84911294462233
 10
145.9197881538341
 20
26.88518394462232
 10
145.9297391538341
 20
26.92187794462233
 10
145.938446153834
 20
26.95888294462235
 10
145.945598153834
 20
26.99650994462218
 10
145.9518171538341
 20
27.03413594462222
 10
145.9561711538341
 20
27.07238494462217
 10
145.9595911538341
 20
27.11094394462236
 10
145.9617681538341
 20
27.14981494462233
 10
145.9623901538341
 20
27.1889959446222
 10
145.962079153834
 20
27.22568994462221
 10
145.960835153834
 20
27.27637694462237
 10
145.958659153834
 20
27.32613094462237
 10
145.9555491538341
 20
27.37433094462221
 10
145.951506153834
 20
27.42190794462227
 10
145.9462201538341
 20
27.46793094462214
 10
145.9400011538341
 20
27.51333094462234
 10
145.932849153834
 20
27.55717694462237
 10
145.9247641538341
 20
27.60008994462237
 10
145.9157461538341
 20
27.6417599446222
 10
145.9057951538341
 20
27.68249594462236
 10
145.8946001538341
 20
27.72198794462235
 10
145.882472153834
 20
27.7602369446222
 10
145.8694121538341
 20
27.79755194462234
 10
145.8554191538341
 20
27.83393494462222
 10
145.8404921538341
 20
27.86876294462218
 10
145.8243221538341
 20
27.90265794462232
 10
145.8075301538341
 20
27.9356199446222
 10
145.789494153834
 20
27.96733894462238
 10
145.7705251538341
 20
27.99781294462241
 10
145.750624153834
 20
28.02735494462218
 10
145.729478153834
 20
28.05565194462235
 10
145.707711153834
 20
28.08270594462237
 10
145.684699153834
 20
28.10882694462236
 10
145.6641761538341
 20
28.13028394462219
 10
145.639921153834
 20
28.1532949446223
 10
145.614733153834
 20
28.1756849446224
 10
145.5886121538341
 20
28.19714094462222
 10
145.561247153834
 20
28.21766494462235
 10
145.532638153834
 20
28.23756594462236
 10
145.503097153834
 20
28.25653494462221
 10
145.472622153834
 20
28.27457094462238
 10
145.440904153834
 20
28.29198494462231
 10
145.408253153834
 20
28.30846594462218
 10
145.374357153834
 20
28.32401394462237
 10
145.3395301538341
 20
28.33894094462221
 10
145.3034581538341
 20
28.35262294462222
 10
145.2664531538341
 20
28.36568294462233
 10
145.2282041538341
 20
28.3781219446222
 10
145.1890231538341
 20
28.38931694462223
 10
145.148598153834
 20
28.39988894462237
 10
145.107240153834
 20
28.40952894462214
 10
145.064948153834
 20
28.41854694462222
 10
145.0211031538341
 20
28.42632094462237
 10
144.976635153834
 20
28.43378494462217
 10
144.930923153834
 20
28.44000394462227
 10
144.8842781538341
 20
28.44528994462223
 10
144.8363901538341
 20
28.44995494462239
 10
144.787258153834
 20
28.45399694462241
 10
144.737193153834
 20
28.45679594462217
 10
144.686194153834
 20
28.45897294462236
 10
144.6339521538341
 20
28.46021594462218
 10
144.580778153834
 20
28.46052694462219
 10
142.5209531538341
 20
28.46052694462219
 10
142.5209531538341
 20
23.96087994462232
 10
143.1005901538341
 20
23.96087994462232
 10
143.1005901538341
 20
25.89289894462218
 10
144.611563153834
 20
25.89289894462218
 10
144.6457691538341
 20
25.89227694462238
 10
144.686194153834
 20
25.8900999446222
 10
144.7256871538341
 20
25.88636794462217
 10
144.7636241538341
 20
25.88108194462233
 10
144.800318153834
 20
25.87424094462233
 10
144.835768153834
 20
25.86553394462237
 10
144.8699741538341
 20
25.85558294462225
 10
144.9029361538341
 20
25.84376594462219
 10
144.9346551538341
 20
25.83039494462218
 10
144.9648181538341
 20
25.81515794462224
 10
144.9940491538341
 20
25.79867694462222
 10
145.021724153834
 20
25.78032994462251
 10
145.0481561538341
 20
25.76073894462217
 10
145.0733441538341
 20
25.73928294462223
 10
145.097289153834
 20
25.71627094462235
 10
145.119989153834
 20
25.69139394462217
 10
145.1414461538341
 20
25.6652729446223
 10
145.161347153834
 20
25.63728594462236
 10
145.180316153834
 20
25.60774494462236
 10
145.197730153834
 20
25.57664794462232
 10
145.2142111538341
 20
25.54399694462233
 10
145.2291371538341
 20
25.50979094462229
 10
145.242820153834
 20
25.47371894462219
 10
145.255258153834
 20
25.43640394462227
 10
145.2664531538341
 20
25.39722194462218
 10
145.2760931538341
 20
25.35648594462236
 10
145.2848001538341
 20
25.31388394462237
 10
145.2919521538341
 20
25.27003794462234
 10
145.2981711538341
 20
25.22432594462236
 10
145.3028361538341
 20
25.17737094462233
 10
145.306256153834
 20
25.12854994462213
 10
145.308433153834
 20
25.07817294462233
 10
145.3071891538341
 20
25.05018694462228
 10
145.3047021538341
 20
24.99701194462227
 10
145.3025251538341
 20
24.9453919446222
 10
145.300970153834
 20
24.89532694462218
 10
145.300037153834
 20
24.84681594462222
 10
145.2997261538341
 20
24.7998609446222
 10
145.2997261538341
 20
24.75414894462221
 10
145.300037153834
 20
24.70999194462218
 10
145.301281153834
 20
24.66738994462218
 10
145.3025251538341
 20
24.62634294462236
 10
145.3047021538341
 20
24.58684994462226
 10
145.3071891538341
 20
24.54860194462219
 10
145.3099881538341
 20
24.5122189446223
 10
145.3137201538341
 20
24.47707994462234
 10
145.3174511538341
 20
24.44349594462221
 10
145.3221161538341
 20
24.41115594462235
 10
145.3270911538341
 20
24.38068094462221
 10
145.3289571538341
 20
24.36886494462237
 10
145.3367311538341
 20
24.32595194462237
 10
145.3451271538341
 20
24.28366094462229
 10
145.3544561538341
 20
24.24168094462231
 10
145.364096153834
 20
24.20001094462236
 10
145.3746681538341
 20
24.15896394462231
 10
145.386174153834
 20
24.11853894462217
 10
145.397991153834
 20
24.07842494462227
 10
145.410740153834
 20
24.03862094462238
 10
145.424112153834
 20
23.99943994462228
 10
145.438105153834
 20
23.96087994462232
 10
146.1349751538341
 20
23.96087994462232
 10
146.1349751538341
 20
24.10889894462218
 10
146.1066771538341
 20
24.13315394462232
 10
146.076203153834
 20
24.16238494462231
 10
146.0485271538341
 20
24.19316994462235
 10
146.0236501538341
 20
24.22519894462221
 10
146.0015721538341
 20
24.25909494462235
 10
145.9819811538341
 20
24.2942329446223
 10
145.9651891538341
 20
24.33061594462219
 10
145.9511951538341
 20
24.36886494462237
 10
145.939690153834
 20
24.40835694462236
 10
145.9312941538341
 20
24.44909294462218
 10
145.9253851538341
 20
24.49169494462228
 10
145.9247641538341
 20
24.50071294462236
 10
145.9210321538341
 20
24.5588639446222
 10
145.9173001538341
 20
24.61545894462223
 10
145.913880153834
 20
24.67049994462218
 10
145.9104591538341
 20
24.72398594462219
 10
145.9073501538341
 20
24.77622694462218
 10
145.904240153834
 20
24.82660394462232
 10
145.901130153834
 20
24.8757359446223
 10
145.898643153834
 20
24.92331294462235
 10
145.8958441538341
 20
24.96933594462234
 10
145.8933561538341
 20
25.01380394462228
 10
145.891179153834
 20
25.0567169446224
 10
145.8890031538341
 20
25.09807494462234
 10
145.887137153834
 20
25.13818894462235
 10
145.8852711538341
 20
25.17643794462242
 10
145.8834051538341
 20
25.21344294462233
 10
145.882161153834
 20
25.24889294462218
 10
145.8806071538341
 20
25.28278794462233
 10
145.8793631538341
 20
25.3154389446222
 10
145.8784301538341
 20
25.34622394462235
 10
145.8774971538341
 20
25.37576594462223
 10
145.876564153834
 20
25.40344194462238
 10
145.8759421538341
 20
25.42987394462227
 10
145.871900153834
 20
25.47247594462237
 10
145.865369153834
 20
25.52502794462236
 10
145.8579061538341
 20
25.57416094462235
 10
145.8495101538341
 20
25.62018294462234
 10
145.840181153834
 20
25.66278494462233
 10
145.8296091538341
 20
25.70196694462242
 10
145.818103153834
 20
25.73772794462218
 10
145.8056641538341
 20
25.77006794462238
 10
145.791982153834
 20
25.79929894462236
 10
145.7773671538341
 20
25.82479794462233
 10
145.7643061538341
 20
25.84469894462222
 10
145.746270153834
 20
25.86864394462236
 10
145.7257471538341
 20
25.89352094462219
 10
145.702735153834
 20
25.91901994462228
 10
145.6769251538341
 20
25.94545194462239
 10
145.6486281538341
 20
25.97250494462219
 10
145.617531153834
 20
26.00018094462234
 10
145.5839471538341
 20
26.0287899446222
 10
145.5475641538341
 20
26.05833094462218
  0
ENDBLK
  5
3B42E
330
3B421
100
AcDbEntity
  8
0
100
AcDbBlockEnd
  0
ENDSEC
  0
SECTION
  2
ENTITIES
  0
INSERT
  5
77C
330
E81F
100
AcDbEntity
  8
KOP
  6
Continuous
 62
     1
100
AcDbBlockReference
  2
AVE_RENDER
 10
0.0
 20
0.0
 30
0.0
1001
AVE_RENDER
1002
{
1070
     7
1000
Pref
1070
    30
1070
    20
1070
     1
1070
     0
1000

1070
    10
1070
     1
1070
    10
1040
1.0
1070
     1
1040
0.3
1040
0.7
1040
0.0
1040
10.0
1010
-1.0
1020
-1.0
1030
-1.0
1040
0.3
1070
    49
1070
     0
1070
     0
1010
1.0
1020
1.0
1030
1.0
1040
45.0
1070
     1
1070
     0
1000
WCS
1040
0.0
1070
     0
1040
10.0
1002
}
  0
INSERT
  5
77D
330
E81F
100
AcDbEntity
  8
KOP
  6
Continuous
 62
     3
100
AcDbBlockReference
  2
AVE_RENDER
 10
0.0
 20
0.0
 30
0.0
1001
AVE_RENDER
1002
{
1070
     0
1000
Full Opt
1070
     0
1070
     1
1070
     1
1070
     1
1070
     0
1070
     0
1070
     0
1070
     1
1070
     1
1040
0.0001
1040
0.0001
1002
}
  0
INSERT
  5
77E
330
E81F
100
AcDbEntity
  8
KOP
  6
Continuous
 62
     4
100
AcDbBlockReference
  2
AVE_RENDER
 10
0.0
 20
0.0
 30
0.0
1001
AVE_RENDER
1002
{
1070
     0
1000
Quick Opt
1070
     0
1070
     1
1070
     1
1070
     1
1070
     0
1070
     0
1070
     1
1002
}
  0
INSERT
  5
77F
330
E81F
100
AcDbEntity
  8
KOP
  6
Continuous
 62
     5
100
AcDbBlockReference
  2
AVE_RENDER
 10
0.0
 20
0.0
 30
0.0
1001
AVE_RENDER
1002
{
1070
     1
1000
Scanl Opt
1070
     2
1070
     0
1070
     2
1040
2.0
1040
4.0
1070
     0
1070
     1
1070
     0
1040
0.03
1002
}
  0
INSERT
  5
780
330
E81F
100
AcDbEntity
  8
KOP
  6
Continuous
 62
     6
100
AcDbBlockReference
  2
AVE_RENDER
 10
0.0
 20
0.0
 30
0.0
1001
AVE_RENDER
1002
{
1070
     2
1000
Raytr Opt
1070
     2
1070
     0
1070
     2
1040
2.0
1040
4.0
1070
     0
1070
     1
1070
     1
1040
0.03
1070
     3
1040
0.03
1002
}
  0
INSERT
  5
781
330
E81F
100
AcDbEntity
  8
KOP
  6
Continuous
 62
     7
100
AcDbBlockReference
  2
AVE_RENDER
 10
0.0
 20
0.0
 30
0.0
1001
AVE_RENDER
1002
{
1070
     0
1000
RFile Opt
1070
     1
1070
   640
1070
   480
1070
 10000
1070
     1
1070
     8
1070
     8
1070
     0
1070
     0
1070
     0
1070
     0
1070
     0
1070
     0
1070
     0
1002
}
  0
INSERT
  5
782
330
E81F
100
AcDbEntity
  8
KOP
  6
Continuous
 62
     8
100
AcDbBlockReference
  2
AVE_RENDER
 10
0.0
 20
0.0
 30
0.0
1001
AVE_RENDER
1002
{
1070
     0
1000
Fog Opt
1070
     0
1070
     0
1040
0.0
1040
1.0
1040
0.0
1040
1.0
1010
0.5
1020
0.5
1030
0.5
1002
}
  0
INSERT
  5
783
330
E81F
100
AcDbEntity
  8
KOP
  6
Continuous
 62
     9
100
AcDbBlockReference
  2
AVE_RENDER
 10
0.0
 20
0.0
 30
0.0
1001
AVE_RENDER
1002
{
1070
     0
1000
BG Opt
1070
     0
1070
     1
1010
0.0
1020
0.0
1030
0.0
1010
1.0
1020
0.0
1030
0.0
1010
0.0
1020
1.0
1030
0.0
1010
0.0
1020
0.0
1030
1.0
1040
0.5
1040
0.33
1040
0.0
1000

1070
     1
1000

1070
     1
1070
     1
1040
1.0
1040
1.0
1040
0.0
1040
0.0
1070
     0
1002
}
  0
INSERT
  5
78A
330
E81F
100
AcDbEntity
  8
KOP
  6
Continuous
 62
     1
100
AcDbBlockReference
  2
AVE_GLOBAL
 10
0.0
 20
0.0
 30
0.0
1001
AVE_MATERIAL
1002
{
1000
*GLOBAL*
1000
1
1000
Global finish.
1002
{
1002
}
1002
{
1070
    63
1002
{
1002
{
1010
-1.0
1020
-1.0
1030
-1.0
1002
}
1040
0.1000000014901161
1000

1040
0.0
1002
{
1002
}
1040
0.0
1002
{
1002
}
1040
0.0
1002
}
1002
{
1002
{
1010
-1.0
1020
-1.0
1030
-1.0
1002
}
1040
0.6999999880790711
1000

1040
0.0
1002
{
1002
}
1040
0.0
1002
{
1002
}
1040
0.0
1002
}
1002
{
1002
{
1010
-1.0
1020
-1.0
1030
-1.0
1002
}
1040
0.2000000029802322
1000

1040
0.0
1002
{
1002
}
1040
0.0
1002
{
1002
}
1040
0.0
1002
}
1002
{
1070
     0
1002
{
1070
     1
1002
{
1040
1.0
1040
1.0
1000

1040
0.0
1002
{
1002
}
1040
0.0
1002
{
1002
}
1040
0.0
1002
}
1002
}
1040
1.0
1040
0.0
1040
0.0
1002
}
1002
{
1040
1.0
1040
1.0
1000

1040
0.0
1002
{
1002
}
1040
0.0
1002
{
1002
}
1040
0.0
1002
}
1002
{
1040
0.5
1040
1.0
1000

1040
0.0
1002
{
1002
}
1040
0.0
1002
{
1002
}
1040
0.0
1002
}
1002
{
1070
     0
1040
0.0
1002
{
1002
}
1040
1.0
1002
{
1002
}
1040
0.0
1002
}
1002
{
1040
0.0
1002
{
1002
{
1010
0.0
1020
0.0
1030
0.0
1002
}
1040
1.0
1000

1040
0.0
1002
{
1002
}
1040
0.0
1002
{
1002
}
1040
0.0
1002
}
1002
}
1002
{
1002
{
1070
     1
1002
{
1040
0.0
1040
1.0
1000

1040
0.0
1002
{
1002
}
1040
0.0
1002
{
1002
}
1040
0.0
1002
}
1002
}
1040
0.0
1002
{
1002
}
1010
1.0
1020
0.0
1030
0.0
1010
0.0
1020
1.0
1030
0.0
1010
0.0
1020
0.0
1030
1.0
1070
     0
1002
}
1002
{
1002
{
1040
1.0
1040
1.0
1002
{
1070
     1
1002
{
1040
1.0
1040
1.0
1000

1040
0.0
1002
{
1002
}
1040
0.0
1002
{
1002
}
1040
0.0
1002
}
1002
}
1002
}
1070
     0
1040
0.0
1002
{
1002
}
1002
}
1002
{
1002
}
1002
}
1002
{
1071
        3
1070
     3
1070
     0
1002
{
1070
     2
1070
     0
1070
     0
1040
0.0
1002
}
1070
     0
1070
     2
1002
{
1002
}
1002
}
1002
{
1040
8030.0
1040
190.3000030517578
1040
0.3050000071525574
1040
228.0
1040
545.0
1040
14.0
1040
17.39999961853027
1040
0.4560000002384186
1002
}
1002
}
  0
INSERT
  5
10EE4
330
E81F
100
AcDbEntity
  8
0
  6
Continuous
100
AcDbBlockReference
  2
*X2
 10
175.6551759301957
 20
-12.71309428266477
 30
0.0
1001
ACAD
1000
HATCH
1002
{
1070
    16
1000
AR-CONC
1040
0.9
1040
0.0
1002
}
  0
INSERT
  5
10EE5
330
E81F
100
AcDbEntity
  8
0
  6
Continuous
100
AcDbBlockReference
  2
*X3
 10
175.6551759301957
 20
-12.71309428266477
 30
0.0
1001
ACAD
1000
HATCH
1002
{
1070
    16
1000
AR-CONC
1040
0.9
1040
0.0
1002
}
  0
INSERT
  5
12131
330
E81F
100
AcDbEntity
  8
KOP
  6
Continuous
 62
     1
100
AcDbBlockReference
  2
AVE_RENDER
 10
455.9538204234292
 20
197.27772525975
 30
0.0
1001
AVE_RENDER
1002
{
1070
     7
1000
Pref
1070
    30
1070
    20
1070
     1
1070
     0
1000

1070
    10
1070
     1
1070
    10
1040
1.0
1070
     1
1040
0.3
1040
0.7
1040
0.0
1040
10.0
1010
-1.0
1020
-1.0
1030
-1.0
1040
0.3
1070
    49
1070
     0
1070
     0
1010
1.0
1020
1.0
1030
1.0
1040
45.0
1070
     1
1070
     0
1000
WCS
1040
0.0
1070
     0
1040
10.0
1002
}
  0
INSERT
  5
12132
330
E81F
100
AcDbEntity
  8
KOP
  6
Continuous
 62
     3
100
AcDbBlockReference
  2
AVE_RENDER
 10
455.9538204234292
 20
197.27772525975
 30
0.0
1001
AVE_RENDER
1002
{
1070
     0
1000
Full Opt
1070
     0
1070
     1
1070
     1
1070
     1
1070
     0
1070
     0
1070
     0
1070
     1
1070
     1
1040
0.0001
1040
0.0001
1002
}
  0
INSERT
  5
12133
330
E81F
100
AcDbEntity
  8
KOP
  6
Continuous
 62
     4
100
AcDbBlockReference
  2
AVE_RENDER
 10
455.9538204234292
 20
197.27772525975
 30
0.0
1001
AVE_RENDER
1002
{
1070
     0
1000
Quick Opt
1070
     0
1070
     1
1070
     1
1070
     1
1070
     0
1070
     0
1070
     1
1002
}
  0
INSERT
  5
12134
330
E81F
100
AcDbEntity
  8
KOP
  6
Continuous
 62
     5
100
AcDbBlockReference
  2
AVE_RENDER
 10
455.9538204234292
 20
197.27772525975
 30
0.0
1001
AVE_RENDER
1002
{
1070
     1
1000
Scanl Opt
1070
     2
1070
     0
1070
     2
1040
2.0
1040
4.0
1070
     0
1070
     1
1070
     0
1040
0.03
1002
}
  0
INSERT
  5
12135
330
E81F
100
AcDbEntity
  8
KOP
  6
Continuous
 62
     6
100
AcDbBlockReference
  2
AVE_RENDER
 10
455.9538204234292
 20
197.27772525975
 30
0.0
1001
AVE_RENDER
1002
{
1070
     2
1000
Raytr Opt
1070
     2
1070
     0
1070
     2
1040
2.0
1040
4.0
1070
     0
1070
     1
1070
     1
1040
0.03
1070
     3
1040
0.03
1002
}
  0
INSERT
  5
12136
330
E81F
100
AcDbEntity
  8
KOP
  6
Continuous
 62
     7
100
AcDbBlockReference
  2
AVE_RENDER
 10
455.9538204234292
 20
197.27772525975
 30
0.0
1001
AVE_RENDER
1002
{
1070
     0
1000
RFile Opt
1070
     1
1070
   640
1070
   480
1070
 10000
1070
     1
1070
     8
1070
     8
1070
     0
1070
     0
1070
     0
1070
     0
1070
     0
1070
     0
1070
     0
1002
}
  0
INSERT
  5
12137
330
E81F
100
AcDbEntity
  8
KOP
  6
Continuous
 62
     8
100
AcDbBlockReference
  2
AVE_RENDER
 10
455.9538204234292
 20
197.27772525975
 30
0.0
1001
AVE_RENDER
1002
{
1070
     0
1000
Fog Opt
1070
     0
1070
     0
1040
0.0
1040
1.0
1040
0.0
1040
1.0
1010
0.5
1020
0.5
1030
0.5
1002
}
  0
INSERT
  5
12138
330
E81F
100
AcDbEntity
  8
KOP
  6
Continuous
 62
     9
100
AcDbBlockReference
  2
AVE_RENDER
 10
455.9538204234292
 20
197.27772525975
 30
0.0
1001
AVE_RENDER
1002
{
1070
     0
1000
BG Opt
1070
     0
1070
     1
1010
0.0
1020
0.0
1030
0.0
1010
1.0
1020
0.0
1030
0.0
1010
0.0
1020
1.0
1030
0.0
1010
0.0
1020
0.0
1030
1.0
1040
0.5
1040
0.33
1040
0.0
1000

1070
     1
1000

1070
     1
1070
     1
1040
1.0
1040
1.0
1040
0.0
1040
0.0
1070
     0
1002
}
  0
INSERT
  5
12139
330
E81F
100
AcDbEntity
  8
KOP
  6
Continuous
 62
     1
100
AcDbBlockReference
  2
AVE_GLOBAL
 10
455.9538204234292
 20
197.27772525975
 30
0.0
1001
AVE_MATERIAL
1002
{
1000
*GLOBAL*
1000
1
1000
Global finish.
1002
{
1002
}
1002
{
1070
    63
1002
{
1002
{
1010
-1.0
1020
-1.0
1030
-1.0
1002
}
1040
0.1000000014901161
1000

1040
0.0
1002
{
1002
}
1040
0.0
1002
{
1002
}
1040
0.0
1002
}
1002
{
1002
{
1010
-1.0
1020
-1.0
1030
-1.0
1002
}
1040
0.6999999880790711
1000

1040
0.0
1002
{
1002
}
1040
0.0
1002
{
1002
}
1040
0.0
1002
}
1002
{
1002
{
1010
-1.0
1020
-1.0
1030
-1.0
1002
}
1040
0.2000000029802322
1000

1040
0.0
1002
{
1002
}
1040
0.0
1002
{
1002
}
1040
0.0
1002
}
1002
{
1070
     0
1002
{
1070
     1
1002
{
1040
1.0
1040
1.0
1000

1040
0.0
1002
{
1002
}
1040
0.0
1002
{
1002
}
1040
0.0
1002
}
1002
}
1040
1.0
1040
0.0
1040
0.0
1002
}
1002
{
1040
1.0
1040
1.0
1000

1040
0.0
1002
{
1002
}
1040
0.0
1002
{
1002
}
1040
0.0
1002
}
1002
{
1040
0.5
1040
1.0
1000

1040
0.0
1002
{
1002
}
1040
0.0
1002
{
1002
}
1040
0.0
1002
}
1002
{
1070
     0
1040
0.0
1002
{
1002
}
1040
1.0
1002
{
1002
}
1040
0.0
1002
}
1002
{
1040
0.0
1002
{
1002
{
1010
0.0
1020
0.0
1030
0.0
1002
}
1040
1.0
1000

1040
0.0
1002
{
1002
}
1040
0.0
1002
{
1002
}
1040
0.0
1002
}
1002
}
1002
{
1002
{
1070
     1
1002
{
1040
0.0
1040
1.0
1000

1040
0.0
1002
{
1002
}
1040
0.0
1002
{
1002
}
1040
0.0
1002
}
1002
}
1040
0.0
1002
{
1002
}
1010
1.0
1020
0.0
1030
0.0
1010
0.0
1020
1.0
1030
0.0
1010
0.0
1020
0.0
1030
1.0
1070
     0
1002
}
1002
{
1002
{
1040
1.0
1040
1.0
1002
{
1070
     1
1002
{
1040
1.0
1040
1.0
1000

1040
0.0
1002
{
1002
}
1040
0.0
1002
{
1002
}
1040
0.0
1002
}
1002
}
1002
}
1070
     0
1040
0.0
1002
{
1002
}
1002
}
1002
{
1002
}
1002
}
1002
{
1071
        3
1070
     3
1070
     0
1002
{
1070
     2
1070
     0
1070
     0
1040
0.0
1002
}
1070
     0
1070
     2
1002
{
1002
}
1002
}
1002
{
1040
8030.0
1040
190.3000030517578
1040
0.3050000071525574
1040
228.0
1040
545.0
1040
14.0
1040
17.39999961853027
1040
0.4560000002384186
1002
}
1002
}
  0
INSERT
  5
1213A
330
E81F
100
AcDbEntity
  8
0
  6
Continuous
100
AcDbBlockReference
  2
*X4
 10
631.6089963536248
 20
184.5646309770852
 30
0.0
1001
ACAD
1000
HATCH
1002
{
1070
    16
1000
AR-CONC
1040
0.9
1040
0.0
1002
}
  0
INSERT
  5
1213B
330
E81F
100
AcDbEntity
  8
0
  6
Continuous
100
AcDbBlockReference
  2
*X5
 10
631.6089963536248
 20
184.5646309770852
 30
0.0
1001
ACAD
1000
HATCH
1002
{
1070
    16
1000
AR-CONC
1040
0.9
1040
0.0
1002
}
  0
INSERT
  5
1213C
330
E81F
100
AcDbEntity
  8
KOP
  6
Continuous
 62
     1
100
AcDbBlockReference
  2
AVE_RENDER
 10
447.6432143041721
 20
486.6737233919512
 30
0.0
1001
AVE_RENDER
1002
{
1070
     7
1000
Pref
1070
    30
1070
    20
1070
     1
1070
     0
1000

1070
    10
1070
     1
1070
    10
1040
1.0
1070
     1
1040
0.3
1040
0.7
1040
0.0
1040
10.0
1010
-1.0
1020
-1.0
1030
-1.0
1040
0.3
1070
    49
1070
     0
1070
     0
1010
1.0
1020
1.0
1030
1.0
1040
45.0
1070
     1
1070
     0
1000
WCS
1040
0.0
1070
     0
1040
10.0
1002
}
  0
INSERT
  5
1213D
330
E81F
100
AcDbEntity
  8
KOP
  6
Continuous
 62
     3
100
AcDbBlockReference
  2
AVE_RENDER
 10
447.6432143041721
 20
486.6737233919512
 30
0.0
1001
AVE_RENDER
1002
{
1070
     0
1000
Full Opt
1070
     0
1070
     1
1070
     1
1070
     1
1070
     0
1070
     0
1070
     0
1070
     1
1070
     1
1040
0.0001
1040
0.0001
1002
}
  0
INSERT
  5
1213E
330
E81F
100
AcDbEntity
  8
KOP
  6
Continuous
 62
     4
100
AcDbBlockReference
  2
AVE_RENDER
 10
447.6432143041721
 20
486.6737233919512
 30
0.0
1001
AVE_RENDER
1002
{
1070
     0
1000
Quick Opt
1070
     0
1070
     1
1070
     1
1070
     1
1070
     0
1070
     0
1070
     1
1002
}
  0
INSERT
  5
1213F
330
E81F
100
AcDbEntity
  8
KOP
  6
Continuous
 62
     5
100
AcDbBlockReference
  2
AVE_RENDER
 10
447.6432143041721
 20
486.6737233919512
 30
0.0
1001
AVE_RENDER
1002
{
1070
     1
1000
Scanl Opt
1070
     2
1070
     0
1070
     2
1040
2.0
1040
4.0
1070
     0
1070
     1
1070
     0
1040
0.03
1002
}
  0
INSERT
  5
12140
330
E81F
100
AcDbEntity
  8
KOP
  6
Continuous
 62
     6
100
AcDbBlockReference
  2
AVE_RENDER
 10
447.6432143041721
 20
486.6737233919512
 30
0.0
1001
AVE_RENDER
1002
{
1070
     2
1000
Raytr Opt
1070
     2
1070
     0
1070
     2
1040
2.0
1040
4.0
1070
     0
1070
     1
1070
     1
1040
0.03
1070
     3
1040
0.03
1002
}
  0
INSERT
  5
12141
330
E81F
100
AcDbEntity
  8
KOP
  6
Continuous
 62
     7
100
AcDbBlockReference
  2
AVE_RENDER
 10
447.6432143041721
 20
486.6737233919512
 30
0.0
1001
AVE_RENDER
1002
{
1070
     0
1000
RFile Opt
1070
     1
1070
   640
1070
   480
1070
 10000
1070
     1
1070
     8
1070
     8
1070
     0
1070
     0
1070
     0
1070
     0
1070
     0
1070
     0
1070
     0
1002
}
  0
INSERT
  5
12142
330
E81F
100
AcDbEntity
  8
KOP
  6
Continuous
 62
     8
100
AcDbBlockReference
  2
AVE_RENDER
 10
447.6432143041721
 20
486.6737233919512
 30
0.0
1001
AVE_RENDER
1002
{
1070
     0
1000
Fog Opt
1070
     0
1070
     0
1040
0.0
1040
1.0
1040
0.0
1040
1.0
1010
0.5
1020
0.5
1030
0.5
1002
}
  0
INSERT
  5
12143
330
E81F
100
AcDbEntity
  8
KOP
  6
Continuous
 62
     9
100
AcDbBlockReference
  2
AVE_RENDER
 10
447.6432143041721
 20
486.6737233919512
 30
0.0
1001
AVE_RENDER
1002
{
1070
     0
1000
BG Opt
1070
     0
1070
     1
1010
0.0
1020
0.0
1030
0.0
1010
1.0
1020
0.0
1030
0.0
1010
0.0
1020
1.0
1030
0.0
1010
0.0
1020
0.0
1030
1.0
1040
0.5
1040
0.33
1040
0.0
1000

1070
     1
1000

1070
     1
1070
     1
1040
1.0
1040
1.0
1040
0.0
1040
0.0
1070
     0
1002
}
  0
INSERT
  5
12144
330
E81F
100
AcDbEntity
  8
KOP
  6
Continuous
 62
     1
100
AcDbBlockReference
  2
AVE_GLOBAL
 10
447.6432143041721
 20
486.6737233919512
 30
0.0
1001
AVE_MATERIAL
1002
{
1000
*GLOBAL*
1000
1
1000
Global finish.
1002
{
1002
}
1002
{
1070
    63
1002
{
1002
{
1010
-1.0
1020
-1.0
1030
-1.0
1002
}
1040
0.1000000014901161
1000

1040
0.0
1002
{
1002
}
1040
0.0
1002
{
1002
}
1040
0.0
1002
}
1002
{
1002
{
1010
-1.0
1020
-1.0
1030
-1.0
1002
}
1040
0.6999999880790711
1000

1040
0.0
1002
{
1002
}
1040
0.0
1002
{
1002
}
1040
0.0
1002
}
1002
{
1002
{
1010
-1.0
1020
-1.0
1030
-1.0
1002
}
1040
0.2000000029802322
1000

1040
0.0
1002
{
1002
}
1040
0.0
1002
{
1002
}
1040
0.0
1002
}
1002
{
1070
     0
1002
{
1070
     1
1002
{
1040
1.0
1040
1.0
1000

1040
0.0
1002
{
1002
}
1040
0.0
1002
{
1002
}
1040
0.0
1002
}
1002
}
1040
1.0
1040
0.0
1040
0.0
1002
}
1002
{
1040
1.0
1040
1.0
1000

1040
0.0
1002
{
1002
}
1040
0.0
1002
{
1002
}
1040
0.0
1002
}
1002
{
1040
0.5
1040
1.0
1000

1040
0.0
1002
{
1002
}
1040
0.0
1002
{
1002
}
1040
0.0
1002
}
1002
{
1070
     0
1040
0.0
1002
{
1002
}
1040
1.0
1002
{
1002
}
1040
0.0
1002
}
1002
{
1040
0.0
1002
{
1002
{
1010
0.0
1020
0.0
1030
0.0
1002
}
1040
1.0
1000

1040
0.0
1002
{
1002
}
1040
0.0
1002
{
1002
}
1040
0.0
1002
}
1002
}
1002
{
1002
{
1070
     1
1002
{
1040
0.0
1040
1.0
1000

1040
0.0
1002
{
1002
}
1040
0.0
1002
{
1002
}
1040
0.0
1002
}
1002
}
1040
0.0
1002
{
1002
}
1010
1.0
1020
0.0
1030
0.0
1010
0.0
1020
1.0
1030
0.0
1010
0.0
1020
0.0
1030
1.0
1070
     0
1002
}
1002
{
1002
{
1040
1.0
1040
1.0
1002
{
1070
     1
1002
{
1040
1.0
1040
1.0
1000

1040
0.0
1002
{
1002
}
1040
0.0
1002
{
1002
}
1040
0.0
1002
}
1002
}
1002
}
1070
     0
1040
0.0
1002
{
1002
}
1002
}
1002
{
1002
}
1002
}
1002
{
1071
        3
1070
     3
1070
     0
1002
{
1070
     2
1070
     0
1070
     0
1040
0.0
1002
}
1070
     0
1070
     2
1002
{
1002
}
1002
}
1002
{
1040
8030.0
1040
190.3000030517578
1040
0.3050000071525574
1040
228.0
1040
545.0
1040
14.0
1040
17.39999961853027
1040
0.4560000002384186
1002
}
1002
}
  0
INSERT
  5
12145
330
E81F
100
AcDbEntity
  8
0
  6
Continuous
100
AcDbBlockReference
  2
*X6
 10
623.2983902343678
 20
473.9606291092865
 30
0.0
1001
ACAD
1000
HATCH
1002
{
1070
    16
1000
AR-CONC
1040
0.9
1040
0.0
1002
}
  0
INSERT
  5
12146
330
E81F
100
AcDbEntity
  8
0
  6
Continuous
100
AcDbBlockReference
  2
*X7
 10
623.2983902343678
 20
473.9606291092865
 30
0.0
1001
ACAD
1000
HATCH
1002
{
1070
    16
1000
AR-CONC
1040
0.9
1040
0.0
1002
}
  0
INSERT
  5
12147
330
E81F
100
AcDbEntity
  8
KOP
  6
Continuous
 62
     1
100
AcDbBlockReference
  2
AVE_RENDER
 10
457.0187418028917
 20
475.3380879816176
 30
0.0
1001
AVE_RENDER
1002
{
1070
     7
1000
Pref
1070
    30
1070
    20
1070
     1
1070
     0
1000

1070
    10
1070
     1
1070
    10
1040
1.0
1070
     1
1040
0.3
1040
0.7
1040
0.0
1040
10.0
1010
-1.0
1020
-1.0
1030
-1.0
1040
0.3
1070
    49
1070
     0
1070
     0
1010
1.0
1020
1.0
1030
1.0
1040
45.0
1070
     1
1070
     0
1000
WCS
1040
0.0
1070
     0
1040
10.0
1002
}
  0
INSERT
  5
12148
330
E81F
100
AcDbEntity
  8
KOP
  6
Continuous
 62
     3
100
AcDbBlockReference
  2
AVE_RENDER
 10
457.0187418028917
 20
475.3380879816176
 30
0.0
1001
AVE_RENDER
1002
{
1070
     0
1000
Full Opt
1070
     0
1070
     1
1070
     1
1070
     1
1070
     0
1070
     0
1070
     0
1070
     1
1070
     1
1040
0.0001
1040
0.0001
1002
}
  0
INSERT
  5
12149
330
E81F
100
AcDbEntity
  8
KOP
  6
Continuous
 62
     4
100
AcDbBlockReference
  2
AVE_RENDER
 10
457.0187418028917
 20
475.3380879816176
 30
0.0
1001
AVE_RENDER
1002
{
1070
     0
1000
Quick Opt
1070
     0
1070
     1
1070
     1
1070
     1
1070
     0
1070
     0
1070
     1
1002
}
  0
INSERT
  5
1214A
330
E81F
100
AcDbEntity
  8
KOP
  6
Continuous
 62
     5
100
AcDbBlockReference
  2
AVE_RENDER
 10
457.0187418028917
 20
475.3380879816176
 30
0.0
1001
AVE_RENDER
1002
{
1070
     1
1000
Scanl Opt
1070
     2
1070
     0
1070
     2
1040
2.0
1040
4.0
1070
     0
1070
     1
1070
     0
1040
0.03
1002
}
  0
INSERT
  5
1214B
330
E81F
100
AcDbEntity
  8
KOP
  6
Continuous
 62
     6
100
AcDbBlockReference
  2
AVE_RENDER
 10
457.0187418028917
 20
475.3380879816176
 30
0.0
1001
AVE_RENDER
1002
{
1070
     2
1000
Raytr Opt
1070
     2
1070
     0
1070
     2
1040
2.0
1040
4.0
1070
     0
1070
     1
1070
     1
1040
0.03
1070
     3
1040
0.03
1002
}
  0
INSERT
  5
1214C
330
E81F
100
AcDbEntity
  8
KOP
  6
Continuous
 62
     7
100
AcDbBlockReference
  2
AVE_RENDER
 10
457.0187418028917
 20
475.3380879816176
 30
0.0
1001
AVE_RENDER
1002
{
1070
     0
1000
RFile Opt
1070
     1
1070
   640
1070
   480
1070
 10000
1070
     1
1070
     8
1070
     8
1070
     0
1070
     0
1070
     0
1070
     0
1070
     0
1070
     0
1070
     0
1002
}
  0
INSERT
  5
1214D
330
E81F
100
AcDbEntity
  8
KOP
  6
Continuous
 62
     8
100
AcDbBlockReference
  2
AVE_RENDER
 10
457.0187418028917
 20
475.3380879816176
 30
0.0
1001
AVE_RENDER
1002
{
1070
     0
1000
Fog Opt
1070
     0
1070
     0
1040
0.0
1040
1.0
1040
0.0
1040
1.0
1010
0.5
1020
0.5
1030
0.5
1002
}
  0
INSERT
  5
1214E
330
E81F
100
AcDbEntity
  8
KOP
  6
Continuous
 62
     9
100
AcDbBlockReference
  2
AVE_RENDER
 10
457.0187418028917
 20
475.3380879816176
 30
0.0
1001
AVE_RENDER
1002
{
1070
     0
1000
BG Opt
1070
     0
1070
     1
1010
0.0
1020
0.0
1030
0.0
1010
1.0
1020
0.0
1030
0.0
1010
0.0
1020
1.0
1030
0.0
1010
0.0
1020
0.0
1030
1.0
1040
0.5
1040
0.33
1040
0.0
1000

1070
     1
1000

1070
     1
1070
     1
1040
1.0
1040
1.0
1040
0.0
1040
0.0
1070
     0
1002
}
  0
INSERT
  5
1214F
330
E81F
100
AcDbEntity
  8
KOP
  6
Continuous
 62
     1
100
AcDbBlockReference
  2
AVE_GLOBAL
 10
457.0187418028917
 20
475.3380879816176
 30
0.0
1001
AVE_MATERIAL
1002
{
1000
*GLOBAL*
1000
1
1000
Global finish.
1002
{
1002
}
1002
{
1070
    63
1002
{
1002
{
1010
-1.0
1020
-1.0
1030
-1.0
1002
}
1040
0.1000000014901161
1000

1040
0.0
1002
{
1002
}
1040
0.0
1002
{
1002
}
1040
0.0
1002
}
1002
{
1002
{
1010
-1.0
1020
-1.0
1030
-1.0
1002
}
1040
0.6999999880790711
1000

1040
0.0
1002
{
1002
}
1040
0.0
1002
{
1002
}
1040
0.0
1002
}
1002
{
1002
{
1010
-1.0
1020
-1.0
1030
-1.0
1002
}
1040
0.2000000029802322
1000

1040
0.0
1002
{
1002
}
1040
0.0
1002
{
1002
}
1040
0.0
1002
}
1002
{
1070
     0
1002
{
1070
     1
1002
{
1040
1.0
1040
1.0
1000

1040
0.0
1002
{
1002
}
1040
0.0
1002
{
1002
}
1040
0.0
1002
}
1002
}
1040
1.0
1040
0.0
1040
0.0
1002
}
1002
{
1040
1.0
1040
1.0
1000

1040
0.0
1002
{
1002
}
1040
0.0
1002
{
1002
}
1040
0.0
1002
}
1002
{
1040
0.5
1040
1.0
1000

1040
0.0
1002
{
1002
}
1040
0.0
1002
{
1002
}
1040
0.0
1002
}
1002
{
1070
     0
1040
0.0
1002
{
1002
}
1040
1.0
1002
{
1002
}
1040
0.0
1002
}
1002
{
1040
0.0
1002
{
1002
{
1010
0.0
1020
0.0
1030
0.0
1002
}
1040
1.0
1000

1040
0.0
1002
{
1002
}
1040
0.0
1002
{
1002
}
1040
0.0
1002
}
1002
}
1002
{
1002
{
1070
     1
1002
{
1040
0.0
1040
1.0
1000

1040
0.0
1002
{
1002
}
1040
0.0
1002
{
1002
}
1040
0.0
1002
}
1002
}
1040
0.0
1002
{
1002
}
1010
1.0
1020
0.0
1030
0.0
1010
0.0
1020
1.0
1030
0.0
1010
0.0
1020
0.0
1030
1.0
1070
     0
1002
}
1002
{
1002
{
1040
1.0
1040
1.0
1002
{
1070
     1
1002
{
1040
1.0
1040
1.0
1000

1040
0.0
1002
{
1002
}
1040
0.0
1002
{
1002
}
1040
0.0
1002
}
1002
}
1002
}
1070
     0
1040
0.0
1002
{
1002
}
1002
}
1002
{
1002
}
1002
}
1002
{
1071
        3
1070
     3
1070
     0
1002
{
1070
     2
1070
     0
1070
     0
1040
0.0
1002
}
1070
     0
1070
     2
1002
{
1002
}
1002
}
1002
{
1040
8030.0
1040
190.3000030517578
1040
0.3050000071525574
1040
228.0
1040
545.0
1040
14.0
1040
17.39999961853027
1040
0.4560000002384186
1002
}
1002
}
  0
INSERT
  5
12150
330
E81F
100
AcDbEntity
  8
0
  6
Continuous
100
AcDbBlockReference
  2
*X8
 10
632.6739177330873
 20
462.6249936989528
 30
0.0
1001
ACAD
1000
HATCH
1002
{
1070
    16
1000
AR-CONC
1040
0.9
1040
0.0
1002
}
  0
INSERT
  5
12151
330
E81F
100
AcDbEntity
  8
0
  6
Continuous
100
AcDbBlockReference
  2
*X9
 10
632.6739177330873
 20
462.6249936989528
 30
0.0
1001
ACAD
1000
HATCH
1002
{
1070
    16
1000
AR-CONC
1040
0.9
1040
0.0
1002
}
  0
INSERT
  5
12258
330
E81F
100
AcDbEntity
  8
KOP
  6
Continuous
 62
     1
100
AcDbBlockReference
  2
AVE_RENDER
 10
388.6971120534202
 20
17.98152329912364
 30
0.0
1001
AVE_RENDER
1002
{
1070
     7
1000
Pref
1070
    30
1070
    20
1070
     1
1070
     0
1000

1070
    10
1070
     1
1070
    10
1040
1.0
1070
     1
1040
0.3
1040
0.7
1040
0.0
1040
10.0
1010
-1.0
1020
-1.0
1030
-1.0
1040
0.3
1070
    49
1070
     0
1070
     0
1010
1.0
1020
1.0
1030
1.0
1040
45.0
1070
     1
1070
     0
1000
WCS
1040
0.0
1070
     0
1040
10.0
1002
}
  0
INSERT
  5
12259
330
E81F
100
AcDbEntity
  8
KOP
  6
Continuous
 62
     3
100
AcDbBlockReference
  2
AVE_RENDER
 10
388.6971120534202
 20
17.98152329912364
 30
0.0
1001
AVE_RENDER
1002
{
1070
     0
1000
Full Opt
1070
     0
1070
     1
1070
     1
1070
     1
1070
     0
1070
     0
1070
     0
1070
     1
1070
     1
1040
0.0001
1040
0.0001
1002
}
  0
INSERT
  5
1225A
330
E81F
100
AcDbEntity
  8
KOP
  6
Continuous
 62
     4
100
AcDbBlockReference
  2
AVE_RENDER
 10
388.6971120534202
 20
17.98152329912364
 30
0.0
1001
AVE_RENDER
1002
{
1070
     0
1000
Quick Opt
1070
     0
1070
     1
1070
     1
1070
     1
1070
     0
1070
     0
1070
     1
1002
}
  0
INSERT
  5
1225B
330
E81F
100
AcDbEntity
  8
KOP
  6
Continuous
 62
     5
100
AcDbBlockReference
  2
AVE_RENDER
 10
388.6971120534202
 20
17.98152329912364
 30
0.0
1001
AVE_RENDER
1002
{
1070
     1
1000
Scanl Opt
1070
     2
1070
     0
1070
     2
1040
2.0
1040
4.0
1070
     0
1070
     1
1070
     0
1040
0.03
1002
}
  0
INSERT
  5
1225C
330
E81F
100
AcDbEntity
  8
KOP
  6
Continuous
 62
     6
100
AcDbBlockReference
  2
AVE_RENDER
 10
388.6971120534202
 20
17.98152329912364
 30
0.0
1001
AVE_RENDER
1002
{
1070
     2
1000
Raytr Opt
1070
     2
1070
     0
1070
     2
1040
2.0
1040
4.0
1070
     0
1070
     1
1070
     1
1040
0.03
1070
     3
1040
0.03
1002
}
  0
INSERT
  5
1225D
330
E81F
100
AcDbEntity
  8
KOP
  6
Continuous
 62
     7
100
AcDbBlockReference
  2
AVE_RENDER
 10
388.6971120534202
 20
17.98152329912364
 30
0.0
1001
AVE_RENDER
1002
{
1070
     0
1000
RFile Opt
1070
     1
1070
   640
1070
   480
1070
 10000
1070
     1
1070
     8
1070
     8
1070
     0
1070
     0
1070
     0
1070
     0
1070
     0
1070
     0
1070
     0
1002
}
  0
INSERT
  5
1225E
330
E81F
100
AcDbEntity
  8
KOP
  6
Continuous
 62
     8
100
AcDbBlockReference
  2
AVE_RENDER
 10
388.6971120534202
 20
17.98152329912364
 30
0.0
1001
AVE_RENDER
1002
{
1070
     0
1000
Fog Opt
1070
     0
1070
     0
1040
0.0
1040
1.0
1040
0.0
1040
1.0
1010
0.5
1020
0.5
1030
0.5
1002
}
  0
INSERT
  5
1225F
330
E81F
100
AcDbEntity
  8
KOP
  6
Continuous
 62
     9
100
AcDbBlockReference
  2
AVE_RENDER
 10
388.6971120534202
 20
17.98152329912364
 30
0.0
1001
AVE_RENDER
1002
{
1070
     0
1000
BG Opt
1070
     0
1070
     1
1010
0.0
1020
0.0
1030
0.0
1010
1.0
1020
0.0
1030
0.0
1010
0.0
1020
1.0
1030
0.0
1010
0.0
1020
0.0
1030
1.0
1040
0.5
1040
0.33
1040
0.0
1000

1070
     1
1000

1070
     1
1070
     1
1040
1.0
1040
1.0
1040
0.0
1040
0.0
1070
     0
1002
}
  0
INSERT
  5
12260
330
E81F
100
AcDbEntity
  8
KOP
  6
Continuous
 62
     1
100
AcDbBlockReference
  2
AVE_GLOBAL
 10
388.6971120534202
 20
17.98152329912364
 30
0.0
1001
AVE_MATERIAL
1002
{
1000
*GLOBAL*
1000
1
1000
Global finish.
1002
{
1002
}
1002
{
1070
    63
1002
{
1002
{
1010
-1.0
1020
-1.0
1030
-1.0
1002
}
1040
0.1000000014901161
1000

1040
0.0
1002
{
1002
}
1040
0.0
1002
{
1002
}
1040
0.0
1002
}
1002
{
1002
{
1010
-1.0
1020
-1.0
1030
-1.0
1002
}
1040
0.6999999880790711
1000

1040
0.0
1002
{
1002
}
1040
0.0
1002
{
1002
}
1040
0.0
1002
}
1002
{
1002
{
1010
-1.0
1020
-1.0
1030
-1.0
1002
}
1040
0.2000000029802322
1000

1040
0.0
1002
{
1002
}
1040
0.0
1002
{
1002
}
1040
0.0
1002
}
1002
{
1070
     0
1002
{
1070
     1
1002
{
1040
1.0
1040
1.0
1000

1040
0.0
1002
{
1002
}
1040
0.0
1002
{
1002
}
1040
0.0
1002
}
1002
}
1040
1.0
1040
0.0
1040
0.0
1002
}
1002
{
1040
1.0
1040
1.0
1000

1040
0.0
1002
{
1002
}
1040
0.0
1002
{
1002
}
1040
0.0
1002
}
1002
{
1040
0.5
1040
1.0
1000

1040
0.0
1002
{
1002
}
1040
0.0
1002
{
1002
}
1040
0.0
1002
}
1002
{
1070
     0
1040
0.0
1002
{
1002
}
1040
1.0
1002
{
1002
}
1040
0.0
1002
}
1002
{
1040
0.0
1002
{
1002
{
1010
0.0
1020
0.0
1030
0.0
1002
}
1040
1.0
1000

1040
0.0
1002
{
1002
}
1040
0.0
1002
{
1002
}
1040
0.0
1002
}
1002
}
1002
{
1002
{
1070
     1
1002
{
1040
0.0
1040
1.0
1000

1040
0.0
1002
{
1002
}
1040
0.0
1002
{
1002
}
1040
0.0
1002
}
1002
}
1040
0.0
1002
{
1002
}
1010
1.0
1020
0.0
1030
0.0
1010
0.0
1020
1.0
1030
0.0
1010
0.0
1020
0.0
1030
1.0
1070
     0
1002
}
1002
{
1002
{
1040
1.0
1040
1.0
1002
{
1070
     1
1002
{
1040
1.0
1040
1.0
1000

1040
0.0
1002
{
1002
}
1040
0.0
1002
{
1002
}
1040
0.0
1002
}
1002
}
1002
}
1070
     0
1040
0.0
1002
{
1002
}
1002
}
1002
{
1002
}
1002
}
1002
{
1071
        3
1070
     3
1070
     0
1002
{
1070
     2
1070
     0
1070
     0
1040
0.0
1002
}
1070
     0
1070
     2
1002
{
1002
}
1002
}
1002
{
1040
8030.0
1040
190.3000030517578
1040
0.3050000071525574
1040
228.0
1040
545.0
1040
14.0
1040
17.39999961853027
1040
0.4560000002384186
1002
}
1002
}
  0
INSERT
  5
12261
330
E81F
100
AcDbEntity
  8
0
  6
Continuous
100
AcDbBlockReference
  2
*X10
 10
564.3522879836158
 20
5.268429016458867
 30
0.0
1001
ACAD
1000
HATCH
1002
{
1070
    16
1000
AR-CONC
1040
0.9
1040
0.0
1002
}
  0
INSERT
  5
12262
330
E81F
100
AcDbEntity
  8
0
  6
Continuous
100
AcDbBlockReference
  2
*X11
 10
564.3522879836158
 20
5.268429016458867
 30
0.0
1001
ACAD
1000
HATCH
1002
{
1070
    16
1000
AR-CONC
1040
0.9
1040
0.0
1002
}
  0
INSERT
  5
12263
330
E81F
100
AcDbEntity
  8
KOP
  6
Continuous
 62
     1
100
AcDbBlockReference
  2
AVE_RENDER
 10
844.6509324768493
 20
215.2592485588737
 30
0.0
1001
AVE_RENDER
1002
{
1070
     7
1000
Pref
1070
    30
1070
    20
1070
     1
1070
     0
1000

1070
    10
1070
     1
1070
    10
1040
1.0
1070
     1
1040
0.3
1040
0.7
1040
0.0
1040
10.0
1010
-1.0
1020
-1.0
1030
-1.0
1040
0.3
1070
    49
1070
     0
1070
     0
1010
1.0
1020
1.0
1030
1.0
1040
45.0
1070
     1
1070
     0
1000
WCS
1040
0.0
1070
     0
1040
10.0
1002
}
  0
INSERT
  5
12264
330
E81F
100
AcDbEntity
  8
KOP
  6
Continuous
 62
     3
100
AcDbBlockReference
  2
AVE_RENDER
 10
844.6509324768493
 20
215.2592485588737
 30
0.0
1001
AVE_RENDER
1002
{
1070
     0
1000
Full Opt
1070
     0
1070
     1
1070
     1
1070
     1
1070
     0
1070
     0
1070
     0
1070
     1
1070
     1
1040
0.0001
1040
0.0001
1002
}
  0
INSERT
  5
12265
330
E81F
100
AcDbEntity
  8
KOP
  6
Continuous
 62
     4
100
AcDbBlockReference
  2
AVE_RENDER
 10
844.6509324768493
 20
215.2592485588737
 30
0.0
1001
AVE_RENDER
1002
{
1070
     0
1000
Quick Opt
1070
     0
1070
     1
1070
     1
1070
     1
1070
     0
1070
     0
1070
     1
1002
}
  0
INSERT
  5
12266
330
E81F
100
AcDbEntity
  8
KOP
  6
Continuous
 62
     5
100
AcDbBlockReference
  2
AVE_RENDER
 10
844.6509324768493
 20
215.2592485588737
 30
0.0
1001
AVE_RENDER
1002
{
1070
     1
1000
Scanl Opt
1070
     2
1070
     0
1070
     2
1040
2.0
1040
4.0
1070
     0
1070
     1
1070
     0
1040
0.03
1002
}
  0
INSERT
  5
12267
330
E81F
100
AcDbEntity
  8
KOP
  6
Continuous
 62
     6
100
AcDbBlockReference
  2
AVE_RENDER
 10
844.6509324768493
 20
215.2592485588737
 30
0.0
1001
AVE_RENDER
1002
{
1070
     2
1000
Raytr Opt
1070
     2
1070
     0
1070
     2
1040
2.0
1040
4.0
1070
     0
1070
     1
1070
     1
1040
0.03
1070
     3
1040
0.03
1002
}
  0
INSERT
  5
12268
330
E81F
100
AcDbEntity
  8
KOP
  6
Continuous
 62
     7
100
AcDbBlockReference
  2
AVE_RENDER
 10
844.6509324768493
 20
215.2592485588737
 30
0.0
1001
AVE_RENDER
1002
{
1070
     0
1000
RFile Opt
1070
     1
1070
   640
1070
   480
1070
 10000
1070
     1
1070
     8
1070
     8
1070
     0
1070
     0
1070
     0
1070
     0
1070
     0
1070
     0
1070
     0
1002
}
  0
INSERT
  5
12269
330
E81F
100
AcDbEntity
  8
KOP
  6
Continuous
 62
     8
100
AcDbBlockReference
  2
AVE_RENDER
 10
844.6509324768493
 20
215.2592485588737
 30
0.0
1001
AVE_RENDER
1002
{
1070
     0
1000
Fog Opt
1070
     0
1070
     0
1040
0.0
1040
1.0
1040
0.0
1040
1.0
1010
0.5
1020
0.5
1030
0.5
1002
}
  0
INSERT
  5
1226A
330
E81F
100
AcDbEntity
  8
KOP
  6
Continuous
 62
     9
100
AcDbBlockReference
  2
AVE_RENDER
 10
844.6509324768493
 20
215.2592485588737
 30
0.0
1001
AVE_RENDER
1002
{
1070
     0
1000
BG Opt
1070
     0
1070
     1
1010
0.0
1020
0.0
1030
0.0
1010
1.0
1020
0.0
1030
0.0
1010
0.0
1020
1.0
1030
0.0
1010
0.0
1020
0.0
1030
1.0
1040
0.5
1040
0.33
1040
0.0
1000

1070
     1
1000

1070
     1
1070
     1
1040
1.0
1040
1.0
1040
0.0
1040
0.0
1070
     0
1002
}
  0
INSERT
  5
1226B
330
E81F
100
AcDbEntity
  8
KOP
  6
Continuous
 62
     1
100
AcDbBlockReference
  2
AVE_GLOBAL
 10
844.6509324768493
 20
215.2592485588737
 30
0.0
1001
AVE_MATERIAL
1002
{
1000
*GLOBAL*
1000
1
1000
Global finish.
1002
{
1002
}
1002
{
1070
    63
1002
{
1002
{
1010
-1.0
1020
-1.0
1030
-1.0
1002
}
1040
0.1000000014901161
1000

1040
0.0
1002
{
1002
}
1040
0.0
1002
{
1002
}
1040
0.0
1002
}
1002
{
1002
{
1010
-1.0
1020
-1.0
1030
-1.0
1002
}
1040
0.6999999880790711
1000

1040
0.0
1002
{
1002
}
1040
0.0
1002
{
1002
}
1040
0.0
1002
}
1002
{
1002
{
1010
-1.0
1020
-1.0
1030
-1.0
1002
}
1040
0.2000000029802322
1000

1040
0.0
1002
{
1002
}
1040
0.0
1002
{
1002
}
1040
0.0
1002
}
1002
{
1070
     0
1002
{
1070
     1
1002
{
1040
1.0
1040
1.0
1000

1040
0.0
1002
{
1002
}
1040
0.0
1002
{
1002
}
1040
0.0
1002
}
1002
}
1040
1.0
1040
0.0
1040
0.0
1002
}
1002
{
1040
1.0
1040
1.0
1000

1040
0.0
1002
{
1002
}
1040
0.0
1002
{
1002
}
1040
0.0
1002
}
1002
{
1040
0.5
1040
1.0
1000

1040
0.0
1002
{
1002
}
1040
0.0
1002
{
1002
}
1040
0.0
1002
}
1002
{
1070
     0
1040
0.0
1002
{
1002
}
1040
1.0
1002
{
1002
}
1040
0.0
1002
}
1002
{
1040
0.0
1002
{
1002
{
1010
0.0
1020
0.0
1030
0.0
1002
}
1040
1.0
1000

1040
0.0
1002
{
1002
}
1040
0.0
1002
{
1002
}
1040
0.0
1002
}
1002
}
1002
{
1002
{
1070
     1
1002
{
1040
0.0
1040
1.0
1000

1040
0.0
1002
{
1002
}
1040
0.0
1002
{
1002
}
1040
0.0
1002
}
1002
}
1040
0.0
1002
{
1002
}
1010
1.0
1020
0.0
1030
0.0
1010
0.0
1020
1.0
1030
0.0
1010
0.0
1020
0.0
1030
1.0
1070
     0
1002
}
1002
{
1002
{
1040
1.0
1040
1.0
1002
{
1070
     1
1002
{
1040
1.0
1040
1.0
1000

1040
0.0
1002
{
1002
}
1040
0.0
1002
{
1002
}
1040
0.0
1002
}
1002
}
1002
}
1070
     0
1040
0.0
1002
{
1002
}
1002
}
1002
{
1002
}
1002
}
1002
{
1071
        3
1070
     3
1070
     0
1002
{
1070
     2
1070
     0
1070
     0
1040
0.0
1002
}
1070
     0
1070
     2
1002
{
1002
}
1002
}
1002
{
1040
8030.0
1040
190.3000030517578
1040
0.3050000071525574
1040
228.0
1040
545.0
1040
14.0
1040
17.39999961853027
1040
0.4560000002384186
1002
}
1002
}
  0
INSERT
  5
1226C
330
E81F
100
AcDbEntity
  8
0
  6
Continuous
100
AcDbBlockReference
  2
*X12
 10
1020.306108407045
 20
202.5461542762089
 30
0.0
1001
ACAD
1000
HATCH
1002
{
1070
    16
1000
AR-CONC
1040
0.9
1040
0.0
1002
}
  0
INSERT
  5
1226D
330
E81F
100
AcDbEntity
  8
0
  6
Continuous
100
AcDbBlockReference
  2
*X13
 10
1020.306108407045
 20
202.5461542762089
 30
0.0
1001
ACAD
1000
HATCH
1002
{
1070
    16
1000
AR-CONC
1040
0.9
1040
0.0
1002
}
  0
INSERT
  5
1226E
330
E81F
100
AcDbEntity
  8
KOP
  6
Continuous
 62
     1
100
AcDbBlockReference
  2
AVE_RENDER
 10
836.3403263575923
 20
504.6552466910749
 30
0.0
1001
AVE_RENDER
1002
{
1070
     7
1000
Pref
1070
    30
1070
    20
1070
     1
1070
     0
1000

1070
    10
1070
     1
1070
    10
1040
1.0
1070
     1
1040
0.3
1040
0.7
1040
0.0
1040
10.0
1010
-1.0
1020
-1.0
1030
-1.0
1040
0.3
1070
    49
1070
     0
1070
     0
1010
1.0
1020
1.0
1030
1.0
1040
45.0
1070
     1
1070
     0
1000
WCS
1040
0.0
1070
     0
1040
10.0
1002
}
  0
INSERT
  5
1226F
330
E81F
100
AcDbEntity
  8
KOP
  6
Continuous
 62
     3
100
AcDbBlockReference
  2
AVE_RENDER
 10
836.3403263575923
 20
504.6552466910749
 30
0.0
1001
AVE_RENDER
1002
{
1070
     0
1000
Full Opt
1070
     0
1070
     1
1070
     1
1070
     1
1070
     0
1070
     0
1070
     0
1070
     1
1070
     1
1040
0.0001
1040
0.0001
1002
}
  0
INSERT
  5
12270
330
E81F
100
AcDbEntity
  8
KOP
  6
Continuous
 62
     4
100
AcDbBlockReference
  2
AVE_RENDER
 10
836.3403263575923
 20
504.6552466910749
 30
0.0
1001
AVE_RENDER
1002
{
1070
     0
1000
Quick Opt
1070
     0
1070
     1
1070
     1
1070
     1
1070
     0
1070
     0
1070
     1
1002
}
  0
INSERT
  5
12271
330
E81F
100
AcDbEntity
  8
KOP
  6
Continuous
 62
     5
100
AcDbBlockReference
  2
AVE_RENDER
 10
836.3403263575923
 20
504.6552466910749
 30
0.0
1001
AVE_RENDER
1002
{
1070
     1
1000
Scanl Opt
1070
     2
1070
     0
1070
     2
1040
2.0
1040
4.0
1070
     0
1070
     1
1070
     0
1040
0.03
1002
}
  0
INSERT
  5
12272
330
E81F
100
AcDbEntity
  8
KOP
  6
Continuous
 62
     6
100
AcDbBlockReference
  2
AVE_RENDER
 10
836.3403263575923
 20
504.6552466910749
 30
0.0
1001
AVE_RENDER
1002
{
1070
     2
1000
Raytr Opt
1070
     2
1070
     0
1070
     2
1040
2.0
1040
4.0
1070
     0
1070
     1
1070
     1
1040
0.03
1070
     3
1040
0.03
1002
}
  0
INSERT
  5
12273
330
E81F
100
AcDbEntity
  8
KOP
  6
Continuous
 62
     7
100
AcDbBlockReference
  2
AVE_RENDER
 10
836.3403263575923
 20
504.6552466910749
 30
0.0
1001
AVE_RENDER
1002
{
1070
     0
1000
RFile Opt
1070
     1
1070
   640
1070
   480
1070
 10000
1070
     1
1070
     8
1070
     8
1070
     0
1070
     0
1070
     0
1070
     0
1070
     0
1070
     0
1070
     0
1002
}
  0
INSERT
  5
12274
330
E81F
100
AcDbEntity
  8
KOP
  6
Continuous
 62
     8
100
AcDbBlockReference
  2
AVE_RENDER
 10
836.3403263575923
 20
504.6552466910749
 30
0.0
1001
AVE_RENDER
1002
{
1070
     0
1000
Fog Opt
1070
     0
1070
     0
1040
0.0
1040
1.0
1040
0.0
1040
1.0
1010
0.5
1020
0.5
1030
0.5
1002
}
  0
INSERT
  5
12275
330
E81F
100
AcDbEntity
  8
KOP
  6
Continuous
 62
     9
100
AcDbBlockReference
  2
AVE_RENDER
 10
836.3403263575923
 20
504.6552466910749
 30
0.0
1001
AVE_RENDER
1002
{
1070
     0
1000
BG Opt
1070
     0
1070
     1
1010
0.0
1020
0.0
1030
0.0
1010
1.0
1020
0.0
1030
0.0
1010
0.0
1020
1.0
1030
0.0
1010
0.0
1020
0.0
1030
1.0
1040
0.5
1040
0.33
1040
0.0
1000

1070
     1
1000

1070
     1
1070
     1
1040
1.0
1040
1.0
1040
0.0
1040
0.0
1070
     0
1002
}
  0
INSERT
  5
12276
330
E81F
100
AcDbEntity
  8
KOP
  6
Continuous
 62
     1
100
AcDbBlockReference
  2
AVE_GLOBAL
 10
836.3403263575923
 20
504.6552466910749
 30
0.0
1001
AVE_MATERIAL
1002
{
1000
*GLOBAL*
1000
1
1000
Global finish.
1002
{
1002
}
1002
{
1070
    63
1002
{
1002
{
1010
-1.0
1020
-1.0
1030
-1.0
1002
}
1040
0.1000000014901161
1000

1040
0.0
1002
{
1002
}
1040
0.0
1002
{
1002
}
1040
0.0
1002
}
1002
{
1002
{
1010
-1.0
1020
-1.0
1030
-1.0
1002
}
1040
0.6999999880790711
1000

1040
0.0
1002
{
1002
}
1040
0.0
1002
{
1002
}
1040
0.0
1002
}
1002
{
1002
{
1010
-1.0
1020
-1.0
1030
-1.0
1002
}
1040
0.2000000029802322
1000

1040
0.0
1002
{
1002
}
1040
0.0
1002
{
1002
}
1040
0.0
1002
}
1002
{
1070
     0
1002
{
1070
     1
1002
{
1040
1.0
1040
1.0
1000

1040
0.0
1002
{
1002
}
1040
0.0
1002
{
1002
}
1040
0.0
1002
}
1002
}
1040
1.0
1040
0.0
1040
0.0
1002
}
1002
{
1040
1.0
1040
1.0
1000

1040
0.0
1002
{
1002
}
1040
0.0
1002
{
1002
}
1040
0.0
1002
}
1002
{
1040
0.5
1040
1.0
1000

1040
0.0
1002
{
1002
}
1040
0.0
1002
{
1002
}
1040
0.0
1002
}
1002
{
1070
     0
1040
0.0
1002
{
1002
}
1040
1.0
1002
{
1002
}
1040
0.0
1002
}
1002
{
1040
0.0
1002
{
1002
{
1010
0.0
1020
0.0
1030
0.0
1002
}
1040
1.0
1000

1040
0.0
1002
{
1002
}
1040
0.0
1002
{
1002
}
1040
0.0
1002
}
1002
}
1002
{
1002
{
1070
     1
1002
{
1040
0.0
1040
1.0
1000

1040
0.0
1002
{
1002
}
1040
0.0
1002
{
1002
}
1040
0.0
1002
}
1002
}
1040
0.0
1002
{
1002
}
1010
1.0
1020
0.0
1030
0.0
1010
0.0
1020
1.0
1030
0.0
1010
0.0
1020
0.0
1030
1.0
1070
     0
1002
}
1002
{
1002
{
1040
1.0
1040
1.0
1002
{
1070
     1
1002
{
1040
1.0
1040
1.0
1000

1040
0.0
1002
{
1002
}
1040
0.0
1002
{
1002
}
1040
0.0
1002
}
1002
}
1002
}
1070
     0
1040
0.0
1002
{
1002
}
1002
}
1002
{
1002
}
1002
}
1002
{
1071
        3
1070
     3
1070
     0
1002
{
1070
     2
1070
     0
1070
     0
1040
0.0
1002
}
1070
     0
1070
     2
1002
{
1002
}
1002
}
1002
{
1040
8030.0
1040
190.3000030517578
1040
0.3050000071525574
1040
228.0
1040
545.0
1040
14.0
1040
17.39999961853027
1040
0.4560000002384186
1002
}
1002
}
  0
INSERT
  5
12277
330
E81F
100
AcDbEntity
  8
0
  6
Continuous
100
AcDbBlockReference
  2
*X14
 10
1011.995502287788
 20
491.9421524084101
 30
0.0
1001
ACAD
1000
HATCH
1002
{
1070
    16
1000
AR-CONC
1040
0.9
1040
0.0
1002
}
  0
INSERT
  5
12278
330
E81F
100
AcDbEntity
  8
0
  6
Continuous
100
AcDbBlockReference
  2
*X15
 10
1011.995502287788
 20
491.9421524084101
 30
0.0
1001
ACAD
1000
HATCH
1002
{
1070
    16
1000
AR-CONC
1040
0.9
1040
0.0
1002
}
  0
INSERT
  5
12279
330
E81F
100
AcDbEntity
  8
KOP
  6
Continuous
 62
     1
100
AcDbBlockReference
  2
AVE_RENDER
 10
845.7158538563117
 20
493.3196112807412
 30
0.0
1001
AVE_RENDER
1002
{
1070
     7
1000
Pref
1070
    30
1070
    20
1070
     1
1070
     0
1000

1070
    10
1070
     1
1070
    10
1040
1.0
1070
     1
1040
0.3
1040
0.7
1040
0.0
1040
10.0
1010
-1.0
1020
-1.0
1030
-1.0
1040
0.3
1070
    49
1070
     0
1070
     0
1010
1.0
1020
1.0
1030
1.0
1040
45.0
1070
     1
1070
     0
1000
WCS
1040
0.0
1070
     0
1040
10.0
1002
}
  0
INSERT
  5
1227A
330
E81F
100
AcDbEntity
  8
KOP
  6
Continuous
 62
     3
100
AcDbBlockReference
  2
AVE_RENDER
 10
845.7158538563117
 20
493.3196112807412
 30
0.0
1001
AVE_RENDER
1002
{
1070
     0
1000
Full Opt
1070
     0
1070
     1
1070
     1
1070
     1
1070
     0
1070
     0
1070
     0
1070
     1
1070
     1
1040
0.0001
1040
0.0001
1002
}
  0
INSERT
  5
1227B
330
E81F
100
AcDbEntity
  8
KOP
  6
Continuous
 62
     4
100
AcDbBlockReference
  2
AVE_RENDER
 10
845.7158538563117
 20
493.3196112807412
 30
0.0
1001
AVE_RENDER
1002
{
1070
     0
1000
Quick Opt
1070
     0
1070
     1
1070
     1
1070
     1
1070
     0
1070
     0
1070
     1
1002
}
  0
INSERT
  5
1227C
330
E81F
100
AcDbEntity
  8
KOP
  6
Continuous
 62
     5
100
AcDbBlockReference
  2
AVE_RENDER
 10
845.7158538563117
 20
493.3196112807412
 30
0.0
1001
AVE_RENDER
1002
{
1070
     1
1000
Scanl Opt
1070
     2
1070
     0
1070
     2
1040
2.0
1040
4.0
1070
     0
1070
     1
1070
     0
1040
0.03
1002
}
  0
INSERT
  5
1227D
330
E81F
100
AcDbEntity
  8
KOP
  6
Continuous
 62
     6
100
AcDbBlockReference
  2
AVE_RENDER
 10
845.7158538563117
 20
493.3196112807412
 30
0.0
1001
AVE_RENDER
1002
{
1070
     2
1000
Raytr Opt
1070
     2
1070
     0
1070
     2
1040
2.0
1040
4.0
1070
     0
1070
     1
1070
     1
1040
0.03
1070
     3
1040
0.03
1002
}
  0
INSERT
  5
1227E
330
E81F
100
AcDbEntity
  8
KOP
  6
Continuous
 62
     7
100
AcDbBlockReference
  2
AVE_RENDER
 10
845.7158538563117
 20
493.3196112807412
 30
0.0
1001
AVE_RENDER
1002
{
1070
     0
1000
RFile Opt
1070
     1
1070
   640
1070
   480
1070
 10000
1070
     1
1070
     8
1070
     8
1070
     0
1070
     0
1070
     0
1070
     0
1070
     0
1070
     0
1070
     0
1002
}
  0
INSERT
  5
1227F
330
E81F
100
AcDbEntity
  8
KOP
  6
Continuous
 62
     8
100
AcDbBlockReference
  2
AVE_RENDER
 10
845.7158538563117
 20
493.3196112807412
 30
0.0
1001
AVE_RENDER
1002
{
1070
     0
1000
Fog Opt
1070
     0
1070
     0
1040
0.0
1040
1.0
1040
0.0
1040
1.0
1010
0.5
1020
0.5
1030
0.5
1002
}
  0
INSERT
  5
12280
330
E81F
100
AcDbEntity
  8
KOP
  6
Continuous
 62
     9
100
AcDbBlockReference
  2
AVE_RENDER
 10
845.7158538563117
 20
493.3196112807412
 30
0.0
1001
AVE_RENDER
1002
{
1070
     0
1000
BG Opt
1070
     0
1070
     1
1010
0.0
1020
0.0
1030
0.0
1010
1.0
1020
0.0
1030
0.0
1010
0.0
1020
1.0
1030
0.0
1010
0.0
1020
0.0
1030
1.0
1040
0.5
1040
0.33
1040
0.0
1000

1070
     1
1000

1070
     1
1070
     1
1040
1.0
1040
1.0
1040
0.0
1040
0.0
1070
     0
1002
}
  0
INSERT
  5
12281
330
E81F
100
AcDbEntity
  8
KOP
  6
Continuous
 62
     1
100
AcDbBlockReference
  2
AVE_GLOBAL
 10
845.7158538563117
 20
493.3196112807412
 30
0.0
1001
AVE_MATERIAL
1002
{
1000
*GLOBAL*
1000
1
1000
Global finish.
1002
{
1002
}
1002
{
1070
    63
1002
{
1002
{
1010
-1.0
1020
-1.0
1030
-1.0
1002
}
1040
0.1000000014901161
1000

1040
0.0
1002
{
1002
}
1040
0.0
1002
{
1002
}
1040
0.0
1002
}
1002
{
1002
{
1010
-1.0
1020
-1.0
1030
-1.0
1002
}
1040
0.6999999880790711
1000

1040
0.0
1002
{
1002
}
1040
0.0
1002
{
1002
}
1040
0.0
1002
}
1002
{
1002
{
1010
-1.0
1020
-1.0
1030
-1.0
1002
}
1040
0.2000000029802322
1000

1040
0.0
1002
{
1002
}
1040
0.0
1002
{
1002
}
1040
0.0
1002
}
1002
{
1070
     0
1002
{
1070
     1
1002
{
1040
1.0
1040
1.0
1000

1040
0.0
1002
{
1002
}
1040
0.0
1002
{
1002
}
1040
0.0
1002
}
1002
}
1040
1.0
1040
0.0
1040
0.0
1002
}
1002
{
1040
1.0
1040
1.0
1000

1040
0.0
1002
{
1002
}
1040
0.0
1002
{
1002
}
1040
0.0
1002
}
1002
{
1040
0.5
1040
1.0
1000

1040
0.0
1002
{
1002
}
1040
0.0
1002
{
1002
}
1040
0.0
1002
}
1002
{
1070
     0
1040
0.0
1002
{
1002
}
1040
1.0
1002
{
1002
}
1040
0.0
1002
}
1002
{
1040
0.0
1002
{
1002
{
1010
0.0
1020
0.0
1030
0.0
1002
}
1040
1.0
1000

1040
0.0
1002
{
1002
}
1040
0.0
1002
{
1002
}
1040
0.0
1002
}
1002
}
1002
{
1002
{
1070
     1
1002
{
1040
0.0
1040
1.0
1000

1040
0.0
1002
{
1002
}
1040
0.0
1002
{
1002
}
1040
0.0
1002
}
1002
}
1040
0.0
1002
{
1002
}
1010
1.0
1020
0.0
1030
0.0
1010
0.0
1020
1.0
1030
0.0
1010
0.0
1020
0.0
1030
1.0
1070
     0
1002
}
1002
{
1002
{
1040
1.0
1040
1.0
1002
{
1070
     1
1002
{
1040
1.0
1040
1.0
1000

1040
0.0
1002
{
1002
}
1040
0.0
1002
{
1002
}
1040
0.0
1002
}
1002
}
1002
}
1070
     0
1040
0.0
1002
{
1002
}
1002
}
1002
{
1002
}
1002
}
1002
{
1071
        3
1070
     3
1070
     0
1002
{
1070
     2
1070
     0
1070
     0
1040
0.0
1002
}
1070
     0
1070
     2
1002
{
1002
}
1002
}
1002
{
1040
8030.0
1040
190.3000030517578
1040
0.3050000071525574
1040
228.0
1040
545.0
1040
14.0
1040
17.39999961853027
1040
0.4560000002384186
1002
}
1002
}
  0
INSERT
  5
12282
330
E81F
100
AcDbEntity
  8
0
  6
Continuous
100
AcDbBlockReference
  2
*X16
 10
1021.371029786507
 20
480.6065169980764
 30
0.0
1001
ACAD
1000
HATCH
1002
{
1070
    16
1000
AR-CONC
1040
0.9
1040
0.0
1002
}
  0
INSERT
  5
12283
330
E81F
100
AcDbEntity
  8
0
  6
Continuous
100
AcDbBlockReference
  2
*X17
 10
1021.371029786507
 20
480.6065169980764
 30
0.0
1001
ACAD
1000
HATCH
1002
{
1070
    16
1000
AR-CONC
1040
0.9
1040
0.0
1002
}
  0
MTEXT
  5
28F6E
330
E81F
100
AcDbEntity
  8
DIMENSI
100
AcDbMText
 10
958.7344039112021
 20
726.1457439669152
 30
0.0
 40
6.3
 41
0.0
 71
     9
 72
     1
  1

  7
ROMANS
 73
     1
 44
1.0
1001
ACAD
1000
MTEXTBEGIN
1070
    73
1070
     1
1070
    44
1040
1.0
1070
    74
1070
     0
1000
MTEXTEND
  0
LEADER
  5
3CF94
330
E81F
100
AcDbEntity
  8
TEXT
100
AcDbLeader
  3
DIM-1A
 73
     0
 75
     1
 40
17.61437016825829
 41
60.17462482946793
 76
     3
 10
276.3523405834717
 20
471.8753594756697
 30
0.0
 10
262.1628908922076
 20
490.3066234304049
 30
0.0
 10
258.1628908922076
 20
490.3066234304049
 30
0.0
340
3CF95
213
-0.9362370241446171
223
-0.6600692374822188
233
0.0
  0
MTEXT
  5
3CF95
102
{ACAD_REACTORS
330
3CF94
102
}
330
E81F
100
AcDbEntity
  8
TEXT
100
AcDbMText
 10
257.5991279163521
 20
492.4666926678871
 30
0.0
 40
4.0
 41
0.0
 71
     9
 72
     1
  1
RIM OF LAVATORY\PBORDE DEL LAVABO\PBORD DU LAVABO
  7
Arial Reguler
 73
     1
 44
1.0
1001
ACAD
1000
MTEXTBEGIN
1070
    73
1070
     1
1070
    44
1040
1.0
1070
    74
1070
     0
1000
MTEXTEND
  0
INSERT
  5
3CFC2
330
E81F
100
AcDbEntity
  8
TOTO
100
AcDbBlockReference
  2
A$C74DC1801
 10
-219.2635872989295
 20
483.8754088456733
 30
0.0
  0
LWPOLYLINE
  5
3CFC3
330
E81F
100
AcDbEntity
  8
TEMPLATE
100
AcDbPolyline
 90
        8
 70
     1
 43
0.0
 10
-157.9652924024603
 20
82.46224351113378
 42
-0.068495665896058
 10
-163.1601894835057
 20
343.5239080092724
 42
-0.3803797271412226
 10
-63.84247297707588
 20
431.8623820392958
 10
354.4563651081912
 20
431.8623820392956
 42
-0.3803797271412165
 10
453.7740816146206
 20
343.5239080092745
 42
-0.0684956658960708
 10
448.5791845335707
 20
82.46224351110567
 42
-0.338246269355561
 10
360.7281208601639
 20
-1.33588549177665
 42
-0.0547844587709634
 10
-70.11422872906814
 20
-1.335885491774376
 42
-0.3382462693555142
  0
TEXT
  5
3CFC4
330
E81F
100
AcDbEntity
  8
TEXT
  6
Continuous
 62
     7
100
AcDbText
 10
472.8751878169519
 20
-6.71512637514229
 30
0.0
 40
5.0
  1
08/2006
  7
black
100
AcDbText
  0
TEXT
  5
3CFC5
330
E81F
100
AcDbEntity
  8
TEXT
  6
Continuous
 62
     7
100
AcDbText
 10
473.505235746627
 20
-16.23064569752409
 30
0.0
 40
5.0
  1
Template #0GU131
  7
black
100
AcDbText
  0
TEXT
  5
3CFC6
330
E81F
100
AcDbEntity
  8
TEXT
  6
Continuous
 62
     7
100
AcDbText
 10
472.9857353821512
 20
-25.7306456975241
 30
0.0
 40
5.0
  1
Lavatory #LT971
  7
black
100
AcDbText
  0
LINE
  5
3CFCC
330
E81F
100
AcDbEntity
  8
CENTER
100
AcDbLine
 10
145.3069460655579
 20
-38.48616275503582
 30
0.0
 11
145.3069460655579
 21
496.862512772811
 31
0.0
  0
LINE
  5
3CFCD
330
E81F
100
AcDbEntity
  8
CENTER
100
AcDbLine
 10
517.67192965928
 20
249.6612230932724
 30
0.0
 11
-229.9972887953909
 21
249.6612230932724
 31
0.0
  0
CIRCLE
  5
3CFD8
330
E81F
100
AcDbEntity
  8
GRS. LW640J
100
AcDbCircle
 10
145.3069460655574
 20
249.8775758743853
 30
0.0
 40
31.99968051910401
  0
CIRCLE
  5
3CFD9
330
E81F
100
AcDbEntity
  8
GRS. LW640J
100
AcDbCircle
 10
145.3069460655574
 20
249.8775758743853
 30
0.0
 40
21.999780356884
  0
ARC
  5
3CFDA
330
E81F
100
AcDbEntity
  8
GRS. LW640J
100
AcDbCircle
 10
145.3069460655579
 20
1963.855471789894
 30
0.0
 40
1991.980112314224
100
AcDbArc
 50
262.316184667035
 51
277.683815332949
  0
ARC
  5
3CFDB
330
E81F
100
AcDbEntity
  8
GRS. LW640J
100
AcDbCircle
 10
-456.2263242830493
 20
236.0849092184436
 30
0.0
 40
958.9453768809047
100
AcDbArc
 50
348.0057161374847
 51
13.76284455099373
  0
ARC
  5
3CFDC
330
E81F
100
AcDbEntity
  8
GRS. LW640J
100
AcDbCircle
 10
488.7025016206121
 20
-58.72777053068046
 30
0.0
 40
89.0
100
AcDbArc
 50
99.7152746062459
 51
145.0401401582461
  0
ARC
  5
3CFDD
330
E81F
100
AcDbEntity
  8
GRS. LW640J
100
AcDbCircle
 10
465.4656582900588
 20
461.8753594756689
 30
0.0
 40
10.0
100
AcDbArc
 50
13.56891135407207
 51
90.0
  0
ARC
  5
3CFDE
330
E81F
100
AcDbEntity
  8
GRS. LW640J
100
AcDbCircle
 10
410.8449021895676
 20
-4.292541029545191
 30
0.0
 40
6.0
100
AcDbArc
 50
277.683815332949
 51
325.0401401582458
  0
ARC
  5
3CFDF
330
E81F
100
AcDbEntity
  8
GRS. LW640J
100
AcDbCircle
 10
471.9960383348065
 20
38.85242256443508
 30
0.0
 40
10.0
100
AcDbArc
 50
279.7152746062459
 51
348.1711560892697
  0
LINE
  5
3CFE0
330
E81F
100
AcDbEntity
  8
GRS. LW640J
100
AcDbLine
 10
465.4656582900588
 20
471.87535947567
 30
0.0
 11
-174.8517661589439
 21
471.8753594756689
 31
0.0
  0
ARC
  5
3CFE2
330
E81F
100
AcDbEntity
  8
GRS. LW640J
100
AcDbCircle
 10
746.8402164141612
 20
236.0849092184442
 30
0.0
 40
958.9453768809018
100
AcDbArc
 50
166.2371554490063
 51
191.9942838625149
  0
ARC
  5
3CFE3
330
E81F
100
AcDbEntity
  8
GRS. LW640J
100
AcDbCircle
 10
-198.0886094894972
 20
-58.72777053068046
 30
0.0
 40
89.0
100
AcDbArc
 50
34.95985984173605
 51
80.2847253937541
  0
ARC
  5
3CFE4
330
E81F
100
AcDbEntity
  8
GRS. LW640J
100
AcDbCircle
 10
-174.8517661589439
 20
461.8753594756689
 30
0.0
 40
10.0
100
AcDbArc
 50
90.0
 51
166.4310886459279
  0
ARC
  5
3CFE5
330
E81F
100
AcDbEntity
  8
GRS. LW640J
100
AcDbCircle
 10
-120.2310100584527
 20
-4.292541029545191
 30
0.0
 40
6.0
100
AcDbArc
 50
214.9598598417361
 51
262.3161846670247
  0
ARC
  5
3CFE6
330
E81F
100
AcDbEntity
  8
GRS. LW640J
100
AcDbCircle
 10
-181.3821462036917
 20
38.85242256443508
 30
0.0
 40
10.0
100
AcDbArc
 50
191.8288439107426
 51
260.2847253937541
  0
LEADER
  5
3CFED
330
E81F
100
AcDbEntity
  8
TEXT
100
AcDbLeader
  3
DIM-1A
 73
     0
 75
     1
 40
17.60618462937699
 41
106.1173260572987
 76
     3
 10
88.34615826675374
 20
431.8623820392957
 30
0.0
 10
67.8452802629258
 20
394.0757697335244
 30
0.0
 10
63.8452802629258
 20
394.0757697335244
 30
0.0
340
3CFEE
213
-0.9362370241446171
223
-0.6600692374822188
233
0.0
  0
MTEXT
  5
3CFEE
102
{ACAD_REACTORS
330
3CFED
102
}
330
E81F
100
AcDbEntity
  8
TEXT
100
AcDbMText
 10
63.28151728707041
 20
396.2358389710066
 30
0.0
 40
4.0
 41
0.0
 71
     9
 72
     1
  1
{\fArial|b1|i0|c0|p34;CUT ALONG THIS LINE\PCORTE A LO LARGO DE ESTA LINEA\PDECOUPER AU LONG DE CETTE LIGNE}
  7
Arial Reguler
 73
     1
 44
1.0
1001
ACAD
1000
MTEXTBEGIN
1070
    73
1070
     1
1070
    44
1040
1.0
1070
    74
1070
     0
1000
MTEXTEND
  0
MTEXT
  5
3D097
330
E81F
100
AcDbEntity
  8
TEXT
100
AcDbMText
 10
142.392661959909
 20
-10.12913332887518
 30
0.0
 40
4.0
 41
0.0
 71
     7
 72
     1
  1
CENTER LINE\PLINEA DE CENTRO\PLIGNE CENTRALE
  7
Arial Reguler
 11
0.0000000000000001
 21
1.0
 31
0.0
 73
     1
 44
1.0
1001
ACAD
1000
MTEXTBEGIN
1070
    73
1070
     1
1070
    44
1040
1.0
1070
    74
1070
     0
1000
MTEXTEND
  0
VIEWPORT
  5
3B586
102
{ACAD_XDICTIONARY
360
3D151
102
}
330
3B585
100
AcDbEntity
 67
     1
  8
0
100
AcDbViewport
 10
445.8908792674071
 20
309.8187894838103
 30
0.0
 40
940.2626389210894
 41
571.7053790878016
 68
     1
 69
     1
 12
445.8908792674071
 22
309.8187894838103
 13
0.0
 23
0.0
 14
0.5
 24
0.5
 15
0.5
 25
0.5
 16
0.0
 26
0.0
 36
1.0
 17
0.0
 27
0.0
 37
0.0
 42
50.0
 43
0.0
 44
0.0
 45
571.7053790878016
 50
0.0
 51
0.0
 72
   100
 90
    32800
  1

281
     0
 71
     1
 74
     0
110
0.0
120
0.0
130
0.0
111
1.0
121
0.0
131
0.0
112
0.0
122
1.0
132
0.0
 79
     0
146
0.0
  0
VIEWPORT
  5
3B587
102
{ACAD_XDICTIONARY
360
3D153
102
}
330
3B585
100
AcDbEntity
 67
     1
  8
VP
100
AcDbViewport
 10
424.0256247444809
 20
299.2913182777015
 30
0.0
 40
806.9579906463623
 41
583.9460120201111
 68
     2
 69
     2
 12
168.7005151350021
 22
239.5755509540259
 13
0.0
 23
0.0
 14
0.5
 24
0.5
 15
0.5
 25
0.5
 16
0.0
 26
0.0
 36
1.0
 17
0.0
 27
0.0
 37
0.0
 42
50.0
 43
0.0
 44
0.0
 45
583.9460123732363
 50
0.0
 51
0.0
 72
   100
 90
    32864
  1

281
     0
 71
     1
 74
     0
110
-911.8778148023611
120
-1300.072329665469
130
0.0
111
1.0
121
0.0
131
0.0
112
0.0
122
1.0
132
0.0
 79
     0
146
0.0
  0
LWPOLYLINE
  5
3B588
330
3B585
100
AcDbEntity
 67
     1
  8
KOP
100
AcDbPolyline
 90
        4
 70
     1
 43
0.5
 10
21.52662942129973
 20
16.793312267646
 10
21.52662942129996
 20
581.7933122676459
 10
826.5266294212997
 20
581.7933122676456
 10
826.5266294212997
 20
16.79331226764555
  0
ENDSEC
  0
SECTION
  2
OBJECTS
  0
DICTIONARY
  5
E813
330
0
100
AcDbDictionary
281
     1
  3
ACAD_COLOR
350
3BB84
  3
ACAD_GROUP
350
E814
  3
ACAD_LAYOUT
350
127E3
  3
ACAD_MATERIAL
350
3BB83
  3
ACAD_MLINESTYLE
350
E815
  3
ACAD_PLOTSETTINGS
350
127E4
  3
ACAD_PLOTSTYLENAME
350
127E1
  3
ACAD_TABLESTYLE
350
3BB85
  3
ACAD_VISUALSTYLE
350
3D129
  3
AcadDim
350
2EAF9
  3
AcDbVariableDictionary
350
139E1
  3
ASE_INDEX_DICTIONARY
350
3D121
  3
BNS_VARIABLES
350
2FA48
  3
DWGPROPS
350
3D14A
  0
DICTIONARY
  5
3BA57
330
E809
100
AcDbDictionary
280
     1
281
     1
  3
ACAD_LAYERFILTERS
360
3CF81
  3
ACAD_LAYERSTATES
360
3BC27
  3
ACLYDICTIONARY
360
3CF80
  0
DICTIONARY
  5
3BBA3
330
E81F
100
AcDbDictionary
280
     1
281
     1
  3
ACAD_SORTENTS
360
3BBA4
  0
DICTIONARY
  5
3D151
330
3B586
100
AcDbDictionary
280
     1
281
     1
  3
ACAD_XREC_ROUNDTRIP
360
3D152
  0
DICTIONARY
  5
3D153
330
3B587
100
AcDbDictionary
280
     1
281
     1
  3
ACAD_XREC_ROUNDTRIP
360
3D154
  0
DICTIONARY
  5
3BB84
102
{ACAD_REACTORS
330
E813
102
}
330
E813
100
AcDbDictionary
281
     1
  0
DICTIONARY
  5
E814
102
{ACAD_REACTORS
330
E813
102
}
330
E813
100
AcDbDictionary
281
     1
  3
*A1
350
1BC25
  3
*A10
350
2A1CA
  3
*A2
350
2A1CB
  3
*A3
350
32152
  3
*A4
350
316EE
  3
*A5
350
2BC9F
  3
*A6
350
2BCA0
  3
*A7
350
2BCA1
  3
*A8
350
2BCA2
  3
*A9
350
28E5F
  3
1
350
27CCB
  3
2
350
2836C
  3
3
350
28628
  3
4
350
28876
  3
7
350
2D76B
  3
D
350
316E6
  3
P
350
1C9D3
  0
DICTIONARY
  5
127E3
102
{ACAD_REACTORS
330
E813
102
}
330
E813
100
AcDbDictionary
281
     1
  3
A1
350
3B5C8
  3
Model
350
127E5
  0
DICTIONARY
  5
3BB83
102
{ACAD_REACTORS
330
E813
102
}
330
E813
100
AcDbDictionary
281
     1
  3
ByBlock
350
3D127
  3
ByLayer
350
3D126
  3
Global
350
3D128
  0
DICTIONARY
  5
E815
102
{ACAD_REACTORS
330
E813
102
}
330
E813
100
AcDbDictionary
281
     1
  3
STANDARD
350
E822
  0
DICTIONARY
  5
127E4
102
{ACAD_REACTORS
330
E813
102
}
330
E813
100
AcDbDictionary
281
     1
  3
BESAR 1
350
180EA
  3
KECIL 1
350
17FD7
  0
ACDBDICTIONARYWDFLT
  5
127E1
102
{ACAD_REACTORS
330
E813
102
}
330
E813
100
AcDbDictionary
281
     1
  3
Normal
350
127E2
100
AcDbDictionaryWithDefault
340
127E2
  0
DICTIONARY
  5
3BB85
102
{ACAD_REACTORS
330
E813
102
}
330
E813
100
AcDbDictionary
281
     1
  3
Standard
350
3BB86
  0
DICTIONARY
  5
3D129
102
{ACAD_REACTORS
330
E813
102
}
330
E813
100
AcDbDictionary
281
     1
  3
2dWireframe
350
3D12F
  3
3D Hidden
350
3D131
  3
3dWireframe
350
3D130
  3
Basic
350
3D12E
  3
Brighten
350
3D135
  3
ColorChange
350
3D139
  3
Conceptual
350
3D132
  3
Dim
350
3D134
  3
Facepattern
350
3D138
  3
Flat
350
3D12A
  3
FlatWithEdges
350
3D12B
  3
Gouraud
350
3D12C
  3
GouraudWithEdges
350
3D12D
  3
Linepattern
350
3D137
  3
Realistic
350
3D133
  3
Thicken
350
3D136
  0
XRECORD
  5
2EAF9
102
{ACAD_REACTORS
330
E813
102
}
330
E813
100
AcDbXrecord
280
     1
 90
   990106
  3

 60
     0
 61
     0
 62
     4
 63
     4
 64
     1
 65
     0
 66
     0
 67
     3
 68
     1
 69
     0
 70
     0
 71
     0
 72
     0
 40
0.0
170
     2
340
0
  0
DICTIONARY
  5
139E1
102
{ACAD_REACTORS
330
E813
102
}
330
E813
100
AcDbDictionary
281
     1
  3
CTABLESTYLE
350
3BB98
  3
DIMASSOC
350
3BB46
  3
INDEXCTL
350
3D149
  3
SORTENTS
350
139E2
  0
DICTIONARY
  5
3D121
102
{ACAD_REACTORS
330
E813
102
}
330
E813
100
AcDbDictionary
281
     1
  3
ASEBlockHierarchyIndexRecord
350
3D123
1001
DCO15
1040
1651550995.531
  0
DICTIONARY
  5
2FA48
102
{ACAD_REACTORS
330
E813
102
}
330
E813
100
AcDbDictionary
281
     1
  3
ACET-LAYVPMODE
350
2FA49
  0
XRECORD
  5
3D14A
102
{ACAD_REACTORS
330
E813
102
}
330
E813
100
AcDbXrecord
280
     1
  1
DWGPROPS COOKIE
  2

  3

  4

  6

  7

  8
nnguyen
  9

300
=
301
=
302
=
303
=
304
=
305
=
306
=
307
=
308
=
309
=
 40
19.04380834490741
 41
2450935.84161632
 42
2454918.385411239
  1

 90
        0
  0
DICTIONARY
  5
3CF81
102
{ACAD_REACTORS
330
3BA57
102
}
330
3BA57
100
AcDbDictionary
281
     1
  3
SULIONO
350
3CF83
  0
DICTIONARY
  5
3BC27
102
{ACAD_REACTORS
330
3BA57
102
}
330
3BA57
100
AcDbDictionary
281
     1
  0
DICTIONARY
  5
3CF80
102
{ACAD_REACTORS
330
3BA57
102
}
330
3BA57
100
AcDbDictionary
281
     1
  3
*A1
350
3CF82
1001
ACAD
1000
<All
  0
SORTENTSTABLE
  5
3BBA4
102
{ACAD_REACTORS
330
3BBA3
102
}
330
3BBA3
100
AcDbSortentsTable
330
E81F
331
12260
  5
12260
331
3CFCC
  5
3CFE5
331
3CFDB
  5
3CFCC
331
780
  5
780
331
12135
  5
12135
331
3CFE2
  5
3CFDC
331
12258
  5
12258
331
3CF94
  5
3CF94
331
1213C
  5
1213C
331
3CFC3
  5
3CFC3
331
1227C
  5
1227C
331
12143
  5
12143
331
1225F
  5
1225F
331
12275
  5
12275
331
1226E
  5
1226E
331
12267
  5
12267
331
1214C
  5
1214C
331
12280
  5
12280
331
3CFDD
  5
3CFD7
331
782
  5
782
331
12270
  5
12270
331
3CFE4
  5
3CFDE
331
3CFC5
  5
3CFC5
331
12145
  5
12145
331
1227E
  5
1227E
331
12277
  5
12277
331
1213E
  5
1213E
331
1225A
  5
1225A
331
12137
  5
12137
331
12269
  5
12269
331
1214E
  5
1214E
331
12262
  5
12262
331
77D
  5
77D
331
12264
  5
12264
331
3CFD8
  5
3CFC9
331
1226B
  5
1226B
331
3CFDF
  5
3CFD9
331
12272
  5
12272
331
3CFE6
  5
3CFE0
331
12147
  5
12147
331
12279
  5
12279
331
12140
  5
12140
331
1225C
  5
1225C
331
12139
  5
12139
331
10EE4
  5
10EE4
331
12132
  5
12132
331
12150
  5
12150
331
12282
  5
12282
331
12149
  5
12149
331
1214B
  5
1214B
331
12266
  5
12266
331
77F
  5
77F
331
12134
  5
12134
331
1226D
  5
1226D
331
12274
  5
12274
331
12142
  5
12142
331
1225E
  5
1225E
331
1213B
  5
1213B
331
1227B
  5
1227B
331
3CFC2
  5
3CFC2
331
3CFDA
  5
3CFCB
331
12261
  5
12261
331
1214D
  5
1214D
331
12268
  5
12268
331
781
  5
781
331
12259
  5
12259
331
1226F
  5
1226F
331
12136
  5
12136
331
3CFDC
  5
3CFCD
331
1213D
  5
1213D
331
12276
  5
12276
331
12144
  5
12144
331
3CF95
  5
3CF95
331
1227D
  5
1227D
331
3CFC4
  5
3CFC4
331
3CFE3
  5
3CFDD
331
3CFCD
  5
3CFE6
331
12281
  5
12281
331
12263
  5
12263
331
12148
  5
12148
331
1226A
  5
1226A
331
12131
  5
12131
331
1214F
  5
1214F
331
77C
  5
77C
331
783
  5
783
331
12271
  5
12271
331
12138
  5
12138
331
1225B
  5
1225B
331
78A
  5
78A
331
12278
  5
12278
331
12146
  5
12146
331
1213F
  5
1213F
331
1227F
  5
1227F
331
3CFC6
  5
3CFC6
331
3CFE5
  5
3CFDF
331
3CFDE
  5
3CFD8
331
12283
  5
12283
331
12265
  5
12265
331
1214A
  5
1214A
331
12151
  5
12151
331
10EE5
  5
10EE5
331
1226C
  5
1226C
331
12133
  5
12133
331
1227A
  5
1227A
331
12141
  5
12141
331
1225D
  5
1225D
331
12273
  5
12273
331
1213A
  5
1213A
331
28F6E
  5
28F6E
331
3CFE0
  5
3CFDA
331
3CFD9
  5
3CFCA
331
77E
  5
77E
  0
XRECORD
  5
3D152
102
{ACAD_REACTORS
330
3D151
102
}
330
3D151
100
AcDbXrecord
280
     1
102
SHADEPLOT
 70
     0
  0
XRECORD
  5
3D154
102
{ACAD_REACTORS
330
3D153
102
}
330
3D153
100
AcDbXrecord
280
     1
102
SHADEPLOT
 70
     0
  0
GROUP
  5
1BC25
102
{ACAD_REACTORS
330
E814
102
}
330
E814
100
AcDbGroup
300

 70
     1
 71
     1
  0
GROUP
  5
2A1CA
102
{ACAD_REACTORS
330
E814
102
}
330
E814
100
AcDbGroup
300

 70
     1
 71
     1
  0
GROUP
  5
2A1CB
102
{ACAD_REACTORS
330
E814
102
}
330
E814
100
AcDbGroup
300

 70
     1
 71
     1
  0
GROUP
  5
32152
102
{ACAD_REACTORS
330
E814
102
}
330
E814
100
AcDbGroup
300

 70
     1
 71
     1
  0
GROUP
  5
316EE
102
{ACAD_REACTORS
330
E814
102
}
330
E814
100
AcDbGroup
300

 70
     1
 71
     1
  0
GROUP
  5
2BC9F
102
{ACAD_REACTORS
330
E814
102
}
330
E814
100
AcDbGroup
300

 70
     1
 71
     1
  0
GROUP
  5
2BCA0
102
{ACAD_REACTORS
330
E814
102
}
330
E814
100
AcDbGroup
300

 70
     1
 71
     1
  0
GROUP
  5
2BCA1
102
{ACAD_REACTORS
330
E814
102
}
330
E814
100
AcDbGroup
300

 70
     1
 71
     1
  0
GROUP
  5
2BCA2
102
{ACAD_REACTORS
330
E814
102
}
330
E814
100
AcDbGroup
300

 70
     1
 71
     1
  0
GROUP
  5
28E5F
102
{ACAD_REACTORS
330
E814
102
}
330
E814
100
AcDbGroup
300

 70
     1
 71
     1
  0
GROUP
  5
27CCB
102
{ACAD_REACTORS
330
E814
102
}
330
E814
100
AcDbGroup
300

 70
     0
 71
     1
  0
GROUP
  5
2836C
102
{ACAD_REACTORS
330
E814
102
}
330
E814
100
AcDbGroup
300

 70
     0
 71
     1
  0
GROUP
  5
28628
102
{ACAD_REACTORS
330
E814
102
}
330
E814
100
AcDbGroup
300

 70
     0
 71
     1
  0
GROUP
  5
28876
102
{ACAD_REACTORS
330
E814
102
}
330
E814
100
AcDbGroup
300

 70
     0
 71
     1
  0
GROUP
  5
2D76B
102
{ACAD_REACTORS
330
E814
102
}
330
E814
100
AcDbGroup
300

 70
     0
 71
     1
  0
GROUP
  5
316E6
102
{ACAD_REACTORS
330
E814
102
}
330
E814
100
AcDbGroup
300

 70
     0
 71
     1
  0
GROUP
  5
1C9D3
102
{ACAD_REACTORS
330
E814
102
}
330
E814
100
AcDbGroup
300

 70
     0
 71
     0
  0
LAYOUT
  5
3B5C8
102
{ACAD_XDICTIONARY
360
3BC92
102
}
102
{ACAD_REACTORS
330
127E3
102
}
330
127E3
100
AcDbPlotSettings
  1

  2
HP DesignJet 750C_ (D_A1) by HP.pc3
  4
User271
  6

 40
4.995333194732666
 41
16.93330574035644
 42
4.99530029296875
 43
16.933349609375
 44
593.9366455078125
 45
840.8246459960937
 46
7.5
 47
0.0
 48
20.54662942129971
 49
14.81831226764598
140
827.5066294212997
141
583.7683122676458
142
1.0
143
1.0
 70
   688
 72
     1
 73
     1
 74
     4
  7
acad.ctb
 75
    16
147
1.0
148
-20.54662942129971
149
-14.81831226764598
100
AcDbLayout
  1
A1
 70
     1
 71
     1
 10
3.613279811924712
 20
2.322979072913312
 11
844.4379258080184
 21
596.2596245807258
 12
0.0
 22
0.0
 32
0.0
 14
20.54662942129971
 24
7.318312267645978
 34
0.0
 15
827.5046200676619
 25
591.264324287757
 35
0.0
146
0.0
 13
0.0
 23
0.0
 33
0.0
 16
1.0
 26
0.0
 36
0.0
 17
0.0
 27
1.0
 37
0.0
 76
     0
330
3B585
331
3B586
  0
LAYOUT
  5
127E5
102
{ACAD_XDICTIONARY
360
3D14B
102
}
102
{ACAD_REACTORS
330
127E3
102
}
330
127E3
100
AcDbPlotSettings
  1

  2
\\C_PC_DSG01\C_PRN_DSG01
  4
A4
  6

 40
3.757083177566528
 41
14.7637300491333
 42
3.757080078125
 43
3.757080078125
 44
209.9733276367187
 45
296.9683227539062
 46
3.279999999999999
 47
-2.279999999999999
 48
646.632522127716
 49
218.1866125315525
140
929.6325775277157
141
414.0866505115523
142
1.0
143
1.0
 70
 11956
 72
     1
 73
     1
 74
     4
  7

 75
    16
147
1.0
148
-646.632522127716
149
-218.1866125315525
100
AcDbLayout
  1
Model
 70
     1
 71
     0
 10
0.0
 20
0.0
 11
12.0
 21
9.0
 12
0.0
 22
0.0
 32
0.0
 14
0.0
 24
0.0
 34
0.0
 15
0.0
 25
0.0
 35
0.0
146
0.0
 13
0.0
 23
0.0
 33
0.0
 16
1.0
 26
0.0
 36
0.0
 17
0.0
 27
1.0
 37
0.0
 76
     0
330
E81F
331
3D124
  0
MATERIAL
  5
3D127
102
{ACAD_XDICTIONARY
360
3D15A
102
}
102
{ACAD_REACTORS
330
3BB83
102
}
330
3BB83
100
AcDbMaterial
  1
ByBlock
  0
MATERIAL
  5
3D126
102
{ACAD_XDICTIONARY
360
3D158
102
}
102
{ACAD_REACTORS
330
3BB83
102
}
330
3BB83
100
AcDbMaterial
  1
ByLayer
  0
MATERIAL
  5
3D128
102
{ACAD_XDICTIONARY
360
3D15C
102
}
102
{ACAD_REACTORS
330
3BB83
102
}
330
3BB83
100
AcDbMaterial
  1
Global
  0
MLINESTYLE
  5
E822
102
{ACAD_REACTORS
330
E815
102
}
330
E815
100
AcDbMlineStyle
  2
STANDARD
 70
     0
  3

 62
     0
 51
90.0
 52
90.0
 71
     2
 49
0.5
 62
   256
  6
BYLAYER
 49
-0.5
 62
   256
  6
BYLAYER
  0
PLOTSETTINGS
  5
180EA
102
{ACAD_XDICTIONARY
360
3D14F
102
}
102
{ACAD_REACTORS
330
127E4
102
}
330
127E4
100
AcDbPlotSettings
  1
BESAR 1
  2
C_PRN_DSG01
  4
A3
  6

 40
3.757083177566528
 41
14.76376056671142
 42
3.757080078125
 43
3.757080078125
 44
296.9683227539062
 45
420.0172119140624
 46
4.04
 47
2.0
 48
20.23680882980648
 49
15.99468793734172
140
588.2368088298058
141
414.0556779373416
142
1.0
143
1.414707680182551
 70
  1712
 72
     1
 73
     1
 74
     4
  7

 75
     0
147
0.706859808572582
148
-20.23680882980648
149
-15.99468793734172
  0
PLOTSETTINGS
  5
17FD7
102
{ACAD_XDICTIONARY
360
3D14D
102
}
102
{ACAD_REACTORS
330
127E4
102
}
330
127E4
100
AcDbPlotSettings
  1
KECIL 1
  2
C_PRN_DSG01
  4
A4
  6

 40
3.757083177566528
 41
14.7637300491333
 42
3.757080078125
 43
3.757080078125
 44
209.9733276367187
 45
296.9683227539062
 46
3.279999999999999
 47
-2.279999999999999
 48
646.632522127716
 49
218.1866125315525
140
929.6325775277157
141
414.0866505115523
142
1.0
143
1.0
 70
  1716
 72
     1
 73
     1
 74
     4
  7

 75
    16
147
1.0
148
-646.632522127716
149
-218.1866125315525
  0
ACDBPLACEHOLDER
  5
127E2
102
{ACAD_REACTORS
330
127E1
102
}
330
127E1
  0
TABLESTYLE
  5
3BB86
102
{ACAD_XDICTIONARY
360
3D156
102
}
102
{ACAD_REACTORS
330
3BB85
102
}
330
3BB85
100
AcDbTableStyle
  3
Standard
 70
     0
 71
     0
 40
0.06
 41
0.06
280
     0
281
     0
  7
STANDARD
140
0.18
170
     2
 62
     0
 63
     7
283
     0
274
    -2
284
     1
 64
     0
275
    -2
285
     1
 65
     0
276
    -2
286
     1
 66
     0
277
    -2
287
     1
 67
     0
278
    -2
288
     1
 68
     0
279
    -2
289
     1
 69
     0
  7
STANDARD
140
0.25
170
     5
 62
     0
 63
     7
283
     0
274
    -2
284
     1
 64
     0
275
    -2
285
     1
 65
     0
276
    -2
286
     1
 66
     0
277
    -2
287
     1
 67
     0
278
    -2
288
     1
 68
     0
279
    -2
289
     1
 69
     0
  7
STANDARD
140
0.18
170
     5
 62
     0
 63
     7
283
     0
274
    -2
284
     1
 64
     0
275
    -2
285
     1
 65
     0
276
    -2
286
     1
 66
     0
277
    -2
287
     1
 67
     0
278
    -2
288
     1
 68
     0
279
    -2
289
     1
 69
     0
  0
VISUALSTYLE
  5
3D12F
102
{ACAD_REACTORS
330
3D129
102
}
330
3D129
100
AcDbVisualStyle
  2
2dWireframe
 70
     4
 71
     0
 72
     2
 73
     0
 90
        0
 40
-0.6
 41
-30.0
 62
     5
 63
     7
 74
     1
 91
        4
 64
     7
 65
   257
 75
     1
175
     1
 42
1.0
 92
        0
 66
   257
 43
1.0
 76
     1
 77
     6
 78
     2
 67
     7
 79
     5
170
     0
171
     0
290
     0
174
     0
 93
        1
 44
0.0
173
     0
291
     0
 45
0.0
1001
ACAD
1000
AcDbSavedByObjectVersion
1070
     0
  0
VISUALSTYLE
  5
3D131
102
{ACAD_REACTORS
330
3D129
102
}
330
3D129
100
AcDbVisualStyle
  2
3D Hidden
 70
     6
 71
     1
 72
     2
 73
     2
 90
        0
 40
-0.6
 41
-30.0
 62
     5
 63
     7
 74
     2
 91
        2
 64
     7
 65
   257
 75
     2
175
     1
 42
40.0
 92
        0
 66
   257
 43
1.0
 76
     1
 77
     6
 78
     2
 67
     7
 79
     3
170
     0
171
     0
290
     0
174
     0
 93
        1
 44
0.0
173
     0
291
     0
 45
0.0
1001
ACAD
1000
AcDbSavedByObjectVersion
1070
     0
  0
VISUALSTYLE
  5
3D130
102
{ACAD_REACTORS
330
3D129
102
}
330
3D129
100
AcDbVisualStyle
  2
3dWireframe
 70
     5
 71
     0
 72
     2
 73
     0
 90
        0
 40
-0.6
 41
-30.0
 62
     5
 63
     7
 74
     1
 91
        4
 64
     7
 65
   257
 75
     1
175
     1
 42
1.0
 92
        0
 66
   257
 43
1.0
 76
     1
 77
     6
 78
     2
 67
     7
 79
     5
170
     0
171
     0
290
     0
174
     0
 93
        1
 44
0.0
173
     0
291
     0
 45
0.0
1001
ACAD
1000
AcDbSavedByObjectVersion
1070
     0
  0
VISUALSTYLE
  5
3D12E
102
{ACAD_REACTORS
330
3D129
102
}
330
3D129
100
AcDbVisualStyle
  2
Basic
 70
     7
 71
     1
 72
     0
 73
     1
 90
        0
 40
-0.6
 41
-30.0
 62
     5
 63
     7
 74
     0
 91
        4
 64
     7
 65
   257
 75
     1
175
     1
 42
1.0
 92
        8
 66
     7
 43
1.0
 76
     1
 77
     6
 78
     2
 67
     7
 79
     5
170
     0
171
     0
290
     0
174
     0
 93
        1
 44
0.0
173
     0
291
     1
 45
0.0
1001
ACAD
1000
AcDbSavedByObjectVersion
1070
     0
  0
VISUALSTYLE
  5
3D135
102
{ACAD_REACTORS
330
3D129
102
}
330
3D129
100
AcDbVisualStyle
  2
Brighten
 70
    12
 71
     2
 72
     2
 73
     0
 90
        0
 40
-0.6
 41
-30.0
 62
     5
 63
     7
 74
     1
 91
        4
 64
     7
 65
   257
 75
     1
175
     1
 42
1.0
 92
        8
 66
     7
 43
1.0
 76
     1
 77
     6
 78
     2
 67
     7
 79
     5
170
     0
171
     0
290
     0
174
     0
 93
        1
 44
50.0
173
     0
291
     1
 45
0.0
1001
ACAD
1000
AcDbSavedByObjectVersion
1070
     0
  0
VISUALSTYLE
  5
3D139
102
{ACAD_REACTORS
330
3D129
102
}
330
3D129
100
AcDbVisualStyle
  2
ColorChange
 70
    16
 71
     2
 72
     2
 73
     3
 90
        0
 40
-0.6
 41
-30.0
 62
     5
 63
     8
 74
     1
 91
        4
 64
     7
 65
   257
 75
     1
175
     1
 42
1.0
 92
        8
 66
     8
 43
1.0
 76
     1
 77
     6
 78
     2
 67
     7
 79
     5
170
     0
171
     0
290
     0
174
     0
 93
        1
 44
0.0
173
     0
291
     1
 45
0.0
1001
ACAD
1000
AcDbSavedByObjectVersion
1070
     0
  0
VISUALSTYLE
  5
3D132
102
{ACAD_REACTORS
330
3D129
102
}
330
3D129
100
AcDbVisualStyle
  2
Conceptual
 70
     9
 71
     3
 72
     2
 73
     0
 90
        0
 40
-0.6
 41
-30.0
 62
     5
 63
     7
 74
     2
 91
        2
 64
     7
 65
   257
 75
     1
175
     1
 42
40.0
 92
        8
 66
     7
 43
1.0
 76
     1
 77
     6
 78
     2
 67
     7
 79
     3
170
     0
171
     0
290
     0
174
     0
 93
        1
 44
0.0
173
     0
291
     0
 45
0.0
1001
ACAD
1000
AcDbSavedByObjectVersion
1070
     0
  0
VISUALSTYLE
  5
3D134
102
{ACAD_REACTORS
330
3D129
102
}
330
3D129
100
AcDbVisualStyle
  2
Dim
 70
    11
 71
     2
 72
     2
 73
     0
 90
        0
 40
-0.6
 41
-30.0
 62
     5
 63
     7
 74
     1
 91
        4
 64
     7
 65
   257
 75
     1
175
     1
 42
1.0
 92
        8
 66
     7
 43
1.0
 76
     1
 77
     6
 78
     2
 67
     7
 79
     5
170
     0
171
     0
290
     0
174
     0
 93
        1
 44
-50.0
173
     0
291
     1
 45
0.0
1001
ACAD
1000
AcDbSavedByObjectVersion
1070
     0
  0
VISUALSTYLE
  5
3D138
102
{ACAD_REACTORS
330
3D129
102
}
330
3D129
100
AcDbVisualStyle
  2
Facepattern
 70
    15
 71
     2
 72
     2
 73
     0
 90
        0
 40
-0.6
 41
-30.0
 62
     5
 63
     7
 74
     1
 91
        4
 64
     7
 65
   257
 75
     1
175
     1
 42
1.0
 92
        8
 66
     7
 43
1.0
 76
     1
 77
     6
 78
     2
 67
     7
 79
     5
170
     0
171
     0
290
     0
174
     0
 93
        1
 44
0.0
173
     0
291
     1
 45
0.0
1001
ACAD
1000
AcDbSavedByObjectVersion
1070
     0
  0
VISUALSTYLE
  5
3D12A
102
{ACAD_REACTORS
330
3D129
102
}
330
3D129
100
AcDbVisualStyle
  2
Flat
 70
     0
 71
     2
 72
     1
 73
     1
 90
        2
 40
-0.6
 41
30.0
 62
     5
 63
     7
 74
     0
 91
        4
 64
     7
 65
   257
 75
     1
175
     1
 42
1.0
 92
        8
 66
     7
 43
1.0
 76
     1
 77
     6
 78
     2
 67
     7
 79
     5
170
     0
171
     0
290
     0
174
     0
 93
       13
 44
0.0
173
     0
291
     1
 45
0.0
1001
ACAD
1000
AcDbSavedByObjectVersion
1070
     0
  0
VISUALSTYLE
  5
3D12B
102
{ACAD_REACTORS
330
3D129
102
}
330
3D129
100
AcDbVisualStyle
  2
FlatWithEdges
 70
     1
 71
     2
 72
     1
 73
     1
 90
        2
 40
-0.6
 41
30.0
 62
     5
 63
     7
 74
     1
 91
        4
 64
     7
 65
   257
 75
     1
175
     1
 42
1.0
 92
        0
 66
   257
 43
1.0
 76
     1
 77
     6
 78
     2
 67
     7
 79
     5
170
     0
171
     0
290
     0
174
     0
 93
       13
 44
0.0
173
     0
291
     1
 45
0.0
1001
ACAD
1000
AcDbSavedByObjectVersion
1070
     0
  0
VISUALSTYLE
  5
3D12C
102
{ACAD_REACTORS
330
3D129
102
}
330
3D129
100
AcDbVisualStyle
  2
Gouraud
 70
     2
 71
     2
 72
     2
 73
     1
 90
        2
 40
-0.6
 41
30.0
 62
     5
 63
     7
 74
     0
 91
        4
 64
     7
 65
   257
 75
     1
175
     1
 42
1.0
 92
        0
 66
     7
 43
1.0
 76
     1
 77
     6
 78
     2
 67
     7
 79
     5
170
     0
171
     0
290
     0
174
     0
 93
       13
 44
0.0
173
     0
291
     1
 45
0.0
1001
ACAD
1000
AcDbSavedByObjectVersion
1070
     0
  0
VISUALSTYLE
  5
3D12D
102
{ACAD_REACTORS
330
3D129
102
}
330
3D129
100
AcDbVisualStyle
  2
GouraudWithEdges
 70
     3
 71
     2
 72
     2
 73
     1
 90
        2
 40
-0.6
 41
30.0
 62
     5
 63
     7
 74
     1
 91
        4
 64
     7
 65
   257
 75
     1
175
     1
 42
1.0
 92
        0
 66
   257
 43
1.0
 76
     1
 77
     6
 78
     2
 67
     7
 79
     5
170
     0
171
     0
290
     0
174
     0
 93
       13
 44
0.0
173
     0
291
     1
 45
0.0
1001
ACAD
1000
AcDbSavedByObjectVersion
1070
     0
  0
VISUALSTYLE
  5
3D137
102
{ACAD_REACTORS
330
3D129
102
}
330
3D129
100
AcDbVisualStyle
  2
Linepattern
 70
    14
 71
     2
 72
     2
 73
     0
 90
        0
 40
-0.6
 41
-30.0
 62
     5
 63
     7
 74
     1
 91
        4
 64
     7
 65
   257
 75
     7
175
     7
 42
1.0
 92
        8
 66
     7
 43
1.0
 76
     1
 77
     6
 78
     2
 67
     7
 79
     5
170
     0
171
     0
290
     0
174
     0
 93
        1
 44
0.0
173
     0
291
     1
 45
0.0
1001
ACAD
1000
AcDbSavedByObjectVersion
1070
     0
  0
VISUALSTYLE
  5
3D133
102
{ACAD_REACTORS
330
3D129
102
}
330
3D129
100
AcDbVisualStyle
  2
Realistic
 70
     8
 71
     2
 72
     2
 73
     0
 90
        0
 40
-0.6
 41
-30.0
 62
     5
 63
     7
 74
     1
 91
        0
 64
     7
 65
   257
 75
     1
175
     1
 42
1.0
 92
        8
 66
     8
 43
1.0
 76
     1
 77
     6
 78
     2
 67
     7
 79
     5
170
     0
171
     0
290
     0
174
     0
 93
       13
 44
0.0
173
     0
291
     0
 45
0.0
1001
ACAD
1000
AcDbSavedByObjectVersion
1070
     0
  0
VISUALSTYLE
  5
3D136
102
{ACAD_REACTORS
330
3D129
102
}
330
3D129
100
AcDbVisualStyle
  2
Thicken
 70
    13
 71
     2
 72
     2
 73
     0
 90
        0
 40
-0.6
 41
-30.0
 62
     5
 63
     7
 74
     1
 91
        4
 64
     7
 65
   257
 75
     1
175
     1
 42
1.0
 92
       12
 66
     7
 43
1.0
 76
     1
 77
     6
 78
     2
 67
     7
 79
     5
170
     0
171
     0
290
     0
174
     0
 93
        1
 44
0.0
173
     0
291
     1
 45
0.0
1001
ACAD
1000
AcDbSavedByObjectVersion
1070
     0
  0
DICTIONARYVAR
  5
3BB98
102
{ACAD_REACTORS
330
139E1
102
}
330
139E1
100
DictionaryVariables
280
     0
  1
STANDARD
  0
DICTIONARYVAR
  5
3BB46
102
{ACAD_REACTORS
330
139E1
102
}
330
139E1
100
DictionaryVariables
280
     0
  1
1
  0
DICTIONARYVAR
  5
3D149
102
{ACAD_REACTORS
330
139E1
102
}
330
139E1
100
DictionaryVariables
280
     0
  1
0
  0
DICTIONARYVAR
  5
139E2
102
{ACAD_REACTORS
330
139E1
102
}
330
139E1
100
DictionaryVariables
280
     0
  1
96
  0
XRECORD
  5
3D123
102
{ACAD_REACTORS
330
3D121
102
}
330
3D121
100
AcDbXrecord
280
     1
330
3CFC2
330
77C
330
77D
330
77E
330
77F
330
780
330
781
330
782
330
783
330
78A
330
10EE4
330
10EE5
330
12131
330
12132
330
12133
330
12134
330
12135
330
12136
330
12137
330
12138
330
12139
330
1213A
330
1213B
330
1213C
330
1213D
330
1213E
330
1213F
330
12140
330
12141
330
12142
330
12143
330
12144
330
12145
330
12146
330
12147
330
12148
330
12149
330
1214A
330
1214B
330
1214C
330
1214D
330
1214E
330
1214F
330
12150
330
12151
330
12258
330
12259
330
1225A
330
1225B
330
1225C
330
1225D
330
1225E
330
1225F
330
12260
330
12261
330
12262
330
12263
330
12264
330
12265
330
12266
330
12267
330
12268
330
12269
330
1226A
330
1226B
330
1226C
330
1226D
330
1226E
330
1226F
330
12270
330
12271
330
12272
330
12273
330
12274
330
12275
330
12276
330
12277
330
12278
330
12279
330
1227A
330
1227B
330
1227C
330
1227D
330
1227E
330
1227F
330
12280
330
12281
330
12282
330
12283
  0
XRECORD
  5
2FA49
102
{ACAD_REACTORS
330
2FA48
102
}
330
2FA48
100
AcDbXrecord
280
     1
 70
     1
  0
XRECORD
  5
3CF83
102
{ACAD_REACTORS
330
3CF81
102
}
330
3CF81
100
AcDbXrecord
280
     1
  1
SULIONO
  1
*
  1
*
  1
*
 70
     0
  1
*
  1
*
1001
ACAD
1000
NAME=="*"
  0
XRECORD
  5
3CF82
102
{ACAD_REACTORS
330
3CF80
102
}
330
3CF80
100
AcDbXrecord
280
     1
  1
AcLyLayerFilter
 90
        1
300
SULIONO
301
NAME=="*"
  0
DICTIONARY
  5
3BC92
330
3B5C8
100
AcDbDictionary
280
     1
281
     1
  3
ACAD_XREC_ROUNDTRIP
360
3D155
  3
ADSK_XREC_LAYOUTTHUMBNAIL
360
3BC93
  0
DICTIONARY
  5
3D14B
330
127E5
100
AcDbDictionary
280
     1
281
     1
  3
ACAD_XREC_ROUNDTRIP
360
3D14C
  0
DICTIONARY
  5
3D15A
330
3D127
100
AcDbDictionary
280
     1
281
     1
  3
ACAD_XREC_ROUNDTRIP
360
3D15B
  0
DICTIONARY
  5
3D158
330
3D126
100
AcDbDictionary
280
     1
281
     1
  3
ACAD_XREC_ROUNDTRIP
360
3D159
  0
DICTIONARY
  5
3D15C
330
3D128
100
AcDbDictionary
280
     1
281
     1
  3
ACAD_XREC_ROUNDTRIP
360
3D15D
  0
DICTIONARY
  5
3D14F
330
180EA
100
AcDbDictionary
280
     1
281
     1
  3
ACAD_XREC_ROUNDTRIP
360
3D150
  0
DICTIONARY
  5
3D14D
330
17FD7
100
AcDbDictionary
280
     1
281
     1
  3
ACAD_XREC_ROUNDTRIP
360
3D14E
  0
DICTIONARY
  5
3D156
330
3BB86
100
AcDbDictionary
280
     1
281
     1
  3
ACAD_XREC_ROUNDTRIP
360
3D157
  0
XRECORD
  5
3D155
102
{ACAD_REACTORS
330
3BC92
102
}
330
3BC92
100
AcDbXrecord
280
     1
102
SHADEPLOT
 70
     0
102
SHADEPLOTRESLEVEL
 70
     2
102
SHADEPLOTCUSTOMDPI
 70
   300
  0
XRECORD
  5
3BC93
102
{ACAD_REACTORS
330
3BC92
102
}
330
3BC92
100
AcDbXrecord
280
     1
310
28000000B40000007F00000001000800000000004C5900000000000000000000000100000000000000000000000000007F7F00000000000000000000000000000000000000000000000000000000000000000000330000006600000099000000CC000000FF00000000330000333300006633000099330000CC330000FF3300
310
0000660000336600006666000099660000CC660000FF66000000990000339900006699000099990000CC990000FF99000000CC000033CC000066CC000099CC0000CCCC0000FFCC000000FF000033FF000066FF000099FF0000CCFF0000FFFF000000003300330033006600330099003300CC003300FF003300003333003333
310
33006633330099333300CC333300FF33330000663300336633006666330099663300CC663300FF66330000993300339933006699330099993300CC993300FF99330000CC330033CC330066CC330099CC3300CCCC3300FFCC330000FF330033FF330066FF330099FF3300CCFF3300FFFF330000006600330066006600660099
310
006600CC006600FF00660000336600333366006633660099336600CC336600FF33660000666600336666006666660099666600CC666600FF66660000996600339966006699660099996600CC996600FF99660000CC660033CC660066CC660099CC6600CCCC6600FFCC660000FF660033FF660066FF660099FF6600CCFF6600
310
FFFF660000009900330099006600990099009900CC009900FF00990000339900333399006633990099339900CC339900FF33990000669900336699006666990099669900CC669900FF66990000999900339999006699990099999900CC999900FF99990000CC990033CC990066CC990099CC9900CCCC9900FFCC990000FF99
310
0033FF990066FF990099FF9900CCFF9900FFFF99000000CC003300CC006600CC009900CC00CC00CC00FF00CC000033CC003333CC006633CC009933CC00CC33CC00FF33CC000066CC003366CC006666CC009966CC00CC66CC00FF66CC000099CC003399CC006699CC009999CC00CC99CC00FF99CC0000CCCC0033CCCC0066CC
310
CC0099CCCC00CCCCCC00FFCCCC0000FFCC0033FFCC0066FFCC0099FFCC00CCFFCC00FFFFCC000000FF003300FF006600FF009900FF00CC00FF00FF00FF000033FF003333FF006633FF009933FF00CC33FF00FF33FF000066FF003366FF006666FF009966FF00CC66FF00FF66FF000099FF003399FF006699FF009999FF00CC
310
99FF00FF99FF0000CCFF0033CCFF0066CCFF0099CCFF00CCCCFF00FFCCFF0000FFFF0033FFFF0066FFFF0099FFFF00CCFFFF00FFFFFF00000000000D0D0D001A1A1A00282828003535350043434300505050005D5D5D006B6B6B00787878008686860093939300A1A1A100AEAEAE00BBBBBB00C9C9C900D6D6D600E4E4E400
310
F1F1F100FFFFFF0000000000000000000000000000000000000000000000000000000000000000000000000000000000EFF5F5F5F5F5F5F5F5F5F5F5F5F5F5F5F5F5F5F5F5F5F5F5F5F5F5F5F5F5F5F5F5F5F5F5F5F5F5F5F5F5F5F5F5F5F5F5F5F5F5F5F5F5F5F5F5F5F5F5F5F5F5F5F5F5F5F5F5F5F5F5F5F5F5F5F5F5F5
310
F5F5F5F5F5F5F5F5F5F5F5F5F5F5F5F5F5F5F5F5F5F5F5F5F5F5F5F5F5F5F5F5F5F5F5F5F5F5F5F5F5F5F5F5F5F5F5F5F5F5F5F5F5F5F5F5F5F5F5F5F5F5F5F5F5F5F5F5F5F5F5F5F5F5F5F5F5F5F5F5F5F5F5F5F5F5F5F5F5F5F5F5F5F5F5F5F5F5F5F5F5EFF5E2E2F5F5F5F5F5F5F5F5E2E2E2E2E2E2E2E2E2F5F5F5F5F5
310
F5F5F5F5F5F5F5F5F5F5F5E2E2E2E2E2E2E2E2E2F5F5F5F5F5F5F5F5F5F5F5F5F5F5F5E2E2E2E2E2E2E2E2E2F5F5F5F5F5F5F5F5F5F5F5F5F5F5F5F5E2E2E2E2E2E2E2E2F5F5F5F5F5F5F5F5F5F5F5F5F5F5F5F5E2E2E2E2E2E2E2E2E2F5F5F5F5F5F5F5F5F5F5F5F5F5F5F5E2E2E2E2E2E2E2E2E2F5F5F5F5F5F5F5F5F5F5
310
F5F5F5F5F5F5E2E2E2E2E2E2E2E2E2F5F5F5F5F5F5F5F5E2E2F5F5EFF5E2E2F5E2E2E2E2E2E2E2E2E2E2E2E2E2E2E2E2E2E2E2E2E2E2E2E2E2E2E2E2E2E2E2E2E2E2E2E2E2E2E2E2E2E2E2E2E2E2E2E2E2E2E2E2E2E2E2E2E2E2E2E2E2E2E2E2E2E2E2E2E2E2E2E2E2E2E2E2E2E2E2E2E2E2E2E2E2E2E2E2E2E2E2E2E2E2E2
310
E2E2E2E2E2E2E2E2E2E2E2E2E2E2E2E2E2E2E2E2E2E2E2E2E2E2E2E2E2E2E2E2E2E2E2E2E2E2E2E2E2E2E2E2E2E2E2E2E2E2E2E2E2E2E2E2E2E2E2E2E2E2E2E2E2E2E2E2E2E2E2E2E2E2E2F5E2E2F5F5EFF5E2E2F5F5F5F5F5F5F5F5F5F5F5F5F5F5F5F5F5F5F5F5F5F5F5F5F5F5F5F5F5F5F5F5F5F5F5F5F5F5F5F5F5F5F5
310
F5F5F5F5F5F5F5F5F5F5F5F5F5F5F5F5F5F5F5F5F5F5F5F5F5F5F5F5F5F5F5F5F5F5F5F5F5F5F5F5F5F5F5F5F5F5F5F5F5F5F5F5F5F5F5F5F5F5F5F5F5F5F5F5F5F5F5F5F5F5F5F5F5F5F5F5F5F5F5F5F5F5F5F5F5F5F5F5F5F5F5F5F5F5F5F5F5F5F5F5F5F5F5F5F5F5F5F5F5F5F5F5F5F5F5F5F5F5F5F5F5F5F5F5F5F5F5
310
F5F5E2E2F5F5EFF5E2E2F5E2E2E2E2E2E2E2E2E2E2E2E2E2E2E2E2E2E2E2E2E2E2E2E2E2E2E2E2E2E2E2E2E2E2E2E2E2E2E2E2E2E2E2E2E2E2E2E2E2E2E2E2E2E2E2E2E2E2E2E2E2E2E2E2E2E2E2E2E2E2E2E2E2E2E2E2E2E2E2E228E2E2E2E2E2E2E2E2E2E2E2E2E2E2E2E2E2E2E2E2E2E2E2E2E2E2E2E2E2E2E2E2E2E2E2
310
E2E2E2E2E2E2E2E2E2E2E2E2E2E2E2E2E2E2E2E2E2E2E2E2E2E2E2E2E2E2E2E2E2E2E2E2E2E2E2E2E2E2E2E2E2E2E2E2E2E2E2E2E2E2F5E2E2F5F5EFF5E2E2F5E2E2E2E2E2E2E2E2E2E2E2E2E2E2E2E2E2E2E2E2E2E2E2E2E2E2E2E2E2E2E2E2E2E2E2E2E2E2E2E2E2E2E2E2E2E2E2E2E2E2E2E2E2E2E2E2E2E2E2E2E2E2E2
310
E2E2E2E2E2E2E2E2E2E2E2E2E2E2E2E2E228E2E2E2E2E2E2E2E2E2E2E2E2E2E2E2E2E2E2E2E2E2E2E2E2E2E2E2E2E2E2E2E2E2E2E2E2E2E2E2E2E2E2E2E2E2E2E2E2E2E2E2E2E2E2E2E2E2E2E2E2E2E2E2E2E2E2E2E2E2E2E2E2E2E2E2E2E2E2E2E2E2E2E2E2E2E2E2E2E2F5E2E2F5F5EFF5E2E2F5E2E2E2E2E2E2E2E2E2E2
310
E2E2E2E2E2E2E2E2E2E2E2E2E2E2E2E2E2E2E2E2E2E2E2E2E2E2E2E2E2E2E2E2E2E2E2E2E2E2E2E2E2E2E2E2E2E2E2E2E2E2C3C3C3C3C3C3C3C3C3C3C3C3C3C3C3C3C3C3C3C328C3C3C3C3C3C3C3C3C3C3C3C3C3C3C3C3C3C3C3E2E2E2E2E2E2E2E2E2E2E2E2E2E2E2E2E2E2E2E2E2E2E2E2E2E2E2E2E2E2E2E2E2E2E2E2E2
310
E2E2E2E2E2E2E2E2E2E2E2E2F5F5F5F5F5F5F5F5F5F5F5E2E2E2E2E2E2E2E2E2E2F5E2E2F5F5EFF5E2E2F5E2E2E2E2E2E2E2E2E2E2E2E2E2E2E2E2E2E2E2E2E2E2E2E2E2E2E2E2E2E2E2E2E2E2E2E2E2E2E2E2E2E2E2E2E2C3C3C3C3C3C3C3C3C3C3C3C3C3C3C3C3E2E2E2E2E2E2E2E2E2E2E2E2E2E2E2E2E2E2E228E2E2E2
310
E2E2E2E2E2E2E2E2E2E2E2E2E2E2E2C3C3C3C3C3C3C3C3C3C3C3C3C3C3C3C3E2E2E2E2E2E2E2E2E2E2E2E2E2E2E2E2E2E2E2E2E2E2E2E2E2E2E2E2E2E2E2E2E2E2F5F5F5F5F5F5F5F5F5F5F5E2E2E2E2E2E2E2E2E2E2F5E2E2F5F5EFF5E2E2F5E2E2E2E2E2E2E2E2E2E2E2E2E2E2E2E2E2E2E2E2E2E2E2E2E2E2E2E2E2E2E2
310
E2E2E2C3C3C3C3C3C3C3C3C3C3C3E2E2E2E2E2E2E2E2E2E2E2E2E2E2E2E2E2E2E2E2E2E2E2E2E2E2E2E2E2E2E2E2E2E2E228E2E2E2E2E2E2E2E2E2E2E2E2E2E2E2E2E2E2E2E2E2E2E2E2E2E2E2E2E2E2E2E2E2E2C3C3C3C3C3C3C3C3C3C3C3E2E2E2E2E2E2E2E2E2E2E2E2E2E2E2E2E2E2E2E2E2E2E2F5F5F5F5F5F5F5F5F5
310
F5F5F5F5E2E2E2E2E2E2E2E2F5E2E2F5F5EFF5E2E2F5E2E2E2E2E2E2E2E2E2E2E2E2E2E2E2E2E2E2E2E2E2E2E2E2E2E2C3C3C3C3C3C3C3C3C3E2E2E2E2E2E2E2E2E2E2E2E2E2E2E2E2E2E2E2E2E2E2E2E2E2E2E2BEBEBEBEBEBEBEBEBEBEBEBEBEBEBEBEBEBE28BEBEBEBEBEBEBEBEBEBEBEBEBEBEBEBEBEE2E2E2E2E2E2E2
310
E2E2E2E2E2E2E2E2E2E2E2E2E2E2E2E2E2E2E2E2C3C3C3C3C3C3C3C3C3E2E2E2E2E2E2E2E2E2E2E2E2E2E2E2F5F5F5F5F5F5F5F5F5F5F5F5F5E2E2E2E2E2E2E2E2F5E2E2F5F5EFF5E2E2F5E2E2E2E2E2E2E2E2E2E2E2E2E2E2E2E2E2E2E2E2E2E2C3C3C3C3E2E2E2E2E2E2E2E2E2E2E2E2E2E2E2E2E2E2E2E2E2E2BEBEBEBE
310
BEBEBEBEBEBEBEBEBEBEE2E2E2E2E2E2E2E2E2E2E2E2E2F5F5F5F5E228E2E2E2E2E2E2E2E2E2E2E2E2E2E2E2E2E2BEBEBEBEBEBEBEBEBEBEBEBEBEBEE2E2E2E2E2E2E2E2E2E2E2E2E2E2E2E2E2E2E2E2E2E2C3C3C3C3E2E2E2E2E2E2E2E2E2E2E2F5F5F5F5F5E2E2E2E2E2E2E2E2E2E2E2E2E2E2E2E2F5E2E2F5F5EFF5E2E2
310
F5E2E2E2E2E2E2E2E2E2E2E2E2E2E2E2E2E2E2E2E2E2C3C3E2E2E2E2E2E2E2E2E2E2E2E2E2E2E2E2BEBEBEBEBEBEBEBEBEE2E2E2E2E2E2E2E2E2E2E2E2E2E2E2E2E2E2E2E2E2E2E2E2E2E2E2F5F5F5F5E228E2E2E2E2E2E2E2E2E2E2E2E2E2E2E2E2E2E2E2E2E2E2E2E2E2E2E2E2E2E2E2BEBEBEBEBEBEBEBEBEE2E2E2E2E2
310
E2E2E2E2E2E2E2E2E2E2E2C3C3E2E2E2E2E2E2E2E2E2E2F5F5F5F5F5E2E2E2E2E2E2E2E2E2E2E2E2E2E2E2E2F5E2E2F5F5EFF5E2E2F5E2E2E2E2E2E2E2E2E2E2E2E2E2E2E2E2E2E2E2E2C3C3E2E2E2E2E2E2E2E2BEBEBEBEBEBEBEBEBEE2E2E2E2E2E2E2E2E2E2E2E2E2E2E2E2E2E2E2E2E2E2E2E2E2E2E2E2E2E2E2E2E2E2
310
E2E2F5F5F5F5E228E2E2E2E2E2E2E2E2E2E2E2E2E2E2E2E2E2E2E2E2E2E2E2E2E2E2E2E2E2E2E2E2E2E2E2E2E2E2E2E2BEBEBEBEBEBEBEBEBEE2E2E2E2E2E2E2E2C3C3E2E2E2E2E2E2E2E2E2E2E2E2E2E2E2E2E2E2E2E2E2E2E2E2E2E2E2E2E2E2F5E2E2F5F5EFF5E2E2F5E2E2E2E2E2E2E2E2E2E2E2E2E2E2E2E2E2E2E2C3
310
C3E2E2E2E2E2E2E2BEBEE2E2E2E2E2E2E2E2E2E2E2E2E2E2E2E2E2E2E2E2E2E2E2E2E2E2E2E2E2E2E2E2E2E2E2E2E2E2E2E2E2E2E2E2E2F5F5F5F5E228E2E2E2E2E2E2E2E2E2E2E2E2E2E2E2E2E2E2E2E2E2E2E2E2E2E2E2E2E2E2E2E2E2E2E2E2E2E2E2E2E2E2E2E2E2E2E2E2E2BEBEE2E2E2E2E2E2E2C3C3E2E2E2E2E2E2
310
E2E2E2E2E2E2E2E2E2E2E2E2E2E2E2E2E2E2E2E2E2E2E2F5E2E2F5F5EFF5E2E2F5E2E2E2E2E2E2E2E2E2E2E2E2E2E2E2E2E2E2C3C3E2E2E2E2E2E2BEBEE2E2E2E2E2E2E2E2E2E2E2E2E2E2E2E2E2E2E2E2E2E2E2E2E2E2E2E2E2E2E2E2E2E2E2E2E2E2E2E2E2E2E2E2E2E2E2F5F5F5F5E228E2E2E2E2E2E2E2E2E2E2E2E2E2
310
E2E2E2E2E2E2E2E2E2E2E2E2E2E2E2E2E2E2E2E2E2E2E2E2E2E2E2E2E2E2E2E2E2E2E2E2E2E2BEBEE2E2E2E2E2E2C3C3E2E2E2E2E2E2E2E2E2E2E2E2E2E2E2E2E2E2E2E2E2E2E2E2E2E2E2E2F5E2E2F5F5EFF5E2E2F5E2E2E2E2E2E2E2E2E2E2E2E2E2E2E2E2E2C3C3E2E2E2E2E2BEBEE2E2E2E2E2E2E2E2E2E2E2E2E2E2E2
310
E2E2E2E2E2E2E2E2E2E2E2E2E2E2E2E2E2E2E2E2E2E2E2E2E2E2E2E2E2E2E2E2E2E2F5F5F5F5E228E2E2E2E2E2E2E2E2E2E2E2E2E2E2E2E2E2E2E2E2E2E2E2E2E2E2E2E2E2E2E2E2E2E2E2E2E2E2E2E2E2E2E2E2E2E2E2E2E2E2E2E2E2BEBEE2E2E2E2E2C3C3E2E2E2E2E2E2E2E2E2E2E2E2E2E2E2E2E2E2E2E2E2E2E2E2E2
310
E2E2F5E2E2F5F5EFF5E2E2F5E2E2E2E2E2E2E2E2E2E2E2E2E2E2E2C3C3E2E2E2E2E2E2BEE2E2E2E2E2E2E2E2E2E2E2E2E2E2E2E2E2E2E2E2E2E2E2E2E2E2E2E2E2E2E2E2E2E2E2E2E2E2E2E2E2E2E2E2E2E2E2E2E2E2E2F5F5F5F5E228E2E2E2E2E2E2E2E2E2E2E2E2E2E2E2E2E2E2E2E2E2E2E2E2E2E2E2E2E2E2E2E2E2E2
310
E2E2E2E2E2E2E2E2E2E2E2E2E2E2E2E2E2E2E2E2E2BEE2E2E2E2E2E2C3C3E2E2E2E2E2E2E2E2E2E2E2E2E2E2E2E2E2E2E2E2E2E2E2E2E2F5E2E2F5F5EFF5E2E2F5E2E2E2E2E2E2E2E2E2E2E2E2C3C3C3C3E2E2E2E2E2E2BEE2E2E2E2E2E2E2E2E2E2E2E2E2E2E2E2E2E2E2E2E2E2E2E2E2E2E2E2E2E2E2E2E2E2E2E2E2E2E2
310
E2E2E2E2E2E2E2E2E2E2E2E2E2F5F5F5F5E228E2E2E2E2E2E2E2E2E2E2E2E2E2E2E2E2E2E2E2E2E2E2E2E2E2E2E2E2E2E2E2E2E2E2E2E2E2E2E2E2E2E2E2E2E2E2E2E2E2E2E2E2E2E2E2E2BEE2E2E2E2E2E2C3C3C3C3E2E2E2E2E2E2E2E2E2E2E2E2E2E2E2E2E2E2E2E2E2E2F5E2E2F5F5EFF5E2E2F5E2E2E2E2E2E2E2E2E2
310
C3C3C3C3E2E2E2E2E2E2E2E2BEE2E2E2E2E2E2E2E2E2E2E2E2E2E2E2E2E2E2E2E2E2E2E2E2E2E2E2E2E2E2E2E2E2E2E2E2E2E2E2E2E2E2E2E2E2E2E2E2E2E2E2E2E2E2F5F5F5E228E2E2E2E2E2E2E2E2E2E2E2E2E2E2E2E2E2E2E2E2E2E2E2E2E2E2E2E2E2E2E2E2E2E2E2E2E2E2E2E2E2E2E2E2E2E2E2E2E2E2E2E2E2E2E2
310
E2E2BEE2E2E2E2E2E2E2E2C3C3C3C3E2E2E2E2E2E2E2E2E2E2E2E2E2E2E2E2E2E2E2F5E2E2F5F5EFF5E2E2F5E2E2E2E2E2E2E2E2C3C3E2E2E2E2E2E2E2E2E2E2BEE2E2E2E2E2E2E2E2E2E2E2E2E2E2E2E2E2E2E2E2E2E2E2E2E2E2E2E2E2E2E2E2E2E2E2E2E2E2E2E2E2E2E2E2E2E2E2E2E2E2E2E2E2E2E2F5F5F5E228E2E2
310
E2E2E2E2E2E2E2E2E2E2E2E2E2E2E2E2E2E2E2E2E2E2E2E2E2E2E2E2E2E2E2E2E2E2E2E2E2E2E2E2E2E2E2E2E2E2E2E2E2E2E2E2E2E2E2E2BEE2E2E2E2E2E2E2E2E2E2C3C3E2E2E2E2E2E2E2E2E2E2E2E2E2E2E2E2E2E2F5E2E2F5F5EFF5E2E2F5E2E2E2E2E2E2E2E2C3E2E2E2E2E2E2E2E2E2E2BEE2E2E2E2E2E2E2E2E2E2
310
E2E2E2E2E2E2E2E2E2E2E2E2E2E2E2E2E2E2E2E2E2E2E2E2E2E2E2E2E2E2E2E2E2E2E2E2E2E2E2E2E2E2E2E2E2E2F5F5E2E228E2E2E2E2E2E2E2E2E2E2E2E2E2E2E2E2E2E2E2E2E2E2E2E2E2E2E2E2E2E2E2E2E2E2E2E2E2E2E2E2E2E2E2E2E2E2E2E2E2E2E2E2E2E2E2E2E2E2E2BEE2E2E2E2E2E2E2E2E2E2C3E2E2E2E2E2
310
E2E2E2E2E2E2E2E2E2E2E2E2E2F5E2E2F5F5EFF5E2E2F5E2E2E2E2E2E2E2E2C3E2E2E2E2E2E2E2E2E2E2BEE2E2E2E2E2E2E2E2E2E2E2E2E2E2E2E2E2E2E2E2E2E2E2E2E2E2E2E2E2E2E2E2E2E2E2E2E2E2E2E2E2E2E2E2E2E2E2E2E2E2E2E2E2E2E2E2E2E2E2E228E2E2E2E2E2E2E2E2E2E2E2E2E2E2E2E2E2E2E2E2E2E2E2
310
E2E2E2E2E2E2E2E2E2E2E2E2E2E2E2E2E2E2E2E2E2E2E2E2E2E2E2E2E2E2E2E2E2E2E2E2BEE2E2E2E2E2E2E2E2E2E2C3E2E2E2E2E2E2E2E2E2E2E2E2E2E2E2E2E2E2F5E2E2F5F5EFF5E2E2F5E2E2E2E2E2E2E2E2C3E2E2E2E2E2E2E2E2E2BEE2E2E2E2E2E2E2E2E2E2E2E2E2E2E2E2E2E2E2E2E2E2E2E2E2E2E2E2E2E2E2E2
310
E2E2E2E2E2E2E2E2E2E2E2E2E2E2E2E2E2E2E2E2E2E2E2E2E2E2E2E2E228E2E2E2E2E2E2E2E2E2E2E2E2E2E2E2E2E2E2E2E2E2E2E2E2E2E2E2E2E2E2E2E2E2E2E2E2E2E2E2E2E2E2E2E2E2E2E2E2E2E2E2E2E2E2E2E2E2E2E2E2BEE2E2E2E2E2E2E2E2E2C3E2E2E2E2E2E2E2E2E2E2E2E2E2E2E2E2E2E2F5E2E2F5F5EFF5E2
310
E2F5E2E2E2E2E2E2E2C3C3E2E2E2E2E2E2E2E2E2BEE2E2E2E2E2E2E2E2E2E2E2E2E2E2E2E2E2E2E2E2E2E2E2E2E2E2E2E2E2E2E2E2E2E2E2E2E2E2E2E2E2E2E2E2E2E2E2E2E2E2E2E2E2E2E2E2E2E2E2E2E228E2E2E2E2E2E2E2E2E2E2E2E2E2E2E2E2E2E2E2E2E2E2E2E2E2E2E2E2E2E2E2E2E2E2E2E2E2E2E2E2E2E2E2E2
310
E2E2E2E2E2E2E2E2E2E2E2E2E2E2E2E2E2BEE2E2E2E2E2E2E2E2C3C3E2E2E2E2E2E2E2E2E2E2E2E2E2E2E2E2E2F5E2E2F5F5EFF5E2E2F5E2E2E2E2E2E2E2C3E2E2E2E2E2E2E2E2E2BEE2E2E2E2E2E2E2E2E2E2E2E2E2E2E2E2E2E2E2E2E2E2E2E2E2E2E2E2E2E2E2E2E2E2E2E2E2E2E2E2E2E2E2E2E2E2E2E2E2E2E2E2E2E2
310
E2E2E2E2E2E2E2E228E2E2E2E2E2E2E2E2E2E2E2E2E2E2E2E2E2E2E2E2E2E2E2E2E2E2E2E2E2E2E2E2E2E2E2E2E2E2E2E2E2E2E2E2E2E2E2E2E2E2E2E2E2E2E2E2E2E2E2E2E2BEE2E2E2E2E2E2E2E2E2C3E2E2E2E2E2E2E2E2E2E2E2E2E2E2E2E2E2F5E2E2F5F5EFF5E2E2F5E2E2E2E2E2E2E2C3E2E2E2E2E2E2E2E2E2BEE2
310
E2E2E2E2E2E2E2E2E2E2E2E2E2E2E2E2E2E2E2E2E2E2E2E2E2E2E2E2E2E2E2E2E2E2E2E2E2E2E2E2E2E2E2E2E2E2E2E2E2E2E2E2E2E2E2E2E2E2E2E2E228E2E2E2E2E2E2E2E2E2E2E2E2E2E2E2E2E2E2E2E2E2E2E2E2E2E2E2E2E2E2E2E2E2E2E2E2E2E2E2E2E2E2E2E2E2E2E2E2E2E2E2E2E2E2E2E2E2E2E2E2E2E2BEE2E2
310
E2E2E2E2E2E2C3E2E2E2E2E2E2E2E2E2E2E2E2E2E2E2E2E2F5E2E2F5F5EFF5E2E2F5E2E2E2E2E2E2E2C3E2E2E2E2E2E2E2E2BEE2E2E2E2E2E2E2E2E2E2E2E2E2E2E2E2E2E2E2E2E2E2E2E2E2E2E2E2E2E2E2E2E2E2E2E2E2E2E2E2E2E2E2E2E2E2E2E2E2E2E2E2E2E2E2E2E2E2E2E2E2E2E228E2E2E2E2E2E2E2E2E2E2E2E2
310
E2E2E2E2E2E2E2E2E2E2E2E2E2E2E2E2E2E2E2E2E2E2E2E2E2E2E2E2E2E2E2E2E2E2E2E2E2E2E2E2E2E2E2E2E2E2E2E2E2E2BEE2E2E2E2E2E2E2E2C3E2E2E2E2E2E2E2E2E2E2E2E2E2E2E2E2E2F5E2E2F5F5EFF5E2E2F5E2E2E2E2E2E2E2C3E2E2E2E2E2E2E2E2BEE2E2E2E2E2E2E2E2E2E2E2E2E2E2E2E2E2E2E2E2E2E2E2
310
E2E2E2E2E2E2E2E2E2E2E2E2E2E2E2E2E2E2E2E2E2E2E2E2E2E2E2E2E2E2E2E2E2E2E2E2E2E2E2E228E2E2E2E2E2E2E2E2E2E2E2E2E2E2E2E2E2E2E2E2E2E2E2E2E2E2E2E2E2E2E2E2E2E2E2E2E2E2E2E2E2E2E2E2E2E2E2E2E2E2E2E2E2E2E2E2E2E2E2E2E2E2BEE2E2E2E2E2E2E2E2C3E2E2E2E2E2E2E2E2E2E2E2E2E2E2
310
E2E2E2F5E2E2F5F5EFF5E2E2F5E2E2E2E2E2E2E2C3E2E2E2E2E2E2E2E2BEE2E2E2E2E2E2E2E2E2E2E2E2E2E2E2E2E2E2E2E2E2E2E2E2E2E2E2E2E2E2E2E2E2E2E2E2E2E2E2E2E2E2E2E2E2E2E2E2E2E2E2E2E2E2E2E2E2E2E2E2E2E2E228E2E2E2E2E2E2E2E2E2E2E2E2E2E2E2E2E2E2E2E2E2E2E2E2E2E2E2E2E2E2E2E2E2
310
E2E2E2E2E2E2E2E2E2E2E2E2E2E2E2E2E2E2E2E2E2E2E2E2E2E2E2E2E2E2BEE2E2E2E2E2E2E2C3E2E2E2E2E2E2E2E2E2E2E2E2E2E2E2E2E2F5E2E2F5F5EFF5E2E2F5E2E2E2E2E2E2C3E2E2E2E2E2E2E2E2BEE2E2E2E2E2E2E2E2E2E2E2E2E2E2E2E2E2E2E2E2E2E2E2E2E2E2E2E2E2E2E2E2E2E2E2E2E2E2E2E2E2E2E2E2E2
310
E2E2E2E2E2E2E2E2E2E2E2E2E2E2E2E2E2E2E228E2E2E2E2E2E2E2E2E2E2E2E2E2E2E2E2E2E2E2E2E2E2E2E2E2E2E2E2E2E2E2E2E2E2E2E2E2E2E2E2E2E2E2E2E2E2E2E2E2E2E2E2E2E2E2E2E2E2E2E2E2E2E2BEE2E2E2E2E2E2E2E2C3E2E2E2E2E2E2E2E2E2E2E2E2E2E2E2E2F5E2E2F5F5EFF5E2E2F5E2E2E2E2E2E2C3E2
310
E2E2E2E2E2E2E2BEE2E2E2E2E2E2E2E2E2E2E2E2E2E2E2E2E2E2E2E2E2E2E2E2E2E2E2E2E2E2E2E2E2E2E2E2E2E2E2E2E2E2E2E2E2E2E2E2E2E2E2E2E2E2E2E2E2E2E2E2E2E2E2E228E2E2E2E2E2E2E2E2E2E2E2E2E2E2E2E2E2E2E2E2E2E2E2E2E2E2E2E2E2E2E2E2E2E2E2E2E2E2E2E2E2E2E2E2E2E2E2E2E2E2E2E2E2E2
310
E2E2E2E2E2E2E2E2E2BEE2E2E2E2E2E2E2E2C3E2E2E2E2E2E2E2E2E2E2E2E2E2E2E2E2F5E2E2F5F5EFF5E2E2F5E2E2E2E2E2E2C3E2E2E2E2E2E2E2E2BEE2E2E2E2E2E2E2E2E2E2E2E2E2E2E2E2E2E2E2E2E2E2E2E2E2E2E2E2E2E2E2E2E2E2E2E2E2E2E2E2E2E2E2E2E2E2E2E2E2E2E2E2E2E2E2E2E2E2E2E2E2E2E2E228E2
310
E2E2E2E2E2E2E2E2E2E2E2E2E2E2E2E2E2E2E2E2E2E2E2E2E2E2E2E2E2E2E2E2E2E2E2E2E2E2E2E2E2E2E2E2E2E2E2E2E2E2E2E2E2E2E2E2E2E2E2E2E2E2BEE2E2E2E2E2E2E2E2C3E2E2E2E2E2E2E2E2E2E2E2E2E2E2E2E2F5E2E2F5F5EFF5E2E2F5E2E2E2E2E2E2C3E2E2E2E2E2E2E2E2BEE2E2E2E2E2E2E2E2E2E2E2E2E2
310
E2E2E2E2E2E2E2E2E2E2E2E2E2E2E2E2E2E2E2E2E2E2E2E2E2E2E2E2E2E2E2E2E2E2E2E2E2E2E2E2E2E2E2E2E2E2E2E2E2E2E228E2E2E2E2E2E2E2E2E2E2E2E2E2E2E2E2E2E2E2E2E2E2E2E2E2E2E2E2E2E2E2E2E2E2E2E2E2E2E2E2E2E2E2E2E2E2E2E2E2E2E2E2E2E2E2E2E2E2E2E2E2E2E2BEE2E2E2E2E2E2E2E2C3E2E2
310
E2E2E2E2E2E2E2E2E2E2E2E2E2E2F5E2E2F5F5EFF5E2E2F5E2E2E2E2E2E2C3E2E2E2E2E2E2E2E2BEE2E2E2E2E2E2E2E2E2E2E2E2E2E2E2E2E2E2E2E2E2E2E2E2E2E2E2E2E2E2E2E2E2E2E2E2E2E2E2E2E2E2E2E2E2E2E2E2E2E2E2E2E2E2E2E2E2E2E2E2E2E2E2E228E2E2E2E2E2E2E2E2E2E2E2E2E2E2E2E2E2E2E2E2E2E2
310
E2E2E2E2E2E2E2E2E2E2E2E2E2E2E2E2E2E2E2E2E2E2E2E2E2E2E2E2E2E2E2E2E2E2E2E2E2E2E2E2E2BEE2E2E2E2E2E2E2E2C3E2E2E2E2E2E2E2E2E2E2E2E2E2E2E2E2F5E2E2F5F5EFF5E2E2F5E2E2E2E2E2E2C3E2E2E2E2E2E2E2E2BEE2E2E2E2E2E2E2E2E2E2E2E2E2E2E2E2E2E2E2E2E2E2E2E2E2E2E2E2E2E2E2E2E2E2
310
E2E2E2E2E2E2E2E2E2E2E2E2E2E2E2E2E2E2E2E2E2E2E2E2E2E2E2E2E2E228E2E2E2E2E2E2E2E2E2E2E2E2E2E2E2E2E2E2E2E2E2E2E2E2E2E2E2E2E2E2E2E2E2E2E2E2E2E2E2E2E2E2E2E2E2E2E2E2E2E2E2E2E2E2E2E2E2E2E2E2E2E2E2BEE2E2E2E2E2E2E2E2C3E2E2E2E2E2E2E2E2E2E2E2E2E2E2E2E2F5E2E2F5F5EFF5
310
E2E2F5E2E2E2E2E2C3C3E2E2E2E2E2E2E2E2BEE2E2E2E2E2E2E2E2E2E2E2E2E2E2E2E2E2E2E2E2E2E2E2E2E2E2E2E2E2E2E2E2E2E2E2E2E2E2E2E2E2E2E2E2E2E2E2E2E2E2E2E2E2E2E2E2E2E2E2E2E2E2E2E228E2E2E2E2E2E2E2E2E2E2E2E2E2E2E2E2E2E2E2E2E2E2E2E2E2E2E2E2E2E2E2E2E2E2E2E2E2E2E2E2E2E2E2
310
E2E2E2E2E2E2E2E2E2E2E2E2E2E2E2E2E2E2E2E2BEE2E2E2E2E2E2E2E2E2C3E2E2E2E2E2E2E2E2E2E2E2E2E2E2E2F5E2E2F5F5EFF5E2E2F5E2E2E2E2E2C3E2E2E2E2E2E2E2E2BEE2E2E2E2E2E2E2E2E2E2E2E2E2E2E2E2E2E2E2E2E2E2E2E2E2E2E2E2E2E2E2E2E2E2E2E2E2E2E2E2E2E2E2E2E2E2E2E2E2E2E2E2E2E2E2E2
310
E2E2E2E2E2E2E2E2E228E2E2E2E2E2E2E2E2E2E2E2E2E2E2E2E2E2E2E2E2E2E2E2E2E2E2E2E2E2E2E2E2E2E2E2E2E2E2E2E2E2E2E2E2E2E2E2E2E2E2E2E2E2E2E2E2E2E2E2E2E2E2E2E2BEE2E2E2E2E2E2E2E2C3E2E2E2E2E2E2E2E2E2E2E2E2E2E2E2F5E2E2F5F5EFF5E2E2F5E2E2E2E2E2C3E2E2E2E2E2E2E2E2BEE2E2E2
310
E2E2E2E2E2E2E2E2E2E2E2E2E2E2E2E2E2E2E2E2E2E2E2E2E2E2E2E2E2E2E2E2E2E2E2E2E2E2E2E2E2E2E2E2E2E2E2E2E2E2E2E2E2E2E2E2E2E2E2E2E2E228E2E2E2E2E2E2E2E2E2E2E2E2E2E2E2E2E2E2E2E2E2E2E2E2E2E2E2E2E2E2E2E2E2E2E2E2E2E2E2E2E2E2E2E2E2E2E2E2E2E2E2E2E2E2E2E2E2E2E2E2E2E2E2E2
310
BEE2E2E2E2E2E2E2E2C3E2E2E2E2E2E2E2E2E2E2E2E2E2E2E2F5E2E2F5F5EFF5E2E2F5E2E2E2E2E2C3E2E2E2E2E2E2E2E2BEE2E2E2E2E2E2E2E2E2E2E2E2E2E2E2E2E2E2E2E2E2E2E2E2E2E2E2E2E2E2E2E2E2E2E2E2E2E2E2E2E2E2E2E2E2E2E2E2E2E2E2E2E2E2E2E2E2E2E2E2E2E2E2E2E228E2E2E2E2E2E2E2E2E2E2E2
310
E2E2E2E2E2E2E2E2E2E2E2E2E2E2E2E2E2E2E2E2E2E2E2E2E2E2E2E2E2E2E2E2E2E2E2E2E2E2E2E2E2E2E2E2E2E2E2E2E2E2E2E2E2BEE2E2E2E2E2E2E2E2C3E2E2E2E2E2E2E2E2E2E2E2E2E2E2E2F5E2E2F5F5EFF5E2E2F5E2E2E2E2E2C3E2E2E2E2E2E2E2E2BEE2E2E2E2E2E2E2E2E2E2E2E2E2E2E2E2E2E2E2E2E2E2E2E2
310
E2E2E2E2E2E2E2E2E2E2E2E2E2E2E2E2E2E2E2E2E2E2E2E2E2E2E2E2E2E2E2E2E2E2E2E2E2E2E2E2E228E2E2E2E2E2E2E2E2E2E2E2E2E2E2E2E2E2E2E2E2E2E2E2E2E2E2E2E2E2E2E2E2E2E2E2E2E2E2E2E2E2E2E2E2E2E2E2E2E2E2E2E2E2E2E2E2E2E2E2E2E2E2E2E2BEE2E2E2E2E2E2E2E2C3E2E2E2E2E2E2E2E2E2E2E2
310
E2E2E2E2F5E2E2F5F5EFF5E2E2F5E2E2E2E2E2C3E2E2E2E2E2E2E2E2BEE2E2E2E2E2E2E2E2E2E2E2E2E2E2E2E2E2E2E2E2E2E2E2E2E2E2E2E2E2E2E2E2E2E2E2E2E2E2E2E2E2E2E2E2E2E2E2E2E2E2E2E2E2E2E2E2E2E2E2E2E2E2E2E2E228E2E2E2E2E2E2E2E2E2E2E2E2E2E2E2E2E2E2E2E2E2E2E2E2E2E2E2E2E2E2E2E2
310
E2E2E2E2E2E2E2E2E2E2E2E2E2E2E2E2E2E2E2E2E2E2E2E2E2E2E2E2E2E2E2E2BEE2E2E2E2E2E2E2E2C3E2E2E2E2E2E2E2E2E2E2E2E2E2E2E2F5E2E2F5F5EFF5E2E2F5E2E2E2E2E2C3E2E2E2E2E2E2E2E2BEE2E2E2E2E2E2E2E2E2E2E2E2E2E2E2E2E2E2E2E2E2E2E2E2E2E2E2E2E2E2E2E2E2E2E2E2E2E2E2E2E2E2E2E2E2
310
E2E2E2E2E2E2E2E2E2E2E2E2E2E2E2E2E2E2E2E228E2E2E2E2E2E2E2E2E2E2E2E2E2E2E2E2E2E2E2E2E2E2E2E2E2E2E2E2E2E2E2E2E2E2E2E2E2E2E2E2E2E2E2E2E2E2E2E2E2E2E2E2E2E2E2E2E2E2E2E2E2E2E2E2BEE2E2E2E2E2E2E2E2C3E2E2E2E2E2E2E2E2E2E2E2E2E2E2E2F5E2E2F5F5EFF5E2E2F5E2E2E2E2E2C3E2
310
E2E2E2E2E2E2E2BEE2E2E2E2E2E2E2E2E2E2E2E2E2E2E2E2E2E2E2E2E2E2E2E2E2E2E2E2E2E2E2E2E2E2E2E2E2E2E2E2E2E2E2E2E2E2E2E2E2E2E2E2E2E2E2E2E2E2E2E2E2E2E2E2E228E2E2E2E2E2E2E2E2E2E2E2E2E2E2E2E2E2E2E2E2E2E2E2E2E2E2E2E2E2E2E2E2E2E2E2E2E2E2E2E2E2E2E2E2E2E2E2E2E2E2E2E2E2
310
E2E2E2E2E2E2E2E2E2E2E2BEE2E2E2E2E2E2E2E2C3E2E2E2E2E2E2E2E2E2E2E2E2E2E2E2F5E2E2F5F5EFF5E2E2F5E2E2E2E2E2C3E2E2E2E2E2E2E2E2BEE2E2E2E2E2E2E2E2E2E2E2E2E2E2E2E2E2E2E2E2E2E2E2E2E2E2E2E2E2E2E2E2E2E2E2E2E2E2E2E2E2E2E2E2E2E2E2E2E2E2E2E2E2E2E2E2E2E2E2E2E2E2E2E2E228
310
E2E2E2E2E2E2E2E2E2E2E2E2E2E2E2E2E2E2E2E2E2E2E2E2E2E2E2E2E2E2E2E2E2E2E2E2E2E2E2E2E2E2E2E2E2E2E2E2E2E2E2E2E2E2E2E2E2E2E2E2E2E2E2E2BEE2E2E2E2E2E2E2E2C3C3E2E2E2E2E2E2E2E2E2E2E2E2E2E2F5E2E2F5F5EFF5E2E2F5E2E2E2E2C3C3E2E2E2E2E2E2E2E2BEE2E2E2E2E2E2E2E2E2E2E2E2E2
310
E2E2E2E2E2E2E2E2E2E2E2E2E2E2E2E2E2E2E2E2E2E2E2E2E2E2E2E2E2E2E2E2E2E2E2E2E2E2E2E2E2E2E2E2E2E2E2E2E2E2E2E228E2E2E2E2E2E2E2E2E2E2E2E2E2E2E2E2E2E2E2E2E2E2E2E2E2E2E2E2E2E2E2E2E2E2E2E2E2E2E2E2E2E2E2E2E2E2E2E2E2E2E2E2E2E2E2E2E2E2E2E2E2E2E2E2BEE2E2E2E2E2E2E2E2E2
310
C3E2E2E2E2E2E2E2E2E2E2E2E2E2E2F5E2E2F5F5EFF5E2E2F5E2E2E2E2C3E2E2E2E2E2E2E2E2E2BEE2E2E2E2E2E2E2E2E2E2E2E2E2E2E2E2E2E2E2E2E2E2E2E2E2E2E2E2E2E2E2E2E2E2E2E2E2E2E2E2E2E2E2E2E2E2E2E2E2E2E2E2E2E2E2E2E2E2E2E2E2E2E2E2E228E2E2E2E2E2E2E2E2E2E2E2E2E2E2E2E2E2E2E2E2E2
310
E2E2E2E2E2E2E2E2E2E2E2E2E2E2E2E2E2E2E2E2E2E2E2E2E2E2E2E2E2E2E2E2E2E2E2E2E2E2E2E2E2E2E2BEE2E2E2E2E2E2E2E2E2C3E2E2E2E2E2E2E2E2E2E2E2E2E2E2F5E2E2F5F5EFF5E2E2F5E2E2E2E2C3E2E2E2E2E2E2E2E2E2BEE2E2E2E2E2E2E2E2E2E2E2E2E2E2E2E2E2E2E2E2E2E2E2E2E2E2E2E2E2E2E2E2E2E2
310
E2E2E2E2E2E2E2E2E2E2E2E2E2E2E2E2E2E2E2E2E2E2E2E2E2E2E2E2E2E2E228E2E2E2E2E2E2E2E2E2E2E2E2E2E2E2E2E2E2E2E2E2E2E2E2E2E2E2E2E2E2E2E2E2E2E2E2E2E2E2E2E2E2E2E2E2E2E2E2E2E2E2E2E2E2E2E2E2E2E2E2E2E2E2E2BEE2E2E2E2E2E2E2E2E2C3E2E2E2E2E2E2E2E2E2E2E2E2E2E2F5E2E2F5F5EF
310
F5E2E2F5E2E2E2E2C3E2E2E2E2E2E2E2E2BEE2E2E2E2E2E2E2E2E2E2E2E2E2E2E2E2E2E2E2E2E2E2E2E2E2E2E2E2E2E2E2E2E2E2E2E2E2E2E2E2E2E2E2E2E2E2E2E2E2E2E2E2E2E2E2E2E2E2E2E2E2E2E2E2E2E228E2E2E2E2E2E2E2E2E2E2E2E2E2E2E2E2E2E2E2E2E2E2E2E2E2E2E2E2E2E2E2E2E2E2E2E2E2E2E2E2E2E2
310
E2E2E2E2E2E2E2E2E2E2E2E2E2E2E2E2E2E2E2E2E2E2E2BEE2E2E2E2E2E2E2E2C3E2E2E2E2E2E2E2E2E2E2E2E2E2E2F5E2E2F5F5EFF5E2E2F5E2E2E2E2C3E2E2E2E2E2E2E2E2BEE2E2E2E2E2E2E2E2E2E2E2E2E2E2E2E2E2E2E2E2E2E2E2E2E2E2E2E2E2E2E2E2E2E2E2E2E2E2E2E2E2E2E2E2E2E2E2E2E2E2E2E2E2E2E2E2
310
E2E2E2E2E2E2E2E2E2E228E2E2E2E2E2E2E2E2E2E2E2E2E2E2E2E2E2E2E2E2E2E2E2E2E2E2E2E2E2E2E2E2E2E2E2E2E2E2E2E2E2E2E2E2E2E2E2E2E2E2E2E2E2E2E2E2E2E2E2E2E2E2E2E2E2BEE2E2E2E2E2E2E2E2C3E2E2E2E2E2E2E2E2E2E2E2E2E2E2F5E2E2F5F5EFF5E2E2F5E2E2E2E2C3E2E2E2E2E2E2E2E2BEE2E2E2
310
E2E2E2E2E2E2E2E2E2E2E2E2E2E2E2E2E2E2E2E2E2E2E2E2E2E2E2E2E2E2E2E2E2E2E2E2E2E2E2E2E2E2E2E2E2E2E2E2E2E2E2E2E2E2E2E2E2E2E2E2E2E2E228E2E2E2E2E2E2E2E2E2E2E2E2E2E2E2E2E2E2E2E2E2E2E2E2E2E2E2E2E2E2E2E2E2E2E2E2E2E2E2E2E2E2E2E2E2E2E2E2E2E2E2E2E2E2E2E2E2E2E2E2E2E2E2
310
E2E2BEE2E2E2E2E2E2E2E2C3E2E2E2E2E2E2E2E2E2E2E2E2E2E2F5E2E2F5F5EFF5E2E2F5E2E2E2E2C3E2E2E2E2E2E2E2E2BEE2E2E2E2E2E2E2E2E2E2E2E2E2E2E2E2E2E2E2E2E2E2E2E2E2E2E2E2E2E2E2E2E2E2E2E2E2E2E2E2E2E2E2E2E2E2E2E2E2E2E2E2E2E2E2E2E2E2E2E2E2E2E2E2E2E228E2E2E2E2E2E2E2E2E2E2
310
E2E2E2E2E2E2E2E2E2E2E2E2E2E2E2E2E2E2E2E2E2E2E2E2E2E2E2E2E2E2E2E2E2E2E2E2E2E2E2E2E2E2E2E2E2E2E2E2E2E2E2E2E2E2E2BEE2E2E2E2E2E2E2E2C3E2E2E2E2E2E2E2E2E2E2E2E2E2E2F5E2E2F5F5EFF5E2E2F5E2E2E2E2C3E2E2E2E2E2E2E2E2BEE2E2E2E2E2E2E2E2E2E2E2E2E2E2E2E2E2E2E2E2E2E2E2E2
310
E2E2E2E2E2E2E2E2E2E2E2E2E2E2E2E2E2E2E2E2E2E2E2E2E2E2E2E2E2E2E2E2E2E2E2E2E2E2E2E2E2E228E2E2E2E2E2E2E2E2E2E2E2E2E2E2E2E2E2E2E2E2E2E2E2E2E2E2E2E2E2E2E2E2E2E2E2E2E2E2E2E2E2E2E2E2E2E2E2E2E2E2E2E2E2E2E2E2E2E2E2E2E2E2E2E2E2BEE2E2E2E2E2E2E2E2C3E2E2E2E2E2E2E2E2E2
310
E2E2E2E2E2F5E2E2F5F5EFF5E2E2F5E2E2E2E2C3E2E2E2E2E2E2E2E2BEE2E2E2E2E2E2E2E2E2E2E2E2E2E2E2E2E2E2E2E2E2E2E2E2E2E2E2E2E2E2E2E2E2E2E2E2E2E2E2E2E2E2E2E2E2E2E2E2E2E2E2E2E2E2E2E2E2E2E2E2E2E2E2E2E2E228E2E2E2E2E2E2E2E2E2E2E2E2E2E2E2E2E2E2E2E2E2E2E2E2E2E2E2E2E2E2E2
310
E2E2E2E2E2E2E2E2E2E2E2E2E2E2E2E2E2E2E2E2E2E2E2E2E2E2E2E2E2E2E2E2E2E2BEE2E2E2E2E2E2E2E2C3E2E2E2E2E2E2E2E2E2E2E2E2E2E2F5E2E2F5F5EFF5E2E2F5E2E2E2E2C3E2E2E2E2E2E2E2E2BEE2E2E2E2E2E2E2E2E2E2E2E2E2E2E2E2E2E2E2E2E2E2E2E2E2E2E2E2E2E2E2E2E2E2E2E2E2E2E2E2E2E2E2E2E2
310
E2E2E2E2E2E2E2E2E2E2E2E2E2E2E2E2E2E2E2E2E228E2E2E2E2E2E2E2E2E2E2E2E2E2E2E2E2E2E2E2E2E2E2E2E2E2E2E2E2E2E2E2E2E2E2E2E2E2E2E2E2E2E2E2E2E2E2E2E2E2E2E2E2E2E2E2E2E2E2E2E2E2E2E2E2E2BEE2E2E2E2E2E2E2E2C3E2E2E2E2E2E2E2E2E2E2E2E2E2E2F5E2E2F5F5EFF5E2E2F5E2E2E2E2C3E2
310
E2E2E2E2E2E2E2BEE2E2E2E2E2E2E2E2E2E2E2E2E2E2E2E2E2E2E2E2E2E2E2E2E2E2E2E2E2E2E2E2E2E2E2E2E2E2E2E2E2E2E2E2E2E2E2E2E2E2E2E2E2E2E2E2E2E2E2E2E2E2E2E2E2E228E2E2E2E2E2E2E2E2E2E2E2E2E2E2E2E2E2E2E2E2E2E2E2E2E2E2E2E2E2E2E2E2E2E2E2E2E2E2E2E2E2E2E2E2E2E2E2E2E2E2E2E2
310
E2E2E2E2E2E2E2E2E2E2E2E2E2BEE2E2E2E2E2E2E2E2C3E2E2E2E2E2E2E2E2E2E2E2E2E2E2F5E2E2F5F5EFF5E2E2F5E2E2E2E2C3E2E2E2E2E2E2E2E2BEE2E2E2E2E2E2E2E2E2E2E2E2E2E2E2E2E2E2E2E2E2E2E2E2E2E2E2E2E2E2E2E2E2E2E2E2E2E2E2E2E2E2E2E2E2E2E2E2E2E2E2E2E2E2E2E2E2E2E2E2E2E2E2E2E2E2
310
28E2E2E2E2E2E2E2E2E2E2E2E2E2E2E2E2E2E2E2E2E2E2E2E2E2E2E2E2E2E2E2E2E2E2E2E2E2E2E2E2E2E2E2E2E2E2E2E2E2E2E2E2E2E2E2E2E2E2E2E2E2E2E2E2E2BEE2E2E2E2E2E2E2E2C3E2E2E2E2E2E2E2E2E2E2E2E2E2E2F5E2E2F5F5EFF5E2E2F5E2E2E2E2C3E2E2E2E2E2E2E2E2BEE2E2E2E2E2E2E2E2E2E2E2E2E2
310
E2E2E2E2E2E2E2E2E2E2E2E2E2E2E2E2E2E2E2E2E2E2E2E2E2E2E2E2E2E2E2E2E2E2E2E2E2E2E2E2E2E2E2E2E2E2E2E2E2E2E2E2E228E2E2E2E2E2E2E2E2E2E2E2E2E2E2E2E2E2E2E2E2E2E2E2E2E2E2E2E2E2E2E2E2E2E2E2E2E2E2E2E2E2E2E2E2E2E2E2E2E2E2E2E2E2E2E2E2E2E2E2E2E2E2E2E2E2BEE2E2E2E2E2E2E2
310
E2C3E2E2E2E2E2E2E2E2E2E2E2E2E2E2F5E2E2F5F5EFF5E2E2F5E2E2E2E2C3E2E2E2E2E2E2E2E2BEE2E2E2E2E2E2E2E2E2E2E2E2E2E2E2E2E2E2E2E2E2E2E2E2E2E2E2E2E2E2E2E2E2E2E2E2E2E2E2E2E2E2E2E2E2E2E2E2E2E2E2E2E2E2E2E2E2E2E2E2E2E2E2E2E2E228E2E2E2E2E2E2E2E2E2E2E2E2E2E2E2E2E2E2E2E2
310
E2E2E2E2E2E2E2E2E2E2E2E2E2E2E2E2E2E2E2E2E2E2E2E2E2E2E2E2E2E2E2E2E2E2E2E2E2E2E2E2E2E2E2E2E2BEE2E2E2E2E2E2E2E2C3E2E2E2E2E2E2E2E2E2E2E2E2E2E2F5E2E2F5F5EFF5E2E2F5E2E2E2E2C3E2E2E2E2E2E2E2E2BEE2E2E2E2E2E2E2E2E2E2E2E2E2E2E2E2E2E2E2E2E2E2E2E2E2E2E2E2E2E2E2E2E2E2
310
E2E2E2E2E2E2E2E2E2E2E2E2E2E2E2E2E2E2E2E2E2E2E2E2E2E2E2E2E2E2E2C328E2E2E2E2E2E2E2E2E2E2E2E2E2E2E2E2E2E2E2E2E2E2E2E2E2E2E2E2E2E2E2E2E2E2E2E2E2E2E2E2E2E2E2E2E2E2E2E2E2E2E2E2E2E2E2E2E2E2E2E2E2E2E2E2E2BEE2E2E2E2E2E2E2E2C3E2E2E2E2E2E2E2E2E2E2E2E2E2E2F5E2E2F5F5
310
EFF5E2E2F5E2E2E2E2C3E2E2E2E2E2E2E2E2BEE2E2E2E2E2E2E2E2E2E2E2E2E2E2E2E2E2E2E2E2E2E2E2E2E2E2E2E2E2E2E2E2E2E2E2E2E2E2E2E2E2E2E2E2E2E2E2E2E2E2E2E2E2E2E2E2E2E2E2E2E2E2C3C3C3E228C3C3C3E2E2E2E2E2E2E2E2E2E2E2E2E2E2E2E2E2E2E2E2E2E2E2E2E2E2E2E2E2E2E2E2E2E2E2E2E2E2
310
E2E2E2E2E2E2E2E2E2E2E2E2E2E2E2E2E2E2E2E2E2E2E2E2BEE2E2E2E2E2E2E2E2C3E2E2E2E2E2E2E2E2E2E2E2E2E2E2F5E2E2F5F5EFF5E2E2F5E2E2E2E2C3E2E2E2E2E2E2E2E2BEE2E2E2E2E2E2E2E2E2E2E2E2E2E2E2E2E2E2E2E2E2E2E2E2E2E2E2E2E2E2E2E2E2E2E2E2E2E2E2E2E2E2E2E2E2E2E2E2E2E2E2E2E2E2E2
310
E2E2E2E2E2E2C3C3E2E2E228E2E2C3C3E2E2E2E2E2E2E2E2E2E2E2E2E2E2E2E2E2E2E2E2E2E2E2E2E2E2E2E2E2E2E2E2E2E2E2E2E2E2E2E2E2E2E2E2E2E2E2E2E2E2E2E2E2E2E2E2E2E2E2E2E2BEE2E2E2E2E2E2E2E2C3E2E2E2E2E2E2E2E2E2E2E2E2E2E2F5E2E2F5F5EFF5E2E2F5E2E2E2E2C3E2E2E2E2E2E2E2E2BEE2E2
310
E2E2E2E2E2E2E2E2E2E2E2E2E2E2E2E2E2E2E2E2E2E2E2E2E2E2E2E2E2E2E2E2E2E2E2E2E2E2E2E2E2E2E2E2E2E2E2E2E2E2E2E2E2E2E2E2E2E2C3C3E2C3C3C328C3C3E2E2C3E2E2E2E2E2E2E2E2E2E2E2E2E2E2E2E2E2E2E2E2E2E2E2E2E2E2E2E2E2E2E2E2E2E2E2E2E2E2E2E2E2E2E2E2E2E2E2E2E2E2E2E2E2E2E2E2E2
310
E2E2E2BEE2E2E2E2E2E2E2E2C3E2E2E2E2E2E2E2E2E2E2E2E2E2E2F5E2E2F5F5EFF5E2E2F5E2E2E2E2C3E2E2E2E2E2E2E2E2BEE2E2E2E2E2E2E2E2E2E2E2E2E2E2E2E2E2E2E2E2E2E2E2E2E2E2E2E2E2E2E2E2E2E2E2E2E2E2E2E2E2E2E2E2E2E2E2E2E2E2E2E2E2E2E2E2E2E2E2C3C3E2C3C3E2E228E2C3C3E2C3C3E2E2E2
310
E2E2E2E2E2E2E2E2E2E2E2E2E2E2E2E2E2E2E2E2E2E2E2E2E2E2E2E2E2E2E2E2E2E2E2E2E2E2E2E2E2E2E2E2E2E2E2E2E2E2E2E2E2E2E2E2BEE2E2E2E2E2E2E2E2C3E2E2E2E2E2E2E2E2E2E2E2E2E2E2F5E2E2F5F5EFF5E2E2F5E2E2E2E2C3E2E2E2E2E2E2E2E2BEE2E2E2E2E2E2E2E2E2E2E2E2E2E2E2E2E2E2E2E2E2E2E2
310
E2E2E2E2E2E2E2E2E2E2E2E2E2E2E2E2E2E2E2E2E2E2E2E2E2E2E2E2E2E2E2E2E2E2E2E2C3E2C3C3E2E2E228E2E2C3C3E2C3E2E2E2E2E2E2E2E2E2E2E2E2E2E2E2E2E2E2E2E2E2E2E2E2E2E2E2E2E2E2E2E2E2E2E2E2E2E2E2E2E2E2E2E2E2E2E2E2E2E2E2E2E2E2E2E2E2E2E2BEE2E2E2E2E2E2E2E2C3E2E2E2E2E2E2E2E2
310
E2E2E2E2E2E2F5E2E2F5F5EFF5E2E2F5E2E2E2E2C3E2E2E2E2E2E2E2E2BEE2E2E2E2E2E2E2E2E2E2E2E2E2E2E2E2E2E2E2E2E2E2E2E2E2E2E2E2E2E2E2E2E2E2E2E2E2E2E2E2E2E2E2E2E2E2E2E2E2E2E2E2E2E2E2E2E2E2E2C3E2C3E2E2E2E228E2E2E2C3E2C3E2E2E2E2E2E2E2E2E2E2E2E2E2E2E2E2E2E2E2E2E2E2E2E2
310
E2E2E2E2E2E2E2E2E2E2E2E2E2E2E2E2E2E2E2E2E2E2E2E2E2E2E2E2E2E2E2E2E2E2E2BEE2E2E2E2E2E2E2E2C3E2E2E2E2E2E2E2E2E2E2E2E2E2E2F5E2E2F5F5EFF5E2E2F528282828282828282828282828282828282828282828282828282828282828282828282828282828282828282828282828282828282828282828
310
282828282828282828282828282828282828282828282828282828282828282828282828282828282828282828282828282828282828282828282828282828282828282828282828282828282828282828282828282828282828282828282828282828282828E2E2E2E2E2E2E2E2E2E2F5E2E2F5F5EFF5E2E2F5E2E2E2E2C3
310
E2E2E2E2E2E2E2E2BEE2E2E2E2E2E2E2E2E2E2E2E2E2E2E2E2E2E2E2E2E2E2E2E2E2E2E2E2E2E2E2E2E2E2E2E2E2E2E2E2E2E2E2E2E2E2E2E2E2E2E2E2E2E2E2E2E2E2E2C3E2C3E2E2E2E228E2E2E2C3E2C3E2E2E2E2E2E2E2E2E2E2E2E2E2E2E2E2E2E2E2E2E2E2E2E2E2E2E2E2E2E2E2E2E2E2E2E2E2E2E2E2E2E2E2E2E2
310
E2E2E2E2E2E2E2E2E2E2E2E2E2E2BEE2E2E2E2E2E2E2E2C3E2E2E2E2E2E2E2E2E2E2E2E2E2E2F5E2E2F5F5EFF5E2E2F5E2E2E2E2C3E2E2E2E2E2E2E2E2BEE2E2E2E2E2E2E2E2E2E2E2E2E2E2E2E2E2E2E2E2E2E2E2E2E2E2E2E2E2E2E2E2E2E2E2E2E2E2E2E2E2E2E2E2E2E2E2E2E2E2E2E2E2E2E2E2E2E2E2C3E2C3E2E2E2
310
E228E2E2E2C3E2C3E2E2E2E2E2E2E2E2E2E2E2E2E2E2E2E2E2E2E2E2E2E2E2E2E2E2E2E2E2E2E2E2E2E2E2E2E2E2E2E2E2E2E2E2E2E2E2E2E2E2E2E2E2E2E2E2E2E2E2BEE2E2E2E2E2E2E2E2C3E2E2E2E2E2E2E2E2E2E2E2E2E2E2F5E2E2F5F5EFF5E2E2F5E2E2E2E2C3E2E2E2E2E2E2E2E2BEE2E2E2E2E2E2E2E2E2E2E2E2
310
E2E2E2E2E2E2E2E2E2E2E2E2E2E2E2E2E2E2E2E2E2E2E2E2E2E2E2E2E2E2E2E2E2E2E2E2E2E2E2E2E2E2E2E2E2E2E2C3C3E2C3E2E2E228E2E2C3E2E2C3E2E2E2E2E2E2E2E2E2E2E2E2E2E2E2E2E2E2E2E2E2E2E2E2E2E2E2E2E2E2E2E2E2E2E2E2E2E2E2E2E2E2E2E2E2E2E2E2E2E2E2E2E2E2E2E2E2E2E2BEE2E2E2E2E2E2
310
E2E2C3E2E2E2E2E2E2E2E2E2E2E2E2E2E2F5E2E2F5F5EFF5E2E2F5E2E2E2E2C3E2E2E2E2E2E2E2E2BEE2E2E2E2E2E2E2E2E2E2E2E2E2E2E2E2E2E2E2E2E2E2E2E2E2E2E2E2E2E2E2E2E2E2E2E2E2E2E2E2E2E2E2E2E2E2E2E2E2E2E2E2E2E2E2E2E2E2E2E2C3E2C3C3C3E228C3C3C3E2C3E2E2E2E2E2E2E2E2E2E2E2E2E2E2
310
E2E2E2E2E2E2E2E2E2E2E2E2E2E2E2E2E2E2E2E2E2E2E2E2E2E2E2E2E2E2E2E2E2E2E2E2E2E2E2E2E2E2E2E2E2E2BEE2E2E2E2E2E2E2E2C3E2E2E2E2E2E2E2E2E2E2E2E2E2E2F5E2E2F5F5EFF5E2E2F5E2E2E2E2C3E2E2E2E2E2E2E2E2BEE2E2E2E2E2E2E2E2E2E2E2E2E2E2E2E2E2E2E2E2E2E2E2E2E2E2E2E2E2E2E2E2E2
310
E2E2E2E2E2E2E2E2E2E2E2E2E2E2E2E2E2E2E2E2E2E2E2E2E2E2E2C3C3E2E2C3C328C3E2E2C3C3E2E2E2E2E2E2E2E2E2E2E2E2E2E2E2E2E2E2E2E2E2E2E2E2E2E2E2E2E2E2E2E2E2E2E2E2E2E2E2E2E2E2E2E2E2E2E2E2E2E2E2E2E2E2E2E2E2E2E2E2BEE2E2E2E2E2E2E2E2C3E2E2E2E2E2E2E2E2E2E2E2E2E2E2F5E2E2F5
310
F5EFF5E2E2F5E2E2E2E2C3E2E2E2E2E2E2E2E2BEE2E2E2E2E2E2E2E2E2E2E2E2E2E2E2E2E2E2E2E2E2E2E2E2E2E2E2E2E2E2E2E2E2E2E2E2E2E2E2E2E2E2E2E2E2E2E2E2E2E2E2E2E2E2E2E2E2E2E2E2E2E2C3C3E2E228E2C3C3C3E2E2E2E2E2E2E2E2E2E2E2E2E2E2E2E2E2E2E2E2E2E2E2E2E2E2E2E2E2E2E2E2E2E2E2E2
310
E2E2E2E2E2E2E2E2E2E2E2E2E2E2E2E2E2E2E2E2E2E2E2E2E2BEE2E2E2E2E2E2E2E2C3E2E2E2E2E2E2E2E2E2E2E2E2E2E2F5E2E2F5F5EFF5E2E2F5E2E2E2E2C3E2E2E2E2E2E2E2E2BEE2E2E2E2E2E2E2E2E2E2E2E2E2E2E2E2E2E2E2E2E2E2E2E2E2E2E2E2E2E2E2E2E2E2E2E2E2E2E2E2E2E2E2E2E2E2E2E2E2E2E2E2E2E2
310
E2E2E2E2E2E2E2E2E2C3C3C328C3C3E2E2E2E2E2E2E2E2E2E2E2E2E2E2E2E2E2E2E2E2E2E2E2E2E2E2E2E2E2E2E2E2E2E2E2E2E2E2E2E2E2E2E2E2E2E2E2E2E2E2E2E2E2E2E2E2E2E2E2E2E2E2E2BEE2E2E2E2E2E2E2E2C3E2E2E2E2E2E2E2E2E2E2E2E2E2E2F5E2E2F5F5EFF5E2E2F5E2E2E2E2C3E2E2E2E2E2E2E2E2BEE2
310
E2E2E2E2E2E2E2E2E2E2E2E2E2E2E2E2E2E2E2E2E2E2E2E2E2E2E2E2E2E2E2E2E2E2E2E2E2E2E2E2E2E2E2E2E2E2E2E2E2E2E2E2E2E2E2E2E2E2E2E2E2E2E2E2E228E2E2E2E2E2E2E2E2E2E2E2E2E2E2E2E2E2E2E2E2E2E2E2E2E2E2E2E2E2E2E2E2E2E2E2E2E2E2E2E2E2E2E2E2E2E2E2E2E2E2E2E2E2E2E2E2E2E2E2E2E2
310
E2E2E2E2BEE2E2E2E2E2E2E2E2C3E2E2E2E2E2E2E2E2E2E2E2E2E2E2F5E2E2F5F5EFF5E2E2F5E2E2E2E2C3E2E2E2E2E2E2E2E2BEE2E2E2E2E2E2E2E2E2E2E2E2E2E2E2E2E2E2E2E2E2E2E2E2E2E2E2E2E2E2E2E2E2E2E2E2E2E2E2E2E2E2E2E2E2E2E2E2E2E2E2E2E2E2E2E2E2E2E2E2E2E2E2E2E2E228E2E2E2E2E2E2E2E2
310
E2E2E2E2E2E2E2E2E2E2E2E2E2E2E2E2E2E2E2E2E2E2E2E2E2E2E2E2E2E2E2E2E2E2E2E2E2E2E2E2E2E2E2E2E2E2E2E2E2E2E2E2E2E2E2E2E2BEE2E2E2E2E2E2E2E2C3E2E2E2E2E2E2E2E2E2E2E2E2E2E2F5E2E2F5F5EFF5E2E2F5E2E2E2E2C3E2E2E2E2E2E2E2E2BEE2E2E2E2E2E2E2E2E2E2E2E2E2E2E2E2E2E2E2E2E2E2
310
E2E2E2E2E2E2E2E2E2E2E2E2E2E2E2E2E2E2E2E2E2E2E2E2E2E2E2E2E2E2E2E2E2E2E2E2E2E2E2E2E2E2E2E228E2E2E2E2E2E2E2E2E2E2E2E2E2E2E2E2E2E2E2E2E2E2E2E2E2E2E2E2E2E2E2E2E2E2E2E2E2E2E2E2E2E2E2E2E2E2E2E2E2E2E2E2E2E2E2E2E2E2E2E2E2E2E2E2E2BEE2E2E2E2E2E2E2E2C3E2E2E2E2E2E2E2
310
E2E2E2E2E2E2E2F5E2E2F5F5EFF5E2E2F5E2E2E2E2C3E2E2E2E2E2E2E2E2BEE2E2E2E2E2E2E2E2E2E2E2E2E2E2E2E2E2E2E2E2E2E2E2E2E2E2E2E2E2E2E2E2E2E2E2E2E2E2E2E2E2E2E2E2E2E2E2E2E2E2E2E2E2E2E2E2E2E2E2E2E2E2E2E2E2E228E2E2E2E2E2E2E2E2E2E2E2E2E2E2E2E2E2E2E2E2E2E2E2E2E2E2E2E2E2
310
E2E2E2E2E2E2E2E2E2E2E2E2E2E2E2E2E2E2E2E2E2E2E2E2E2E2E2E2E2E2E2E2E2E2E2E2BEE2E2E2E2E2E2E2E2C3E2E2E2E2E2E2E2E2E2E2E2E2E2E2F5E2E2F5F5EFF5E2E2F5E2E2E2E2C3E2E2E2E2E2E2E2E2BEE2E2E2E2E2E2E2E2E2E2E2E2E2E2E2E2E2E2E2E2E2E2E2E2E2E2E2E2E2E2E2E2E2E2E2E2E2E2E2E2E2E2E2
310
E2E2E2E2E2E2E2E2E2E2E2E2E2E2E2E2E2E2E2E2E2E2E228E2E2E2E2E2E2E2E2E2E2E2E2E2E2E2E2E2E2E2E2E2E2E2E2E2E2E2E2E2E2E2E2E2E2E2E2E2E2E2E2E2E2E2E2E2E2E2E2E2E2E2E2E2E2E2E2E2E2E2E2E2E2E2E2E2BEE2E2E2E2E2E2E2E2C3E2E2E2E2E2E2E2E2E2E2E2E2E2E2F5E2E2F5F5EFF5E2E2F5E2E2E2E2
310
C3E2E2E2E2E2E2E2E2BEE2E2E2E2E2E2E2E2E2E2E2E2E2E2E2E2E2E2E2E2E2E2E2E2E2E2E2E2E2E2E2E2E2E2E2E2E2E2E2E2E2E2E2E2E2E2E2E2E2E2E2E2E2E2E2E2E2E2E2E2E2E2E2E2E2E228E2E2E2E2E2E2E2E2E2E2E2E2E2E2E2E2E2E2E2E2E2E2E2E2E2E2E2E2E2E2E2E2E2E2E2E2E2E2E2E2E2E2E2E2E2E2E2E2E2E2
310
E2E2E2E2E2E2E2E2E2E2E2E2E2E2E2BEE2E2E2E2E2E2E2E2C3E2E2E2E2E2E2E2E2E2E2E2E2E2E2F5E2E2F5F5EFF5E2E2F5E2E2E2E2C3E2E2E2E2E2E2E2E2BEE2E2E2E2E2E2E2E2E2E2E2E2E2E2E2E2E2E2E2E2E2E2E2E2E2E2E2E2E2E2E2E2E2E2E2E2E2E2E2E2E2E2E2E2E2E2E2E2E2E2E2E2E2E2E2E2E2E2E2E2E2E2E2E2
310
E2E228E2E2E2E2E2E2E2E2E2E2E2E2E2E2E2E2E2E2E2E2E2E2E2E2E2E2E2E2E2E2E2E2E2E2E2E2E2E2E2E2E2E2E2E2E2E2E2E2E2E2E2E2E2E2E2E2E2E2E2E2E2E2E2E2E2BEE2E2E2E2E2E2E2E2C3E2E2E2E2E2E2E2E2E2E2E2E2E2E2F5E2E2F5F5EFF5E2E2F5E2E2E2E2C3E2E2E2E2E2E2E2E2E2BEE2E2E2E2E2E2E2E2E2E2
310
E2E2E2E2E2E2E2E2E2E2E2E2E2E2E2E2E2E2E2E2E2E2E2E2E2E2E2E2E2E2E2E2E2E2E2E2E2E2E2E2E2E2E2E2E2E2E2E2E2E2E2E2E2E2E228E2E2E2E2E2E2E2E2E2E2E2E2E2E2E2E2E2E2E2E2E2E2E2E2E2E2E2E2E2E2E2E2E2E2E2E2E2E2E2E2E2E2E2E2E2E2E2E2E2E2E2E2E2E2E2E2E2E2E2E2E2E2E2E2BEE2E2E2E2E2E2
310
E2E2E2C3E2E2E2E2E2E2E2E2E2E2E2E2E2E2F5E2E2F5F5EFF5E2E2F5E2E2E2E2E2C3E2E2E2E2E2E2E2E2BEE2E2E2E2E2E2E2E2E2E2E2E2E2E2E2E2E2E2E2E2E2E2E2E2E2E2E2E2E2E2E2E2E2E2E2E2E2E2E2E2E2E2E2E2E2E2E2E2E2E2E2E2E2E2E2E2E2E2E2E2E2E2E2E2E228E2E2E2E2E2E2E2E2E2E2E2E2E2E2E2E2E2E2
310
E2E2E2E2E2E2E2E2E2E2E2E2E2E2E2E2E2E2E2E2E2E2E2E2E2E2E2E2E2E2E2E2E2E2E2E2E2E2E2E2E2E2E2E2E2E2BEE2E2E2E2E2E2E2E2C3C3E2E2E2E2E2E2E2E2E2E2E2E2E2E2F5E2E2F5F5EFF5E2E2F5E2E2E2E2E2C3E2E2E2E2E2E2E2E2BEE2E2E2E2E2E2E2E2E2E2E2E2E2E2E2E2E2E2E2E2E2E2E2E2E2E2E2E2E2E2E2
310
E2E2E2E2E2E2E2E2E2E2E2E2E2E2E2E2E2E2E2E2E2E2E2E2E2E2E2E2E2E2E2E2E2E228E2E2E2E2E2E2E2E2E2E2E2E2E2E2E2E2E2E2E2E2E2E2E2E2E2E2E2E2E2E2E2E2E2E2E2E2E2E2E2E2E2E2E2E2E2E2E2E2E2E2E2E2E2E2E2E2E2E2E2E2E2E2E2E2BEE2E2E2E2E2E2E2E2C3E2E2E2E2E2E2E2E2E2E2E2E2E2E2E2F5E2E2
310
F5F5EFF5E2E2F5E2E2E2E2E2C3E2E2E2E2E2E2E2E2BEE2E2E2E2E2E2E2E2E2E2E2E2E2E2E2E2E2E2E2E2E2E2E2E2E2E2E2E2E2E2E2E2E2E2E2E2E2E2E2E2E2E2E2E2E2E2E2E2E2E2E2E2E2E2E2E2E2E2E2E2E2E2E2E2E228E2E2E2E2E2E2E2E2E2E2E2E2E2E2E2E2E2E2E2E2E2E2E2E2E2E2E2E2E2E2E2E2E2E2E2E2E2E2E2
310
E2E2E2E2E2E2E2E2E2E2E2E2E2E2E2E2E2E2E2E2E2E2E2E2E2BEE2E2E2E2E2E2E2E2C3E2E2E2E2E2E2E2E2E2E2E2E2E2E2E2F5E2E2F5F5EFF5E2E2F5E2E2E2E2E2C3E2E2E2E2E2E2E2E2BEE2E2E2E2E2E2E2E2E2E2E2E2E2E2E2E2E2E2E2E2E2E2E2E2E2E2E2E2E2E2E2E2E2E2E2E2E2E2E2E2E2E2E2E2E2E2E2E2E2E2E2E2
310
E2E2E2E2E2E2E2E2E2E2E2E2E228E2E2E2E2E2E2E2E2E2E2E2E2E2E2E2E2E2E2E2E2E2E2E2E2E2E2E2E2E2E2E2E2E2E2E2E2E2E2E2E2E2E2E2E2E2E2E2E2E2E2E2E2E2E2E2E2E2E2E2E2E2E2E2E2BEE2E2E2E2E2E2E2E2C3E2E2E2E2E2E2E2E2E2E2E2E2E2E2E2F5E2E2F5F5EFF5E2E2F5E2E2E2E2E2C3E2E2E2E2E2E2E2E2
310
BEE2E2E2E2E2E2E2E2E2E2E2E2E2E2E2E2E2E2E2E2E2E2E2E2E2E2E2E2E2E2E2E2E2E2E2E2E2E2E2E2E2E2E2E2E2E2E2E2E2E2E2E2E2E2E2E2E2E2E2E2E2E2E2E2E228E2E2E2E2E2E2E2E2E2E2E2E2E2E2E2E2E2E2E2E2E2E2E2E2E2E2E2E2E2E2E2E2E2E2E2E2E2E2E2E2E2E2E2E2E2E2E2E2E2E2E2E2E2E2E2E2E2E2E2E2
310
E2E2E2E2BEE2E2E2E2E2E2E2E2C3E2E2E2E2E2E2E2E2E2E2E2E2E2E2E2F5E2E2F5F5EFF5E2E2F5E2E2E2E2E2C3E2E2E2E2E2E2E2E2BEE2E2E2E2E2E2E2E2E2E2E2E2E2E2E2E2E2E2E2E2E2E2E2E2E2E2E2E2E2E2E2E2E2E2E2E2E2E2E2E2E2E2E2E2E2E2E2E2E2E2E2E2E2E2E2E2E2E2E2E2E2E2E2E2E228E2E2E2E2E2E2E2
310
E2E2E2E2E2E2E2E2E2E2E2E2E2E2E2E2E2E2E2E2E2E2E2E2E2E2E2E2E2E2E2E2E2E2E2E2E2E2E2E2E2E2E2E2E2E2E2E2E2E2E2E2E2E2E2E2E2BEE2E2E2E2E2E2E2E2C3E2E2E2E2E2E2E2E2E2E2E2E2E2E2E2F5E2E2F5F5EFF5E2E2F5E2E2E2E2E2C3E2E2E2E2E2E2E2E2E2BEE2E2E2E2E2E2E2E2E2E2E2E2E2E2E2E2E2E2E2
310
E2E2E2E2E2E2E2E2E2E2E2E2E2E2E2E2E2E2E2E2E2E2E2E2E2E2E2E2E2E2E2E2E2E2E2E2E2E2E2E2E2E2E2E2E228E2E2E2E2E2E2E2E2E2E2E2E2E2E2E2E2E2E2E2E2E2E2E2E2E2E2E2E2E2E2E2E2E2E2E2E2E2E2E2E2E2E2E2E2E2E2E2E2E2E2E2E2E2E2E2E2E2E2E2E2E2E2E2E2BEE2E2E2E2E2E2E2E2C3E2E2E2E2E2E2E2
310
E2E2E2E2E2E2E2E2F5E2E2F5F5EFF5E2E2F5E2E2E2E2E2C3E2E2E2E2E2E2E2E2E2BEE2E2E2E2E2E2E2E2E2E2E2E2E2E2E2E2E2E2E2E2E2E2E2E2E2E2E2E2E2E2E2E2E2E2E2E2E2E2E2E2E2E2E2E2E2E2E2E2E2E2E2E2E2E2E2E2E2E2E2E2E2E2E2E228E2E2E2E2E2E2E2E2E2E2E2E2E2E2E2E2E2E2E2E2E2E2E2E2E2E2E2E2
310
E2E2E2E2E2E2E2E2E2E2E2E2E2E2E2E2E2E2E2E2E2E2E2E2E2E2E2E2E2E2E2E2E2E2E2BEE2E2E2E2E2E2E2E2E2C3E2E2E2E2E2E2E2E2E2E2E2E2E2E2E2F5E2E2F5F5EFF5E2E2F5E2E2E2E2E2C3E2E2E2E2E2E2E2E2E2BEE2E2E2E2E2E2E2E2E2E2E2E2E2E2E2E2E2E2E2E2E2E2E2E2E2E2E2E2E2E2E2E2E2E2E2E2E2E2E2E2
310
E2E2E2E2E2E2E2E2E2E2E2E2E2E2E2E2E2E2E2E2E2E2E2E228E2E2E2E2E2E2E2E2E2E2E2E2E2E2E2E2E2E2E2E2E2E2E2E2E2E2E2E2E2E2E2E2E2E2E2E2E2E2E2E2E2E2E2E2E2E2E2E2E2E2E2E2E2E2E2E2E2E2E2E2E2E2E2BEE2E2E2E2E2E2E2E2E2C3E2E2E2E2E2E2E2E2E2E2E2E2E2E2E2F5E2E2F5F5EFF5E2E2F5E2E2E2
310
E2E2C3C3E2E2E2E2E2E2E2E2BEE2E2E2E2E2E2E2E2E2E2E2E2E2E2E2E2E2E2E2E2E2E2E2E2E2E2E2E2E2E2E2E2E2E2E2E2E2E2E2E2E2E2E2E2E2E2E2E2E2E2E2E2E2E2E2E2E2E2E2E2E2E2E2E228E2E2E2E2E2E2E2E2E2E2E2E2E2E2E2E2E2E2E2E2E2E2E2E2E2E2E2E2E2E2E2E2E2E2E2E2E2E2E2E2E2E2E2E2E2E2E2E2E2
310
E2E2E2E2E2E2E2E2E2E2E2E2E2E2BEE2E2E2E2E2E2E2E2C3C3E2E2E2E2E2E2E2E2E2E2E2E2E2E2E2F5E2E2F5F5EFF5E2E2F5E2E2E2E2E2E2C3E2E2E2E2E2E2E2E2E2BEE2E2E2E2E2E2E2E2E2E2E2E2E2E2E2E2E2E2E2E2E2E2E2E2E2E2E2E2E2E2E2E2E2E2E2E2E2E2E2E2E2E2E2E2E2E2E2E2E2E2E2E2E2E2E2E2E2E2E2E2
310
E2E2E228E2E2E2E2E2E2E2E2E2E2E2E2E2E2E2E2E2E2E2E2E2E2E2E2E2E2E2E2E2E2E2E2E2E2E2E2E2E2E2E2E2E2E2E2E2E2E2E2E2E2E2E2E2E2E2E2E2E2E2E2E2E2BEE2E2E2E2E2E2E2E2E2C3E2E2E2E2E2E2E2E2E2E2E2E2E2E2E2E2F5E2E2F5F5EFF5E2E2F5E2E2E2E2E2E2C3E2E2E2E2E2E2E2E2E2BEE2E2E2E2E2E2E2
310
E2E2E2E2E2E2E2E2E2E2E2E2E2E2E2E2E2E2E2E2E2E2E2E2E2E2E2E2E2E2E2E2E2E2E2E2E2E2E2E2E2E2E2E2E2E2E2E2E2E2E2E2E2E2E2E228E2E2E2E2E2E2E2E2E2E2E2E2E2E2E2E2E2E2E2E2E2E2E2E2E2E2E2E2E2E2E2E2E2E2E2E2E2E2E2E2E2E2E2E2E2E2E2E2E2E2E2E2E2E2E2E2E2E2E2E2E2E2BEE2E2E2E2E2E2E2
310
E2E2C3E2E2E2E2E2E2E2E2E2E2E2E2E2E2E2E2F5E2E2F5F5EFF5E2E2F5E2E2E2E2E2E2C3E2E2E2E2E2E2E2E2E2E2BEE2E2E2E2E2E2E2E2E2E2E2E2E2E2E2E2E2E2E2E2E2E2E2E2E2E2E2E2E2E2E2E2E2E2E2E2E2E2E2E2E2E2E2E2E2E2E2E2E2E2E2E2E2E2E2E2E2E2E2E2E2E228E2E2E2E2E2E2E2E2E2E2E2E2E2E2E2E2E2
310
E2E2E2E2E2E2E2E2E2E2E2E2E2E2E2E2E2E2E2E2E2E2E2E2E2E2E2E2E2E2E2E2E2E2E2E2E2E2E2E2E2E2E2E2E2BEE2E2E2E2E2E2E2E2E2C3E2E2E2E2E2E2E2E2E2E2E2E2E2E2E2E2F5E2E2F5F5EFF5E2E2F5E2E2E2E2E2E2C3E2E2E2E2E2E2E2E2E2E2BEE2E2E2E2E2E2E2E2E2E2E2E2E2E2E2E2E2E2E2E2E2E2E2E2E2E2E2
310
E2E2E2E2E2E2E2E2E2E2E2E2E2E2E2E2E2E2E2E2E2E2E2E2E2E2E2E2E2E2E2E2E2E2E228E2E2E2E2E2E2E2E2E2E2E2E2E2E2E2E2E2E2E2E2E2E2E2E2E2E2E2E2E2E2E2E2E2E2E2E2E2E2E2E2E2E2E2E2E2E2E2E2E2E2E2E2E2E2E2E2E2E2E2E2E2BEE2E2E2E2E2E2E2E2E2E2C3E2E2E2E2E2E2E2E2E2E2E2E2E2E2E2E2F5E2
310
E2F5F5EFF5E2E2F5E2E2E2E2E2E2C3E2E2E2E2E2E2E2E2E2E2E2BEE2E2E2E2E2E2E2E2E2E2E2E2E2E2E2E2E2E2E2E2E2E2E2E2E2E2E2E2E2E2E2E2E2E2E2E2E2E2E2E2E2E2E2E2E2E2E2E2E2E2E2E2E2E2E2E2E2E2E2E2E228E2E2E2E2E2E2E2E2E2E2E2E2E2E2E2E2E2E2E2E2E2E2E2E2E2E2E2E2E2E2E2E2E2E2E2E2E2E2
310
E2E2E2E2E2E2E2E2E2E2E2E2E2E2E2E2E2E2E2E2E2E2E2BEE2E2E2E2E2E2E2E2E2E2C3E2E2E2E2E2E2E2E2E2E2E2E2E2E2E2E2F5E2E2F5F5EFF5E2E2F5E2E2E2E2E2E2C3C3E2E2E2E2E2E2E2E2E2E2BEE2E2E2E2E2E2E2E2E2E2E2E2E2E2E2E2E2E2E2E2F5F5F5F5F5F5F5F5F5F5F5F5F5F5F5F5F5F5F5F5F5F5F5F5F5E2E2
310
E2E2E2E2E2E2E2E2E2E2E2E2E2E228E2E2E2E2E2E2E2E2E2E2E2E2E2E2E2E2E2E2E2E2E2E2E2E2E2E2E2E2E2E2E2E2E2E2E2E2E2E2E2E2E2E2E2E2E2E2E2E2E2E2E2E2E2E2E2E2E2E2E2E2BEE2E2E2E2E2E2E2E2E2E2E2C3E2E2E2E2E2E2E2E2E2E2E2E2E2E2E2E2F5E2E2F5F5EFF5E2E2F5E2E2E2E2E2E2E2C3E2E2E2E2E2
310
E2E2E2E2E2E2BEE2E2E2E2E2E2E2E2E2E2E2E2E2E2E2E2E2E2E2E2E2E2E2E2E2E2E2E2E2E2E2E2E2E2E2E2E2E2E2E2E2E2E2E2F5E2E2E2E2E2E2E2E2E2E2E2E2E2E2E228E2E2E2E2E2E2E2E2E2E2E2E2E2E2E2E2E2E2E2E2E2E2E2E2E2E2E2E2E2E2E2E2E2E2E2E2E2E2E2E2E2E2E2E2E2E2E2E2E2E2E2E2E2E2E2E2E2E2E2
310
BEE2E2E2E2E2E2E2E2E2E2E2C3E2E2E2E2E2E2E2E2E2E2E2E2E2E2E2E2E2F5E2E2F5F5EFF5E2E2F5E2E2E2E2E2E2E2C3E2E2E2E2E2E2E2E2E2E2E2E2BEE2E2E2E2E2E2E2E2E2E2E2E2E2E2E2E2E2E2E2E2F5F5F5F5F5F5F5F5F5F5F5F5F5F5F5F5F5F5F5F5F5E2E2F5E2E2E2E2E2E2E2E2E2E2E2E2E2E2E228E2E2E2E2E2E2
310
E2E2E2E2E2E2E2E2E2E2E2E2E2E2E2E2E2E2E2E2E2E2E2E2E2E2E2E2E2E2E2E2E2E2E2E2E2E2E2E2E2E2E2E2E2E2E2E2E2E2E2E2BEE2E2E2E2E2E2E2E2E2E2E2E2C3E2E2E2E2E2E2E2E2E2E2E2E2E2E2E2E2E2F5E2E2F5F5EFF5E2E2F5E2E2E2E2E2E2E2C3E2E2E2E2E2E2E2E2E2E2E2E2E2BEE2E2E2E2E2E2E2E2E2E2E2E2
310
E2E2E2E2E2E2E2E2E2E2E2E2E2E2E2F5F5F5F5F5F5F5F5F5F5F5F5F5E2E2E2F5E2E2E2E2E2E2E2E2E2E2E2E2E2E228E2E2E2E2E2E2E2E2E2E2E2E2E2E2E2E2E2E2E2E2E2E2E2E2E2E2E2E2E2E2E2E2E2E2E2E2E2E2E2E2E2E2E2E2E2E2E2E2E2E2E2E2E2E2E2E2E2BEE2E2E2E2E2E2E2E2E2E2E2E2E2C3E2E2E2E2E2E2E2E2
310
E2E2E2E2E2E2E2E2E2F5E2E2F5F5EFF5E2E2F5E2E2E2E2E2E2E2C3E2E2E2E2E2E2E2E2E2E2E2E2E2E2BEBEE2E2E2E2E2E2E2E2E2E2E2E2E2E2E2E2E2E2E2E2E2E2E2E2E2E2E2E2E2E2E2E2E2E2E2E2E2E2E2E2E2F5E2E2E2E2E2E2E2E2E2E2E2E2E2E228E2E2E2E2E2E2E2E2E2E2E2E2E2E2E2E2E2E2E2E2E2E2E2E2E2E2E2
310
E2E2E2E2E2E2E2E2E2E2E2E2E2E2E2E2E2E2E2E2E2E2E2E2E2E2E2E2BEBEE2E2E2E2E2E2E2E2E2E2E2E2E2E2C3E2E2E2E2E2E2E2E2E2E2E2E2E2E2E2E2E2F5E2E2F5F5EFF5E2E2F5E2E2E2E2E2E2E2C3E2E2E2E2E2E2E2E2E2E2E2E2E2E2E2E2BEE2E2E2E2E2E2E2E2E2E2E2E2E2E2E2E2E2E2E2E2E2E2E2E2E2E2E2E2E2E2
310
E2E2E2E2E2E2E2E2E2E2E2F5E2E2E2E2E2E2E2E2E2E2E2E2E228E2E2E2E2E2E2E2E2E2E2E2E2E2E2E2E2E2E2E2E2E2E2E2E2E2E2E2E2E2E2E2E2E2E2E2E2E2E2E2E2E2E2E2E2E2E2E2E2E2E2E2E2E2E2BEE2E2E2E2E2E2E2E2E2E2E2E2E2E2E2E2C3E2E2E2E2E2E2E2E2E2E2E2E2E2E2E2E2E2F5E2E2F5F5EFF5E2E2F5E2E2
310
E2E2E2E2E2C3C3E2E2E2E2E2E2E2E2E2E2E2E2E2E2E2E2BEBEE2E2E2E2E2E2E2E2E2E2E2E2E2E2E2E2E2E2E2E2E2E2E2E2E2E2E2E2E2E2E2E2E2E2E2E2E2E2E2F5E2E2E2E2E2E2E2E2E2E2E2E2E228E2E2E2E2E2E2E2E2E2E2E2E2E2E2E2E2E2E2E2E2E2E2E2E2E2E2E2E2E2E2E2E2E2E2E2E2E2E2E2E2E2E2E2E2E2E2E2E2
310
E2E2E2E2BEBEE2E2E2E2E2E2E2E2E2E2E2E2E2E2E2E2C3C3E2E2E2E2E2E2E2E2E2E2E2E2E2E2E2E2E2F5E2E2F5F5EFF5E2E2F5E2E2E2E2E2E2E2E2C3E2E2E2E2E2E2E2E2E2E2E2E2E2E2E2E2E2E2BEBEBEE2E2E2E2E2E2E2E2E2E2E2E2E2E2E2E2E2E2E2E2E2E2E2E2E2E2E2E2E2E2E2E2E2E2E2E2E2F5E2E2E2E2E2E2E2E2
310
E2E2E2E228E2E2E2E2E2E2E2E2E2E2E2E2E2E2E2E2E2E2E2E2E2E2E2E2E2E2E2E2E2E2E2E2E2E2E2E2E2E2E2E2E2E2E2E2E2E2E2E2E2BEBEBEE2E2E2E2E2E2E2E2E2E2E2E2E2E2E2E2E2E2C3E2E2E2E2E2E2E2E2E2E2E2E2E2E2E2E2E2E2F5E2E2F5F5EFF5E2E2F5E2E2E2E2E2E2E2E2C3E2E2E2E2E2E2E2E2E2E2E2E2E2E2
310
E2E2E2E2E2E2E2BEBEBEBEBEBEBEBEBEBEBEBEBEBEBEBEBEBEBEBEBEBEBEBEBEBEBEBEBEBEBEBEBEBEBEBEBEF5BEBEBEBEBEBEBEBEBEBEBEBE28BEBEBEBEBEBEBEBEBEBEBEBEBEBEBEBEBEBEBEBEBEBEBEBEBEBEBEBEBEBEBEBEBEBEBEBEBEBEBEBEBEBEBEBEBEBEBEBEBEE2E2E2E2E2E2E2E2E2E2E2E2E2E2E2E2E2E2E2E2
310
E2C3E2E2E2E2E2E2E2E2E2E2E2E2E2E2E2E2E2E2F5E2E2F5F5EFF5E2E2F5E2E2E2E2E2E2E2E2C3E2E2E2E2E2E2E2E2E2E2E2E2E2E2E2E2E2E2E2E2E2E2E2E2E2E2E2E2E2E2E2E2E2E2E2E2E2E2E2E2E2E2E2E2E2E2E2E2E2E2E2E2E2E2E2E2E2E2E2E2E2E2E2E2E2E2E2E2E2E2E228E2E2E2E2E2E2E2E2E2E2E2E2E2E2E2E2
310
E2E2E2E2E2E2E2E2E2E2E2E2E2E2E2E2E2E2E2E2E2E2E2E2E2E2E2E2E2E2E2E2E2E2E2E2E2E2E2E2E2E2E2E2E2E2E2E2E2E2E2E2E2E2C3E2E2E2E2E2E2E2E2E2E2E2E2E2E2E2E2E2E2F5E2E2F5F5EFF5E2E2F5E2E2E2E2E2E2E2E2C3C3E2E2E2E2E2E2E2E2E2E2E2E2E2E2E2E2E2E2E2E2E2E2E2E2E2E2E2E2E2E2E2E2E2E2
310
E2E2E2E2E2E2E2E2E2E2E2E2E2E2E2E2E2E2E2E2E2E2E2E2E2E2E2E2E2E2E2E2E2E2E2E228E2E2E2E2E2E2E2E2E2E2E2E2E2E2E2E2E2E2E2E2E2E2E2E2E2E2E2E2E2E2E2E2E2E2E2E2E2E2E2E2E2E2E2E2E2E2E2E2E2E2E2E2E2E2E2E2E2E2E2E2E2E2E2E2E2E2E2E2E2E2C3E2E2E2E2E2E2E2E2E2E2E2E2E2E2E2E2E2E2F5
310
E2E2F5F5EFF5E2E2F5E2E2E2E2E2E2E2E2E2C3E2E2E2E2E2E2E2E2E2E2E2E2E2E2E2E2E2E2E2E2E2E2E2E2E2E2E2E2E2E2E2E2E2E2E2E2E2E2E2E2E2E2E2E2E2E2E2E2E2E2E2E2E2E2E2E2E2E2E2E2E2E2E2E2E2E2E2E2E2E228E2E2E2E2E2E2E2E2E2E2E2E2E2E2E2E2E2E2E2E2E2E2E2E2E2E2E2E2E2E2E2E2E2E2E2E2E2
310
E2E2E2E2E2E2E2E2E2E2E2E2E2E2E2E2E2E2E2E2E2E2E2E2E2E2E2E2E2E2E2E2C3E2E2E2E2E2E2E2E2E2E2E2E2E2E2E2E2E2E2E2F5E2E2F5F5EFF5E2E2F5E2E2E2E2E2E2E2E2E2C3E2E2E2E2E2E2E2E2E2E2E2E2E2E2E2E2E2E2E2E2E2E2E2E2E2E2E2E2E2E2E2E2E2E2E2E2E2E2E2E2E2E2E2E2E2E2E2E2E2E2E2E2E2E2E2
310
E2E2E2E2E2E2E2E2E2E2E2E2E2E2E228E2E2E2E2E2E2E2E2E2E2E2E2E2E2E2E2E2E2E2E2E2E2E2E2E2E2E2E2E2E2E2E2E2E2E2E2E2E2E2E2E2E2E2E2E2E2E2E2E2E2E2E2E2E2E2E2E2E2E2E2E2E2E2E2E2E2E2E2E2C3E2E2E2E2E2E2E2E2E2E2E2E2E2E2E2E2E2E2E2F5E2E2F5F5EFF5E2E2F5E2E2E2E2E2E2E2E2E2C3E2E2
310
E2E2E2E2E2E2E2E2E2E2E2E2E2E2E2E2E2E2E2E2E2E2E2E2E2E2E2E2E2E2E2E2E2E2E2E2E2E2E2E2E2E2E2E2E2E2E2E2E2E2E2E2E2E2E2E2E2E2E2E2E2E2E2E2E2E2E2E228E2E2E2E2E2E2E2E2E2E2E2E2E2E2E2E2E2E2E2E2E2E2E2E2E2E2E2E2E2E2E2E2E2E2E2E2E2E2E2E2E2E2E2E2E2E2E2E2E2E2E2E2E2E2E2E2E2E2
310
E2E2E2E2E2E2E2E2E2E2E2C3E2E2E2E2E2E2E2E2E2E2E2E2E2E2E2E2E2E2E2F5E2E2F5F5EFF5E2E2F5E2E2E2E2E2E2E2E2E2C3E2E2E2E2E2E2E2E2E2E2E2E2E2E2E2E2E2E2E2E2E2E2E2E2E2E2E2E2E2E2E2E2E2E2E2E2E2E2E2E2E2E2E2E2E2E2E2E2E2E2E2E2E2E2E2E2E2E2E2E2E2E2E2E2E2E2E2E2E2E228E2E2E2E2E2
310
E2E2E2E2E2E2E2E2E2E2E2E2E2E2E2E2E2E2E2E2E2E2E2E2E2E2E2E2E2E2E2E2E2E2E2E2E2E2E2E2E2E2E2E2E2E2E2E2E2E2E2E2E2E2E2E2E2E2E2E2E2E2E2E2C3E2E2E2E2E2E2E2E2E2E2E2E2E2E2E2E2E2E2E2F5E2E2F5F5EFF5E2E2F5E2E2E2E2E2E2E2E2E2C3C3E2E2E2E2E2E2E2E2E2E2E2E2E2E2E2E2E2E2E2E2E2E2
310
E2E2E2E2E2E2E2E2E2E2E2E2E2E2E2E2E2E2E2E2E2E2E2E2E2E2E2E2E2E2E2E2E2E2E2E2E2E2E2E2E2E2E2E2E2E2E228E2E2E2E2E2E2E2E2E2E2E2E2E2E2E2E2E2E2E2E2E2E2E2E2E2E2E2E2E2E2E2E2E2E2E2E2E2E2E2E2E2E2E2E2E2E2E2E2E2E2E2E2E2E2E2E2E2E2E2E2E2E2E2E2E2E2E2E2C3C3E2E2E2E2E2E2E2E2E2
310
E2E2E2E2E2E2E2E2E2E2F5E2E2F5F5EFF5E2E2F5E2E2E2E2E2E2E2E2E2E2C3C3C3C3C3C3C3C3C3C3C3C3C3C3C3C3C3C3C3C3C3C3C3C3C3C3C3C3C3C3C3C3C3C3C3C3C3C3C3C3C3C3C3C3C3C3C3C3C3C3C3C3C3C3C3C3C3C3C3C3C3C3C3C3C3C3C3C3C3C328C3C3C3C3C3C3C3C3C3C3C3C3C3C3C3C3C3C3C3C3C3C3C3C3C3C3
310
C3C3C3C3C3C3C3C3C3C3C3C3C3C3C3C3C3C3C3C3C3C3C3C3C3C3C3C3C3C3C3C3C3C3C3C3C3C3C3C3C3C3C3E2E2E2E2E2E2E2E2E2E2E2E2E2E2E2E2E2E2E2E2F5E2E2F5F5EFF5E2E2F5E2E2E2E2E2E2E2E2E2E2E2E2E2E2E2E2E2E2E2E2E2E2E2E2E2E2E2E2E2E2E2E2E2E2E2E2E2E2E2E2E2E2E2E2E2E2E2E2E2E2E2E2E2E2
310
E2E2E2E2E2E2E2E2E2E2E2E2E2E2E2E2E2E2E2E2E2E2E2E2E2E228E2E2E2E2E2E2E2E2E2E2E2E2E2E2E2E2E2E2E2E2E2E2E2E2E2E2F5E2E2E2E2E2E2E2E2E2E2E2E2E2E2E2E2E2E2E2E2E2E2E2E2E2E2E2E2E2E2E2E2E2E2E2E2E2E2E2E2E2E2E2E2E2E2E2E2E2E2E2E2E2E2E2E2E2E2E2E2E2E2F5E2E2F5F5EFF5E2E2F5E2
310
E2E2E2E2E2E2E2E2E2E2E2E2E2E2E2E2E2E2E2E2E2E2E2E2E2E2E2E2E2E2E2E2E2E2E2E2E2E2E2E2E2E2E2E2E2E2E2E2E2E2E2E2E2E2E2E2E2E2E2E2E2E2E2E2E2E2E2E2E2E2E2E2E2E2E2E2E2E2E228E2E2E2E2E2E2E2E2E2E2E2E2E2E2E2E2E2E2E2E2E2E2E2E2E2F5E2E2E2E2E2E2E2E2E2E2E2E2E2E2E2E2E2E2E2E2E2
310
E2E2E2E2E2E2E2E2E2E2E2E2E2E2E2E2E2E2E2E2E2E2E2E2E2E2E2E2E2E2E2E2E2E2E2E2E2E2E2E2E2E2F5E2E2F5F5EFF5E2E2F5E2E2E2F5F5F5F5F5E2E2E2E2F5F5F5E2E2E2E2F5F5F5F5F5E2E2E2F5F5F5E2E2E2E2E2E2E2E2E2E2E2E2E2E2E2E2E2E2E2E2E2E2E2E2E2E2E2E2E2E2E2E2E2E2E2E2E2E2E2E2E2E2E2E2E2
310
E2E2E2E2E228E2E2E2E2E2E2E2E2E2E2E2E2E2E2E2E2E2E2E2E2E2E2E2E2F5E2E2E2E2E2E2E2E2E2E2E2E2E2E2E2E2E2E2E2E2E2E2E2E2E2E2E2E2E2E2E2E2E2E2E2E2E2E2E2E2E2E2E2E2E2E2E2E2E2E2E2E2E2E2E2E2E2E2E2E2E2E2E2E2F5E2E2F5F5EFF5E2E2F5E2E2E2F5F5F5F5F5E2E2F5F5F5F5F5F5F5E2E2F5F5F5
310
F5F5E2E2F5F5F5F5F5F5E2E2E2E2E2E2E2E2E2E2E2E2E2E2E2E2E2E2E2E2E2E2E2E2E2E2E2E2E2E2E2E2E2E2E2E2E2E2E2E2E2E2E2E2E2E2E2E228E2E2E2E2E2E2E2E2E2F5F5F5F5F5F5F5F5F5F5F5F5F5F5F5E2E2E2E2E2E2E2E2E2E2E2E2E2E2E2E2E2E2E2E2E2E2E2E2E2E2E2E2E2E2E2E2E2E2E2E2E2E2E2E2E2E2E2E2
310
E2E2E2E2E2E2E2E2E2E2E2E2E2E2E2E2E2E2E2E2E2F5E2E2F5F5EFF5E2E2F5E2E2E2E2E2F5F5E2E2E2F5F5E2E2E2F5F5E2E2E2F5F5E2E2E2F5F5F5E2E2F5F5F5E2E2E2E2E2E2E2E2E2E2E2E2E2E2E2E2E2E2E2E2E2E2E2E2E2E2E2E2E2E2E2E2E2E2E2E2E2E2E2E2E2E2E2E2E2E2E228E2E2E2E2E2E2E2E2E2E2E2E2F5F5F5
310
F5F5F5F5F5F5F5E2E2E2E2E2E2E2E2E2E2E2E2E2E2E2E2E2E2E2E2E2E2E2E2E2E2E2E2E2E2E2E2E2E2E2E2E2E2E2E2E2E2E2E2E2E2E2E2E2E2E2E2E2E2E2E2E2E2E2E2E2E2E2E2E2E2E2F5E2E2F5F5EFF5E2E2F5E2E2E2E2E2F5F5E2E2E2F5F5E2E2E2F5F5E2E2E2F5F5E2E2E2F5F5F5E2E2F5F5F5E2E2E2E2E2E2E2E2E2E2
310
E2E2E2E2E2E2E2E2E2E2E2E2E2E2E2E2E2E2E2E2E2E2E2E2E2E2E2E2E2E2E2E2E2E2E2E2E228E2E2E2E2E2E2E2E2E2E2F5F5F5F5F5F5F5F5F5F5F5F5E2E2E2E2E2E2E2E2E2E2E2E2E2E2E2E2E2E2E2E2E2E2E2E2E2E2E2E2E2E2E2E2E2E2E2E2E2E2E2E2E2E2E2E2E2E2E2E2E2E2E2E2E2E2E2E2E2E2E2E2E2E2E2E2E2E2E2
310
F5E2E2F5F5EFF5E2E2F5E2E2F5F5E2F5F5E2F5F5F5F5E2E2E2F5F5F5F5E2F5F5E2F5F5F5F5F5E2E2F5F5F5E2E2E2E2E2E2E2E2E2E2E2E2E2E2E2E2E2E2E2E2E2E2E2E2E2E2E2E2E2E2E2E2E2E2E2E2E2E2E2E2E2E2E2E2E2E2E2E2E2E2E2E2E2E2E2E2E2E2E2E2F5F5F5F5F5F5F5F5F5F5E2E2E2E2E2E2E2E2E2E2E2E2E2E2
310
E2E2E2E2E2E2E2E2E2E2E2E2E2E2E2E2E2E2E2E2E2E2E2E2E2E2E2E2E2E2E2E2E2E2E2E2E2E2E2E2E2E2E2E2E2E2E2E2E2E2E2E2E2F5E2E2F5F5EFF5E2E2F5E2E2F5F5F5F5F5F5F5F5F5F5F5E2F5F5F5F5F5F5F5F5F5F5F5F5F5F5F5F5F5F5F5F5F5E2E2E2E2E2E2E2E2E2E2E2E2E2E2E2E2E2E2E2E2E2E2E2E2E2E2E2E2E2
310
E2E2E2E2E2E2E2E2E2E2E2E2E2E2E2E2E2E2E2E2E2E2E2E2E2E2E2E2E2F5F5F5F5F5F5F5F5F5F5E2E2E2E2E2E2E2E2E2E2E2E2E2E2E2E2E2E2E2E2E2E2E2E2E2E2E2E2E2E2E2E2E2E2E2E2E2E2E2E2E2E2E2E2E2E2E2E2E2E2E2E2E2E2E2E2E2E2E2E2E2E2E2E2E2E2E2F5E2E2F5F5EFF5E2E2F5E2E2F5F5F5F5F5F5F5F5E2
310
F5F5F5F5F5E2F5F5F5F5F5F5F5F5E2F5F5F5F5F5F5F5F5F5E2E2E2E2E2E2E2E2E2E2E2E2E2E2E2E2E2E2E2E2E2E2E2E2E2E2E2E2E2E2E2E2E2E2E2E2E2E2E2E2E2E2E2E2E2E2E2E2E2E2E2E2E2E2E2E2E2E2E2E2E2E2E2E2E2E2E2E2E2E2E2E2E2E2E2E2E2E2E2E2E2E2E2E2E2E2E2E2E2E2E2E2E2E2E2E2E2E2E2E2E2E2E2
310
E2E2E2E2E2E2E2E2E2E2E2E2E2E2E2E2E2E2E2E2E2E2E2E2E2E2E2E2E2E2E2E2F5E2E2F5F5EFF5E2E2F5E2E2E2E2E2E2E2E2E2E2E2E2E2E2E2E2E2E2E2E2E2E2E2E2E2E2E2E2E2E2E2E2E2E2E2E2E2E2E2E2E2E2E2E2E2E2E2E2E2E2E2E2E2E2E2E2E2E2E2E2E2E2E2E2E2E2E2E2E2E2E2E2E2E2E2E2E2E2E2E2E2E2E2E2E2
310
E2E2E2E2E2E2E2E2E2E2E2E2E2E2E2E2E2E2E2E2E2E2E2E2E2E2E2E2E2E2E2E2E2E2E2E2E2E2E2E2E2E2E2E2E2E2E2E2E2E2E2E2E2E2E2E2E2E2E2E2E2E2E2E2E2E2E2E2E2E2E2E2E2E2E2E2E2E2E2E2E2E2E2E2E2F5E2E2F5F5EFF5E2E2F5F5F5F5F5F5F5F5F5F5F5F5F5F5F5F5F5F5F5F5F5F5F5F5F5F5F5F5F5F5F5F5F5
310
F5F5F5F5F5F5F5F5F5F5F5F5F5F5F5F5F5F5F5F5F5F5F5F5F5F5F5F5F5F5F5F5F5F5F5F5F5F5F5F5F5F5F5F5F5F5F5F5F5F5F5F5F5F5F5F5F5F5F5F5F5F5F5F5F5F5F5F5F5F5F5F5F5F5F5F5F5F5F5F5F5F5F5F5F5F5F5F5F5F5F5F5F5F5F5F5F5F5F5F5F5F5F5F5F5F5F5F5F5F5F5F5F5F5F5F5F5F5F5F5F5F5F5F5F5F5F5
310
F5F5F5F5F5F5F5F5F5F5F5F5E2E2F5F5EFF5E2E2F5E2E2E2E2E2E2E2E2E2E2E2E2E2E2E2E2E2E2E2E2E2E2E2E2E2E2E2E2E2E2E2E2E2E2E2E2E2E2E2E2E2E2E2E2E2E2E2E2E2E2E2E2E2E2E2E2E2E2E2E2E2E2E2E2E2E2E2E2E2E2E2E2E2E2E2E2E2E2E2E2E2E2E2E2E2E2E2E2E2E2E2E2E2E2E2E2E2E2E2E2E2E2E2E2E2E2
310
E2E2E2E2E2E2E2E2E2E2E2E2E2E2E2E2E2E2E2E2E2E2E2E2E2E2E2E2E2E2E2E2E2E2E2E2E2E2E2E2E2E2E2E2E2E2E2E2E2E2E2E2E2E2E2E2E2E2E2E2E2E2E2E2F5E2E2F5F5EFF5E2E2F5F5F5F5F5F5F5F5E2E2E2E2E2E2E2E2E2F5F5F5F5F5F5F5F5F5F5F5F5F5F5F5F5E2E2E2E2E2E2E2E2E2F5F5F5F5F5F5F5F5F5F5F5F5
310
F5F5F5E2E2E2E2E2E2E2E2E2F5F5F5F5F5F5F5F5F5F5F5F5F5F5F5F5E2E2E2E2E2E2E2E2F5F5F5F5F5F5F5F5F5F5F5F5F5F5F5F5E2E2E2E2E2E2E2E2E2F5F5F5F5F5F5F5F5F5F5F5F5F5F5F5E2E2E2E2E2E2E2E2E2F5F5F5F5F5F5F5F5F5F5F5F5F5F5F5F5E2E2E2E2E2E2E2E2E2F5F5F5F5F5F5F5F5E2E2F5EFEFF5F5F5F5
310
F5F5F5F5F5F5F5F5F5F5F5F5F5F5F5F5F5F5F5F5F5F5F5F5F5F5F5F5F5F5F5F5F5F5F5F5F5F5F5F5F5F5F5F5F5F5F5F5F5F5F5F5F5F5F5F5F5F5F5F5F5F5F5F5F5F5F5F5F5F5F5F5F5F5F5F5F5F5F5F5F5F5F5F5F5F5F5F5F5F5F5F5F5F5F5F5F5F5F5F5F5F5F5F5F5F5F5F5F5F5F5F5F5F5F5F5F5F5F5F5F5F5F5F5F5F5F5
310
F5F5F5F5F5F5F5F5F5F5F5F5F5F5F5F5F5F5F5F5F5F5F5F5F5F5F5F5F5F5F5F5F5F5F5F5F5F5F5F5F5F5F5F5F5F5F5EF
  0
XRECORD
  5
3D14C
102
{ACAD_REACTORS
330
3D14B
102
}
330
3D14B
100
AcDbXrecord
280
     1
102
SHADEPLOT
 70
     0
102
SHADEPLOTRESLEVEL
 70
     2
102
SHADEPLOTCUSTOMDPI
 70
   300
  0
XRECORD
  5
3D15B
102
{ACAD_REACTORS
330
3D15A
102
}
330
3D15A
100
AcDbXrecord
280
     1
102
MATERIAL
148
0.0
149
0.0
149
0.0
 93
        0
 94
       63
282
     0
 72
     1
 77
     1
171
     1
175
     1
179
     1
273
     0
  0
XRECORD
  5
3D159
102
{ACAD_REACTORS
330
3D158
102
}
330
3D158
100
AcDbXrecord
280
     1
102
MATERIAL
148
0.0
149
0.0
149
0.0
 93
        0
 94
       63
282
     0
 72
     1
 77
     1
171
     1
175
     1
179
     1
273
     0
  0
XRECORD
  5
3D15D
102
{ACAD_REACTORS
330
3D15C
102
}
330
3D15C
100
AcDbXrecord
280
     1
102
MATERIAL
148
0.0
149
0.0
149
0.0
 93
        0
 94
       63
282
     0
 72
     1
 77
     1
171
     1
175
     1
179
     1
273
     0
  0
XRECORD
  5
3D150
102
{ACAD_REACTORS
330
3D14F
102
}
330
3D14F
100
AcDbXrecord
280
     1
102
SHADEPLOT
 70
     0
102
SHADEPLOTRESLEVEL
 70
     2
102
SHADEPLOTCUSTOMDPI
 70
   300
  0
XRECORD
  5
3D14E
102
{ACAD_REACTORS
330
3D14D
102
}
330
3D14D
100
AcDbXrecord
280
     1
102
SHADEPLOT
 70
     0
102
SHADEPLOTRESLEVEL
 70
     2
102
SHADEPLOTCUSTOMDPI
 70
   300
  0
XRECORD
  5
3D157
102
{ACAD_REACTORS
330
3D156
102
}
330
3D156
100
AcDbXrecord
280
     1
102
ACAD_ROUNDTRIP_PRE2007_TABLESTYLE
 90
        4
 91
        0
  1

 92
        4
 93
        0
  2

 94
        4
 95
        0
  3

  0
ENDSEC
  0
EOF
