  0
SECTION
  2
HEADER
  9
$ACADVER
  1
AC1018
  9
$ACADMAINTVER
 70
   104
  9
$DWGCODEPAGE
  3
ANSI_1252
  9
$LASTSAVEDBY
  1
jgayle
  9
$INSBASE
 10
0.0
 20
0.0
 30
0.0
  9
$EXTMIN
 10
1457.678887875024
 20
619.5637444487145
 30
-0.0015258207003583
  9
$EXTMAX
 10
1473.1889779172
 20
636.5612440242252
 30
0.0000000349246037
  9
$LIMMIN
 10
0.0
 20
0.0
  9
$LIMMAX
 10
12.0
 20
9.0
  9
$ORTHOMODE
 70
     1
  9
$REGENMODE
 70
     1
  9
$FILLMODE
 70
     1
  9
$QTEXTMODE
 70
     0
  9
$MIRRTEXT
 70
     0
  9
$LTSCALE
 40
1.0
  9
$ATTMODE
 70
     1
  9
$TEXTSIZE
 40
0.2
  9
$TRACEWID
 40
0.05
  9
$TEXTSTYLE
  7
Standard
  9
$CLAYER
  8
0
  9
$CELTYPE
  6
ByLayer
  9
$CECOLOR
 62
   256
  9
$CELTSCALE
 40
1.0
  9
$DISPSILH
 70
     0
  9
$DIMSCALE
 40
1.0
  9
$DIMASZ
 40
0.18
  9
$DIMEXO
 40
0.0625
  9
$DIMDLI
 40
0.38
  9
$DIMRND
 40
0.0
  9
$DIMDLE
 40
0.0
  9
$DIMEXE
 40
0.18
  9
$DIMTP
 40
0.0
  9
$DIMTM
 40
0.0
  9
$DIMTXT
 40
0.18
  9
$DIMCEN
 40
0.09
  9
$DIMTSZ
 40
0.0
  9
$DIMTOL
 70
     0
  9
$DIMLIM
 70
     0
  9
$DIMTIH
 70
     1
  9
$DIMTOH
 70
     1
  9
$DIMSE1
 70
     0
  9
$DIMSE2
 70
     0
  9
$DIMTAD
 70
     0
  9
$DIMZIN
 70
     0
  9
$DIMBLK
  1

  9
$DIMASO
 70
     1
  9
$DIMSHO
 70
     1
  9
$DIMPOST
  1

  9
$DIMAPOST
  1

  9
$DIMALT
 70
     0
  9
$DIMALTD
 70
     2
  9
$DIMALTF
 40
25.4
  9
$DIMLFAC
 40
1.0
  9
$DIMTOFL
 70
     0
  9
$DIMTVP
 40
0.0
  9
$DIMTIX
 70
     0
  9
$DIMSOXD
 70
     0
  9
$DIMSAH
 70
     0
  9
$DIMBLK1
  1

  9
$DIMBLK2
  1

  9
$DIMSTYLE
  2
Standard
  9
$DIMCLRD
 70
     0
  9
$DIMCLRE
 70
     0
  9
$DIMCLRT
 70
     0
  9
$DIMTFAC
 40
1.0
  9
$DIMGAP
 40
0.09
  9
$DIMJUST
 70
     0
  9
$DIMSD1
 70
     0
  9
$DIMSD2
 70
     0
  9
$DIMTOLJ
 70
     1
  9
$DIMTZIN
 70
     0
  9
$DIMALTZ
 70
     0
  9
$DIMALTTZ
 70
     0
  9
$DIMUPT
 70
     0
  9
$DIMDEC
 70
     4
  9
$DIMTDEC
 70
     4
  9
$DIMALTU
 70
     2
  9
$DIMALTTD
 70
     2
  9
$DIMTXSTY
  7
Standard
  9
$DIMAUNIT
 70
     0
  9
$DIMADEC
 70
     0
  9
$DIMALTRND
 40
0.0
  9
$DIMAZIN
 70
     0
  9
$DIMDSEP
 70
    46
  9
$DIMATFIT
 70
     3
  9
$DIMFRAC
 70
     0
  9
$DIMLDRBLK
  1

  9
$DIMLUNIT
 70
     2
  9
$DIMLWD
 70
    -2
  9
$DIMLWE
 70
    -2
  9
$DIMTMOVE
 70
     0
  9
$LUNITS
 70
     2
  9
$LUPREC
 70
     4
  9
$SKETCHINC
 40
0.1
  9
$FILLETRAD
 40
0.0
  9
$AUNITS
 70
     0
  9
$AUPREC
 70
     0
  9
$MENU
  1
.
  9
$ELEVATION
 40
0.0
  9
$PELEVATION
 40
0.0
  9
$THICKNESS
 40
0.0
  9
$LIMCHECK
 70
     0
  9
$CHAMFERA
 40
0.0
  9
$CHAMFERB
 40
0.0
  9
$CHAMFERC
 40
0.0
  9
$CHAMFERD
 40
0.0
  9
$SKPOLY
 70
     0
  9
$TDCREATE
 40
2456477.406266320
  9
$TDUCREATE
 40
2456477.614599652
  9
$TDUPDATE
 40
2457395.603450070
  9
$TDUUPDATE
 40
2457395.811783403
  9
$TDINDWG
 40
0.0022415509
  9
$TDUSRTIMER
 40
0.0022414120
  9
$USRTIMER
 70
     1
  9
$ANGBASE
 50
0.0
  9
$ANGDIR
 70
     0
  9
$PDMODE
 70
     0
  9
$PDSIZE
 40
0.0
  9
$PLINEWID
 40
0.0
  9
$SPLFRAME
 70
     0
  9
$SPLINETYPE
 70
     6
  9
$SPLINESEGS
 70
     8
  9
$HANDSEED
  5
693
  9
$SURFTAB1
 70
     6
  9
$SURFTAB2
 70
     6
  9
$SURFTYPE
 70
     6
  9
$SURFU
 70
     6
  9
$SURFV
 70
     6
  9
$UCSBASE
  2

  9
$UCSNAME
  2

  9
$UCSORG
 10
0.0
 20
0.0
 30
0.0
  9
$UCSXDIR
 10
1.0
 20
0.0
 30
0.0
  9
$UCSYDIR
 10
0.0
 20
1.0
 30
0.0
  9
$UCSORTHOREF
  2

  9
$UCSORTHOVIEW
 70
     0
  9
$UCSORGTOP
 10
0.0
 20
0.0
 30
0.0
  9
$UCSORGBOTTOM
 10
0.0
 20
0.0
 30
0.0
  9
$UCSORGLEFT
 10
0.0
 20
0.0
 30
0.0
  9
$UCSORGRIGHT
 10
0.0
 20
0.0
 30
0.0
  9
$UCSORGFRONT
 10
0.0
 20
0.0
 30
0.0
  9
$UCSORGBACK
 10
0.0
 20
0.0
 30
0.0
  9
$PUCSBASE
  2

  9
$PUCSNAME
  2

  9
$PUCSORG
 10
0.0
 20
0.0
 30
0.0
  9
$PUCSXDIR
 10
1.0
 20
0.0
 30
0.0
  9
$PUCSYDIR
 10
0.0
 20
1.0
 30
0.0
  9
$PUCSORTHOREF
  2

  9
$PUCSORTHOVIEW
 70
     0
  9
$PUCSORGTOP
 10
0.0
 20
0.0
 30
0.0
  9
$PUCSORGBOTTOM
 10
0.0
 20
0.0
 30
0.0
  9
$PUCSORGLEFT
 10
0.0
 20
0.0
 30
0.0
  9
$PUCSORGRIGHT
 10
0.0
 20
0.0
 30
0.0
  9
$PUCSORGFRONT
 10
0.0
 20
0.0
 30
0.0
  9
$PUCSORGBACK
 10
0.0
 20
0.0
 30
0.0
  9
$USERI1
 70
     0
  9
$USERI2
 70
     0
  9
$USERI3
 70
     0
  9
$USERI4
 70
     0
  9
$USERI5
 70
     0
  9
$USERR1
 40
0.0
  9
$USERR2
 40
0.0
  9
$USERR3
 40
0.0
  9
$USERR4
 40
0.0
  9
$USERR5
 40
0.0
  9
$WORLDVIEW
 70
     1
  9
$SHADEDGE
 70
     3
  9
$SHADEDIF
 70
    70
  9
$TILEMODE
 70
     1
  9
$MAXACTVP
 70
    64
  9
$PINSBASE
 10
0.0
 20
0.0
 30
0.0
  9
$PLIMCHECK
 70
     0
  9
$PEXTMIN
 10
0.0
 20
0.0
 30
0.0
  9
$PEXTMAX
 10
0.0
 20
0.0
 30
0.0
  9
$PLIMMIN
 10
0.0
 20
0.0
  9
$PLIMMAX
 10
12.0
 20
9.0
  9
$UNITMODE
 70
     0
  9
$VISRETAIN
 70
     1
  9
$PLINEGEN
 70
     0
  9
$PSLTSCALE
 70
     1
  9
$TREEDEPTH
 70
  3020
  9
$CMLSTYLE
  2
Standard
  9
$CMLJUST
 70
     0
  9
$CMLSCALE
 40
1.0
  9
$PROXYGRAPHICS
 70
     1
  9
$MEASUREMENT
 70
     0
  9
$CELWEIGHT
370
    -1
  9
$ENDCAPS
280
     0
  9
$JOINSTYLE
280
     0
  9
$LWDISPLAY
290
     0
  9
$INSUNITS
 70
     1
  9
$HYPERLINKBASE
  1

  9
$STYLESHEET
  1

  9
$XEDIT
290
     1
  9
$CEPSNTYPE
380
     0
  9
$PSTYLEMODE
290
     1
  9
$FINGERPRINTGUID
  2
{55FF0114-88AE-413A-B19F-82E3190E1C41}
  9
$VERSIONGUID
  2
{D020663E-D0A9-43AA-B3E4-ACD9DA7015F1}
  9
$EXTNAMES
290
     1
  9
$PSVPSCALE
 40
0.0
  9
$OLESTARTUP
290
     0
  9
$SORTENTS
280
   127
  9
$INDEXCTL
280
     0
  9
$HIDETEXT
280
     1
  9
$XCLIPFRAME
290
     0
  9
$HALOGAP
280
     0
  9
$OBSCOLOR
 70
   257
  9
$OBSLTYPE
280
     0
  9
$INTERSECTIONDISPLAY
280
     0
  9
$INTERSECTIONCOLOR
 70
   257
  9
$DIMASSOC
280
     2
  9
$PROJECTNAME
  1

  0
ENDSEC
  0
SECTION
  2
CLASSES
  0
CLASS
  1
ACDBDICTIONARYWDFLT
  2
AcDbDictionaryWithDefault
  3
ObjectDBX Classes
 90
        0
 91
        1
280
     0
281
     0
  0
CLASS
  1
DICTIONARYVAR
  2
AcDbDictionaryVar
  3
ObjectDBX Classes
 90
        0
 91
       11
280
     0
281
     0
  0
CLASS
  1
TABLESTYLE
  2
AcDbTableStyle
  3
ObjectDBX Classes
 90
     4095
 91
        1
280
     0
281
     0
  0
CLASS
  1
MATERIAL
  2
AcDbMaterial
  3
ObjectDBX Classes
 90
     1153
 91
        3
280
     0
281
     0
  0
CLASS
  1
VISUALSTYLE
  2
AcDbVisualStyle
  3
ObjectDBX Classes
 90
     4095
 91
       24
280
     0
281
     0
  0
CLASS
  1
SCALE
  2
AcDbScale
  3
ObjectDBX Classes
 90
     1153
 91
       33
280
     0
281
     0
  0
CLASS
  1
MLEADERSTYLE
  2
AcDbMLeaderStyle
  3
ACDB_MLEADERSTYLE_CLASS
 90
     4095
 91
        1
280
     0
281
     0
  0
CLASS
  1
CELLSTYLEMAP
  2
AcDbCellStyleMap
  3
ObjectDBX Classes
 90
     1152
 91
        2
280
     0
281
     0
  0
CLASS
  1
EXACXREFPANELOBJECT
  2
ExAcXREFPanelObject
  3
EXAC_ESW
 90
     1025
 91
        0
280
     0
281
     0
  0
CLASS
  1
NPOCOLLECTION
  2
AcDbImpNonPersistentObjectsCollection
  3
ObjectDBX Classes
 90
     1153
 91
        0
280
     0
281
     0
  0
CLASS
  1
LAYER_INDEX
  2
AcDbLayerIndex
  3
ObjectDBX Classes
 90
        0
 91
        0
280
     0
281
     0
  0
CLASS
  1
SPATIAL_INDEX
  2
AcDbSpatialIndex
  3
ObjectDBX Classes
 90
        0
 91
        0
280
     0
281
     0
  0
CLASS
  1
IDBUFFER
  2
AcDbIdBuffer
  3
ObjectDBX Classes
 90
        0
 91
        0
280
     0
281
     0
  0
CLASS
  1
SORTENTSTABLE
  2
AcDbSortentsTable
  3
ObjectDBX Classes
 90
        0
 91
        0
280
     0
281
     0
  0
CLASS
  1
DIMASSOC
  2
AcDbDimAssoc
  3
"AcDbDimAssoc|Product Desc:     AcDim ARX App For Dimension|Company:          Autodesk, Inc.|WEB Address:      www.autodesk.com"
 90
        0
 91
        0
280
     0
281
     0
  0
ENDSEC
  0
SECTION
  2
TABLES
  0
TABLE
  2
VPORT
  5
8
330
0
100
AcDbSymbolTable
 70
     1
  0
VPORT
  5
94
330
8
100
AcDbSymbolTableRecord
100
AcDbViewportTableRecord
  2
*Active
 70
     0
 10
0.0
 20
0.0
 11
1.0
 21
1.0
 12
1465.433932896112
 22
628.0624942364698
 13
0.0
 23
0.0
 14
0.5
 24
0.5
 15
0.5
 25
0.5
 16
0.0
 26
0.0
 36
1.0
 17
0.0
 27
0.0
 37
0.0
 40
17.14402974426525
 41
2.102158273381295
 42
50.0
 43
0.0
 44
0.0
 50
0.0
 51
0.0
 71
     0
 72
  1000
 73
     1
 74
     3
 75
     0
 76
     1
 77
     0
 78
     0
281
     0
 65
     1
110
0.0
120
0.0
130
0.0
111
1.0
121
0.0
131
0.0
112
0.0
122
1.0
132
0.0
 79
     0
146
0.0
1001
ACAD_NAV_VCDISPLAY
1070
     3
  0
ENDTAB
  0
TABLE
  2
LTYPE
  5
5
330
0
100
AcDbSymbolTable
 70
     1
  0
LTYPE
  5
14
330
5
100
AcDbSymbolTableRecord
100
AcDbLinetypeTableRecord
  2
ByBlock
 70
     0
  3

 72
    65
 73
     0
 40
0.0
  0
LTYPE
  5
15
330
5
100
AcDbSymbolTableRecord
100
AcDbLinetypeTableRecord
  2
ByLayer
 70
     0
  3

 72
    65
 73
     0
 40
0.0
  0
LTYPE
  5
16
330
5
100
AcDbSymbolTableRecord
100
AcDbLinetypeTableRecord
  2
Continuous
 70
     0
  3
Solid line
 72
    65
 73
     0
 40
0.0
  0
ENDTAB
  0
TABLE
  2
LAYER
  5
2
102
{ACAD_XDICTIONARY
360
18E
102
}
330
0
100
AcDbSymbolTable
 70
     3
  0
LAYER
  5
10
102
{ACAD_XDICTIONARY
360
E6
102
}
330
2
100
AcDbSymbolTableRecord
100
AcDbLayerTableRecord
  2
0
 70
     0
 62
     7
  6
Continuous
370
    -3
390
F
  0
LAYER
  5
29A
102
{ACAD_XDICTIONARY
360
29B
102
}
330
2
100
AcDbSymbolTableRecord
100
AcDbLayerTableRecord
  2
LAYER_2
 70
     0
 62
     1
  6
Continuous
370
    -3
390
F
  0
LAYER
  5
528
330
2
100
AcDbSymbolTableRecord
100
AcDbLayerTableRecord
  2
Defpoints
 70
     0
 62
     7
  6
Continuous
290
     0
370
    -3
390
F
  0
ENDTAB
  0
TABLE
  2
STYLE
  5
3
330
0
100
AcDbSymbolTable
 70
     1
  0
STYLE
  5
11
330
3
100
AcDbSymbolTableRecord
100
AcDbTextStyleTableRecord
  2
Standard
 70
     0
 40
0.0
 41
1.0
 50
0.0
 71
     0
 42
0.2
  3
ARIAL.TTF
  4

1001
ACAD
1000
Arial
1071
       34
  0
ENDTAB
  0
TABLE
  2
VIEW
  5
6
330
0
100
AcDbSymbolTable
 70
     1
  0
ENDTAB
  0
TABLE
  2
UCS
  5
7
330
0
100
AcDbSymbolTable
 70
     0
  0
ENDTAB
  0
TABLE
  2
APPID
  5
9
330
0
100
AcDbSymbolTable
 70
    10
  0
APPID
  5
12
330
9
100
AcDbSymbolTableRecord
100
AcDbRegAppTableRecord
  2
ACAD
 70
     0
  0
APPID
  5
DD
330
9
100
AcDbSymbolTableRecord
100
AcDbRegAppTableRecord
  2
AcadAnnoPO
 70
     0
  0
APPID
  5
DE
330
9
100
AcDbSymbolTableRecord
100
AcDbRegAppTableRecord
  2
AcadAnnotative
 70
     0
  0
APPID
  5
DF
330
9
100
AcDbSymbolTableRecord
100
AcDbRegAppTableRecord
  2
ACAD_DSTYLE_DIMJAG
 70
     0
  0
APPID
  5
E0
330
9
100
AcDbSymbolTableRecord
100
AcDbRegAppTableRecord
  2
ACAD_DSTYLE_DIMTALN
 70
     0
  0
APPID
  5
107
330
9
100
AcDbSymbolTableRecord
100
AcDbRegAppTableRecord
  2
ACAD_MLEADERVER
 70
     0
  0
APPID
  5
1A6
330
9
100
AcDbSymbolTableRecord
100
AcDbRegAppTableRecord
  2
ACAD_NAV_VCDISPLAY
 70
     0
  0
APPID
  5
29C
330
9
100
AcDbSymbolTableRecord
100
AcDbRegAppTableRecord
  2
ACAD_PSEXT
 70
     0
  0
APPID
  5
29D
330
9
100
AcDbSymbolTableRecord
100
AcDbRegAppTableRecord
  2
AcAecLayerStandard
 70
     0
  0
APPID
  5
54C
330
9
100
AcDbSymbolTableRecord
100
AcDbRegAppTableRecord
  2
ACAD_EXEMPT_FROM_CAD_STANDARDS
 70
     0
  0
ENDTAB
  0
TABLE
  2
DIMSTYLE
  5
A
330
0
100
AcDbSymbolTable
 70
     1
100
AcDbDimStyleTable
 71
     1
340
27
  0
DIMSTYLE
105
27
330
A
100
AcDbSymbolTableRecord
100
AcDbDimStyleTableRecord
  2
Standard
 70
     0
340
11
  0
ENDTAB
  0
TABLE
  2
BLOCK_RECORD
  5
1
330
0
100
AcDbSymbolTable
 70
     2
  0
BLOCK_RECORD
  5
1F
102
{ACAD_XDICTIONARY
360
15D
102
}
330
1
100
AcDbSymbolTableRecord
100
AcDbBlockTableRecord
  2
*Model_Space
340
22
  0
BLOCK_RECORD
  5
5CF
330
1
100
AcDbSymbolTableRecord
100
AcDbBlockTableRecord
  2
*Paper_Space
340
5D0
  0
BLOCK_RECORD
  5
1AB
330
1
100
AcDbSymbolTableRecord
100
AcDbBlockTableRecord
  2
TOTO
340
0
102
{BLKREFS
331
3F9
102
}
  0
BLOCK_RECORD
  5
1E7
330
1
100
AcDbSymbolTableRecord
100
AcDbBlockTableRecord
  2
AI9-BLK1
340
0
102
{BLKREFS
331
485
102
}
  0
ENDTAB
  0
ENDSEC
  0
SECTION
  2
BLOCKS
  0
BLOCK
  5
20
330
1F
100
AcDbEntity
  8
0
100
AcDbBlockBegin
  2
*Model_Space
 70
     0
 10
0.0
 20
0.0
 30
0.0
  3
*Model_Space
  1

  0
ENDBLK
  5
21
330
1F
100
AcDbEntity
  8
0
100
AcDbBlockEnd
  0
BLOCK
  5
5D1
330
5CF
100
AcDbEntity
 67
     1
  8
0
100
AcDbBlockBegin
  2
*Paper_Space
 70
     0
 10
0.0
 20
0.0
 30
0.0
  3
*Paper_Space
  1

  0
ENDBLK
  5
5D2
330
5CF
100
AcDbEntity
 67
     1
  8
0
100
AcDbBlockEnd
  0
BLOCK
  5
1AC
330
1AB
100
AcDbEntity
  8
0
100
AcDbBlockBegin
  2
TOTO
 70
     0
 10
0.0
 20
0.0
 30
0.0
  3
TOTO
  1

  0
HATCH
  5
1AD
330
1AB
100
AcDbEntity
  8
0
100
AcDbHatch
 10
0.0
 20
0.0
 30
0.0
210
0.0
220
0.0
230
1.0
  2
SOLID
 70
     1
 71
     1
 91
        6
 92
        7
 72
     1
 73
     1
 93
       20
 10
2.22165423893267
 20
-1.649626848696954
 42
0.0
 10
2.441654238932654
 20
-1.649626848696954
 42
-0.4142135623730913
 10
2.92165423893266
 20
-2.129626848696943
 42
0.0
 10
2.92165423893266
 20
-2.229626848696963
 42
0.0
 10
3.211654238932666
 20
-2.229626848696963
 42
0.0
 10
3.211654238932666
 20
-1.359626848696962
 42
0.0
 10
0.6616542389326697
 20
-1.359626848696962
 42
0.0
 10
0.6616542389326697
 20
-2.229626848696963
 42
0.0
 10
0.9516542389326756
 20
-2.229626848696963
 42
0.0
 10
0.9516542389326898
 20
-2.129626848696914
 42
-0.4142135623731268
 10
1.431654238932751
 20
-1.649626848696924
 42
0.0
 10
1.651654238932676
 20
-1.649626848696954
 42
0.0
 10
1.65165423893269
 20
-3.189626848696915
 42
-0.4142135623731171
 10
1.471654238932686
 20
-3.369626848696923
 42
0.0
 10
1.136654238932663
 20
-3.369626848696938
 42
0.0
 10
1.136654238932692
 20
-3.659626848696959
 42
0.0
 10
2.736654238932687
 20
-3.659626848696959
 42
0.0
 10
2.736654238932672
 20
-3.369626848696952
 42
0.0
 10
2.401654238932678
 20
-3.369626848696938
 42
-0.4142135623731171
 10
2.22165423893267
 20
-3.189626848696931
 42
0.0
 97
       20
330
1B2
330
1B3
330
1B4
330
1B5
330
1B6
330
1B7
330
1B8
330
1B9
330
1BA
330
1BB
330
1BC
330
1BD
330
1BE
330
1BF
330
1C0
330
1C1
330
1C2
330
1C3
330
1C4
330
1C5
 92
        7
 72
     1
 73
     1
 93
        4
 10
4.239378996494746
 20
-3.612784178990403
 42
0.2268627935674842
 10
5.533929481370586
 20
-3.612784178990398
 42
0.5206555615734365
 10
5.936526647501282
 20
-1.688287534694902
 42
0.4082978869618067
 10
3.836781830363718
 20
-1.688287534695245
 42
0.520655561573313
 97
        4
330
1C6
330
1C7
330
1C8
330
1C9
 92
       22
 72
     1
 73
     1
 93
        4
 10
4.269136468776433
 20
-1.959681078311545
 42
-0.6640363232148695
 10
5.504172009088686
 20
-1.959681078310985
 42
-0.17725789540225
 10
5.504172009088697
 20
-3.059572619082861
 42
-0.6640363232146145
 10
4.269136468776626
 20
-3.059572619082856
 42
-0.1772578954021528
 97
        4
330
1CA
330
1CB
330
1CC
330
1CD
 92
        7
 72
     1
 73
     1
 93
       20
 10
7.551654238932682
 20
-3.189626848696915
 42
-0.4142135623731174
 10
7.371654238932677
 20
-3.369626848696923
 42
0.0
 10
7.036654238932652
 20
-3.369626848696938
 42
0.0
 10
7.036654238932682
 20
-3.659626848696959
 42
0.0
 10
8.636654238932692
 20
-3.659626848696957
 42
0.0
 10
8.636654238932662
 20
-3.369626848696952
 42
0.0
 10
8.301654238932654
 20
-3.369626848696938
 42
-0.4142135623730945
 10
8.121654238932661
 20
-3.189626848696931
 42
0.0
 10
8.121654238932661
 20
-1.649626848696954
 42
0.0
 10
8.341654238932648
 20
-1.649626848696954
 42
-0.4142135623730824
 10
8.821654238932637
 20
-2.129626848696943
 42
0.0
 10
8.821654238932637
 20
-2.229626848696963
 42
0.0
 10
9.111654238932658
 20
-2.229626848696963
 42
0.0
 10
9.111654238932658
 20
-1.359626848696962
 42
0.0
 10
6.561654238932661
 20
-1.359626848696962
 42
0.0
 10
6.561654238932661
 20
-2.229626848696963
 42
0.0
 10
6.851654238932668
 20
-2.229626848696963
 42
0.0
 10
6.851654238932677
 20
-2.129626848696914
 42
-0.4142135623731268
 10
7.331654238932744
 20
-1.649626848696924
 42
0.0
 10
7.55165423893267
 20
-1.649626848696954
 42
0.0
 97
       20
330
1AE
330
1D8
330
1D9
330
1DA
330
1DB
330
1AF
330
1CE
330
1CF
330
1D0
330
1D1
330
1D2
330
1D3
330
1D4
330
1D5
330
1D6
330
1B0
330
1DC
330
1DD
330
1B1
330
1D7
 92
        7
 72
     1
 73
     1
 93
        4
 10
10.13937899649474
 20
-3.612784178990431
 42
0.2268627935674871
 10
11.43392948137059
 20
-3.612784178990428
 42
0.5206555615734377
 10
11.8365266475013
 20
-1.688287534694928
 42
0.4082978869618143
 10
9.73678183036371
 20
-1.688287534695274
 42
0.520655561573313
 97
        4
330
1DE
330
1DF
330
1E0
330
1E1
 92
       22
 72
     1
 73
     1
 93
        4
 10
10.16913646877656
 20
-1.959681078311248
 42
-0.6640363232148335
 10
11.40417200908879
 20
-1.959681078311274
 42
-0.1772578954022026
 10
11.40417200908871
 20
-3.059572619082872
 42
-0.6640363232146484
 10
10.16913646877662
 20
-3.059572619082837
 42
-0.1772578954022011
 97
        4
330
1E2
330
1E3
330
1E4
330
1E5
 75
     0
 76
     1
 47
0.0200736151436174
 98
        6
 10
1.967585880589011
 20
-2.313046420414021
 10
3.815587695028398
 20
-2.594077263235817
 10
3.815587695028398
 20
-2.594077263235817
 10
7.812897328918777
 20
-2.132383787153456
 10
9.922029388776307
 20
-2.614151049097813
 10
9.922029388776307
 20
-2.614151049097813
450
        0
451
        0
460
0.0
461
0.0
452
        0
462
0.0
453
        0
470

  0
LINE
  5
1AE
102
{ACAD_REACTORS
330
1AD
102
}
330
1AB
100
AcDbEntity
  8
0
100
AcDbLine
 10
8.121654238932649
 20
-1.649626848696954
 30
0.0
 11
8.341654238932648
 21
-1.649626848696954
 31
0.0
  0
LINE
  5
1AF
102
{ACAD_REACTORS
330
1AD
102
}
330
1AB
100
AcDbEntity
  8
0
100
AcDbLine
 10
6.561654238932661
 20
-1.359626848696962
 30
0.0
 11
9.111654238932658
 21
-1.359626848696962
 31
0.0
  0
LINE
  5
1B0
102
{ACAD_REACTORS
330
1AD
102
}
330
1AB
100
AcDbEntity
  8
0
100
AcDbLine
 10
7.036654238932682
 20
-3.659626848696959
 30
0.0
 11
8.636654238932692
 21
-3.659626848696959
 31
0.0
  0
ARC
  5
1B1
102
{ACAD_REACTORS
330
1AD
102
}
330
1AB
100
AcDbEntity
  8
0
100
AcDbCircle
 10
8.301654238932654
 20
-3.189626848696931
 30
0.0
 40
0.18
100
AcDbArc
 50
180.0
 51
269.9999999999984
  0
LINE
  5
1B2
102
{ACAD_REACTORS
330
1AD
102
}
330
1AB
100
AcDbEntity
  8
0
100
AcDbLine
 10
2.221654238932655
 20
-1.649626848696954
 30
0.0
 11
2.441654238932654
 21
-1.649626848696954
 31
0.0
  0
ARC
  5
1B3
102
{ACAD_REACTORS
330
1AD
102
}
330
1AB
100
AcDbEntity
  8
0
100
AcDbCircle
 10
2.441654238932654
 20
-2.129626848696943
 30
0.0
 40
0.48
100
AcDbArc
 50
0.0
 51
90.0
  0
LINE
  5
1B4
102
{ACAD_REACTORS
330
1AD
102
}
330
1AB
100
AcDbEntity
  8
0
100
AcDbLine
 10
2.92165423893266
 20
-2.229626848696963
 30
0.0
 11
2.92165423893266
 21
-2.129626848696943
 31
0.0
  0
LINE
  5
1B5
102
{ACAD_REACTORS
330
1AD
102
}
330
1AB
100
AcDbEntity
  8
0
100
AcDbLine
 10
3.211654238932666
 20
-2.229626848696963
 30
0.0
 11
2.92165423893266
 21
-2.229626848696963
 31
0.0
  0
LINE
  5
1B6
102
{ACAD_REACTORS
330
1AD
102
}
330
1AB
100
AcDbEntity
  8
0
100
AcDbLine
 10
3.211654238932666
 20
-1.359626848696962
 30
0.0
 11
3.211654238932666
 21
-2.229626848696963
 31
0.0
  0
LINE
  5
1B7
102
{ACAD_REACTORS
330
1AD
102
}
330
1AB
100
AcDbEntity
  8
0
100
AcDbLine
 10
0.6616542389326697
 20
-1.359626848696962
 30
0.0
 11
3.211654238932666
 21
-1.359626848696962
 31
0.0
  0
LINE
  5
1B8
102
{ACAD_REACTORS
330
1AD
102
}
330
1AB
100
AcDbEntity
  8
0
100
AcDbLine
 10
0.6616542389326697
 20
-2.229626848696963
 30
0.0
 11
0.6616542389326697
 21
-1.359626848696962
 31
0.0
  0
LINE
  5
1B9
102
{ACAD_REACTORS
330
1AD
102
}
330
1AB
100
AcDbEntity
  8
0
100
AcDbLine
 10
0.9516542389326756
 20
-2.229626848696963
 30
0.0
 11
0.6616542389326697
 21
-2.229626848696963
 31
0.0
  0
LINE
  5
1BA
102
{ACAD_REACTORS
330
1AD
102
}
330
1AB
100
AcDbEntity
  8
0
100
AcDbLine
 10
0.9516542389326756
 20
-2.229626848696963
 30
0.0
 11
0.9516542389326898
 21
-2.129626848696914
 31
0.0
  0
ARC
  5
1BB
102
{ACAD_REACTORS
330
1AD
102
}
330
1AB
100
AcDbEntity
  8
0
100
AcDbCircle
 10
1.431654238932694
 20
-2.129626848696914
 30
0.0
 40
0.48
100
AcDbArc
 50
90.0
 51
180.0
  0
LINE
  5
1BC
102
{ACAD_REACTORS
330
1AD
102
}
330
1AB
100
AcDbEntity
  8
0
100
AcDbLine
 10
1.431654238932694
 20
-1.649626848696924
 30
0.0
 11
1.651654238932676
 21
-1.649626848696954
 31
0.0
  0
LINE
  5
1BD
102
{ACAD_REACTORS
330
1AD
102
}
330
1AB
100
AcDbEntity
  8
0
100
AcDbLine
 10
1.651654238932676
 20
-1.649626848696954
 30
0.0
 11
1.65165423893269
 21
-3.189626848696915
 31
0.0
  0
ARC
  5
1BE
102
{ACAD_REACTORS
330
1AD
102
}
330
1AB
100
AcDbEntity
  8
0
100
AcDbCircle
 10
1.471654238932686
 20
-3.189626848696915
 30
0.0
 40
0.18
100
AcDbArc
 50
270.0
 51
0.0
  0
LINE
  5
1BF
102
{ACAD_REACTORS
330
1AD
102
}
330
1AB
100
AcDbEntity
  8
0
100
AcDbLine
 10
1.136654238932692
 20
-3.369626848696938
 30
0.0
 11
1.471654238932686
 21
-3.369626848696923
 31
0.0
  0
LINE
  5
1C0
102
{ACAD_REACTORS
330
1AD
102
}
330
1AB
100
AcDbEntity
  8
0
100
AcDbLine
 10
1.136654238932663
 20
-3.369626848696952
 30
0.0
 11
1.136654238932692
 21
-3.659626848696959
 31
0.0
  0
LINE
  5
1C1
102
{ACAD_REACTORS
330
1AD
102
}
330
1AB
100
AcDbEntity
  8
0
100
AcDbLine
 10
1.136654238932692
 20
-3.659626848696959
 30
0.0
 11
2.736654238932685
 21
-3.659626848696959
 31
0.0
  0
LINE
  5
1C2
102
{ACAD_REACTORS
330
1AD
102
}
330
1AB
100
AcDbEntity
  8
0
100
AcDbLine
 10
2.736654238932672
 20
-3.369626848696952
 30
0.0
 11
2.736654238932685
 21
-3.659626848696959
 31
0.0
  0
LINE
  5
1C3
102
{ACAD_REACTORS
330
1AD
102
}
330
1AB
100
AcDbEntity
  8
0
100
AcDbLine
 10
2.401654238932678
 20
-3.369626848696938
 30
0.0
 11
2.736654238932685
 21
-3.369626848696952
 31
0.0
  0
ARC
  5
1C4
102
{ACAD_REACTORS
330
1AD
102
}
330
1AB
100
AcDbEntity
  8
0
100
AcDbCircle
 10
2.401654238932678
 20
-3.189626848696931
 30
0.0
 40
0.18
100
AcDbArc
 50
180.0
 51
269.9999999999984
  0
LINE
  5
1C5
102
{ACAD_REACTORS
330
1AD
102
}
330
1AB
100
AcDbEntity
  8
0
100
AcDbLine
 10
2.22165423893267
 20
-1.649626848696954
 30
0.0
 11
2.22165423893267
 21
-3.189626848696931
 31
0.0
  0
ARC
  5
1C6
102
{ACAD_REACTORS
330
1AD
102
}
330
1AB
100
AcDbEntity
  8
0
100
AcDbCircle
 10
4.886654238932677
 20
-2.759626848696937
 30
0.0
 40
1.5
100
AcDbArc
 50
45.5798200530589
 51
134.4201799469606
  0
ARC
  5
1C7
102
{ACAD_REACTORS
330
1AD
102
}
330
1AB
100
AcDbEntity
  8
0
100
AcDbCircle
 10
4.711654238932664
 20
-2.509626848696937
 30
0.0
 40
1.199999999999999
100
AcDbArc
 50
136.8076768212446
 51
246.8236364241166
  0
ARC
  5
1C8
102
{ACAD_REACTORS
330
1AD
102
}
330
1AB
100
AcDbEntity
  8
0
100
AcDbCircle
 10
4.886654238932663
 20
-2.259626848696937
 30
0.0
 40
1.5
100
AcDbArc
 50
244.4361395498346
 51
295.5638604501654
  0
ARC
  5
1C9
102
{ACAD_REACTORS
330
1AD
102
}
330
1AB
100
AcDbEntity
  8
0
100
AcDbCircle
 10
5.061654238932661
 20
-2.509626848696937
 30
0.0
 40
1.199999999999999
100
AcDbArc
 50
293.1763635758835
 51
43.19232317877839
  0
ARC
  5
1CA
102
{ACAD_REACTORS
330
1AD
102
}
330
1AB
100
AcDbEntity
  8
0
100
AcDbCircle
 10
4.886654238932677
 20
-2.219626848696943
 30
0.0
 40
0.6700000000000001
100
AcDbArc
 50
22.82879038501596
 51
157.1712096150335
  0
ARC
  5
1CB
102
{ACAD_REACTORS
330
1AD
102
}
330
1AB
100
AcDbEntity
  8
0
100
AcDbCircle
 10
4.001654238932673
 20
-2.509626848696937
 30
0.0
 40
1.6
100
AcDbArc
 50
339.8965581733403
 51
20.10344182666145
  0
ARC
  5
1CC
102
{ACAD_REACTORS
330
1AD
102
}
330
1AB
100
AcDbEntity
  8
0
100
AcDbCircle
 10
4.886654238932663
 20
-2.799626848696957
 30
0.0
 40
0.6700000000000001
100
AcDbArc
 50
202.8287903850087
 51
337.1712096149913
  0
ARC
  5
1CD
102
{ACAD_REACTORS
330
1AD
102
}
330
1AB
100
AcDbEntity
  8
0
100
AcDbCircle
 10
5.771654238932652
 20
-2.509626848696937
 30
0.0
 40
1.6
100
AcDbArc
 50
159.8965581733594
 51
200.1034418266596
  0
LINE
  5
1CE
102
{ACAD_REACTORS
330
1AD
102
}
330
1AB
100
AcDbEntity
  8
0
100
AcDbLine
 10
6.561654238932661
 20
-2.229626848696963
 30
0.0
 11
6.561654238932661
 21
-1.359626848696962
 31
0.0
  0
LINE
  5
1CF
102
{ACAD_REACTORS
330
1AD
102
}
330
1AB
100
AcDbEntity
  8
0
100
AcDbLine
 10
6.851654238932668
 20
-2.229626848696963
 30
0.0
 11
6.561654238932661
 21
-2.229626848696963
 31
0.0
  0
LINE
  5
1D0
102
{ACAD_REACTORS
330
1AD
102
}
330
1AB
100
AcDbEntity
  8
0
100
AcDbLine
 10
6.851654238932668
 20
-2.229626848696963
 30
0.0
 11
6.851654238932677
 21
-2.129626848696914
 31
0.0
  0
ARC
  5
1D1
102
{ACAD_REACTORS
330
1AD
102
}
330
1AB
100
AcDbEntity
  8
0
100
AcDbCircle
 10
7.331654238932681
 20
-2.129626848696914
 30
0.0
 40
0.48
100
AcDbArc
 50
90.0
 51
180.0
  0
LINE
  5
1D2
102
{ACAD_REACTORS
330
1AD
102
}
330
1AB
100
AcDbEntity
  8
0
100
AcDbLine
 10
7.331654238932681
 20
-1.649626848696924
 30
0.0
 11
7.55165423893267
 21
-1.649626848696954
 31
0.0
  0
LINE
  5
1D3
102
{ACAD_REACTORS
330
1AD
102
}
330
1AB
100
AcDbEntity
  8
0
100
AcDbLine
 10
7.55165423893267
 20
-1.649626848696954
 30
0.0
 11
7.551654238932682
 21
-3.189626848696915
 31
0.0
  0
ARC
  5
1D4
102
{ACAD_REACTORS
330
1AD
102
}
330
1AB
100
AcDbEntity
  8
0
100
AcDbCircle
 10
7.371654238932677
 20
-3.189626848696915
 30
0.0
 40
0.18
100
AcDbArc
 50
270.0
 51
0.0
  0
LINE
  5
1D5
102
{ACAD_REACTORS
330
1AD
102
}
330
1AB
100
AcDbEntity
  8
0
100
AcDbLine
 10
7.036654238932682
 20
-3.369626848696938
 30
0.0
 11
7.371654238932677
 21
-3.369626848696923
 31
0.0
  0
LINE
  5
1D6
102
{ACAD_REACTORS
330
1AD
102
}
330
1AB
100
AcDbEntity
  8
0
100
AcDbLine
 10
7.036654238932652
 20
-3.369626848696952
 30
0.0
 11
7.036654238932682
 21
-3.659626848696959
 31
0.0
  0
LINE
  5
1D7
102
{ACAD_REACTORS
330
1AD
102
}
330
1AB
100
AcDbEntity
  8
0
100
AcDbLine
 10
8.121654238932661
 20
-1.649626848696954
 30
0.0
 11
8.121654238932661
 21
-3.189626848696931
 31
0.0
  0
ARC
  5
1D8
102
{ACAD_REACTORS
330
1AD
102
}
330
1AB
100
AcDbEntity
  8
0
100
AcDbCircle
 10
8.341654238932648
 20
-2.129626848696943
 30
0.0
 40
0.48
100
AcDbArc
 50
0.0
 51
90.0
  0
LINE
  5
1D9
102
{ACAD_REACTORS
330
1AD
102
}
330
1AB
100
AcDbEntity
  8
0
100
AcDbLine
 10
8.821654238932637
 20
-2.229626848696963
 30
0.0
 11
8.821654238932637
 21
-2.129626848696943
 31
0.0
  0
LINE
  5
1DA
102
{ACAD_REACTORS
330
1AD
102
}
330
1AB
100
AcDbEntity
  8
0
100
AcDbLine
 10
9.111654238932658
 20
-2.229626848696963
 30
0.0
 11
8.821654238932637
 21
-2.229626848696963
 31
0.0
  0
LINE
  5
1DB
102
{ACAD_REACTORS
330
1AD
102
}
330
1AB
100
AcDbEntity
  8
0
100
AcDbLine
 10
9.111654238932658
 20
-1.359626848696962
 30
0.0
 11
9.111654238932658
 21
-2.229626848696963
 31
0.0
  0
LINE
  5
1DC
102
{ACAD_REACTORS
330
1AD
102
}
330
1AB
100
AcDbEntity
  8
0
100
AcDbLine
 10
8.636654238932662
 20
-3.369626848696952
 30
0.0
 11
8.636654238932692
 21
-3.659626848696959
 31
0.0
  0
LINE
  5
1DD
102
{ACAD_REACTORS
330
1AD
102
}
330
1AB
100
AcDbEntity
  8
0
100
AcDbLine
 10
8.301654238932654
 20
-3.369626848696938
 30
0.0
 11
8.636654238932692
 21
-3.369626848696952
 31
0.0
  0
ARC
  5
1DE
102
{ACAD_REACTORS
330
1AD
102
}
330
1AB
100
AcDbEntity
  8
0
100
AcDbCircle
 10
10.78665423893267
 20
-2.759626848696965
 30
0.0
 40
1.5
100
AcDbArc
 50
45.5798200530589
 51
134.4201799469606
  0
ARC
  5
1DF
102
{ACAD_REACTORS
330
1AD
102
}
330
1AB
100
AcDbEntity
  8
0
100
AcDbCircle
 10
10.61165423893266
 20
-2.509626848696965
 30
0.0
 40
1.199999999999999
100
AcDbArc
 50
136.8076768212446
 51
246.8236364241166
  0
ARC
  5
1E0
102
{ACAD_REACTORS
330
1AD
102
}
330
1AB
100
AcDbEntity
  8
0
100
AcDbCircle
 10
10.78665423893267
 20
-2.259626848696965
 30
0.0
 40
1.5
100
AcDbArc
 50
244.4361395498346
 51
295.5638604501654
  0
ARC
  5
1E1
102
{ACAD_REACTORS
330
1AD
102
}
330
1AB
100
AcDbEntity
  8
0
100
AcDbCircle
 10
10.96165423893268
 20
-2.509626848696965
 30
0.0
 40
1.199999999999999
100
AcDbArc
 50
293.1763635758835
 51
43.19232317877839
  0
ARC
  5
1E2
102
{ACAD_REACTORS
330
1AD
102
}
330
1AB
100
AcDbEntity
  8
0
100
AcDbCircle
 10
10.78665423893267
 20
-2.219626848696975
 30
0.0
 40
0.6700000000000001
100
AcDbArc
 50
22.82879038501596
 51
157.1712096150335
  0
ARC
  5
1E3
102
{ACAD_REACTORS
330
1AD
102
}
330
1AB
100
AcDbEntity
  8
0
100
AcDbCircle
 10
9.901654238932676
 20
-2.509626848696965
 30
0.0
 40
1.6
100
AcDbArc
 50
339.8965581733403
 51
20.10344182666145
  0
ARC
  5
1E4
102
{ACAD_REACTORS
330
1AD
102
}
330
1AB
100
AcDbEntity
  8
0
100
AcDbCircle
 10
10.78665423893267
 20
-2.799626848696988
 30
0.0
 40
0.6700000000000001
100
AcDbArc
 50
202.8287903850087
 51
337.1712096149913
  0
ARC
  5
1E5
102
{ACAD_REACTORS
330
1AD
102
}
330
1AB
100
AcDbEntity
  8
0
100
AcDbCircle
 10
11.67165423893266
 20
-2.509626848696965
 30
0.0
 40
1.6
100
AcDbArc
 50
159.8965581733594
 51
200.1034418266596
  0
ENDBLK
  5
1E6
330
1AB
100
AcDbEntity
  8
0
100
AcDbBlockEnd
  0
BLOCK
  5
1E8
330
1E7
100
AcDbEntity
  8
LAYER_2
 62
     7
100
AcDbBlockBegin
  2
AI9-BLK1
 70
     0
 10
0.0
 20
0.0
 30
0.0
  3
AI9-BLK1
  1

  0
SPLINE
  5
1E9
330
1E7
100
AcDbEntity
  8
LAYER_2
 62
     7
100
AcDbSpline
210
0.0
220
0.0
230
1.0
 70
     8
 71
     3
 72
    11
 73
     7
 74
     0
 42
0.0000000001
 43
0.0000000001
 40
0.0
 40
0.0
 40
0.0
 40
0.0
 40
1.0
 40
1.0
 40
1.0
 40
2.0
 40
2.0
 40
2.0
 40
2.0
 10
7.495149739583332
 20
-1.899625651041666
 30
0.0
 10
5.835991753472222
 20
-2.52146538628472
 30
0.0
 10
4.488614908854166
 20
-1.570274522569444
 30
0.0
 10
5.187969292534721
 20
0.1746663411458333
 30
0.0
 10
5.928320312499997
 20
1.391474066840274
 30
0.0
 10
7.692553710937497
 20
1.082449001736109
 30
0.0
 10
7.495149739583332
 20
-0.7355278862847224
 30
0.0
  0
SPLINE
  5
1EA
330
1E7
100
AcDbEntity
  8
LAYER_2
 62
     7
100
AcDbSpline
210
0.0
220
0.0
230
1.0
 70
     8
 71
     3
 72
     8
 73
     4
 74
     0
 42
0.0000000001
 43
0.0000000001
 40
0.0
 40
0.0
 40
0.0
 40
0.0
 40
1.0
 40
1.0
 40
1.0
 40
1.0
 10
7.495149739583332
 20
-1.47622341579861
 30
0.0
 10
6.724826388888887
 20
-1.794894748263885
 30
0.0
 10
5.593112521701387
 20
-1.860351562499999
 30
0.0
 10
5.56899685329861
 20
-0.7355278862847224
 30
0.0
  0
SPLINE
  5
1EB
330
1E7
100
AcDbEntity
  8
LAYER_2
 62
     7
100
AcDbSpline
210
0.0
220
0.0
230
1.0
 70
     8
 71
     3
 72
     8
 73
     4
 74
     0
 42
0.0000000001
 43
0.0000000001
 40
0.0
 40
0.0
 40
0.0
 40
0.0
 40
1.0
 40
1.0
 40
1.0
 40
1.0
 10
5.590356445312497
 20
-0.3334852430555555
 30
0.0
 10
5.605514865451387
 20
0.6962537977430559
 30
0.0
 10
7.004912651909721
 20
0.8099419487847221
 30
0.0
 10
6.923608398437497
 20
-0.3334852430555555
 30
0.0
  0
LINE
  5
1EC
330
1E7
100
AcDbEntity
  8
LAYER_2
 62
     7
100
AcDbLine
 10
7.495149739583332
 20
-1.47622341579861
 30
0.0
 11
7.495149739583332
 21
-1.899625651041666
 31
0.0
  0
LINE
  5
1ED
330
1E7
100
AcDbEntity
  8
LAYER_2
 62
     7
100
AcDbLine
 10
5.56899685329861
 20
-0.7355278862847224
 30
0.0
 11
7.495149739583332
 21
-0.7355278862847224
 31
0.0
  0
LINE
  5
1EE
330
1E7
100
AcDbEntity
  8
LAYER_2
 62
     7
100
AcDbLine
 10
5.590356445312497
 20
-0.3334852430555555
 30
0.0
 11
6.923608398437497
 21
-0.3334852430555555
 31
0.0
  0
SPLINE
  5
1EF
330
1E7
100
AcDbEntity
  8
LAYER_2
 62
     7
100
AcDbSpline
210
0.0
220
0.0
230
1.0
 70
     8
 71
     3
 72
    47
 73
    43
 74
     0
 42
0.0000000001
 43
0.0000000001
 40
0.0
 40
0.0
 40
0.0
 40
0.0
 40
1.0
 40
1.0
 40
1.0
 40
2.0
 40
2.0
 40
2.0
 40
3.0
 40
3.0
 40
3.0
 40
4.0
 40
4.0
 40
4.0
 40
5.0
 40
5.0
 40
5.0
 40
6.0
 40
6.0
 40
6.0
 40
7.0
 40
7.0
 40
7.0
 40
8.0
 40
8.0
 40
8.0
 40
9.0
 40
9.0
 40
9.0
 40
10.0
 40
10.0
 40
10.0
 40
11.0
 40
11.0
 40
11.0
 40
12.0
 40
12.0
 40
12.0
 40
13.0
 40
13.0
 40
13.0
 40
14.0
 40
14.0
 40
14.0
 40
14.0
 10
4.045231119791666
 20
0.3017903645833333
 30
0.0
 10
3.693142361111108
 20
0.402731662326389
 30
0.0
 10
2.796384006076388
 20
0.6666259765625
 30
0.0
 10
2.563495551215273
 20
0.2380560980902778
 30
0.0
 10
2.563495551215273
 20
0.2380560980902778
 30
0.0
 10
2.521120876736107
 20
0.1322916666666666
 30
0.0
 10
2.521120876736107
 20
0.1322916666666666
 30
0.0
 10
2.521120876736107
 20
0.1322916666666666
 30
0.0
 10
2.542135959201388
 20
0.0265272352430556
 30
0.0
 10
2.542135959201388
 20
0.0265272352430556
 30
0.0
 10
2.542135959201388
 20
0.0265272352430556
 30
0.0
 10
2.584510633680555
 20
-0.0582221137152778
 30
0.0
 10
2.584510633680555
 20
-0.0582221137152778
 30
0.0
 10
2.584510633680555
 20
-0.0582221137152778
 30
0.0
 10
2.775024414062498
 20
-0.1850016276041666
 30
0.0
 10
2.775024414062498
 20
-0.1850016276041666
 30
0.0
 10
2.775024414062498
 20
-0.1850016276041666
 30
0.0
 10
3.156051974826388
 20
-0.3121256510416666
 30
0.0
 10
3.156051974826388
 20
-0.3121256510416666
 30
0.0
 10
3.156051974826388
 20
-0.3121256510416666
 30
0.0
 10
3.558094618055555
 20
-0.4602647569444444
 30
0.0
 10
3.558094618055555
 20
-0.4602647569444444
 30
0.0
 10
3.558094618055555
 20
-0.4602647569444444
 30
0.0
 10
3.939122178819443
 20
-0.6507785373263888
 30
0.0
 10
3.939122178819443
 20
-0.6507785373263888
 30
0.0
 10
3.939122178819443
 20
-0.6507785373263888
 30
0.0
 10
4.08726128472222
 20
-0.7989176432291666
 30
0.0
 10
4.08726128472222
 20
-0.7989176432291666
 30
0.0
 10
4.08726128472222
 20
-0.7989176432291666
 30
0.0
 10
4.172010633680555
 20
-0.9894314236111107
 30
0.0
 10
4.172010633680555
 20
-0.9894314236111107
 30
0.0
 10
4.172010633680555
 20
-0.9894314236111107
 30
0.0
 10
4.21438530815972
 20
-1.201304796006944
 30
0.0
 10
4.21438530815972
 20
-1.201304796006944
 30
0.0
 10
4.21438530815972
 20
-1.201304796006944
 30
0.0
 10
4.193370225694443
 20
-1.412833658854165
 30
0.0
 10
4.193370225694443
 20
-1.412833658854165
 30
0.0
 10
4.193370225694443
 20
-1.412833658854165
 30
0.0
 10
4.108620876736106
 20
-1.60334743923611
 30
0.0
 10
4.108620876736106
 20
-1.60334743923611
 30
0.0
 10
3.721392144097221
 20
-2.22690972222222
 30
0.0
 10
2.517675781249999
 20
-2.141471354166665
 30
0.0
 10
1.949579535590275
 20
-1.899625651041666
 30
0.0
  0
SPLINE
  5
1F0
330
1E7
100
AcDbEntity
  8
LAYER_2
 62
     7
100
AcDbSpline
210
0.0
220
0.0
230
1.0
 70
     8
 71
     3
 72
    44
 73
    40
 74
     0
 42
0.0000000001
 43
0.0000000001
 40
0.0
 40
0.0
 40
0.0
 40
0.0
 40
1.0
 40
1.0
 40
1.0
 40
2.0
 40
2.0
 40
2.0
 40
3.0
 40
3.0
 40
3.0
 40
4.0
 40
4.0
 40
4.0
 40
5.0
 40
5.0
 40
5.0
 40
6.0
 40
6.0
 40
6.0
 40
7.0
 40
7.0
 40
7.0
 40
8.0
 40
8.0
 40
8.0
 40
9.0
 40
9.0
 40
9.0
 40
10.0
 40
10.0
 40
10.0
 40
11.0
 40
11.0
 40
11.0
 40
12.0
 40
12.0
 40
12.0
 40
13.0
 40
13.0
 40
13.0
 40
13.0
 10
4.045231119791666
 20
0.7462076822916666
 30
0.0
 10
3.523643663194443
 20
0.8784993489583332
 30
0.0
 10
2.433270941840274
 20
1.056610785590277
 30
0.0
 10
2.097718641493055
 20
0.4285698784722224
 30
0.0
 10
1.919262695312499
 20
-0.0151584201388889
 30
0.0
 10
1.992643229166666
 20
-0.4240912543402777
 30
0.0
 10
2.478746202256943
 20
-0.6084038628472223
 30
0.0
 10
2.478746202256943
 20
-0.6084038628472223
 30
0.0
 10
3.283175998263888
 20
-0.8836669921874998
 30
0.0
 10
3.283175998263888
 20
-0.8836669921874998
 30
0.0
 10
3.283175998263888
 20
-0.8836669921874998
 30
0.0
 10
3.473689778645832
 20
-0.9684163411458332
 30
0.0
 10
3.473689778645832
 20
-0.9684163411458332
 30
0.0
 10
3.473689778645832
 20
-0.9684163411458332
 30
0.0
 10
3.642843967013888
 20
-1.11655544704861
 30
0.0
 10
3.642843967013888
 20
-1.11655544704861
 30
0.0
 10
3.642843967013888
 20
-1.11655544704861
 30
0.0
 10
3.685218641493055
 20
-1.222319878472222
 30
0.0
 10
3.685218641493055
 20
-1.222319878472222
 30
0.0
 10
3.685218641493055
 20
-1.222319878472222
 30
0.0
 10
3.664203559027776
 20
-1.328084309895833
 30
0.0
 10
3.664203559027776
 20
-1.328084309895833
 30
0.0
 10
3.664203559027776
 20
-1.328084309895833
 30
0.0
 10
3.558094618055555
 20
-1.497583007812499
 30
0.0
 10
3.558094618055555
 20
-1.497583007812499
 30
0.0
 10
3.558094618055555
 20
-1.497583007812499
 30
0.0
 10
3.388940429687498
 20
-1.624362521701385
 30
0.0
 10
3.388940429687498
 20
-1.624362521701385
 30
0.0
 10
3.388940429687498
 20
-1.624362521701385
 30
0.0
 10
3.177411566840276
 20
-1.666737196180553
 30
0.0
 10
3.177411566840276
 20
-1.666737196180553
 30
0.0
 10
3.177411566840276
 20
-1.666737196180553
 30
0.0
 10
2.75400933159722
 20
-1.666737196180553
 30
0.0
 10
2.75400933159722
 20
-1.666737196180553
 30
0.0
 10
2.75400933159722
 20
-1.666737196180553
 30
0.0
 10
2.351622178819444
 20
-1.560972764756944
 30
0.0
 10
2.351622178819444
 20
-1.560972764756944
 30
0.0
 10
2.351622178819444
 20
-1.560972764756944
 30
0.0
 10
1.949579535590275
 20
-1.433848741319444
 30
0.0
 10
1.949579535590275
 20
-1.433848741319444
 30
0.0
  0
LINE
  5
1F1
330
1E7
100
AcDbEntity
  8
LAYER_2
 62
     7
100
AcDbLine
 10
1.949579535590275
 20
-1.433848741319444
 30
0.0
 11
1.949579535590275
 21
-1.899625651041666
 31
0.0
  0
LINE
  5
1F2
330
1E7
100
AcDbEntity
  8
LAYER_2
 62
     7
100
AcDbLine
 10
4.045231119791666
 20
0.7462076822916666
 30
0.0
 11
4.045231119791666
 21
0.3017903645833333
 31
0.0
  0
SPLINE
  5
1F3
330
1E7
100
AcDbEntity
  8
LAYER_2
 62
     7
100
AcDbSpline
210
0.0
220
0.0
230
1.0
 70
     8
 71
     3
 72
    11
 73
     7
 74
     0
 42
0.0000000001
 43
0.0000000001
 40
0.0
 40
0.0
 40
0.0
 40
0.0
 40
1.0
 40
1.0
 40
1.0
 40
2.0
 40
2.0
 40
2.0
 40
2.0
 10
0.0234266493055556
 20
0.8733317057291666
 30
0.0
 10
1.645377604166665
 20
0.7965060763888891
 30
0.0
 10
1.643310546874999
 20
-2.153873697916666
 30
0.0
 10
-0.1460720486111111
 20
-2.09013943142361
 30
0.0
 10
-1.87309841579861
 20
-2.154218207465274
 30
0.0
 10
-1.915128580729166
 20
0.8151095920138885
 30
0.0
 10
-0.2728515625
 20
0.8733317057291666
 30
0.0
  0
SPLINE
  5
1F4
330
1E7
100
AcDbEntity
  8
LAYER_2
 62
     7
100
AcDbSpline
210
0.0
220
0.0
230
1.0
 70
     8
 71
     3
 72
    14
 73
    10
 74
     0
 42
0.0000000001
 43
0.0000000001
 40
0.0
 40
0.0
 40
0.0
 40
0.0
 40
1.0
 40
1.0
 40
1.0
 40
2.0
 40
2.0
 40
2.0
 40
3.0
 40
3.0
 40
3.0
 40
3.0
 10
-0.0399631076388889
 20
0.4709445529513889
 30
0.0
 10
0.4468288845486111
 20
0.3813720703125
 30
0.0
 10
0.4888590494791666
 20
0.1450385199652777
 30
0.0
 10
0.6159830729166666
 20
-0.2911105685763888
 30
0.0
 10
0.6828179253472222
 20
-0.7524088541666666
 30
0.0
 10
0.6190836588541666
 20
-1.549948459201388
 30
0.0
 10
0.0444417317708333
 20
-1.666737196180553
 30
0.0
 10
-1.126890733506944
 20
-1.947167968749999
 30
0.0
 10
-1.241956922743052
 20
0.3345187717013889
 30
0.0
 10
-0.2304768880208333
 20
0.4709445529513889
 30
0.0
  0
LINE
  5
1F5
330
1E7
100
AcDbEntity
  8
LAYER_2
 62
     7
100
AcDbLine
 10
-0.2728515625
 20
0.8733317057291666
 30
0.0
 11
0.0234266493055556
 21
0.8733317057291666
 31
0.0
  0
LINE
  5
1F6
330
1E7
100
AcDbEntity
  8
LAYER_2
 62
     7
100
AcDbLine
 10
-0.2304768880208333
 20
0.4709445529513889
 30
0.0
 11
-0.0399631076388889
 21
0.4709445529513889
 31
0.0
  0
LINE
  5
1F7
330
1E7
100
AcDbEntity
  8
LAYER_2
 62
     7
100
AcDbLine
 10
-2.855295138888888
 20
-2.005390082465273
 30
0.0
 11
-3.384461805555555
 21
-2.005390082465273
 31
0.0
  0
LINE
  5
1F8
330
1E7
100
AcDbEntity
  8
LAYER_2
 62
     7
100
AcDbLine
 10
1.081759982638887
 20
0.1322916666666666
 30
0.0
 11
0.4044542100694445
 21
0.7885823567708333
 31
0.0
  0
LINE
  5
1F9
330
1E7
100
AcDbEntity
  8
LAYER_2
 62
     7
100
AcDbLine
 10
1.208884006076387
 20
-0.4602647569444444
 30
0.0
 11
-0.1247124565972222
 21
0.8733317057291666
 31
0.0
  0
LINE
  5
1FA
330
1E7
100
AcDbEntity
  8
LAYER_2
 62
     7
100
AcDbLine
 10
-0.1670871310763889
 20
0.4709445529513889
 30
0.0
 11
-0.5267550998263888
 21
0.83095703125
 31
0.0
  0
LINE
  5
1FB
330
1E7
100
AcDbEntity
  8
LAYER_2
 62
     7
100
AcDbLine
 10
1.187524414062498
 20
-0.9046820746527776
 30
0.0
 11
0.6159830729166666
 21
-0.3334852430555555
 31
0.0
  0
LINE
  5
1FC
330
1E7
100
AcDbEntity
  8
LAYER_2
 62
     7
100
AcDbLine
 10
-0.5267550998263888
 20
0.3651801215277777
 30
0.0
 11
-0.8443929036458332
 21
0.7038330078125
 31
0.0
  0
LINE
  5
1FD
330
1E7
100
AcDbEntity
  8
LAYER_2
 62
     7
100
AcDbLine
 10
1.102775065104165
 20
-1.264694552951387
 30
0.0
 11
0.6373426649305555
 21
-0.7989176432291666
 31
0.0
  0
LINE
  5
1FE
330
1E7
100
AcDbEntity
  8
LAYER_2
 62
     7
100
AcDbLine
 10
-0.7386284722222222
 20
0.1322916666666666
 30
0.0
 11
-1.098296440972222
 21
0.4923041449652778
 31
0.0
  0
LINE
  5
1FF
330
1E7
100
AcDbEntity
  8
LAYER_2
 62
     7
100
AcDbLine
 10
0.9546359592013887
 20
-1.560972764756944
 30
0.0
 11
0.5525933159722222
 21
-1.158930121527777
 31
0.0
  0
LINE
  5
200
330
1E7
100
AcDbEntity
  8
LAYER_2
 62
     7
100
AcDbLine
 10
-0.8657524956597221
 20
-0.1850016276041666
 30
0.0
 11
-1.288810221354165
 21
0.2380560980902778
 31
0.0
  0
LINE
  5
201
330
1E7
100
AcDbEntity
  8
LAYER_2
 62
     7
100
AcDbLine
 10
0.7431070963541666
 20
-1.793861219618055
 30
0.0
 11
0.4044542100694445
 21
-1.455208333333333
 31
0.0
  0
LINE
  5
202
330
1E7
100
AcDbEntity
  8
LAYER_2
 62
     7
100
AcDbLine
 10
-0.9077826605902775
 20
-0.6084038628472223
 30
0.0
 11
-1.415934244791666
 21
-0.0792371961805556
 31
0.0
  0
LINE
  5
203
330
1E7
100
AcDbEntity
  8
LAYER_2
 62
     7
100
AcDbLine
 10
0.467843967013889
 20
-1.96301540798611
 30
0.0
 11
0.1291910807291666
 21
-1.645722113715273
 31
0.0
  0
LINE
  5
204
330
1E7
100
AcDbEntity
  8
LAYER_2
 62
     7
100
AcDbLine
 10
-0.8443929036458332
 20
-1.11655544704861
 30
0.0
 11
-1.458308919270833
 21
-0.4816243489583333
 31
0.0
  0
LINE
  5
205
330
1E7
100
AcDbEntity
  8
LAYER_2
 62
     7
100
AcDbLine
 10
0.1081759982638889
 20
-2.069124348958333
 30
0.0
 11
-0.2728515625
 21
-1.666737196180553
 31
0.0
  0
LINE
  5
206
330
1E7
100
AcDbEntity
  8
LAYER_2
 62
     7
100
AcDbLine
 10
-0.3152262369791666
 20
-2.069124348958333
 30
0.0
 11
-1.436949327256944
 21
-0.9684163411458332
 31
0.0
  0
LINE
  5
207
330
1E7
100
AcDbEntity
  8
LAYER_2
 62
     7
100
AcDbLine
 10
0.2139404296875
 20
-2.047764756944444
 30
0.0
 11
1.145149739583332
 21
-1.095195855034722
 31
0.0
  0
LINE
  5
208
330
1E7
100
AcDbEntity
  8
LAYER_2
 62
     7
100
AcDbLine
 10
0.4892035590277778
 20
-1.307069227430553
 30
0.0
 11
1.208884006076387
 21
-0.5873887803819448
 31
0.0
  0
LINE
  5
209
330
1E7
100
AcDbEntity
  8
LAYER_2
 62
     7
100
AcDbLine
 10
-0.2728515625
 20
-2.069124348958333
 30
0.0
 11
0.1925808376736111
 21
-1.60334743923611
 31
0.0
  0
LINE
  5
20A
330
1E7
100
AcDbEntity
  8
LAYER_2
 62
     7
100
AcDbLine
 10
0.6373426649305555
 20
-0.7141682942708333
 30
0.0
 11
1.166509331597219
 21
-0.1850016276041666
 31
0.0
  0
LINE
  5
20B
330
1E7
100
AcDbEntity
  8
LAYER_2
 62
     7
100
AcDbLine
 10
-0.6538791232638889
 20
-2.005390082465273
 30
0.0
 11
-0.3152262369791666
 21
-1.666737196180553
 31
0.0
  0
LINE
  5
20C
330
1E7
100
AcDbEntity
  8
LAYER_2
 62
     7
100
AcDbLine
 10
0.6159830729166666
 20
-0.2911105685763888
 30
0.0
 11
1.06074490017361
 21
0.1536512586805555
 31
0.0
  0
LINE
  5
20D
330
1E7
100
AcDbEntity
  8
LAYER_2
 62
     7
100
AcDbLine
 10
-0.9501573350694442
 20
-1.857250976562499
 30
0.0
 11
-0.5904893663194444
 21
-1.497583007812499
 31
0.0
  0
LINE
  5
20E
330
1E7
100
AcDbEntity
  8
LAYER_2
 62
     7
100
AcDbLine
 10
0.5102186414930559
 20
0.0475423177083333
 30
0.0
 11
0.8912462022569444
 21
0.4285698784722224
 31
0.0
  0
LINE
  5
20F
330
1E7
100
AcDbEntity
  8
LAYER_2
 62
     7
100
AcDbLine
 10
-1.162030707465277
 20
-1.624362521701385
 30
0.0
 11
-0.7810031467013891
 21
-1.243334960937499
 31
0.0
  0
LINE
  5
210
330
1E7
100
AcDbEntity
  8
LAYER_2
 62
     7
100
AcDbLine
 10
0.3197048611111111
 20
0.3228054470486111
 30
0.0
 11
0.6583577473958333
 21
0.6614583333333333
 31
0.0
  0
LINE
  5
211
330
1E7
100
AcDbEntity
  8
LAYER_2
 62
     7
100
AcDbLine
 10
-1.331184895833332
 20
-1.349443901909719
 30
0.0
 11
-0.886767578125
 21
-0.8836669921874998
 31
0.0
  0
LINE
  5
212
330
1E7
100
AcDbEntity
  8
LAYER_2
 62
     7
100
AcDbLine
 10
0.0234266493055556
 20
0.4499294704861111
 30
0.0
 11
0.3620795355902777
 21
0.8095974392361108
 31
0.0
  0
LINE
  5
213
330
1E7
100
AcDbEntity
  8
LAYER_2
 62
     7
100
AcDbLine
 10
-1.436949327256944
 20
-0.9894314236111107
 30
0.0
 11
-0.9077826605902775
 21
-0.4602647569444444
 31
0.0
  0
LINE
  5
214
330
1E7
100
AcDbEntity
  8
LAYER_2
 62
     7
100
AcDbLine
 10
-0.5267550998263888
 20
0.3651801215277777
 30
0.0
 11
-0.0189480251736111
 21
0.8733317057291666
 31
0.0
  0
LINE
  5
215
330
1E7
100
AcDbEntity
  8
LAYER_2
 62
     7
100
AcDbLine
 10
-1.458308919270833
 20
-0.5660291883680558
 30
0.0
 11
-0.6962537977430559
 21
0.1956814236111111
 31
0.0
  0
LINE
  5
216
330
1E7
100
AcDbEntity
  8
LAYER_2
 62
     7
100
AcDbLine
 10
-1.394919162326388
 20
-0.0582221137152778
 30
0.0
 11
-0.5057400173611111
 21
0.83095703125
 31
0.0
  0
LINE
  5
217
330
1E7
100
AcDbEntity
  8
LAYER_2
 62
     7
100
AcDbLine
 10
7.41074490017361
 20
0.0689019097222222
 30
0.0
 11
6.627330186631941
 21
0.8519721137152775
 31
0.0
  0
LINE
  5
218
330
1E7
100
AcDbEntity
  8
LAYER_2
 62
     7
100
AcDbLine
 10
6.648689778645832
 20
0.3861952039930555
 30
0.0
 11
6.161897786458332
 21
0.8733317057291666
 31
0.0
  0
LINE
  5
219
330
1E7
100
AcDbEntity
  8
LAYER_2
 62
     7
100
AcDbLine
 10
7.495149739583332
 20
-0.4602647569444444
 30
0.0
 11
6.79682888454861
 21
0.2380560980902778
 31
0.0
  0
LINE
  5
21A
330
1E7
100
AcDbEntity
  8
LAYER_2
 62
     7
100
AcDbLine
 10
6.119523111979166
 20
0.4499294704861111
 30
0.0
 11
5.801885308159722
 21
0.7672227647569444
 31
0.0
  0
LINE
  5
21B
330
1E7
100
AcDbEntity
  8
LAYER_2
 62
     7
100
AcDbLine
 10
7.325995551215276
 20
-0.7355278862847224
 30
0.0
 11
6.923608398437497
 21
-0.3334852430555555
 31
0.0
  0
LINE
  5
21C
330
1E7
100
AcDbEntity
  8
LAYER_2
 62
     7
100
AcDbLine
 10
5.844259982638886
 20
0.2804307725694444
 30
0.0
 11
5.526622178819443
 21
0.5980685763888891
 31
0.0
  0
LINE
  5
21D
330
1E7
100
AcDbEntity
  8
LAYER_2
 62
     7
100
AcDbLine
 10
6.860218641493052
 20
-0.7355278862847224
 30
0.0
 11
6.479191080729163
 21
-0.3334852430555555
 31
0.0
  0
LINE
  5
21E
330
1E7
100
AcDbEntity
  8
LAYER_2
 62
     7
100
AcDbLine
 10
6.415801323784721
 20
-0.7355278862847224
 30
0.0
 11
6.034773763020832
 21
-0.3334852430555555
 31
0.0
  0
LINE
  5
21F
330
1E7
100
AcDbEntity
  8
LAYER_2
 62
     7
100
AcDbLine
 10
5.674761284722221
 20
0.0265272352430556
 30
0.0
 11
5.315093315972221
 21
0.3651801215277777
 31
0.0
  0
LINE
  5
220
330
1E7
100
AcDbEntity
  8
LAYER_2
 62
     7
100
AcDbLine
 10
7.495149739583332
 20
-1.814876302083333
 30
0.0
 11
7.262261284722222
 21
-1.560972764756944
 31
0.0
  0
LINE
  5
221
330
1E7
100
AcDbEntity
  8
LAYER_2
 62
     7
100
AcDbLine
 10
5.971384006076386
 20
-0.7355278862847224
 30
0.0
 11
5.145594618055551
 21
0.0899169921875
 31
0.0
  0
LINE
  5
222
330
1E7
100
AcDbEntity
  8
LAYER_2
 62
     7
100
AcDbLine
 10
7.220231119791666
 20
-1.984374999999999
 30
0.0
 11
6.881578233506941
 21
-1.645722113715273
 31
0.0
  0
LINE
  5
223
330
1E7
100
AcDbEntity
  8
LAYER_2
 62
     7
100
AcDbLine
 10
5.56899685329861
 20
-0.7779025607638889
 30
0.0
 11
5.039830186631943
 21
-0.2487358940972222
 31
0.0
  0
LINE
  5
224
330
1E7
100
AcDbEntity
  8
LAYER_2
 62
     7
100
AcDbLine
 10
6.839203559027778
 20
-2.069124348958333
 30
0.0
 11
6.458175998263887
 21
-1.688096788194444
 31
0.0
  0
LINE
  5
225
330
1E7
100
AcDbEntity
  8
LAYER_2
 62
     7
100
AcDbLine
 10
6.415801323784721
 20
-2.09013943142361
 30
0.0
 11
4.997455512152777
 21
-0.6721381293402777
 31
0.0
  0
LINE
  5
226
330
1E7
100
AcDbEntity
  8
LAYER_2
 62
     7
100
AcDbLine
 10
5.886634657118055
 20
-1.984374999999999
 30
0.0
 11
5.08220486111111
 21
-1.201304796006944
 31
0.0
  0
LINE
  5
227
330
1E7
100
AcDbEntity
  8
LAYER_2
 62
     7
100
AcDbLine
 10
6.944967990451386
 20
-2.047764756944444
 30
0.0
 11
7.495149739583332
 21
-1.497583007812499
 31
0.0
  0
LINE
  5
228
330
1E7
100
AcDbEntity
  8
LAYER_2
 62
     7
100
AcDbLine
 10
6.458175998263887
 20
-2.09013943142361
 30
0.0
 11
6.881578233506941
 21
-1.645722113715273
 31
0.0
  0
LINE
  5
229
330
1E7
100
AcDbEntity
  8
LAYER_2
 62
     7
100
AcDbLine
 10
7.347010633680552
 20
-0.7355278862847224
 30
0.0
 11
7.495149739583332
 21
-0.6084038628472223
 31
0.0
  0
LINE
  5
22A
330
1E7
100
AcDbEntity
  8
LAYER_2
 62
     7
100
AcDbLine
 10
6.05578884548611
 20
-2.026749674479165
 30
0.0
 11
6.415801323784721
 21
-1.666737196180553
 31
0.0
  0
LINE
  5
22B
330
1E7
100
AcDbEntity
  8
LAYER_2
 62
     7
100
AcDbLine
 10
6.902593315972222
 20
-0.7355278862847224
 30
0.0
 11
7.452775065104166
 21
-0.1850016276041666
 31
0.0
  0
LINE
  5
22C
330
1E7
100
AcDbEntity
  8
LAYER_2
 62
     7
100
AcDbLine
 10
5.717135959201387
 20
-1.920985243055555
 30
0.0
 11
6.05578884548611
 21
-1.582332356770833
 31
0.0
  0
LINE
  5
22D
330
1E7
100
AcDbEntity
  8
LAYER_2
 62
     7
100
AcDbLine
 10
6.458175998263887
 20
-0.7355278862847224
 30
0.0
 11
6.839203559027778
 21
-0.3334852430555555
 31
0.0
  0
LINE
  5
22E
330
1E7
100
AcDbEntity
  8
LAYER_2
 62
     7
100
AcDbLine
 10
6.923608398437497
 20
-0.2697509765625
 30
0.0
 11
7.389385308159722
 21
0.1956814236111111
 31
0.0
  0
LINE
  5
22F
330
1E7
100
AcDbEntity
  8
LAYER_2
 62
     7
100
AcDbLine
 10
5.442217339409721
 20
-1.751486545138888
 30
0.0
 11
5.801885308159722
 21
-1.391818576388885
 31
0.0
  0
LINE
  5
230
330
1E7
100
AcDbEntity
  8
LAYER_2
 62
     7
100
AcDbLine
 10
6.013414171006941
 20
-0.7355278862847224
 30
0.0
 11
6.394441731770832
 21
-0.3334852430555555
 31
0.0
  0
LINE
  5
231
330
1E7
100
AcDbEntity
  8
LAYER_2
 62
     7
100
AcDbLine
 10
6.860218641493052
 20
0.1112765842013889
 30
0.0
 11
7.241246202256942
 21
0.4923041449652778
 31
0.0
  0
LINE
  5
232
330
1E7
100
AcDbEntity
  8
LAYER_2
 62
     7
100
AcDbLine
 10
5.230343967013888
 20
-1.518598090277774
 30
0.0
 11
5.632731119791666
 21
-1.11655544704861
 31
0.0
  0
LINE
  5
233
330
1E7
100
AcDbEntity
  8
LAYER_2
 62
     7
100
AcDbLine
 10
6.66970486111111
 20
0.3651801215277777
 30
0.0
 11
7.008357747395832
 21
0.7038330078125
 31
0.0
  0
LINE
  5
234
330
1E7
100
AcDbEntity
  8
LAYER_2
 62
     7
100
AcDbLine
 10
5.08220486111111
 20
-1.201304796006944
 30
0.0
 11
5.950024414062498
 21
-0.3334852430555555
 31
0.0
  0
LINE
  5
235
330
1E7
100
AcDbEntity
  8
LAYER_2
 62
     7
100
AcDbLine
 10
6.331051974826387
 20
0.4709445529513889
 30
0.0
 11
6.691064453124997
 21
0.8519721137152775
 31
0.0
  0
LINE
  5
236
330
1E7
100
AcDbEntity
  8
LAYER_2
 62
     7
100
AcDbLine
 10
5.018815104166666
 20
-0.8412923177083332
 30
0.0
 11
5.590356445312497
 21
-0.2487358940972222
 31
0.0
  0
LINE
  5
237
330
1E7
100
AcDbEntity
  8
LAYER_2
 62
     7
100
AcDbLine
 10
5.018815104166666
 20
-0.3755154079861111
 30
0.0
 11
6.267662217881941
 21
0.8733317057291666
 31
0.0
  0
LINE
  5
238
330
1E7
100
AcDbEntity
  8
LAYER_2
 62
     7
100
AcDbLine
 10
5.294078233506943
 20
0.3651801215277777
 30
0.0
 11
5.590356445312497
 21
0.6404432508680557
 31
0.0
  0
POLYLINE
  5
239
330
1E7
100
AcDbEntity
  8
LAYER_2
 62
     7
100
AcDb2dPolyline
 66
     1
 10
0.0
 20
0.0
 30
0.0
  0
VERTEX
  5
23A
330
239
100
AcDbEntity
  8
LAYER_2
 62
     7
100
AcDbVertex
100
AcDb2dVertex
 10
-3.384461805555555
 20
-2.005390082465273
 30
0.0
  0
VERTEX
  5
23B
330
239
100
AcDbEntity
  8
LAYER_2
 62
     7
100
AcDbVertex
100
AcDb2dVertex
 10
-3.384461805555555
 20
2.098752170138888
 30
0.0
  0
VERTEX
  5
23C
330
239
100
AcDbEntity
  8
LAYER_2
 62
     7
100
AcDbVertex
100
AcDb2dVertex
 10
-2.855295138888888
 20
2.079804144965275
 30
0.0
  0
VERTEX
  5
23D
330
239
100
AcDbEntity
  8
LAYER_2
 62
     7
100
AcDbVertex
100
AcDb2dVertex
 10
-2.855295138888888
 20
-2.005390082465273
 30
0.0
  0
SEQEND
  5
23E
330
239
100
AcDbEntity
  8
LAYER_2
 62
     7
  0
SPLINE
  5
23F
330
1E7
100
AcDbEntity
  8
LAYER_2
 62
     7
100
AcDbSpline
210
0.0
220
0.0
230
1.0
 70
     8
 71
     3
 72
     8
 73
     4
 74
     0
 42
0.0000000001
 43
0.0000000001
 40
0.0
 40
0.0
 40
0.0
 40
0.0
 40
1.0
 40
1.0
 40
1.0
 40
1.0
 10
-4.809697808159721
 20
0.7672227647569444
 30
0.0
 10
-7.679806857638887
 20
2.058100043402773
 30
0.0
 10
-7.657413736979163
 20
-2.655824110243055
 30
0.0
 10
-4.746308051215277
 20
-1.47622341579861
 30
0.0
  0
LINE
  5
240
330
1E7
100
AcDbEntity
  8
LAYER_2
 62
     7
100
AcDbLine
 10
-4.746308051215277
 20
-1.47622341579861
 30
0.0
 11
-4.746308051215277
 21
-1.920985243055555
 31
0.0
  0
LINE
  5
241
330
1E7
100
AcDbEntity
  8
LAYER_2
 62
     7
100
AcDbLine
 10
-4.809697808159721
 20
1.254014756944442
 30
0.0
 11
-4.809697808159721
 21
0.7672227647569444
 31
0.0
  0
SPLINE
  5
242
330
1E7
100
AcDbEntity
  8
LAYER_2
 62
     7
100
AcDbSpline
210
0.0
220
0.0
230
1.0
 70
     8
 71
     3
 72
     8
 73
     4
 74
     0
 42
0.0000000001
 43
0.0000000001
 40
0.0
 40
0.0
 40
0.0
 40
0.0
 40
1.0
 40
1.0
 40
1.0
 40
1.0
 10
-4.809697808159721
 20
1.254014756944442
 30
0.0
 10
-8.395353190104165
 20
2.385728624131943
 30
0.0
 10
-8.446685112847221
 20
-3.143649631076388
 30
0.0
 10
-4.746308051215277
 20
-1.920985243055555
 30
0.0
  0
LINE
  5
243
330
1E7
100
AcDbEntity
  8
LAYER_2
 62
     7
100
AcDbLine
 10
4.045231119791666
 20
0.7462076822916666
 30
0.0
 11
4.023871527777775
 21
0.7462076822916666
 31
0.0
  0
LINE
  5
244
330
1E7
100
AcDbEntity
  8
LAYER_2
 62
     7
100
AcDbLine
 10
4.023871527777775
 20
0.3228054470486111
 30
0.0
 11
3.49470486111111
 21
0.8519721137152775
 31
0.0
  0
LINE
  5
245
330
1E7
100
AcDbEntity
  8
LAYER_2
 62
     7
100
AcDbLine
 10
3.431315104166666
 20
0.4499294704861111
 30
0.0
 11
3.007912868923606
 21
0.8733317057291666
 31
0.0
  0
LINE
  5
246
330
1E7
100
AcDbEntity
  8
LAYER_2
 62
     7
100
AcDbLine
 10
2.965538194444443
 20
0.4709445529513889
 30
0.0
 11
2.62688530815972
 21
0.8095974392361108
 31
0.0
  0
LINE
  5
247
330
1E7
100
AcDbEntity
  8
LAYER_2
 62
     7
100
AcDbLine
 10
2.648244900173609
 20
0.3441650390625
 30
0.0
 11
2.309247504340274
 21
0.6828179253472222
 31
0.0
  0
LINE
  5
248
330
1E7
100
AcDbEntity
  8
LAYER_2
 62
     7
100
AcDbLine
 10
4.21438530815972
 20
-1.222319878472222
 30
0.0
 11
3.388940429687498
 21
-0.396875
 31
0.0
  0
LINE
  5
249
330
1E7
100
AcDbEntity
  8
LAYER_2
 62
     7
100
AcDbLine
 10
2.563495551215273
 20
-0.0158474392361111
 30
0.0
 11
2.097718641493055
 21
0.4499294704861111
 31
0.0
  0
LINE
  5
24A
330
1E7
100
AcDbEntity
  8
LAYER_2
 62
     7
100
AcDbLine
 10
4.108620876736106
 20
-1.582332356770833
 30
0.0
 11
2.648244900173609
 21
-0.1216118706597222
 31
0.0
  0
LINE
  5
24B
330
1E7
100
AcDbEntity
  8
LAYER_2
 62
     7
100
AcDbLine
 10
2.838414171006943
 20
-0.75654296875
 30
0.0
 11
2.01296929253472
 21
0.0899169921875
 31
0.0
  0
LINE
  5
24C
330
1E7
100
AcDbEntity
  8
LAYER_2
 62
     7
100
AcDbLine
 10
3.896747504340276
 20
-1.814876302083333
 30
0.0
 11
3.579454210069443
 21
-1.47622341579861
 31
0.0
  0
LINE
  5
24D
330
1E7
100
AcDbEntity
  8
LAYER_2
 62
     7
100
AcDbLine
 10
3.621828884548607
 20
-1.984374999999999
 30
0.0
 11
3.283175998263888
 21
-1.645722113715273
 31
0.0
  0
LINE
  5
24E
330
1E7
100
AcDbEntity
  8
LAYER_2
 62
     7
100
AcDbLine
 10
3.261816406249999
 20
-2.069124348958333
 30
0.0
 11
2.859773763020831
 21
-1.666737196180553
 31
0.0
  0
LINE
  5
24F
330
1E7
100
AcDbEntity
  8
LAYER_2
 62
     7
100
AcDbLine
 10
2.817399088541666
 20
-2.09013943142361
 30
0.0
 11
2.288232421874999
 21
-1.560972764756944
 31
0.0
  0
LINE
  5
250
330
1E7
100
AcDbEntity
  8
LAYER_2
 62
     7
100
AcDbLine
 10
2.309247504340274
 20
-2.005390082465273
 30
0.0
 11
1.949579535590275
 21
-1.645722113715273
 31
0.0
  0
LINE
  5
251
330
1E7
100
AcDbEntity
  8
LAYER_2
 62
     7
100
AcDbLine
 10
-2.855295138888888
 20
1.825556098090275
 30
0.0
 11
-3.130558268229166
 21
2.079804144965275
 31
0.0
  0
LINE
  5
252
330
1E7
100
AcDbEntity
  8
LAYER_2
 62
     7
100
AcDbLine
 10
-2.855295138888888
 20
1.360123697916665
 30
0.0
 11
-3.382739257812498
 21
1.887567816840275
 31
0.0
  0
LINE
  5
253
330
1E7
100
AcDbEntity
  8
LAYER_2
 62
     7
100
AcDbLine
 10
-2.855295138888888
 20
0.9153618706597219
 30
0.0
 11
-3.384461805555555
 21
1.444528537326388
 31
0.0
  0
LINE
  5
254
330
1E7
100
AcDbEntity
  8
LAYER_2
 62
     7
100
AcDbLine
 10
-2.855295138888888
 20
0.4709445529513889
 30
0.0
 11
-3.384461805555555
 21
1.000111219618055
 31
0.0
  0
LINE
  5
255
330
1E7
100
AcDbEntity
  8
LAYER_2
 62
     7
100
AcDbLine
 10
-2.855295138888888
 20
0.0265272352430556
 30
0.0
 11
-3.384461805555555
 21
0.5343343098958333
 31
0.0
  0
LINE
  5
256
330
1E7
100
AcDbEntity
  8
LAYER_2
 62
     7
100
AcDbLine
 10
-2.855295138888888
 20
-0.4392496744791666
 30
0.0
 11
-3.384461805555555
 21
0.0899169921875
 31
0.0
  0
LINE
  5
257
330
1E7
100
AcDbEntity
  8
LAYER_2
 62
     7
100
AcDbLine
 10
-2.855295138888888
 20
-0.8836669921874998
 30
0.0
 11
-3.384461805555555
 21
-0.3545003255208333
 31
0.0
  0
LINE
  5
258
330
1E7
100
AcDbEntity
  8
LAYER_2
 62
     7
100
AcDbLine
 10
-4.809697808159721
 20
0.9577365451388889
 30
0.0
 11
-5.19072536892361
 21
1.338764105902777
 31
0.0
  0
LINE
  5
259
330
1E7
100
AcDbEntity
  8
LAYER_2
 62
     7
100
AcDbLine
 10
-2.855295138888888
 20
-1.328084309895833
 30
0.0
 11
-3.384461805555555
 21
-0.7989176432291666
 31
0.0
  0
LINE
  5
25A
330
1E7
100
AcDbEntity
  8
LAYER_2
 62
     7
100
AcDbLine
 10
-5.19072536892361
 20
0.9153618706597219
 30
0.0
 11
-5.67751736111111
 21
1.402498372395833
 31
0.0
  0
LINE
  5
25B
330
1E7
100
AcDbEntity
  8
LAYER_2
 62
     7
100
AcDbLine
 10
-2.855295138888888
 20
-1.772501627604166
 30
0.0
 11
-3.384461805555555
 21
-1.264694552951387
 31
0.0
  0
LINE
  5
25C
330
1E7
100
AcDbEntity
  8
LAYER_2
 62
     7
100
AcDbLine
 10
-5.740907118055551
 20
1.000111219618055
 30
0.0
 11
-6.121934678819441
 21
1.381138780381944
 31
0.0
  0
LINE
  5
25D
330
1E7
100
AcDbEntity
  8
LAYER_2
 62
     7
100
AcDbLine
 10
-3.088183593749998
 20
-2.005390082465273
 30
0.0
 11
-3.384461805555555
 21
-1.709111870659719
 31
0.0
  0
LINE
  5
25E
330
1E7
100
AcDbEntity
  8
LAYER_2
 62
     7
100
AcDbLine
 10
-6.121934678819441
 20
0.9367214626736107
 30
0.0
 11
-6.460587565104166
 21
1.275374348958332
 31
0.0
  0
LINE
  5
25F
330
1E7
100
AcDbEntity
  8
LAYER_2
 62
     7
100
AcDbLine
 10
-6.418212890624999
 20
0.7885823567708333
 30
0.0
 11
-6.756865776909721
 21
1.127235243055555
 31
0.0
  0
LINE
  5
260
330
1E7
100
AcDbEntity
  8
LAYER_2
 62
     7
100
AcDbLine
 10
-6.65110134548611
 20
0.5556939019097225
 30
0.0
 11
-7.011113823784722
 21
0.9153618706597219
 31
0.0
  0
LINE
  5
261
330
1E7
100
AcDbEntity
  8
LAYER_2
 62
     7
100
AcDbLine
 10
-6.820600043402778
 20
0.2804307725694444
 30
0.0
 11
-7.201627604166666
 21
0.6828179253472222
 31
0.0
  0
LINE
  5
262
330
1E7
100
AcDbEntity
  8
LAYER_2
 62
     7
100
AcDbLine
 10
-4.746308051215277
 20
-1.772501627604166
 30
0.0
 11
-4.978851996527777
 21
-1.560972764756944
 31
0.0
  0
LINE
  5
263
330
1E7
100
AcDbEntity
  8
LAYER_2
 62
     7
100
AcDbLine
 10
-6.926364474826387
 20
-0.0582221137152778
 30
0.0
 11
-7.370781792534722
 21
0.3861952039930555
 31
0.0
  0
LINE
  5
264
330
1E7
100
AcDbEntity
  8
LAYER_2
 62
     7
100
AcDbLine
 10
-5.000211588541666
 20
-1.984374999999999
 30
0.0
 11
-5.338864474826388
 21
-1.645722113715273
 31
0.0
  0
LINE
  5
265
330
1E7
100
AcDbEntity
  8
LAYER_2
 62
     7
100
AcDbLine
 10
-6.926364474826387
 20
-0.5026394314236111
 30
0.0
 11
-7.476546223958332
 21
0.0265272352430556
 31
0.0
  0
LINE
  5
266
330
1E7
100
AcDbEntity
  8
LAYER_2
 62
     7
100
AcDbLine
 10
-5.359879557291666
 20
-2.069124348958333
 30
0.0
 11
-5.783281792534721
 21
-1.666737196180553
 31
0.0
  0
LINE
  5
267
330
1E7
100
AcDbEntity
  8
LAYER_2
 62
     7
100
AcDbLine
 10
-5.80464138454861
 20
-2.09013943142361
 30
0.0
 11
-7.497905815972222
 21
-0.3755154079861111
 31
0.0
  0
LINE
  5
268
330
1E7
100
AcDbEntity
  8
LAYER_2
 62
     7
100
AcDbLine
 10
-6.29143337673611
 20
-2.026749674479165
 30
0.0
 11
-7.434171549479166
 21
-0.9046820746527776
 31
0.0
  0
LINE
  5
269
330
1E7
100
AcDbEntity
  8
LAYER_2
 62
     7
100
AcDbLine
 10
3.346565755208333
 20
-2.047764756944444
 30
0.0
 11
4.21438530815972
 21
-1.179945203993052
 31
0.0
  0
LINE
  5
26A
330
1E7
100
AcDbEntity
  8
LAYER_2
 62
     7
100
AcDbLine
 10
3.685218641493055
 20
-1.264694552951387
 30
0.0
 11
4.108620876736106
 21
-0.8412923177083332
 31
0.0
  0
LINE
  5
26B
330
1E7
100
AcDbEntity
  8
LAYER_2
 62
     7
100
AcDbLine
 10
2.859773763020831
 20
-2.09013943142361
 30
0.0
 11
3.304191080729166
 21
-1.645722113715273
 31
0.0
  0
LINE
  5
26C
330
1E7
100
AcDbEntity
  8
LAYER_2
 62
     7
100
AcDbLine
 10
3.516064453124998
 20
-0.9894314236111107
 30
0.0
 11
3.875732421874998
 21
-0.6084038628472223
 31
0.0
  0
LINE
  5
26D
330
1E7
100
AcDbEntity
  8
LAYER_2
 62
     7
100
AcDbLine
 10
2.457731119791664
 20
-2.047764756944444
 30
0.0
 11
2.838414171006943
 21
-1.666737196180553
 31
0.0
  0
LINE
  5
26E
330
1E7
100
AcDbEntity
  8
LAYER_2
 62
     7
100
AcDbLine
 10
3.198426649305555
 20
-0.8626519097222221
 30
0.0
 11
3.579454210069443
 21
-0.4602647569444444
 31
0.0
  0
LINE
  5
26F
330
1E7
100
AcDbEntity
  8
LAYER_2
 62
     7
100
AcDbLine
 10
2.097718641493055
 20
-1.96301540798611
 30
0.0
 11
2.457731119791664
 21
-1.60334743923611
 31
0.0
  0
LINE
  5
270
330
1E7
100
AcDbEntity
  8
LAYER_2
 62
     7
100
AcDbLine
 10
2.859773763020831
 20
-0.75654296875
 30
0.0
 11
3.261816406249999
 21
-0.3545003255208333
 31
0.0
  0
LINE
  5
271
330
1E7
100
AcDbEntity
  8
LAYER_2
 62
     7
100
AcDbLine
 10
3.939122178819443
 20
0.3441650390625
 30
0.0
 11
4.045231119791666
 21
0.4499294704861111
 31
0.0
  0
LINE
  5
272
330
1E7
100
AcDbEntity
  8
LAYER_2
 62
     7
100
AcDbLine
 10
1.949579535590275
 20
-1.645722113715273
 30
0.0
 11
2.119078233506944
 21
-1.497583007812499
 31
0.0
  0
LINE
  5
273
330
1E7
100
AcDbEntity
  8
LAYER_2
 62
     7
100
AcDbLine
 10
3.579454210069443
 20
0.4285698784722224
 30
0.0
 11
3.939122178819443
 21
0.7885823567708333
 31
0.0
  0
LINE
  5
274
330
1E7
100
AcDbEntity
  8
LAYER_2
 62
     7
100
AcDbLine
 10
2.521120876736107
 20
-0.6297634548611111
 30
0.0
 11
2.923163519965275
 21
-0.2273763020833333
 31
0.0
  0
LINE
  5
275
330
1E7
100
AcDbEntity
  8
LAYER_2
 62
     7
100
AcDbLine
 10
3.177411566840276
 20
0.4709445529513889
 30
0.0
 11
3.537079535590275
 21
0.8519721137152775
 31
0.0
  0
LINE
  5
276
330
1E7
100
AcDbEntity
  8
LAYER_2
 62
     7
100
AcDbLine
 10
2.245857747395833
 20
-0.4602647569444444
 30
0.0
 11
2.62688530815972
 21
-0.0792371961805556
 31
0.0
  0
LINE
  5
277
330
1E7
100
AcDbEntity
  8
LAYER_2
 62
     7
100
AcDbLine
 10
2.055343967013888
 20
-0.2063612196180555
 30
0.0
 11
3.135036892361108
 21
0.8733317057291666
 31
0.0
  0
LINE
  5
278
330
1E7
100
AcDbEntity
  8
LAYER_2
 62
     7
100
AcDbLine
 10
2.03432888454861
 20
0.217041015625
 30
0.0
 11
2.62688530815972
 21
0.83095703125
 31
0.0
  0
LINE
  5
279
330
1E7
100
AcDbEntity
  8
LAYER_2
 62
     7
100
AcDbLine
 10
-2.897669813368055
 20
-2.005390082465273
 30
0.0
 11
-2.855295138888888
 21
-1.984374999999999
 31
0.0
  0
LINE
  5
27A
330
1E7
100
AcDbEntity
  8
LAYER_2
 62
     7
100
AcDbLine
 10
-3.342087131076388
 20
-2.005390082465273
 30
0.0
 11
-2.855295138888888
 21
-1.518598090277774
 31
0.0
  0
LINE
  5
27B
330
1E7
100
AcDbEntity
  8
LAYER_2
 62
     7
100
AcDbLine
 10
-3.384461805555555
 20
-1.60334743923611
 30
0.0
 11
-2.855295138888888
 21
-1.074180772569444
 31
0.0
  0
LINE
  5
27C
330
1E7
100
AcDbEntity
  8
LAYER_2
 62
     7
100
AcDbLine
 10
-3.384461805555555
 20
-1.158930121527777
 30
0.0
 11
-2.855295138888888
 21
-0.6297634548611111
 31
0.0
  0
LINE
  5
27D
330
1E7
100
AcDbEntity
  8
LAYER_2
 62
     7
100
AcDbLine
 10
-3.384461805555555
 20
-0.6931532118055555
 30
0.0
 11
-2.855295138888888
 21
-0.1850016276041666
 31
0.0
  0
LINE
  5
27E
330
1E7
100
AcDbEntity
  8
LAYER_2
 62
     7
100
AcDbLine
 10
-3.384461805555555
 20
-0.2487358940972222
 30
0.0
 11
-2.855295138888888
 21
0.2594156901041666
 31
0.0
  0
LINE
  5
27F
330
1E7
100
AcDbEntity
  8
LAYER_2
 62
     7
100
AcDbLine
 10
-3.384461805555555
 20
0.1956814236111111
 30
0.0
 11
-2.855295138888888
 21
0.7248480902777778
 31
0.0
  0
LINE
  5
280
330
1E7
100
AcDbEntity
  8
LAYER_2
 62
     7
100
AcDbLine
 10
-5.296489800347221
 20
-2.069124348958333
 30
0.0
 11
-4.746308051215277
 21
-1.518598090277774
 31
0.0
  0
LINE
  5
281
330
1E7
100
AcDbEntity
  8
LAYER_2
 62
     7
100
AcDbLine
 10
-3.384461805555555
 20
0.6404432508680557
 30
0.0
 11
-2.855295138888888
 21
1.16960991753472
 31
0.0
  0
LINE
  5
282
330
1E7
100
AcDbEntity
  8
LAYER_2
 62
     7
100
AcDbLine
 10
-5.762266710069441
 20
-2.09013943142361
 30
0.0
 11
-5.338864474826388
 21
-1.645722113715273
 31
0.0
  0
LINE
  5
283
330
1E7
100
AcDbEntity
  8
LAYER_2
 62
     7
100
AcDbLine
 10
-3.384461805555555
 20
1.084860568576387
 30
0.0
 11
-2.855295138888888
 21
1.614027235243054
 31
0.0
  0
LINE
  5
284
330
1E7
100
AcDbEntity
  8
LAYER_2
 62
     7
100
AcDbLine
 10
-6.185324435763886
 20
-2.047764756944444
 30
0.0
 11
-5.783281792534721
 21
-1.666737196180553
 31
0.0
  0
LINE
  5
285
330
1E7
100
AcDbEntity
  8
LAYER_2
 62
     7
100
AcDbLine
 10
-3.384461805555555
 20
1.55063747829861
 30
0.0
 11
-2.855295138888888
 21
2.058444552951387
 31
0.0
  0
LINE
  5
286
330
1E7
100
AcDbEntity
  8
LAYER_2
 62
     7
100
AcDbLine
 10
-6.52397732204861
 20
-1.96301540798611
 30
0.0
 11
-6.143294270833332
 21
-1.560972764756944
 31
0.0
  0
LINE
  5
287
330
1E7
100
AcDbEntity
  8
LAYER_2
 62
     7
100
AcDbLine
 10
-6.820600043402778
 20
-1.793861219618055
 30
0.0
 11
-6.439572482638887
 21
-1.412833658854165
 31
0.0
  0
LINE
  5
288
330
1E7
100
AcDbEntity
  8
LAYER_2
 62
     7
100
AcDbLine
 10
-7.053143988715278
 20
-1.582332356770833
 30
0.0
 11
-6.65110134548611
 21
-1.179945203993052
 31
0.0
  0
LINE
  5
289
330
1E7
100
AcDbEntity
  8
LAYER_2
 62
     7
100
AcDbLine
 10
-5.063601345486111
 20
0.8519721137152775
 30
0.0
 11
-4.809697808159721
 21
1.127235243055555
 31
0.0
  0
LINE
  5
28A
330
1E7
100
AcDbEntity
  8
LAYER_2
 62
     7
100
AcDbLine
 10
-7.243657769097222
 20
-1.328084309895833
 30
0.0
 11
-6.841615125868051
 21
-0.9046820746527776
 31
0.0
  0
LINE
  5
28B
330
1E7
100
AcDbEntity
  8
LAYER_2
 62
     7
100
AcDbLine
 10
-5.402254231770832
 20
0.9577365451388889
 30
0.0
 11
-5.063601345486111
 21
1.317749023437498
 31
0.0
  0
LINE
  5
28C
330
1E7
100
AcDbEntity
  8
LAYER_2
 62
     7
100
AcDbLine
 10
-7.39214138454861
 20
-1.031806098090277
 30
0.0
 11
-6.926364474826387
 21
-0.5450141059027778
 31
0.0
  0
LINE
  5
28D
330
1E7
100
AcDbEntity
  8
LAYER_2
 62
     7
100
AcDbLine
 10
-5.825656467013887
 20
1.000111219618055
 30
0.0
 11
-5.444628906249997
 21
1.381138780381944
 31
0.0
  0
LINE
  5
28E
330
1E7
100
AcDbEntity
  8
LAYER_2
 62
     7
100
AcDbLine
 10
-7.476546223958332
 20
-0.6507785373263888
 30
0.0
 11
-6.926364474826387
 21
-0.1005967881944444
 31
0.0
  0
LINE
  5
28F
330
1E7
100
AcDbEntity
  8
LAYER_2
 62
     7
100
AcDbLine
 10
-7.497905815972222
 20
-0.2273763020833333
 30
0.0
 11
-5.889046223958332
 21
1.402498372395833
 31
0.0
  0
LINE
  5
290
330
1E7
100
AcDbEntity
  8
LAYER_2
 62
     7
100
AcDbLine
 10
-7.370781792534722
 20
0.3441650390625
 30
0.0
 11
-6.418212890624999
 21
1.29638943142361
 31
0.0
  0
ENDBLK
  5
291
330
1E7
100
AcDbEntity
  8
LAYER_2
100
AcDbBlockEnd
  0
ENDSEC
  0
SECTION
  2
ENTITIES
  0
LINE
  5
3E5
330
1F
100
AcDbEntity
  8
0
 48
4.0
100
AcDbLine
 10
1472.671577699568
 20
627.1690817483502
 30
0.0
 11
1472.671577699568
 21
627.2281367483502
 31
0.0
  0
LINE
  5
3E6
330
1F
100
AcDbEntity
  8
0
 48
4.0
100
AcDbLine
 10
1472.671577699568
 20
624.9053067483502
 30
0.0
 11
1472.671577699568
 21
624.9643617483502
 31
0.0
  0
LINE
  5
3E7
330
1F
100
AcDbEntity
  8
0
100
AcDbLine
 10
1472.671577699568
 20
625.0824717483502
 30
0.0
 11
1472.671577699568
 21
619.9870332781393
 31
0.0
  0
ARC
  5
3E8
330
1F
100
AcDbEntity
  8
0
 48
4.0
100
AcDbCircle
 10
1472.651892699568
 20
627.2281367483502
 30
0.0
 40
0.019685
100
AcDbArc
 50
0.0
 51
90.0
  0
LINE
  5
3E9
330
1F
100
AcDbEntity
  8
0
 48
4.0
100
AcDbLine
 10
1472.671577699568
 20
627.2281367483502
 30
0.0
 11
1472.671577699568
 21
627.1690817483502
 31
0.0
  0
LINE
  5
3EA
330
1F
100
AcDbEntity
  8
0
 48
4.0
100
AcDbLine
 10
1472.671577699568
 20
624.9643617483502
 30
0.0
 11
1472.671577699568
 21
624.9053067483502
 31
0.0
  0
ARC
  5
3EB
330
1F
100
AcDbEntity
  8
0
 48
4.0
100
AcDbCircle
 10
1460.854084852497
 20
623.364260984232
 30
0.0
 40
0.0118110000000027
100
AcDbArc
 50
106.8184529934017
 51
180.0
  0
LINE
  5
3EC
330
1F
100
AcDbEntity
  8
0
 48
4.0
100
AcDbLine
 10
1461.052548369276
 20
623.3755667847786
 30
0.0
 11
1460.850667456557
 21
623.3755667847786
 31
0.0
  0
ARC
  5
3ED
330
1F
100
AcDbEntity
  8
0
 48
4.0
100
AcDbCircle
 10
1461.302902852496
 20
623.364260984232
 30
0.0
 40
0.0118110000000027
100
AcDbArc
 50
0.0
 51
73.18154700659825
  0
ARC
  5
3EE
330
1F
100
AcDbEntity
  8
0
 48
4.0
100
AcDbCircle
 10
1461.078493852496
 20
622.6218467483501
 30
0.0
 40
0.7874000000000019
100
AcDbArc
 50
73.18154700659825
 51
106.8184529934017
  0
LINE
  5
3EF
330
1F
100
AcDbEntity
  8
0
 48
4.0
100
AcDbLine
 10
1461.306320248435
 20
623.3755667847786
 30
0.0
 11
1461.052548369276
 21
623.3755667847786
 31
0.0
  0
ARC
  5
3F0
330
1F
100
AcDbEntity
  8
0
 48
4.0
100
AcDbCircle
 10
1461.078493852496
 20
622.1297217483502
 30
0.0
 40
1.181100000000012
100
AcDbArc
 50
150.0735651334558
 51
209.9264348665441
  0
ARC
  5
3F1
330
1F
100
AcDbEntity
  8
0
 48
4.0
100
AcDbCircle
 10
1461.078493852496
 20
622.1297217483502
 30
0.0
 40
1.181100000000004
100
AcDbArc
 50
263.2533549409624
 51
299.9264348666875
  0
ARC
  5
3F2
330
1F
100
AcDbEntity
  8
0
 48
4.0
100
AcDbCircle
 10
1461.078493852496
 20
622.1297217483502
 30
0.0
 40
1.181100000000002
100
AcDbArc
 50
330.0735651334559
 51
29.92643486654415
  0
ARC
  5
3F3
330
1F
100
AcDbEntity
  8
0
 48
4.0
100
AcDbCircle
 10
1461.078493852496
 20
622.1297217483502
 30
0.0
 40
1.181100000000004
100
AcDbArc
 50
240.0735651333125
 51
263.2533549409624
  0
LINE
  5
3F4
330
1F
100
AcDbEntity
  8
0
 48
4.0
100
AcDbLine
 10
1461.314713852496
 20
623.364260984232
 30
0.0
 11
1461.314713852496
 21
623.1611860722836
 31
0.0
  0
LINE
  5
3F5
330
1F
100
AcDbEntity
  8
0
 48
4.0
100
AcDbLine
 10
1460.842273852497
 20
623.1611860722836
 30
0.0
 11
1460.842273852497
 21
623.364260984232
 31
0.0
  0
ARC
  5
3F6
330
1F
100
AcDbEntity
  8
0
 48
4.0
100
AcDbCircle
 10
1461.078493852496
 20
622.1297217483502
 30
0.0
 40
1.181100000000008
100
AcDbArc
 50
60.07356513331249
 51
78.46304096733948
  0
ARC
  5
3F7
330
1F
100
AcDbEntity
  8
0
 48
4.0
100
AcDbCircle
 10
1461.078493852496
 20
622.1297217483502
 30
0.0
 40
1.181100000000009
100
AcDbArc
 50
101.5369590326605
 51
119.9264348666875
  0
HATCH
  5
3F8
330
1F
100
AcDbEntity
  8
0
 48
4.0
100
AcDbHatch
 10
0.0
 20
0.0
 30
0.0
210
0.0
220
0.0
230
1.0
  2
ANSI37
 70
     0
 71
     0
 91
        2
 92
        7
 72
     1
 73
     1
 93
        4
 10
1460.724163852496
 20
623.6641419291022
 42
0.0
 10
1460.724163852496
 20
623.7045217483502
 42
0.2554527139785438
 10
1459.561670214803
 20
622.6818004031022
 42
0.0
 10
1459.598665913283
 20
622.6683350700596
 42
-0.2539542781543385
 97
        0
 92
        7
 72
     1
 73
     1
 93
        4
 10
1462.55832179171
 20
622.6683350700596
 42
0.0
 10
1462.595317490191
 20
622.6818004031022
 42
0.2554527139785436
 10
1461.432823852496
 20
623.7045217483502
 42
0.0
 10
1461.432823852496
 20
623.6641419291022
 42
-0.2539542781543378
 97
        0
 75
     0
 76
     1
 52
0.0
 41
0.007874
 77
     0
 78
     2
 53
45.0
 43
1454.016680335747
 44
617.3836871915621
 45
-0.0176776341743247
 46
0.0176776341743247
 79
     0
 53
135.0
 43
1454.016680335747
 44
617.3836871915621
 45
-0.0176776341743247
 46
-0.0176776341743247
 79
     0
 47
0.1533200553554762
 98
        2
 10
1460.547746417191
 20
623.6314348603695
 10
1461.634965031729
 20
623.6133262706297
  0
INSERT
  5
3F9
330
1F
100
AcDbEntity
  8
0
 48
4.0
100
AcDbBlockReference
  2
TOTO
 10
1460.683611952125
 20
620.3855153667229
 30
0.0
 41
0.0612886580097438
 42
0.0612886580097438
 43
0.0612886580097438
  0
ARC
  5
3FA
330
1F
100
AcDbEntity
  8
0
 48
4.0
100
AcDbCircle
 10
1464.346203852496
 20
628.5470317483502
 30
0.0
 40
0.0787400000000001
100
AcDbArc
 50
0.0
 51
90.0
  0
LINE
  5
3FB
330
1F
100
AcDbEntity
  8
0
 48
4.0
100
AcDbLine
 10
1463.834393852496
 20
628.2320717483502
 30
0.0
 11
1464.370431544804
 21
628.5894302098887
 31
0.0
  0
ARC
  5
3FC
330
1F
100
AcDbEntity
  8
0
 48
4.0
100
AcDbCircle
 10
1463.755653852496
 20
628.1533317483502
 30
0.0
 40
0.0787400000000001
100
AcDbArc
 50
0.0
 51
90.0
  0
ARC
  5
3FD
330
1F
100
AcDbEntity
  8
0
 48
4.0
100
AcDbCircle
 10
1458.401333852496
 20
628.1533317483502
 30
0.0
 40
0.0787400000000001
100
AcDbArc
 50
90.0
 51
180.0
  0
ARC
  5
3FE
330
1F
100
AcDbEntity
  8
0
 48
4.0
100
AcDbCircle
 10
1457.810783852496
 20
628.5470317483502
 30
0.0
 40
0.0787400000000001
100
AcDbArc
 50
90.0
 51
180.0
  0
LINE
  5
3FF
330
1F
100
AcDbEntity
  8
0
 48
4.0
100
AcDbLine
 10
1458.322593852496
 20
628.2320717483502
 30
0.0
 11
1457.786556160189
 21
628.5894302098887
 31
0.0
  0
LINE
  5
400
330
1F
100
AcDbEntity
  8
0
 48
4.0
100
AcDbLine
 10
1457.810783852496
 20
628.6257717483501
 30
0.0
 11
1464.346203852496
 21
628.6257717483501
 31
0.0
  0
LINE
  5
401
330
1F
100
AcDbEntity
  8
0
 48
4.0
100
AcDbLine
 10
1458.401333852496
 20
628.2320717483502
 30
0.0
 11
1463.755653852496
 21
628.2320717483502
 31
0.0
  0
LINE
  5
402
330
1F
100
AcDbEntity
  8
0
 48
4.0
100
AcDbLine
 10
1462.595317490191
 20
622.6818004031022
 30
0.0
 11
1462.55832179171
 21
622.6683350700596
 31
0.0
  0
ARC
  5
403
330
1F
100
AcDbEntity
  8
0
 48
4.0
100
AcDbCircle
 10
1463.755653852496
 20
620.0431117483502
 30
0.0
 40
0.0787400000000001
100
AcDbArc
 50
270.0
 51
0.0
  0
ARC
  5
404
330
1F
100
AcDbEntity
  8
0
 48
4.0
100
AcDbCircle
 10
1464.346203852496
 20
619.6494117483505
 30
0.0
 40
0.0787400000000001
100
AcDbArc
 50
270.0
 51
0.0
  0
LINE
  5
405
330
1F
100
AcDbEntity
  8
0
 48
4.0
100
AcDbLine
 10
1463.834393852496
 20
619.9643717483502
 30
0.0
 11
1464.370431544804
 21
619.6070132868117
 31
0.0
  0
LINE
  5
406
330
1F
100
AcDbEntity
  8
0
 48
4.0
100
AcDbLine
 10
1461.432823852496
 20
623.6641419291022
 30
0.0
 11
1461.432823852496
 21
623.7045217483502
 31
0.0
  0
LINE
  5
407
330
1F
100
AcDbEntity
  8
0
 48
4.0
100
AcDbLine
 10
1460.724163852496
 20
623.6641419291022
 30
0.0
 11
1460.724163852496
 21
623.7045217483502
 31
0.0
  0
LINE
  5
408
330
1F
100
AcDbEntity
  8
0
 48
4.0
100
AcDbLine
 10
1459.561670214803
 20
622.6818004031022
 30
0.0
 11
1459.598665913283
 21
622.6683350700596
 31
0.0
  0
ARC
  5
409
330
1F
100
AcDbEntity
  8
0
 48
4.0
100
AcDbCircle
 10
1461.078493852496
 20
622.1297217483502
 30
0.0
 40
1.61417
100
AcDbArc
 50
102.6803834917149
 51
159.9999999999448
  0
ARC
  5
40A
330
1F
100
AcDbEntity
  8
0
 48
4.0
100
AcDbCircle
 10
1461.078493852496
 20
622.1297217483502
 30
0.0
 40
1.574799999999999
100
AcDbArc
 50
103.002878162928
 51
159.9999999999448
  0
ARC
  5
40B
330
1F
100
AcDbEntity
  8
0
 48
4.0
100
AcDbCircle
 10
1458.401333852496
 20
620.0431117483502
 30
0.0
 40
0.0787400000000001
100
AcDbArc
 50
180.0
 51
270.0
  0
ARC
  5
40C
330
1F
100
AcDbEntity
  8
0
 48
4.0
100
AcDbCircle
 10
1457.810783852496
 20
619.6494117483505
 30
0.0
 40
0.0787400000000001
100
AcDbArc
 50
180.0
 51
270.0
  0
LINE
  5
40D
330
1F
100
AcDbEntity
  8
0
 48
4.0
100
AcDbLine
 10
1458.322593852496
 20
619.9643717483502
 30
0.0
 11
1457.786556160189
 21
619.6070132868117
 31
0.0
  0
LINE
  5
40E
330
1F
100
AcDbEntity
  8
0
 48
4.0
100
AcDbLine
 10
1457.810783852496
 20
619.5706717483504
 30
0.0
 11
1464.346203852496
 21
619.5706717483504
 31
0.0
  0
LINE
  5
40F
330
1F
100
AcDbEntity
  8
0
 48
4.0
100
AcDbLine
 10
1458.401333852496
 20
619.9643717483502
 30
0.0
 11
1463.755653852496
 21
619.9643717483502
 31
0.0
  0
ARC
  5
410
330
1F
100
AcDbEntity
  8
0
 48
4.0
100
AcDbCircle
 10
1461.078493852496
 20
622.1297217483502
 30
0.0
 40
1.574799999999999
100
AcDbArc
 50
20.00000000005523
 51
76.99712183707197
  0
ARC
  5
411
330
1F
100
AcDbEntity
  8
0
 48
4.0
100
AcDbCircle
 10
1461.078493852496
 20
622.1297217483502
 30
0.0
 40
1.61417
100
AcDbArc
 50
20.00000000005523
 51
77.31961650828508
  0
LINE
  5
412
330
1F
100
AcDbEntity
  8
0
 48
4.0
100
AcDbLine
 10
1464.424943852496
 20
619.6494117483505
 30
0.0
 11
1464.424943852496
 21
628.5470317483502
 31
0.0
  0
LINE
  5
413
330
1F
100
AcDbEntity
  8
0
 48
4.0
100
AcDbLine
 10
1457.732043852496
 20
619.6494117483505
 30
0.0
 11
1457.732043852496
 21
628.5470317483502
 31
0.0
  0
LINE
  5
414
330
1F
100
AcDbEntity
  8
0
 48
4.0
100
AcDbLine
 10
1463.834393852496
 20
620.0431117483502
 30
0.0
 11
1463.834393852496
 21
628.1533317483502
 31
0.0
  0
LINE
  5
415
330
1F
100
AcDbEntity
  8
0
 48
4.0
100
AcDbLine
 10
1458.322593852496
 20
620.0431117483502
 30
0.0
 11
1458.322593852496
 21
628.1533317483502
 31
0.0
  0
ARC
  5
416
330
1F
100
AcDbEntity
  8
0
 48
4.0
100
AcDbCircle
 10
1472.730632699568
 20
628.2094102185614
 30
0.0
 40
0.059055
100
AcDbArc
 50
138.0127875041341
 51
180.0
  0
ARC
  5
417
330
1F
100
AcDbEntity
  8
0
 48
4.0
100
AcDbCircle
 10
1473.052208576378
 20
628.5667167483502
 30
0.0
 40
0.0590550000000006
100
AcDbArc
 50
90.0
 51
138.0127875041341
  0
LINE
  5
418
330
1F
100
AcDbEntity
  8
0
 48
4.0
100
AcDbLine
 10
1473.144017699568
 20
628.6257717483501
 30
0.0
 11
1473.052208576378
 21
628.6257717483501
 31
0.0
  0
LINE
  5
419
330
1F
100
AcDbEntity
  8
0
 48
4.0
100
AcDbLine
 10
1472.686737463761
 20
628.2489159307872
 30
0.0
 11
1473.008313340571
 21
628.606222460576
 31
0.0
  0
ARC
  5
41A
330
1F
100
AcDbEntity
  8
0
 48
4.0
100
AcDbCircle
 10
1472.730632699568
 20
619.9870332781393
 30
0.0
 40
0.059055
100
AcDbArc
 50
180.0
 51
221.9872124958659
  0
ARC
  5
41B
330
1F
100
AcDbEntity
  8
0
 48
4.0
100
AcDbCircle
 10
1473.052208576378
 20
619.6297267483502
 30
0.0
 40
0.0590550000000006
100
AcDbArc
 50
221.9872124958659
 51
270.0
  0
LINE
  5
41C
330
1F
100
AcDbEntity
  8
0
 48
4.0
100
AcDbLine
 10
1473.144017699568
 20
619.5706717483504
 30
0.0
 11
1473.052208576378
 21
619.5706717483504
 31
0.0
  0
LINE
  5
41D
330
1F
100
AcDbEntity
  8
0
 48
4.0
100
AcDbLine
 10
1472.686737463761
 20
619.9475275659132
 30
0.0
 11
1473.008313340571
 21
619.5902210361244
 31
0.0
  0
LINE
  5
41E
330
1F
100
AcDbEntity
  8
0
 48
4.0
100
AcDbLine
 10
1472.671577699568
 20
624.0982217483502
 30
0.0
 11
1472.671577699568
 21
623.0155466806877
 31
0.0
  0
LINE
  5
41F
330
1F
100
AcDbEntity
  8
0
 48
4.0
100
AcDbLine
 10
1472.671577699568
 20
624.0982217483502
 30
0.0
 11
1472.671577699568
 21
628.2094102185614
 31
0.0
  0
LINE
  5
420
330
1F
100
AcDbEntity
  8
0
 48
4.0
100
AcDbLine
 10
1473.144017699568
 20
619.5706717483504
 30
0.0
 11
1473.144017699568
 21
628.6257717483501
 31
0.0
  0
ARC
  5
421
330
1F
100
AcDbEntity
  8
0
 48
4.0
100
AcDbCircle
 10
1462.043058852497
 20
627.0312867483502
 30
0.0
 40
0.059055
100
AcDbArc
 50
0.0
 51
90.0
  0
ARC
  5
422
330
1F
100
AcDbEntity
  8
0
 48
4.0
100
AcDbCircle
 10
1462.043058852497
 20
625.1021567483502
 30
0.0
 40
0.059055
100
AcDbArc
 50
270.0
 51
0.0
  0
ARC
  5
423
330
1F
100
AcDbEntity
  8
0
 48
4.0
100
AcDbCircle
 10
1460.113928852496
 20
625.1021567483502
 30
0.0
 40
0.059055
100
AcDbArc
 50
180.0
 51
270.0
  0
ARC
  5
424
330
1F
100
AcDbEntity
  8
0
 48
4.0
100
AcDbCircle
 10
1460.113928852496
 20
627.0312867483502
 30
0.0
 40
0.059055
100
AcDbArc
 50
90.0
 51
180.0
  0
LINE
  5
425
330
1F
100
AcDbEntity
  8
0
 48
4.0
100
AcDbLine
 10
1460.054873852497
 20
625.1021567483502
 30
0.0
 11
1460.054873852497
 21
627.0312867483502
 31
0.0
  0
LINE
  5
426
330
1F
100
AcDbEntity
  8
0
 48
4.0
100
AcDbLine
 10
1462.102113852496
 20
625.1021567483502
 30
0.0
 11
1462.102113852496
 21
627.0312867483502
 31
0.0
  0
LINE
  5
427
330
1F
100
AcDbEntity
  8
0
 48
4.0
100
AcDbLine
 10
1460.113928852496
 20
625.0431017483505
 30
0.0
 11
1462.043058852497
 21
625.0431017483505
 31
0.0
  0
LINE
  5
428
330
1F
100
AcDbEntity
  8
0
 48
4.0
100
AcDbLine
 10
1460.113928852496
 20
627.0903417483501
 30
0.0
 11
1462.043058852497
 21
627.0903417483501
 31
0.0
  0
LINE
  5
429
330
1F
100
AcDbEntity
  8
0
 48
4.0
100
AcDbLine
 10
1460.113928852496
 20
623.1533417483504
 30
0.0
 11
1462.043058852497
 21
623.1533417483504
 31
0.0
  0
LINE
  5
42A
330
1F
100
AcDbEntity
  8
0
 48
4.0
100
AcDbLine
 10
1460.054873852497
 20
621.1651567483502
 30
0.0
 11
1460.054873852497
 21
623.0942867483502
 31
0.0
  0
ARC
  5
42B
330
1F
100
AcDbEntity
  8
0
 48
4.0
100
AcDbCircle
 10
1460.113928852496
 20
623.0942867483502
 30
0.0
 40
0.059055
100
AcDbArc
 50
90.0
 51
180.0
  0
LINE
  5
42C
330
1F
100
AcDbEntity
  8
0
 48
4.0
100
AcDbLine
 10
1462.102113852496
 20
621.1651567483502
 30
0.0
 11
1462.102113852496
 21
623.0942867483502
 31
0.0
  0
ARC
  5
42D
330
1F
100
AcDbEntity
  8
0
 48
4.0
100
AcDbCircle
 10
1462.043058852497
 20
623.0942867483502
 30
0.0
 40
0.059055
100
AcDbArc
 50
0.0
 51
90.0
  0
LINE
  5
42E
330
1F
100
AcDbEntity
  8
0
 48
4.0
100
AcDbLine
 10
1460.113928852496
 20
621.1061017483501
 30
0.0
 11
1462.043058852497
 21
621.1061017483501
 31
0.0
  0
ARC
  5
42F
330
1F
100
AcDbEntity
  8
0
 48
4.0
100
AcDbCircle
 10
1462.043058852497
 20
621.1651567483502
 30
0.0
 40
0.059055
100
AcDbArc
 50
270.0
 51
0.0
  0
ARC
  5
430
330
1F
100
AcDbEntity
  8
0
 48
4.0
100
AcDbCircle
 10
1460.113928852496
 20
621.1651567483502
 30
0.0
 40
0.059055
100
AcDbArc
 50
180.0
 51
270.0
  0
SPLINE
  5
431
330
1F
100
AcDbEntity
  8
0
 48
4.0
100
AcDbSpline
210
0.0
220
0.0
230
1.0
 70
  1064
 71
     3
 72
    38
 73
    34
 74
    32
 42
0.0000000001
 43
0.0000000001
 44
0.0000000001
 40
0.0
 40
0.0
 40
0.0
 40
0.0
 40
0.0100733548074293
 40
0.0249859874632153
 40
0.040056465305551
 40
0.0615868710591276
 40
0.0739750134058251
 40
0.0869234107386013
 40
0.1011667255657488
 40
0.119568917411725
 40
0.1455488345870667
 40
0.1675244031352736
 40
0.1806394148815311
 40
0.1990834320117227
 40
0.2138538279357363
 40
0.2286002474642768
 40
0.2433706315533363
 40
0.262956597916074
 40
0.2791663379324192
 40
0.3147651452322788
 40
0.3399976440312192
 40
0.3735178818100873
 40
0.4103756752095464
 40
0.4399626887676592
 40
0.4648470947081894
 40
0.4891280262078107
 40
0.5147743248718553
 40
0.5367126207597906
 40
0.5541295195078263
 40
0.5705126921864789
 40
0.5865272165990511
 40
0.6026313798285652
 40
0.6243050437867373
 40
0.6243050437867373
 40
0.6243050437867373
 40
0.6243050437867373
 10
1462.786726697162
 20
622.5274039853267
 30
0.0
 10
1462.786959573272
 20
622.5307796276805
 30
0.0
 10
1462.787537200059
 20
622.5391525837759
 30
0.0
 10
1462.783115415485
 20
622.5520353696414
 30
0.0
 10
1462.776017021186
 20
622.5677037045198
 30
0.0
 10
1462.765025400958
 20
622.5801118155841
 30
0.0
 10
1462.753157303048
 20
622.5903713373923
 30
0.0
 10
1462.741352341193
 20
622.5963934078213
 30
0.0
 10
1462.727271062354
 20
622.6024008194193
 30
0.0
 10
1462.707526911998
 20
622.6038735521397
 30
0.0
 10
1462.685522771195
 20
622.6034848339426
 30
0.0
 10
1462.665036027939
 20
622.6016799399969
 30
0.0
 10
1462.648195573903
 20
622.5956464404906
 30
0.0
 10
1462.633992312435
 20
622.5892374961588
 30
0.0
 10
1462.621806641395
 20
622.5786674280693
 30
0.0
 10
1462.612075224238
 20
622.5675522729534
 30
0.0
 10
1462.602678998098
 20
622.554079805342
 30
0.0
 10
1462.595871468007
 20
622.5385072603412
 30
0.0
 10
1462.590268777381
 20
622.5152998449162
 30
0.0
 10
1462.589009434677
 20
622.4895215004468
 30
0.0
 10
1462.589858691954
 20
622.4579859927159
 30
0.0
 10
1462.598777604788
 20
622.4269747911221
 30
0.0
 10
1462.617552394727
 20
622.398278017759
 30
0.0
 10
1462.643422849165
 20
622.381433481865
 30
0.0
 10
1462.667915427984
 20
622.3712652746514
 30
0.0
 10
1462.693000105996
 20
622.3692669905724
 30
0.0
 10
1462.717105655278
 20
622.3704628561034
 30
0.0
 10
1462.737789798305
 20
622.3776425820476
 30
0.0
 10
1462.754214069548
 20
622.3863813118781
 30
0.0
 10
1462.7675671742
 20
622.3964937907009
 30
0.0
 10
1462.777756187518
 20
622.4091592771316
 30
0.0
 10
1462.786442208782
 20
622.4251623819169
 30
0.0
 10
1462.787817861515
 20
622.4378179590476
 30
0.0
 10
1462.788607092588
 20
622.4450786393552
 30
0.0
 11
1462.786726697162
 21
622.5274039853267
 31
0.0
 11
1462.786883130902
 21
622.5374761253952
 31
0.0
 11
1462.782929553352
 21
622.5518551322205
 31
0.0
 11
1462.776369971467
 21
622.5654231530007
 31
0.0
 11
1462.762579728223
 21
622.5819575886786
 31
0.0
 11
1462.753026441574
 21
622.5898443361074
 31
0.0
 11
1462.741673296767
 21
622.5960706589769
 31
0.0
 11
1462.72838184318
 21
622.6011901588361
 31
0.0
 11
1462.710118542484
 21
622.6034468184105
 31
0.0
 11
1462.684140583336
 21
622.6031278592841
 31
0.0
 11
1462.662351142397
 21
622.6002737610762
 31
0.0
 11
1462.649915530257
 21
622.5961073376926
 31
0.0
 11
1462.633403746018
 21
622.5878888981116
 31
0.0
 11
1462.622054371864
 21
622.5784360518701
 31
0.0
 11
1462.612289541936
 21
622.5673859394097
 31
0.0
 11
1462.603960750533
 21
622.5551877641402
 31
0.0
 11
1462.596018692726
 21
622.537284306481
 31
0.0
 11
1462.592105432154
 21
622.5215540152221
 31
0.0
 11
1462.589368035079
 21
622.4860606110683
 31
0.0
 11
1462.590697431816
 21
622.4608631568327
 31
0.0
 11
1462.599975460828
 21
622.4286525294186
 31
0.0
 11
1462.62086951681
 21
622.3982891409566
 31
0.0
 11
1462.645200764307
 21
622.3814551941073
 31
0.0
 11
1462.668409130809
 21
622.3724771440229
 31
0.0
 11
1462.692543724272
 21
622.3698153715168
 31
0.0
 11
1462.718111455759
 21
622.3718212981768
 31
0.0
 11
1462.73894063718
 21
622.378708534763
 31
0.0
 11
1462.754279845157
 21
622.3869582050987
 31
0.0
 11
1462.767185628666
 21
622.3970502365607
 31
0.0
 11
1462.777349277615
 21
622.4094262307512
 31
0.0
 11
1462.784684357043
 21
622.423762920854
 31
0.0
 11
1462.788607092588
 21
622.4450786393552
 31
0.0
  0
ARC
  5
432
330
1F
100
AcDbEntity
  8
0
 48
4.0
100
AcDbCircle
 10
1462.709225155129
 20
622.4469179326392
 30
0.0
 40
0.0481763093228243
100
AcDbArc
 50
284.0153150801981
 51
328.0253947608653
  0
ARC
  5
433
330
1F
100
AcDbEntity
  8
0
 48
4.0
100
AcDbCircle
 10
1462.71406625098
 20
622.4424466556468
 30
0.0
 40
0.0417200715958889
100
AcDbArc
 50
329.7139359169199
 51
3.617006447614341
  0
LINE
  5
434
330
1F
100
AcDbEntity
  8
0
 48
4.0
100
AcDbLine
 10
1462.755703218156
 20
622.4450786393552
 30
0.0
 11
1462.788607092588
 21
622.4450786393552
 31
0.0
  0
HATCH
  5
435
330
1F
100
AcDbEntity
  8
0
 48
4.0
100
AcDbHatch
 10
0.0
 20
0.0
 30
0.0
210
0.0
220
0.0
230
1.0
  2
SOLID
 70
     1
 71
     0
 91
        4
 92
        5
 93
        6
 72
     1
 10
1462.692663852497
 20
622.3965049969976
 11
1462.692663852497
 21
622.3698133927463
 72
     4
 94
        3
 73
     0
 74
     0
 95
       14
 96
       10
 40
8.045918108428192
 40
8.045918108428192
 40
8.045918108428192
 40
8.045918108428192
 40
8.048950898418878
 40
8.665687792007974
 40
9.297752967020374
 40
10.04926461442314
 40
10.98545443913923
 40
11.83687018156989
 40
12.42690950343412
 40
12.42690950343412
 40
12.42690950343412
 40
12.42690950343412
 10
1462.692663852497
 20
622.3698133927463
 10
1462.692623809737
 20
622.3698140399087
 10
1462.684440822396
 20
622.3699488362846
 10
1462.667915427986
 20
622.3712652746512
 10
1462.643422849165
 20
622.381433481865
 10
1462.617552394726
 20
622.3982780177585
 10
1462.59877760479
 20
622.4269747911225
 10
1462.590045506805
 20
622.4573364345077
 10
1462.589371664209
 20
622.4762851297525
 10
1462.58936428271
 20
622.4840517483502
 72
     1
 10
1462.58936428271
 20
622.4840517483502
 11
1462.622064630555
 21
622.4840517483502
 72
     2
 10
1462.784945535371
 20
622.4888433695856
 40
0.1629513693950218
 50
541.6850380237677
 51
556.0693769253913
 73
     1
 72
     2
 10
1462.687158978818
 20
622.459667894584
 40
0.0609174931191989
 50
555.1588119257945
 51
602.0162407862345
 73
     1
 72
     2
 10
1462.696518522312
 20
622.477238341104
 40
0.0808253136707526
 50
602.0014928868046
 51
627.2664489706612
 73
     1
 97
        0
 92
        5
 93
        6
 72
     4
 94
        3
 73
     0
 74
     0
 95
       14
 96
       10
 40
12.42690950343412
 40
12.42690950343412
 40
12.42690950343412
 40
12.42690950343412
 40
12.97742166900111
 40
13.3864682331274
 40
13.79323796673714
 40
14.20937138504028
 40
14.65176149804102
 40
15.20899532804437
 40
15.85737982693798
 40
15.85737982693798
 40
15.85737982693798
 40
15.85737982693798
 10
1462.788607092588
 20
622.4450786393552
 10
1462.787817861516
 20
622.4378179590477
 10
1462.786442208782
 20
622.4251623819171
 10
1462.777756187517
 20
622.409159277132
 10
1462.7675671742
 20
622.3964937907005
 10
1462.754214069548
 20
622.3863813118779
 10
1462.737789798305
 20
622.3776425820481
 10
1462.717143649885
 20
622.3704760445091
 10
1462.701224651244
 20
622.3696750349509
 10
1462.692663852497
 20
622.3698133927463
 72
     1
 10
1462.692663852497
 20
622.3698133927463
 11
1462.692663852497
 21
622.3965049969976
 72
     2
 10
1462.696518522312
 20
622.477238341104
 40
0.0808253136707527
 50
627.2664489706602
 51
647.5515845498962
 73
     1
 72
     2
 10
1462.709225155129
 20
622.4469179326392
 40
0.0481763093228234
 50
644.0153150802911
 51
688.025394760988
 73
     1
 72
     2
 10
1462.71406625098
 20
622.4424466556468
 40
0.0417200715958888
 50
689.7139359169067
 51
723.6170064476887
 73
     1
 72
     1
 10
1462.755703218156
 20
622.4450786393552
 11
1462.788607092588
 21
622.4450786393552
 97
        0
 92
        5
 93
        7
 72
     2
 10
1462.784945535371
 20
622.4888433695856
 40
0.1629513693950219
 50
526.550676885305
 51
541.6850380237669
 73
     1
 72
     1
 10
1462.622064630555
 20
622.4840517483502
 11
1462.58936428271
 21
622.4840517483502
 72
     4
 94
        3
 73
     0
 74
     0
 95
       17
 96
       13
 40
3.988080355992305
 40
3.988080355992305
 40
3.988080355992305
 40
3.988080355992305
 40
4.038947785432589
 40
4.943159299269535
 40
5.354887519137045
 40
5.852372059726077
 40
6.227540565927052
 40
6.602100371056572
 40
6.977269177845027
 40
7.445748149938236
 40
7.77887011454587
 40
8.045918108428192
 40
8.045918108428192
 40
8.045918108428192
 40
8.045918108428192
 10
1462.58936428271
 20
622.4840517483502
 10
1462.589363646349
 20
622.4847213103759
 10
1462.589389158749
 20
622.4972943313796
 10
1462.59026877738
 20
622.5152998449162
 10
1462.595871468007
 20
622.5385072603414
 10
1462.602678998098
 20
622.5540798053417
 10
1462.612075224238
 20
622.5675522729532
 10
1462.621806641395
 20
622.5786674280691
 10
1462.633992312434
 20
622.5892374961593
 10
1462.648195573904
 20
622.5956464404902
 10
1462.661430445295
 20
622.6003881529073
 10
1462.669195716666
 20
622.6017282228475
 10
1462.672680967101
 20
622.6021617483476
 72
     1
 10
1462.672680967116
 20
622.6021617483502
 11
1462.692663852497
 21
622.6021617483502
 72
     1
 10
1462.692663852497
 20
622.6021617483502
 11
1462.692663852497
 21
622.5777738860731
 72
     2
 10
1462.695806722337
 20
622.4998800605359
 40
0.0779572042061994
 50
452.3105240181627
 51
473.4449383884633
 73
     1
 72
     2
 10
1462.689512346474
 20
622.5114078644452
 40
0.064887654490809
 50
472.3957077622708
 51
526.3293402136744
 73
     1
 97
        0
 92
        5
 93
        6
 72
     4
 94
        3
 73
     0
 74
     0
 95
       15
 96
       11
 40
0.0
 40
0.0
 40
0.0
 40
0.0
 40
0.1152649083755453
 40
0.4770458285641494
 40
0.8059357785566627
 40
1.120595223520452
 40
1.667468623385954
 40
2.05025952617452
 40
2.429041153189568
 40
2.684904877022673
 40
2.684904877022673
 40
2.684904877022673
 40
2.684904877022673
 10
1462.723963377242
 20
622.6021617483502
 10
1462.725450532911
 20
622.6018964581247
 10
1462.731552903205
 20
622.6005740833191
 10
1462.741352341193
 20
622.5963934078221
 10
1462.753157303047
 20
622.5903713373916
 10
1462.765025400959
 20
622.580111815585
 10
1462.776017021186
 20
622.5677037045196
 10
1462.783115415486
 20
622.5520353696417
 10
1462.787537200058
 20
622.5391525837758
 10
1462.786959573272
 20
622.5307796276807
 10
1462.786726697162
 20
622.5274039853267
 72
     1
 10
1462.786726697162
 20
622.5274039853267
 11
1462.756528410966
 21
622.5274039853267
 72
     2
 10
1462.714002550063
 20
622.5302005787242
 40
0.042617716740985
 50
716.2375221067335
 51
781.7540062526257
 73
     1
 72
     2
 10
1462.695806722337
 20
622.4998800605359
 40
0.0779572042061994
 50
420.5193847009071
 51
452.3105240181627
 73
     1
 72
     1
 10
1462.692663852497
 20
622.5777738860731
 11
1462.692663852497
 21
622.6021617483502
 72
     1
 10
1462.692663852497
 20
622.6021617483502
 11
1462.723963377242
 21
622.6021617483502
 97
        0
 75
     0
 76
     1
 47
0.0198075563426828
 98
        4
 10
1462.642542300077
 20
622.404814870898
 10
1462.746325741116
 20
622.3977965031517
 10
1462.612889888352
 20
622.5350454070524
 10
1462.731499535254
 20
622.5818348421029
450
        0
451
        0
460
0.0
461
0.0
452
        0
462
0.0
453
        0
470

  0
LINE
  5
436
330
1F
100
AcDbEntity
  8
0
 48
4.0
100
AcDbLine
 10
1462.756528410966
 20
622.5274039853267
 30
0.0
 11
1462.786726697162
 21
622.5274039853267
 31
0.0
  0
LINE
  5
437
330
1F
100
AcDbEntity
  8
0
 48
4.0
100
AcDbLine
 10
1459.372246498111
 20
622.5959045154427
 30
0.0
 11
1459.372246498112
 21
622.3694489203848
 31
0.0
  0
HATCH
  5
438
330
1F
100
AcDbEntity
  8
0
 48
4.0
100
AcDbHatch
 10
0.0
 20
0.0
 30
0.0
210
0.0
220
0.0
230
1.0
  2
SOLID
 70
     1
 71
     0
 91
        4
 92
        7
 72
     0
 73
     1
 93
        6
 10
1459.523354434386
 20
622.5959045154427
 10
1459.556401206881
 20
622.5959045154427
 10
1459.556401206881
 20
622.4840517483502
 10
1459.464323852496
 20
622.4840517483502
 10
1459.464323852496
 20
622.5032494548632
 10
1459.523354434386
 20
622.5032494548632
 97
        0
 92
        7
 72
     0
 73
     1
 93
        6
 10
1459.523354434386
 20
622.4762424539656
 10
1459.464323852496
 20
622.4762424539656
 10
1459.464323852496
 20
622.4840517483502
 10
1459.556401206881
 20
622.4840517483502
 10
1459.556401206881
 20
622.3694489203848
 10
1459.523354434386
 20
622.3694489203848
 97
        0
 92
        7
 72
     0
 73
     1
 93
        6
 10
1459.372246498111
 20
622.5959045154427
 10
1459.405293270607
 20
622.5959045154427
 10
1459.405293270607
 20
622.5032494548632
 10
1459.464323852496
 20
622.5032494548632
 10
1459.464323852496
 20
622.4840517483502
 10
1459.372246498111
 20
622.4840517483502
 97
        0
 92
        7
 72
     0
 73
     1
 93
        6
 10
1459.372246498112
 20
622.4840517483502
 10
1459.464323852496
 20
622.4840517483502
 10
1459.464323852496
 20
622.4762424539656
 10
1459.405293270607
 20
622.4762424539656
 10
1459.405293270607
 20
622.3694489203848
 10
1459.372246498112
 20
622.3694489203848
 97
        0
 75
     0
 76
     1
 47
0.0475553433594039
 98
        4
 10
1459.541627847647
 20
622.5485396644
 10
1459.547248246995
 20
622.4380766755277
 10
1459.427346716516
 20
622.4886275477265
 10
1459.386130583542
 20
622.4586714893899
450
        0
451
        0
460
0.0
461
0.0
452
        0
462
0.0
453
        0
470

  0
LINE
  5
439
330
1F
100
AcDbEntity
  8
0
 48
4.0
100
AcDbLine
 10
1459.523354434386
 20
622.5959045154427
 30
0.0
 11
1459.556401206881
 21
622.5959045154427
 31
0.0
  0
LINE
  5
43A
330
1F
100
AcDbEntity
  8
0
 48
4.0
100
AcDbLine
 10
1459.523354434386
 20
622.5032494548632
 30
0.0
 11
1459.523354434386
 21
622.5959045154427
 31
0.0
  0
LINE
  5
43B
330
1F
100
AcDbEntity
  8
0
 48
4.0
100
AcDbLine
 10
1459.556401206881
 20
622.5959045154427
 30
0.0
 11
1459.556401206881
 21
622.3694489203848
 31
0.0
  0
LINE
  5
43C
330
1F
100
AcDbEntity
  8
0
 48
4.0
100
AcDbLine
 10
1459.405293270607
 20
622.5959045154427
 30
0.0
 11
1459.372246498111
 21
622.5959045154427
 31
0.0
  0
LINE
  5
43D
330
1F
100
AcDbEntity
  8
0
 48
4.0
100
AcDbLine
 10
1459.405293270607
 20
622.5032494548631
 30
0.0
 11
1459.405293270607
 21
622.5959045154427
 31
0.0
  0
LINE
  5
43E
330
1F
100
AcDbEntity
  8
0
 48
4.0
100
AcDbLine
 10
1469.822129947059
 20
627.034450875463
 30
0.0
 11
1469.845859200714
 21
627.0581801291179
 31
0.0
  0
LINE
  5
43F
330
1F
100
AcDbEntity
  8
0
 48
4.0
100
AcDbLine
 10
1469.809653327827
 20
626.9919167483502
 30
0.0
 11
1469.809653327827
 21
626.0470367483501
 31
0.0
  0
ARC
  5
440
330
1F
100
AcDbEntity
  8
0
 48
4.0
100
AcDbCircle
 10
1469.888393327827
 20
626.9919167483502
 30
0.0
 40
0.0787400000000001
100
AcDbArc
 50
90.0
 51
180.0
  0
LINE
  5
441
330
1F
100
AcDbEntity
  8
0
 48
4.0
100
AcDbLine
 10
1471.896263327827
 20
627.0706567483501
 30
0.0
 11
1469.888393327827
 21
627.0706567483501
 31
0.0
  0
LINE
  5
442
330
1F
100
AcDbEntity
  8
0
 48
4.0
100
AcDbLine
 10
1469.888393327827
 20
625.0234167483502
 30
0.0
 11
1470.291935827827
 21
625.0234167483502
 31
0.0
  0
ARC
  5
443
330
1F
100
AcDbEntity
  8
0
 48
4.0
100
AcDbCircle
 10
1469.888393327827
 20
625.1021567483502
 30
0.0
 40
0.0787400000000002
100
AcDbArc
 50
180.0
 51
270.0
  0
LINE
  5
444
330
1F
100
AcDbEntity
  8
0
 48
4.0
100
AcDbLine
 10
1469.809653327827
 20
626.0470367483501
 30
0.0
 11
1469.809653327827
 21
625.1021567483502
 31
0.0
  0
ARC
  5
445
330
1F
100
AcDbEntity
  8
0
 48
4.0
100
AcDbCircle
 10
1469.888393327827
 20
625.1021567483502
 30
0.0
 40
0.0787400000000001
100
AcDbArc
 50
180.0
 51
270.0
  0
LINE
  5
446
330
1F
100
AcDbEntity
  8
0
 48
4.0
100
AcDbLine
 10
1471.896263327827
 20
627.0706567483501
 30
0.0
 11
1469.888393327827
 21
627.0706567483501
 31
0.0
  0
LINE
  5
447
330
1F
100
AcDbEntity
  8
0
 48
4.0
100
AcDbLine
 10
1471.896263327827
 20
625.0234167483502
 30
0.0
 11
1469.888393327827
 21
625.0234167483502
 31
0.0
  0
LINE
  5
448
330
1F
100
AcDbEntity
  8
0
 48
4.0
100
AcDbLine
 10
1469.809653327827
 20
625.1021567483502
 30
0.0
 11
1469.809653327827
 21
626.9919167483502
 31
0.0
  0
LINE
  5
449
330
1F
100
AcDbEntity
  8
0
 48
4.0
100
AcDbLine
 10
1472.256235790091
 20
625.1616156357205
 30
0.0
 11
1471.896398374041
 21
625.1619663741694
 31
0.0
  0
LINE
  5
44A
330
1F
100
AcDbEntity
  8
0
 48
4.0
100
AcDbLine
 10
1471.896168127417
 20
626.9729874619307
 30
0.0
 11
1472.258001022818
 21
626.9726347754187
 31
0.0
  0
LINE
  5
44B
330
1F
100
AcDbEntity
  8
0
 48
4.0
100
AcDbLine
 10
1472.669428720594
 20
624.9643627956741
 30
0.0
 11
1472.669371158658
 21
624.9053078237273
 31
0.0
  0
LINE
  5
44C
330
1F
100
AcDbEntity
  8
0
 48
4.0
100
AcDbLine
 10
1472.649666980697
 20
624.8856420203908
 30
0.0
 11
1472.30938923644
 21
624.8859736951906
 31
0.0
  0
ARC
  5
44D
330
1F
100
AcDbEntity
  8
0
 48
4.0
100
AcDbCircle
 10
1472.649686168009
 20
624.9053270110396
 30
0.0
 40
0.019685
100
AcDbArc
 50
269.9441527973779
 51
359.9441527972126
  0
ARC
  5
44E
330
1F
100
AcDbEntity
  8
0
 48
4.0
100
AcDbCircle
 10
1472.256216602778
 20
625.1419306450716
 30
0.0
 40
0.019685
100
AcDbArc
 50
359.9441527972126
 51
89.94415279737792
  0
LINE
  5
44F
330
1F
100
AcDbEntity
  8
0
 48
4.0
100
AcDbLine
 10
1472.309450620877
 20
627.2481747574911
 30
0.0
 11
1472.651969458168
 21
627.2478408982581
 31
0.0
  0
ARC
  5
450
330
1F
100
AcDbEntity
  8
0
 48
4.0
100
AcDbCircle
 10
1472.651950270856
 20
627.2281559076091
 30
0.0
 40
0.019685
100
AcDbArc
 50
359.9441527972126
 51
89.94415279737792
  0
LINE
  5
451
330
1F
100
AcDbEntity
  8
0
 48
4.0
100
AcDbLine
 10
1472.671635261505
 20
627.2281367202968
 30
0.0
 11
1472.671577699568
 21
627.1690817483502
 31
0.0
  0
ARC
  5
452
330
1F
100
AcDbEntity
  8
0
 48
4.0
100
AcDbCircle
 10
1472.309419921177
 20
627.2166787724527
 30
0.0
 40
0.0314960000000005
100
AcDbArc
 50
89.94415279737792
 51
179.9441527972125
  0
ARC
  5
453
330
1F
100
AcDbEntity
  8
0
 48
4.0
100
AcDbCircle
 10
1472.258020210131
 20
626.9923197660672
 30
0.0
 40
0.019685
100
AcDbArc
 50
269.9441527973779
 51
359.9441527972126
  0
LINE
  5
454
330
1F
100
AcDbEntity
  8
0
 48
4.0
100
AcDbLine
 10
1471.896263327827
 20
627.0706567483501
 30
0.0
 11
1471.896168127417
 21
626.9729874619307
 31
0.0
  0
LINE
  5
455
330
1F
100
AcDbEntity
  8
0
 48
4.0
100
AcDbLine
 10
1471.896263327827
 20
625.0234167483502
 30
0.0
 11
1471.896398374041
 21
625.1619663741694
 31
0.0
  0
ARC
  5
456
330
1F
100
AcDbEntity
  8
0
 48
4.0
100
AcDbCircle
 10
1461.078493852496
 20
626.0667217483502
 30
0.0
 40
1.1811
100
AcDbArc
 50
60.07356513331249
 51
119.9264348666875
  0
ARC
  5
457
330
1F
100
AcDbEntity
  8
0
 48
4.0
100
AcDbCircle
 10
1461.078493852496
 20
626.0667217483502
 30
0.0
 40
1.1811
100
AcDbArc
 50
240.0735651333125
 51
299.9264348666875
  0
HATCH
  5
458
330
1F
100
AcDbEntity
  8
0
 48
4.0
100
AcDbHatch
 10
0.0
 20
0.0
 30
0.0
210
0.0
220
0.0
230
1.0
  2
SOLID
 70
     1
 71
     0
 91
        2
 92
        5
 93
        2
 72
     1
 10
1461.083717704483
 20
623.8212322882561
 11
1461.073289817681
 21
623.8212322882561
 72
     4
 94
        3
 73
     0
 74
     0
 95
       40
 96
       36
 40
0.0
 40
0.0
 40
0.0
 40
0.0
 40
0.103453783742558
 40
0.2800333145800149
 40
0.4302928840543168
 40
0.673124310131799
 40
0.8609950565860691
 40
1.026922106377914
 40
1.194375025625072
 40
1.369941674298327
 40
1.560111098465498
 40
1.675687673777404
 40
1.886933189816563
 40
2.107359700669046
 40
2.285713495706779
 40
2.476595400368173
 40
2.597566037879796
 40
2.723404843945163
 40
2.804297785952355
 40
2.895852297479319
 40
3.037979531192311
 40
3.251711714334896
 40
3.511216757384768
 40
3.73195735436749
 40
3.941827060948755
 40
4.124781800532089
 40
4.449729936235596
 40
4.633735535624483
 40
4.786185641464386
 40
4.938650141759164
 40
5.027126943343108
 40
5.148467247506006
 40
5.281170509798893
 40
5.446832922301282
 40
5.61993073784674
 40
5.61993073784674
 40
5.61993073784674
 40
5.61993073784674
 10
1461.073289817681
 20
623.8212322882561
 10
1461.070599723718
 20
623.8208114888736
 10
1461.063318057435
 20
623.8196724503429
 10
1461.052977304148
 20
623.8145585347787
 10
1461.04156189181
 20
623.8046894768634
 10
1461.033745899691
 20
623.7913171905746
 10
1461.02770567693
 20
623.7768256156461
 10
1461.024922447754
 20
623.7633996811235
 10
1461.022453782677
 20
623.7502215670172
 10
1461.023007957214
 20
623.7361736498431
 10
1461.023404470686
 20
623.7235612276837
 10
1461.024806881377
 20
623.7100443167196
 10
1461.028280519628
 20
623.6960479595865
 10
1461.034131347504
 20
623.6810780855639
 10
1461.04215150914
 20
623.6677560433085
 10
1461.051745878992
 20
623.6586895129015
 10
1461.062260441552
 20
623.6539823933882
 10
1461.070660059162
 20
623.651458188299
 10
1461.078517306436
 20
623.6521228748909
 10
1461.086796495669
 20
623.6514999818931
 10
1461.098311425323
 20
623.6548462021866
 10
1461.112200053344
 20
623.6637156581966
 10
1461.122691226495
 20
623.6790756852863
 10
1461.129650331218
 20
623.6959028963676
 10
1461.132377351942
 20
623.7118436310773
 10
1461.134911927006
 20
623.7305150082312
 10
1461.134383583652
 20
623.7487911436305
 10
1461.131914390735
 20
623.7659934446914
 10
1461.128771654723
 20
623.778448637254
 10
1461.125227601966
 20
623.7882011283897
 10
1461.120556846621
 20
623.7964981454161
 10
1461.115521657062
 20
623.8039819615591
 10
1461.107702069986
 20
623.8118376312375
 10
1461.09692332897
 20
623.8183785529136
 10
1461.088183522263
 20
623.820267225071
 10
1461.083717704483
 20
623.8212322882561
 97
        0
 92
       20
 93
        2
 72
     2
 10
1461.05725516283
 20
623.7638114901766
 40
0.0507217111493295
 50
357.5997173232149
 51
372.6423775467375
 73
     1
 72
     3
 10
1461.078493852496
 20
623.7365704200532
 11
-0.000000000000001
 21
-0.084661868202919
 40
0.3743058893820459
 50
-143.6146052160058
 51
-36.38539478164739
 73
     0
 97
        0
 75
     0
 76
     1
 47
0.0133769896509971
 98
        2
 10
1461.122656456689
 20
623.7602427972242
 10
1461.122656456689
 20
623.7602427972242
450
        0
451
        0
460
0.0
461
0.0
452
        0
462
0.0
453
        0
470

  0
HATCH
  5
459
330
1F
100
AcDbEntity
  8
0
 48
4.0
100
AcDbHatch
 10
0.0
 20
0.0
 30
0.0
210
0.0
220
0.0
230
1.0
  2
SOLID
 70
     1
 71
     0
 91
        4
 92
        7
 72
     0
 73
     1
 93
       10
 10
1460.961780909019
 20
623.820956809142
 10
1460.897422777961
 20
623.8008926190444
 10
1460.897422777961
 20
623.7871649744183
 10
1460.940143355134
 20
623.7965472993622
 10
1460.940143355134
 20
623.6726400720786
 10
1460.897477400502
 20
623.6726400720786
 10
1460.897477400502
 20
623.6560246063196
 10
1461.004532470908
 20
623.6560246063196
 10
1461.004532470908
 20
623.6725872049673
 10
1460.961780909019
 20
623.6725872049673
 97
        0
 92
        5
 93
        9
 72
     3
 10
1461.078493852496
 20
623.7365704200532
 11
-0.000000000000001
 21
-0.084661868202919
 40
0.3743058893820459
 50
37.50920641803979
 51
142.4907935818277
 73
     0
 72
     2
 10
1461.099761862146
 20
623.7638039719812
 40
0.0507217111493349
 50
191.2257291098576
 51
224.0564255111378
 73
     0
 72
     3
 10
1461.078493852496
 20
623.7365704200532
 11
0.0000000000000007
 21
0.0678165341709804
 40
0.5770342918380143
 50
-13.65383167362085
 51
-0.0000000000006167
 73
     0
 72
     1
 10
1461.078493852496
 20
623.8043869542241
 11
1461.078493852496
 21
623.8212322882561
 72
     1
 10
1461.078493852496
 20
623.8212322882561
 11
1461.073289817681
 21
623.8212322882561
 72
     4
 94
        3
 73
     0
 74
     0
 95
       25
 96
       21
 40
5.624727292921789
 40
5.624727292921789
 40
5.624727292921789
 40
5.624727292921789
 40
5.831634860407017
 40
6.184793922081879
 40
6.485313061030503
 40
6.970975913185315
 40
7.346717406093842
 40
7.678571505677592
 40
8.013477344171885
 40
8.364610641518392
 40
8.74494948985273
 40
8.976102640476556
 40
9.398593672554842
 40
9.839446694259867
 40
10.19615428433512
 40
10.57791809365824
 40
10.81985936868124
 40
11.07153698081186
 40
11.23332286482639
 40
11.23986147569346
 40
11.23986147569346
 40
11.23986147569346
 40
11.23986147569346
 10
1461.073289817681
 20
623.8212322882561
 10
1461.070599723718
 20
623.8208114888736
 10
1461.063318057435
 20
623.8196724503429
 10
1461.052977304148
 20
623.8145585347787
 10
1461.04156189181
 20
623.8046894768634
 10
1461.033745899691
 20
623.7913171905746
 10
1461.02770567693
 20
623.7768256156461
 10
1461.024922447754
 20
623.7633996811235
 10
1461.022453782677
 20
623.7502215670172
 10
1461.023007957214
 20
623.7361736498431
 10
1461.023404470686
 20
623.7235612276837
 10
1461.024806881377
 20
623.7100443167196
 10
1461.028280519628
 20
623.6960479595865
 10
1461.034131347504
 20
623.6810780855639
 10
1461.04215150914
 20
623.6677560433085
 10
1461.051745878992
 20
623.6586895129015
 10
1461.062260441552
 20
623.6539823933882
 10
1461.070660059162
 20
623.651458188299
 10
1461.076191759507
 20
623.6519261444319
 10
1461.078407773146
 20
623.6519408247573
 10
1461.078493852496
 20
623.6519411589402
 72
     1
 10
1461.078493852496
 20
623.6519411589402
 11
1461.078493852496
 21
623.6687538858822
 72
     3
 10
1461.078493852496
 20
623.7365704200532
 11
0.0000000000000007
 21
-0.0678165341709804
 40
0.5770342918380143
 50
360.0000000000006
 51
373.6538316736209
 73
     0
 72
     2
 10
1461.099761862146
 20
623.7093368681247
 40
0.0507217111493349
 50
135.9435744888944
 51
168.7742708897471
 73
     0
 97
        0
 92
        7
 72
     0
 73
     1
 93
       11
 10
1461.244640979183
 20
623.8171093014572
 10
1461.224235048814
 20
623.8171093014572
 10
1461.156880148088
 20
623.7175547647662
 10
1461.156880148088
 20
623.6989013236978
 10
1461.224084490639
 20
623.6989013236978
 10
1461.224084490639
 20
623.6560620862507
 10
1461.244581200655
 20
623.6560529835188
 10
1461.244581200655
 20
623.6987721361733
 10
1461.265738221415
 20
623.6987721361733
 10
1461.265738221415
 20
623.7154799574067
 10
1461.244640979183
 20
623.7154799574067
 97
        0
 92
       22
 72
     0
 73
     1
 93
        3
 10
1461.223983181077
 20
623.7865616997777
 10
1461.223983181077
 20
623.7156480178072
 10
1461.176574884019
 20
623.7156480178072
 97
        0
 75
     0
 76
     1
 47
0.0285714376345998
 98
        4
 10
1460.95614530955
 20
623.7241729757606
 10
1461.038328316146
 20
623.7196735417694
 10
1461.189184319093
 20
623.7410457775146
 10
1461.189184319093
 20
623.7410457775146
450
        0
451
        0
460
0.0
461
0.0
452
        0
462
0.0
453
        0
470

  0
LINE
  5
45A
330
1F
100
AcDbEntity
  8
0
 48
4.0
100
AcDbLine
 10
1461.176574884019
 20
623.7156480178072
 30
0.0
 11
1461.223983181077
 21
623.786561699778
 31
0.0
  0
LINE
  5
45B
330
1F
100
AcDbEntity
  8
0
 48
4.0
100
AcDbLine
 10
1461.223983181077
 20
623.7156480178072
 30
0.0
 11
1461.176574884019
 21
623.7156480178072
 31
0.0
  0
LINE
  5
45C
330
1F
100
AcDbEntity
  8
0
 48
4.0
100
AcDbLine
 10
1461.223983181077
 20
623.786561699778
 30
0.0
 11
1461.223983181077
 21
623.7156480178072
 31
0.0
  0
SPLINE
  5
45D
330
1F
100
AcDbEntity
  8
0
 48
4.0
100
AcDbSpline
210
0.0
220
0.0
230
1.0
 70
  1064
 71
     3
 72
    40
 73
    36
 74
    34
 42
0.0000000001
 43
0.0000000001
 44
0.0000000001
 40
0.0
 40
0.0
 40
0.0
 40
0.0
 40
0.0136297219955642
 40
0.0266739803554458
 40
0.0371230352291459
 40
0.0466773707795532
 40
0.0536440341354735
 40
0.0656490888887298
 40
0.0776530102226524
 40
0.0921416111185061
 40
0.1177280273235888
 40
0.1321338835184412
 40
0.1486590242147937
 40
0.1660401388211307
 40
0.1864735659105465
 40
0.2033028380109044
 40
0.2144939363939942
 40
0.2217029386321359
 40
0.2280724488858892
 40
0.2379809964755423
 40
0.24750622447326
 40
0.2625362656455943
 40
0.2765798434671812
 40
0.2939362269317569
 40
0.310569698864605
 40
0.3196701984048494
 40
0.3346441388636451
 40
0.3484682567803149
 40
0.3616534996416183
 40
0.3747185955424823
 40
0.3895115381179479
 40
0.4086320846074863
 40
0.4204635231080184
 40
0.4343673953654101
 40
0.442513346297881
 40
0.442513346297881
 40
0.442513346297881
 40
0.442513346297881
 10
1461.083717704483
 20
623.8212322882561
 30
0.0
 10
1461.088183522262
 20
623.8202672250708
 30
0.0
 10
1461.09692332897
 20
623.8183785529133
 30
0.0
 10
1461.107702069985
 20
623.8118376312371
 30
0.0
 10
1461.115521657061
 20
623.803981961559
 30
0.0
 10
1461.120556846623
 20
623.7964981454171
 30
0.0
 10
1461.125227601965
 20
623.7882011283886
 30
0.0
 10
1461.128771654724
 20
623.7784486372544
 30
0.0
 10
1461.131914390735
 20
623.7659934446912
 30
0.0
 10
1461.134383583651
 20
623.7487911436305
 30
0.0
 10
1461.134911927005
 20
623.7305150082315
 30
0.0
 10
1461.132377351941
 20
623.7118436310773
 30
0.0
 10
1461.129650331218
 20
623.6959028963678
 30
0.0
 10
1461.122691226494
 20
623.6790756852863
 30
0.0
 10
1461.112200053344
 20
623.6637156581966
 30
0.0
 10
1461.098311425324
 20
623.6548462021866
 30
0.0
 10
1461.08679649567
 20
623.6514999818926
 30
0.0
 10
1461.078517306435
 20
623.6521228748906
 30
0.0
 10
1461.070660059162
 20
623.6514581882988
 30
0.0
 10
1461.062260441552
 20
623.6539823933886
 30
0.0
 10
1461.051745878991
 20
623.6586895129012
 30
0.0
 10
1461.04215150914
 20
623.6677560433092
 30
0.0
 10
1461.034131347505
 20
623.6810780855641
 30
0.0
 10
1461.028280519628
 20
623.6960479595867
 30
0.0
 10
1461.024806881377
 20
623.7100443167193
 30
0.0
 10
1461.023404470684
 20
623.7235612276842
 30
0.0
 10
1461.023007957214
 20
623.7361736498431
 30
0.0
 10
1461.022453782677
 20
623.7502215670174
 30
0.0
 10
1461.024922447753
 20
623.7633996811239
 30
0.0
 10
1461.027705676931
 20
623.7768256156457
 30
0.0
 10
1461.03374589969
 20
623.7913171905748
 30
0.0
 10
1461.04156189181
 20
623.8046894768635
 30
0.0
 10
1461.052977304147
 20
623.8145585347788
 30
0.0
 10
1461.063318057434
 20
623.8196724503429
 30
0.0
 10
1461.070599723717
 20
623.8208114888736
 30
0.0
 10
1461.073289817681
 20
623.8212322882561
 30
0.0
 11
1461.083717704483
 21
623.8212322882561
 31
0.0
 11
1461.096855376821
 21
623.8176031165577
 31
0.0
 11
1461.108066401584
 21
623.8109348634186
 31
0.0
 11
1461.115460887798
 21
623.8035521592133
 31
0.0
 11
1461.120913095071
 21
623.795706219903
 31
0.0
 11
1461.124276454821
 21
623.7896052192057
 31
0.0
 11
1461.128575014983
 21
623.7783961282453
 31
0.0
 11
1461.131525418906
 21
623.766760439865
 31
0.0
 11
1461.133659852459
 21
623.7524299217541
 31
0.0
 11
1461.134127485366
 21
623.7268477792777
 31
0.0
 11
1461.132394564135
 21
623.7125465318945
 31
0.0
 11
1461.129121814886
 21
623.6963487114429
 31
0.0
 11
1461.122571422647
 21
623.6802491615585
 31
0.0
 11
1461.110447601426
 21
623.6638011251523
 31
0.0
 11
1461.096288788868
 21
623.6547042890882
 31
0.0
 11
1461.085444610674
 21
623.6519394233924
 31
0.0
 11
1461.078235608436
 21
623.6519394233924
 31
0.0
 11
1461.071866447758
 21
623.6518726916222
 31
0.0
 11
1461.06223889996
 21
623.6542156894318
 31
0.0
 11
1461.053634192865
 21
623.6583009047527
 31
0.0
 11
1461.042495504046
 21
623.6683920765893
 31
0.0
 11
1461.035023474989
 21
623.680282865453
 31
0.0
 11
1461.028557560852
 21
623.696389882599
 31
0.0
 11
1461.024695929431
 21
623.7125688872443
 31
0.0
 11
1461.02368933604
 21
623.7216135465318
 31
0.0
 11
1461.022974614187
 21
623.7365704200532
 31
0.0
 11
1461.022974614187
 21
623.7503945379699
 31
0.0
 11
1461.02497097722
 21
623.7634277710282
 31
0.0
 11
1461.027960819276
 21
623.7761461661855
 31
0.0
 11
1461.033462340563
 21
623.7898780420067
 31
0.0
 11
1461.043795131107
 21
623.8059661972036
 31
0.0
 11
1461.052725742366
 21
623.8137268105512
 31
0.0
 11
1461.065294864654
 21
623.819671121164
 31
0.0
 11
1461.073289817681
 21
623.8212322882561
 31
0.0
  0
ELLIPSE
  5
45E
330
1F
100
AcDbEntity
  8
0
 48
4.0
100
AcDbEllipse
 10
1461.078493852496
 20
623.7365704200532
 30
0.0
 11
-0.000000000000001
 21
-0.084661868202919
 31
0.0
210
0.0
220
0.0
230
0.9999999999999998
 40
0.3743058893820459
 41
7.383980597060435
 42
8.323982670853897
  0
ARC
  5
45F
330
1F
100
AcDbEntity
  8
0
 48
4.0
100
AcDbCircle
 10
1461.099761862146
 20
623.7093368681247
 30
0.0
 40
0.050721711149329
100
AcDbArc
 50
191.2257291097467
 51
224.0564255110666
  0
ARC
  5
460
330
1F
100
AcDbEntity
  8
0
 48
4.0
100
AcDbCircle
 10
1461.05725516283
 20
623.7093293499299
 30
0.0
 40
0.050721711149329
100
AcDbArc
 50
315.9638423928789
 51
348.7945387942148
  0
ELLIPSE
  5
461
330
1F
100
AcDbEntity
  8
0
 48
4.0
100
AcDbEllipse
 10
1461.078493852496
 20
623.7365704200532
 30
0.0
 11
0.0000000000000007
 21
-0.0678165341709804
 31
0.0
210
0.0
220
0.0
230
-1.0
 40
0.5770342918380143
 41
5.881255571904256
 42
6.681646528873112
  0
ELLIPSE
  5
462
330
1F
100
AcDbEntity
  8
0
 48
4.0
100
AcDbEllipse
 10
1461.078493852496
 20
623.7365704200532
 30
0.0
 11
0.0000000000000007
 21
0.0678165341709804
 31
0.0
210
0.0
220
0.0
230
1.0
 40
0.5770342918380143
 41
5.881255571904256
 42
6.681646528873112
  0
ARC
  5
463
330
1F
100
AcDbEntity
  8
0
 48
4.0
100
AcDbCircle
 10
1461.05725516283
 20
623.7638114901765
 30
0.0
 40
0.050721711149329
100
AcDbArc
 50
11.20546120578527
 51
44.03615760712113
  0
ARC
  5
464
330
1F
100
AcDbEntity
  8
0
 48
4.0
100
AcDbCircle
 10
1461.099761862146
 20
623.7638039719812
 30
0.0
 40
0.050721711149329
100
AcDbArc
 50
135.9435744889334
 51
168.7742708902533
  0
LINE
  5
465
330
1F
100
AcDbEntity
  8
0
 48
4.0
100
AcDbLine
 10
1461.224084490639
 20
623.6560620862507
 30
0.0
 11
1461.244581200655
 21
623.6560529835188
 31
0.0
  0
LINE
  5
466
330
1F
100
AcDbEntity
  8
0
 48
4.0
100
AcDbLine
 10
1461.224084490639
 20
623.6989013236978
 30
0.0
 11
1461.224084490639
 21
623.6560620862507
 31
0.0
  0
LINE
  5
467
330
1F
100
AcDbEntity
  8
0
 48
4.0
100
AcDbLine
 10
1461.156880148088
 20
623.6989013236978
 30
0.0
 11
1461.224084490639
 21
623.6989013236978
 31
0.0
  0
LINE
  5
468
330
1F
100
AcDbEntity
  8
0
 48
4.0
100
AcDbLine
 10
1461.156880148088
 20
623.7175547647662
 30
0.0
 11
1461.156880148088
 21
623.6989013236978
 31
0.0
  0
LINE
  5
469
330
1F
100
AcDbEntity
  8
0
 48
4.0
100
AcDbLine
 10
1461.224235048814
 20
623.8171093014572
 30
0.0
 11
1461.156880148088
 21
623.7175547647662
 31
0.0
  0
LINE
  5
46A
330
1F
100
AcDbEntity
  8
0
 48
4.0
100
AcDbLine
 10
1461.244640979183
 20
623.8171093014572
 30
0.0
 11
1461.224235048814
 21
623.8171093014572
 31
0.0
  0
LINE
  5
46B
330
1F
100
AcDbEntity
  8
0
 48
4.0
100
AcDbLine
 10
1461.244640979183
 20
623.7154799574067
 30
0.0
 11
1461.244640979183
 21
623.8171093014572
 31
0.0
  0
LINE
  5
46C
330
1F
100
AcDbEntity
  8
0
 48
4.0
100
AcDbLine
 10
1461.265738221415
 20
623.7154799574067
 30
0.0
 11
1461.244640979183
 21
623.7154799574067
 31
0.0
  0
LINE
  5
46D
330
1F
100
AcDbEntity
  8
0
 48
4.0
100
AcDbLine
 10
1461.265738221415
 20
623.6987721361733
 30
0.0
 11
1461.265738221415
 21
623.7154799574067
 31
0.0
  0
LINE
  5
46E
330
1F
100
AcDbEntity
  8
0
 48
4.0
100
AcDbLine
 10
1461.244581200655
 20
623.6987721361733
 30
0.0
 11
1461.265738221415
 21
623.6987721361733
 31
0.0
  0
LINE
  5
46F
330
1F
100
AcDbEntity
  8
0
 48
4.0
100
AcDbLine
 10
1461.244581200655
 20
623.6560529835188
 30
0.0
 11
1461.244581200655
 21
623.6987721361733
 31
0.0
  0
ELLIPSE
  5
470
330
1F
100
AcDbEntity
  8
0
 48
4.0
100
AcDbEllipse
 10
1461.078493852496
 20
623.7365704200532
 30
0.0
 11
-0.000000000000001
 21
-0.084661868202919
 31
0.0
210
0.0
220
0.0
230
0.9999999999999998
 40
0.3743058893820459
 41
4.258676014022817
 42
5.166101946748443
  0
LINE
  5
471
330
1F
100
AcDbEntity
  8
0
 48
4.0
100
AcDbLine
 10
1461.073289817681
 20
623.8212322882561
 30
0.0
 11
1461.083717704483
 21
623.8212322882561
 31
0.0
  0
LINE
  5
472
330
1F
100
AcDbEntity
  8
0
 48
4.0
100
AcDbLine
 10
1460.897422777961
 20
623.7871649744183
 30
0.0
 11
1460.897422777961
 21
623.8008926190444
 31
0.0
  0
LINE
  5
473
330
1F
100
AcDbEntity
  8
0
 48
4.0
100
AcDbLine
 10
1460.940143355134
 20
623.7965472993622
 30
0.0
 11
1460.897422777961
 21
623.7871649744183
 31
0.0
  0
LINE
  5
474
330
1F
100
AcDbEntity
  8
0
 48
4.0
100
AcDbLine
 10
1460.940143355134
 20
623.6726400720786
 30
0.0
 11
1460.940143355134
 21
623.7965472993622
 31
0.0
  0
LINE
  5
475
330
1F
100
AcDbEntity
  8
0
 48
4.0
100
AcDbLine
 10
1460.897477400502
 20
623.6726400720786
 30
0.0
 11
1460.940143355134
 21
623.6726400720786
 31
0.0
  0
LINE
  5
476
330
1F
100
AcDbEntity
  8
0
 48
4.0
100
AcDbLine
 10
1460.897477400502
 20
623.6560246063196
 30
0.0
 11
1460.897477400502
 21
623.6726400720786
 31
0.0
  0
LINE
  5
477
330
1F
100
AcDbEntity
  8
0
 48
4.0
100
AcDbLine
 10
1461.004532470908
 20
623.6560246063196
 30
0.0
 11
1460.897477400502
 21
623.6560246063196
 31
0.0
  0
LINE
  5
478
330
1F
100
AcDbEntity
  8
0
 48
4.0
100
AcDbLine
 10
1461.004532470908
 20
623.6725872049673
 30
0.0
 11
1461.004532470908
 21
623.6560246063196
 31
0.0
  0
LINE
  5
479
330
1F
100
AcDbEntity
  8
0
 48
4.0
100
AcDbLine
 10
1460.961780909019
 20
623.6725872049673
 30
0.0
 11
1461.004532470908
 21
623.6725872049673
 31
0.0
  0
LINE
  5
47A
330
1F
100
AcDbEntity
  8
0
 48
4.0
100
AcDbLine
 10
1460.961780909019
 20
623.8209568091421
 30
0.0
 11
1460.961780909019
 21
623.6725872049673
 31
0.0
  0
LINE
  5
47B
330
1F
100
AcDbEntity
  8
0
 48
4.0
100
AcDbLine
 10
1460.897422777961
 20
623.8008926190444
 30
0.0
 11
1460.961780909019
 21
623.8209568091421
 31
0.0
  0
HATCH
  5
47C
330
1F
100
AcDbEntity
  8
0
100
AcDbHatch
 10
0.0
 20
0.0
 30
0.0
210
0.0
220
0.0
230
1.0
  2
SOLID
 70
     1
 71
     0
 91
        1
 92
        3
 72
     0
 73
     1
 93
        4
 10
1462.733940302882
 20
626.2716773931256
 10
1462.733940302882
 20
626.2949520861596
 10
1462.710665609848
 20
626.2949520861596
 10
1462.710665609848
 20
626.2716773931256
 97
        0
 75
     2
 76
     1
 98
        1
 10
1448.396865027437
 20
611.2653529679006
450
        0
451
        0
460
0.0
461
0.0
452
        0
462
0.0
453
        0
470

  0
HATCH
  5
47D
330
1F
100
AcDbEntity
  8
0
100
AcDbHatch
 10
0.0
 20
0.0
 30
0.0
210
0.0
220
0.0
230
1.0
  2
SOLID
 70
     1
 71
     0
 91
        1
 92
        3
 72
     0
 73
     1
 93
        4
 10
1462.733940302882
 20
626.2248296135576
 10
1462.733940302882
 20
626.2481043065912
 10
1462.710665609848
 20
626.2481043065912
 10
1462.710665609848
 20
626.2248296135576
 97
        0
 75
     2
 76
     1
 98
        1
 10
1448.396865027437
 20
611.2653529679006
450
        0
451
        0
460
0.0
461
0.0
452
        0
462
0.0
453
        0
470

  0
HATCH
  5
47E
330
1F
100
AcDbEntity
  8
0
100
AcDbHatch
 10
0.0
 20
0.0
 30
0.0
210
0.0
220
0.0
230
1.0
  2
SOLID
 70
     1
 71
     0
 91
        1
 92
        3
 72
     0
 73
     1
 93
        4
 10
1462.690998765501
 20
626.2716773931256
 10
1462.690998765501
 20
626.2949520861596
 10
1462.667724072467
 20
626.2949520861596
 10
1462.667724072467
 20
626.2716773931256
 97
        0
 75
     2
 76
     1
 98
        1
 10
1448.396865027437
 20
611.2653529679006
450
        0
451
        0
460
0.0
461
0.0
452
        0
462
0.0
453
        0
470

  0
HATCH
  5
47F
330
1F
100
AcDbEntity
  8
0
100
AcDbHatch
 10
0.0
 20
0.0
 30
0.0
210
0.0
220
0.0
230
1.0
  2
SOLID
 70
     1
 71
     0
 91
        1
 92
        3
 72
     0
 73
     1
 93
        4
 10
1462.690998765501
 20
626.2248296135576
 10
1462.690998765501
 20
626.2481043065912
 10
1462.667724072467
 20
626.2481043065912
 10
1462.667724072467
 20
626.2248296135576
 97
        0
 75
     2
 76
     1
 98
        1
 10
1448.396865027437
 20
611.2653529679006
450
        0
451
        0
460
0.0
461
0.0
452
        0
462
0.0
453
        0
470

  0
HATCH
  5
480
330
1F
100
AcDbEntity
  8
0
100
AcDbHatch
 10
0.0
 20
0.0
 30
0.0
210
0.0
220
0.0
230
1.0
  2
SOLID
 70
     1
 71
     0
 91
        1
 92
        3
 72
     0
 73
     1
 93
        4
 10
1462.646755147391
 20
626.2716773931256
 10
1462.646755147391
 20
626.2949520861596
 10
1462.623453327676
 20
626.2949520861596
 10
1462.623453327676
 20
626.2716773931256
 97
        0
 75
     2
 76
     1
 98
        1
 10
1448.396865027437
 20
611.2653529679006
450
        0
451
        0
460
0.0
461
0.0
452
        0
462
0.0
453
        0
470

  0
HATCH
  5
481
330
1F
100
AcDbEntity
  8
0
100
AcDbHatch
 10
0.0
 20
0.0
 30
0.0
210
0.0
220
0.0
230
1.0
  2
SOLID
 70
     1
 71
     0
 91
        1
 92
        3
 72
     0
 73
     1
 93
        4
 10
1462.646755147391
 20
626.2248296135576
 10
1462.646755147391
 20
626.2481043065912
 10
1462.623453327676
 20
626.2481043065912
 10
1462.623453327676
 20
626.2248296135576
 97
        0
 75
     2
 76
     1
 98
        1
 10
1448.396865027437
 20
611.2653529679006
450
        0
451
        0
460
0.0
461
0.0
452
        0
462
0.0
453
        0
470

  0
HATCH
  5
482
330
1F
100
AcDbEntity
  8
0
100
AcDbHatch
 10
0.0
 20
0.0
 30
0.0
210
0.0
220
0.0
230
1.0
  2
SOLID
 70
     1
 71
     0
 91
        1
 92
        3
 72
     0
 73
     1
 93
        4
 10
1462.603135442965
 20
626.2716773931256
 10
1462.603135442965
 20
626.2949520861596
 10
1462.579847186589
 20
626.2949520861596
 10
1462.579847186589
 20
626.2716773931256
 97
        0
 75
     2
 76
     1
 98
        1
 10
1448.396865027437
 20
611.2653529679006
450
        0
451
        0
460
0.0
461
0.0
452
        0
462
0.0
453
        0
470

  0
HATCH
  5
483
330
1F
100
AcDbEntity
  8
0
100
AcDbHatch
 10
0.0
 20
0.0
 30
0.0
210
0.0
220
0.0
230
1.0
  2
SOLID
 70
     1
 71
     0
 91
        1
 92
        3
 72
     0
 73
     1
 93
        4
 10
1462.603135442965
 20
626.2248296135576
 10
1462.603135442965
 20
626.2481043065912
 10
1462.579847186589
 20
626.2481043065912
 10
1462.579847186589
 20
626.2248296135576
 97
        0
 75
     2
 76
     1
 98
        1
 10
1448.396865027437
 20
611.2653529679006
450
        0
451
        0
460
0.0
461
0.0
452
        0
462
0.0
453
        0
470

  0
HATCH
  5
484
330
1F
100
AcDbEntity
  8
0
100
AcDbHatch
 10
0.0
 20
0.0
 30
0.0
210
0.0
220
0.0
230
1.0
  2
SOLID
 70
     1
 71
     0
 91
        1
 92
        3
 72
     0
 73
     1
 93
        4
 10
1462.73817206525
 20
626.3192169030812
 10
1462.73817206525
 20
626.3763321317322
 10
1462.57284850267
 20
626.3763321317322
 10
1462.57284850267
 20
626.3192169030812
 97
        0
 75
     2
 76
     1
 98
        1
 10
1448.396865027437
 20
611.2653529679006
450
        0
451
        0
460
0.0
461
0.0
452
        0
462
0.0
453
        0
470

  0
INSERT
  5
485
330
1F
100
AcDbEntity
  8
0
100
AcDbBlockReference
  2
AI9-BLK1
 10
1461.077951318859
 20
627.669867956114
 30
0.0
 41
0.0393699999999626
 42
0.0393699999999626
 43
0.0393699999999626
  0
LINE
  5
486
330
1F
100
AcDbEntity
  8
0
100
AcDbLine
 10
1461.43265981083
 20
627.6017257312876
 30
0.0
 11
1461.43265981083
 21
627.6417240236867
 31
0.0
  0
SPLINE
  5
487
330
1F
100
AcDbEntity
  8
0
100
AcDbSpline
210
0.0
220
0.0
230
1.0
 70
     8
 71
     3
 72
     8
 73
     4
 74
     0
 42
0.0000000001
 43
0.0000000001
 40
0.0
 40
0.0
 40
0.0
 40
0.0
 40
1.0
 40
1.0
 40
1.0
 40
1.0
 10
1462.558498487968
 20
626.6058916769526
 30
0.0
 10
1462.374593148315
 20
627.1083998950246
 30
0.0
 10
1461.953573482542
 20
627.4802524499291
 30
0.0
 10
1461.43265981083
 20
627.6017257312876
 30
0.0
  0
SPLINE
  5
488
330
1F
100
AcDbEntity
  8
0
100
AcDbSpline
210
0.0
220
0.0
230
1.0
 70
     8
 71
     3
 72
     8
 73
     4
 74
     0
 42
0.0000000001
 43
0.0000000001
 40
0.0
 40
0.0
 40
0.0
 40
0.0
 40
1.0
 40
1.0
 40
1.0
 40
1.0
 10
1462.595160198499
 20
626.6192244410857
 30
0.0
 10
1462.409315301091
 20
627.1338175959251
 30
0.0
 10
1461.966906246675
 20
627.5234923808102
 30
0.0
 10
1461.43265981083
 20
627.6417240236867
 30
0.0
  0
LINE
  5
489
330
1F
100
AcDbEntity
  8
0
100
AcDbLine
 10
1461.43265981083
 20
627.6283912595537
 30
0.0
 11
1461.443496920233
 21
627.6392283689557
 31
0.0
  0
LINE
  5
48A
330
1F
100
AcDbEntity
  8
0
100
AcDbLine
 10
1461.440160338363
 20
627.6000574403536
 30
0.0
 11
1461.472658103229
 21
627.6325552052187
 31
0.0
  0
LINE
  5
48B
330
1F
100
AcDbEntity
  8
0
100
AcDbLine
 10
1461.468494157564
 20
627.5925569128196
 30
0.0
 11
1461.500164558632
 21
627.625054677685
 31
0.0
  0
LINE
  5
48C
330
1F
100
AcDbEntity
  8
0
100
AcDbLine
 10
1461.496000612967
 20
627.585056385286
 30
0.0
 11
1461.527657450696
 21
627.6175541501515
 31
0.0
  0
LINE
  5
48D
330
1F
100
AcDbEntity
  8
0
100
AcDbLine
 10
1461.523493505031
 20
627.5775558577525
 30
0.0
 11
1461.555163906099
 21
627.609226258821
 31
0.0
  0
LINE
  5
48E
330
1F
100
AcDbEntity
  8
0
100
AcDbLine
 10
1461.550999960434
 20
627.569227966422
 30
0.0
 11
1461.581829434365
 21
627.6008848041501
 31
0.0
  0
LINE
  5
48F
330
1F
100
AcDbEntity
  8
0
100
AcDbLine
 10
1461.5776654887
 20
627.5608865117507
 30
0.0
 11
1461.608494962631
 21
627.5917295490232
 31
0.0
  0
LINE
  5
490
330
1F
100
AcDbEntity
  8
0
100
AcDbLine
 10
1461.603490089828
 20
627.5517176932829
 30
0.0
 11
1461.634333127101
 21
627.582560730555
 31
0.0
  0
LINE
  5
491
330
1F
100
AcDbEntity
  8
0
100
AcDbLine
 10
1461.629328254298
 20
627.542562438156
 30
0.0
 11
1461.660157728229
 21
627.5725509849498
 31
0.0
  0
LINE
  5
492
330
1F
100
AcDbEntity
  8
0
100
AcDbLine
 10
1461.655166418767
 20
627.5325526925506
 30
0.0
 11
1461.685168528902
 21
627.5625548026851
 31
0.0
  0
LINE
  5
493
330
1F
100
AcDbEntity
  8
0
100
AcDbLine
 10
1461.680163656099
 20
627.5225565102861
 30
0.0
 11
1461.710165766233
 21
627.5525586204205
 31
0.0
  0
LINE
  5
494
330
1F
100
AcDbEntity
  8
0
100
AcDbLine
 10
1461.705160893431
 20
627.5117194008839
 30
0.0
 11
1461.735163003565
 21
627.5417215110185
 31
0.0
  0
LINE
  5
495
330
1F
100
AcDbEntity
  8
0
100
AcDbLine
 10
1461.729330766966
 20
627.5008958548227
 30
0.0
 11
1461.759332877101
 21
627.5308844016162
 31
0.0
  0
LINE
  5
496
330
1F
100
AcDbEntity
  8
0
100
AcDbLine
 10
1461.753500640501
 20
627.4900587454205
 30
0.0
 11
1461.783502750635
 21
627.5192199284178
 31
0.0
  0
LINE
  5
497
330
1F
100
AcDbEntity
  8
0
100
AcDbLine
 10
1461.777656950696
 20
627.4783942722217
 30
0.0
 11
1461.806831697033
 21
627.5075554552187
 31
0.0
  0
LINE
  5
498
330
1F
100
AcDbEntity
  8
0
100
AcDbLine
 10
1461.800999460434
 20
627.4658888718855
 30
0.0
 11
1461.830160643431
 21
627.4958909820201
 31
0.0
  0
LINE
  5
499
330
1F
100
AcDbEntity
  8
0
100
AcDbLine
 10
1461.824328406831
 20
627.4542243986867
 30
0.0
 11
1461.853489589828
 21
627.4833855816837
 31
0.0
  0
LINE
  5
49A
330
1F
100
AcDbEntity
  8
0
100
AcDbLine
 10
1461.846829989432
 20
627.4417189983502
 30
0.0
 11
1461.875991172429
 21
627.4708937446883
 31
0.0
  0
LINE
  5
49B
330
1F
100
AcDbEntity
  8
0
100
AcDbLine
 10
1461.869331572033
 20
627.4283862342172
 30
0.0
 11
1461.898492755031
 21
627.4575609805546
 31
0.0
  0
LINE
  5
49C
330
1F
100
AcDbEntity
  8
0
100
AcDbLine
 10
1461.891833154634
 20
627.4158943972219
 30
0.0
 11
1461.920166973835
 21
627.4442282164216
 31
0.0
  0
LINE
  5
49D
330
1F
100
AcDbEntity
  8
0
100
AcDbLine
 10
1461.913493810097
 20
627.4025616330889
 30
0.0
 11
1461.942668556435
 21
627.4308954522889
 31
0.0
  0
LINE
  5
49E
330
1F
100
AcDbEntity
  8
0
100
AcDbLine
 10
1461.935168028902
 20
627.3883879418182
 30
0.0
 11
1461.963501848102
 21
627.4167217610186
 31
0.0
  0
LINE
  5
49F
330
1F
100
AcDbEntity
  8
0
100
AcDbLine
 10
1461.956828684366
 20
627.3742278138885
 30
0.0
 11
1461.985162503565
 21
627.4025616330889
 31
0.0
  0
LINE
  5
4A0
330
1F
100
AcDbEntity
  8
0
100
AcDbLine
 10
1461.977661976031
 20
627.3600541226177
 30
0.0
 11
1462.005995795232
 21
627.3883879418182
 31
0.0
  0
LINE
  5
4A1
330
1F
100
AcDbEntity
  8
0
100
AcDbLine
 10
1461.998495267698
 20
627.3450530675506
 30
0.0
 11
1462.026829086899
 21
627.3733868867507
 31
0.0
  0
LINE
  5
4A2
330
1F
100
AcDbEntity
  8
0
100
AcDbLine
 10
1462.018501195569
 20
627.3300520124831
 30
0.0
 11
1462.046835014768
 21
627.3583858316832
 31
0.0
  0
LINE
  5
4A3
330
1F
100
AcDbEntity
  8
0
100
AcDbLine
 10
1462.039334487235
 20
627.3150509574161
 30
0.0
 11
1462.066827379298
 21
627.3433847766162
 31
0.0
  0
LINE
  5
4A4
330
1F
100
AcDbEntity
  8
0
100
AcDbLine
 10
1462.058499487967
 20
627.3000634656897
 30
0.0
 11
1462.086833307168
 21
627.3275563577525
 31
0.0
  0
LINE
  5
4A5
330
1F
100
AcDbEntity
  8
0
100
AcDbLine
 10
1462.078491852497
 20
627.2842214834849
 30
0.0
 11
1462.1059983079
 21
627.3117279388884
 31
0.0
  0
LINE
  5
4A6
330
1F
100
AcDbEntity
  8
0
100
AcDbLine
 10
1462.097656853229
 20
627.2675521374832
 30
0.0
 11
1462.125163308632
 21
627.2958859566837
 31
0.0
  0
LINE
  5
4A7
330
1F
100
AcDbEntity
  8
0
100
AcDbLine
 10
1462.116835417302
 20
627.2517237186193
 30
0.0
 11
1462.144328309365
 21
627.2792301740229
 31
0.0
  0
LINE
  5
4A8
330
1F
100
AcDbEntity
  8
0
100
AcDbLine
 10
1462.135159490897
 20
627.2350543726177
 30
0.0
 11
1462.163493310097
 21
627.2625608280216
 31
0.0
  0
LINE
  5
4A9
330
1F
100
AcDbEntity
  8
0
100
AcDbLine
 10
1462.153497127833
 20
627.2175576628195
 30
0.0
 11
1462.181830947033
 21
627.24589148202
 31
0.0
  0
LINE
  5
4AA
330
1F
100
AcDbEntity
  8
0
100
AcDbLine
 10
1462.171834764769
 20
627.2008883168181
 30
0.0
 11
1462.199327656831
 21
627.2283947722219
 31
0.0
  0
LINE
  5
4AB
330
1F
100
AcDbEntity
  8
0
100
AcDbLine
 10
1462.189331474566
 20
627.1833916070201
 30
0.0
 11
1462.217665293767
 21
627.2108844990826
 31
0.0
  0
LINE
  5
4AC
330
1F
100
AcDbEntity
  8
0
100
AcDbLine
 10
1462.207655548162
 20
627.1650539700841
 30
0.0
 11
1462.235162003565
 21
627.1933877892847
 31
0.0
  0
LINE
  5
4AD
330
1F
100
AcDbEntity
  8
0
100
AcDbLine
 10
1462.224324894163
 20
627.1475572602859
 30
0.0
 11
1462.252658713363
 21
627.1750637156896
 31
0.0
  0
LINE
  5
4AE
330
1F
100
AcDbEntity
  8
0
100
AcDbLine
 10
1462.241835167303
 20
627.1292196233502
 30
0.0
 11
1462.269328059365
 21
627.156726078754
 31
0.0
  0
LINE
  5
4AF
330
1F
100
AcDbEntity
  8
0
100
AcDbLine
 10
1462.258490949963
 20
627.1100546226179
 30
0.0
 11
1462.285997405366
 21
627.1383884418181
 31
0.0
  0
LINE
  5
4B0
330
1F
100
AcDbEntity
  8
0
100
AcDbLine
 10
1462.275160295964
 20
627.0917305490229
 30
0.0
 11
1462.302666751368
 21
627.1192234410857
 31
0.0
  0
LINE
  5
4B1
330
1F
100
AcDbEntity
  8
0
100
AcDbLine
 10
1462.290988714828
 20
627.0725519849498
 30
0.0
 11
1462.318495170232
 21
627.1000584403537
 31
0.0
  0
LINE
  5
4B2
330
1F
100
AcDbEntity
  8
0
100
AcDbLine
 10
1462.306830697033
 20
627.0525596204205
 30
0.0
 11
1462.335164516233
 21
627.0808934396209
 31
0.0
  0
LINE
  5
4B3
330
1F
100
AcDbEntity
  8
0
100
AcDbLine
 10
1462.322659115897
 20
627.0333946196882
 30
0.0
 11
1462.350165571301
 21
627.0608875117507
 31
0.0
  0
LINE
  5
4B4
330
1F
100
AcDbEntity
  8
0
100
AcDbLine
 10
1462.337660170964
 20
627.0125613280214
 30
0.0
 11
1462.365993990164
 21
627.0408951472217
 31
0.0
  0
LINE
  5
4B5
330
1F
100
AcDbEntity
  8
0
100
AcDbLine
 10
1462.352661226032
 20
626.9925554001518
 30
0.0
 11
1462.380995045232
 21
627.0208892193517
 31
0.0
  0
LINE
  5
4B6
330
1F
100
AcDbEntity
  8
0
100
AcDbLine
 10
1462.367662281099
 20
626.9717221084849
 30
0.0
 11
1462.395996100299
 21
627.0000559276851
 31
0.0
  0
LINE
  5
4B7
330
1F
100
AcDbEntity
  8
0
100
AcDbLine
 10
1462.381822409028
 20
626.9508888168181
 30
0.0
 11
1462.410156228229
 21
626.9792226360188
 31
0.0
  0
LINE
  5
4B8
330
1F
100
AcDbEntity
  8
0
100
AcDbLine
 10
1462.395996100299
 20
626.9300555251516
 30
0.0
 11
1462.4243299195
 21
626.9583893443519
 31
0.0
  0
LINE
  5
4B9
330
1F
100
AcDbEntity
  8
0
100
AcDbLine
 10
1462.410156228229
 20
626.9083948696881
 30
0.0
 11
1462.43849004743
 21
626.9367286888885
 31
0.0
  0
LINE
  5
4BA
330
1F
100
AcDbEntity
  8
0
100
AcDbLine
 10
1462.423488992362
 20
626.8867206508835
 30
0.0
 11
1462.451822811562
 21
626.9150544700842
 31
0.0
  0
LINE
  5
4BB
330
1F
100
AcDbEntity
  8
0
100
AcDbLine
 10
1462.436821756495
 20
626.8642190682832
 30
0.0
 11
1462.465155575696
 21
626.8933938146211
 31
0.0
  0
LINE
  5
4BC
330
1F
100
AcDbEntity
  8
0
100
AcDbLine
 10
1462.449327156831
 20
626.8417310490231
 30
0.0
 11
1462.478488339828
 21
626.87089223202
 31
0.0
  0
LINE
  5
4BD
330
1F
100
AcDbEntity
  8
0
100
AcDbLine
 10
1462.461832557168
 20
626.8192294664219
 30
0.0
 11
1462.490993740165
 21
626.8483906494191
 31
0.0
  0
LINE
  5
4BE
330
1F
100
AcDbEntity
  8
0
100
AcDbLine
 10
1462.474324394164
 20
626.7958869566837
 30
0.0
 11
1462.503499140501
 21
626.8250617030214
 31
0.0
  0
LINE
  5
4BF
330
1F
100
AcDbEntity
  8
0
100
AcDbLine
 10
1462.486829794499
 20
626.772558010286
 30
0.0
 11
1462.515990977496
 21
626.8017191932831
 31
0.0
  0
LINE
  5
4C0
330
1F
100
AcDbEntity
  8
0
100
AcDbLine
 10
1462.498494267699
 20
626.7492290638886
 30
0.0
 11
1462.527655450696
 21
626.7783902468855
 31
0.0
  0
LINE
  5
4C1
330
1F
100
AcDbEntity
  8
0
100
AcDbLine
 10
1462.5093313771
 20
626.7250591903533
 30
0.0
 11
1462.539333487235
 21
626.7550613004877
 31
0.0
  0
LINE
  5
4C2
330
1F
100
AcDbEntity
  8
0
100
AcDbLine
 10
1462.520154923162
 20
626.7008893168181
 30
0.0
 11
1462.550157033296
 21
626.7300640631559
 31
0.0
  0
LINE
  5
4C3
330
1F
100
AcDbEntity
  8
0
100
AcDbLine
 10
1462.530992032564
 20
626.6758920794862
 30
0.0
 11
1462.560994142698
 21
626.7058941896209
 31
0.0
  0
LINE
  5
4C4
330
1F
100
AcDbEntity
  8
0
100
AcDbLine
 10
1462.540988214828
 20
626.6508948421542
 30
0.0
 11
1462.5718312521
 21
626.6808969522891
 31
0.0
  0
LINE
  5
4C5
330
1F
100
AcDbEntity
  8
0
100
AcDbLine
 10
1462.550997960434
 20
626.625056677685
 30
0.0
 11
1462.581827434365
 21
626.6558861516163
 31
0.0
  0
LINE
  5
4C6
330
1F
100
AcDbEntity
  8
0
100
AcDbLine
 10
1462.5718312521
 20
626.6100556226176
 30
0.0
 11
1462.591823616629
 21
626.630061550488
 31
0.0
  0
LINE
  5
4C7
330
1F
100
AcDbEntity
  8
0
100
AcDbLine
 10
1461.444324284028
 20
627.5983891494193
 30
0.0
 11
1461.43265981083
 21
627.6100536226176
 31
0.0
  0
LINE
  5
4C8
330
1F
100
AcDbEntity
  8
0
100
AcDbLine
 10
1461.491836667302
 20
627.5867246762202
 30
0.0
 11
1461.437664683632
 21
627.6408966598901
 31
0.0
  0
LINE
  5
4C9
330
1F
100
AcDbEntity
  8
0
100
AcDbLine
 10
1461.541831141967
 20
627.5725509849498
 30
0.0
 11
1461.484336139769
 21
627.6292186233502
 31
0.0
  0
LINE
  5
4CA
330
1F
100
AcDbEntity
  8
0
100
AcDbLine
 10
1461.594334834702
 20
627.5550542751515
 30
0.0
 11
1461.533503250635
 21
627.6158858592172
 31
0.0
  0
LINE
  5
4CB
330
1F
100
AcDbEntity
  8
0
100
AcDbLine
 10
1462.573499543034
 20
626.6108965497552
 30
0.0
 11
1462.545993087631
 21
626.6383894418181
 31
0.0
  0
LINE
  5
4CC
330
1F
100
AcDbEntity
  8
0
100
AcDbLine
 10
1461.650161545964
 20
627.5342209834847
 30
0.0
 11
1461.585166016234
 21
627.6000574403536
 31
0.0
  0
LINE
  5
4CD
330
1F
100
AcDbEntity
  8
0
100
AcDbLine
 10
1462.592664543767
 20
626.6275523324161
 30
0.0
 11
1462.520995850299
 21
626.6983936620873
 31
0.0
  0
LINE
  5
4CE
330
1F
100
AcDbEntity
  8
0
100
AcDbLine
 10
1461.710165766233
 20
627.5092237461531
 30
0.0
 11
1461.639324436563
 21
627.5808924396207
 31
0.0
  0
LINE
  5
4CF
330
1F
100
AcDbEntity
  8
0
100
AcDbLine
 10
1462.569322034028
 20
626.6858882617507
 30
0.0
 11
1462.490166376368
 21
626.7650574827522
 31
0.0
  0
LINE
  5
4D0
330
1F
100
AcDbEntity
  8
0
100
AcDbLine
 10
1461.776829586898
 20
627.4783942722217
 30
0.0
 11
1461.697660365898
 21
627.5575634932232
 31
0.0
  0
LINE
  5
4D1
330
1F
100
AcDbEntity
  8
0
100
AcDbLine
 10
1462.541829141966
 20
626.748388136751
 30
0.0
 11
1462.450995447766
 21
626.8400627580887
 31
0.0
  0
LINE
  5
4D2
330
1F
100
AcDbEntity
  8
0
100
AcDbLine
 10
1461.851834862235
 20
627.4392233436192
 30
0.0
 11
1461.760160240898
 21
627.5300570378195
 31
0.0
  0
LINE
  5
4D3
330
1F
100
AcDbEntity
  8
0
100
AcDbLine
 10
1462.50682215903
 20
626.8192294664219
 30
0.0
 11
1462.395996100299
 21
626.9300555251516
 31
0.0
  0
LINE
  5
4D4
330
1F
100
AcDbEntity
  8
0
100
AcDbLine
 10
1461.941827629298
 20
627.384223996153
 30
0.0
 11
1461.831001570568
 21
627.4950636182232
 31
0.0
  0
LINE
  5
4D5
330
1F
100
AcDbEntity
  8
0
100
AcDbLine
 10
1462.46099163003
 20
626.9000534150173
 30
0.0
 11
1462.299330169499
 21
627.0617284388885
 31
0.0
  0
LINE
  5
4D6
330
1F
100
AcDbEntity
  8
0
100
AcDbLine
 10
1462.073500543035
 20
627.2875580653532
 30
0.0
 11
1461.911825519164
 21
627.449219525884
 31
0.0
  0
LINE
  5
4D7
330
1F
100
AcDbEntity
  8
0
100
AcDbLine
 10
1462.394327809366
 20
627.0025515824161
 30
0.0
 11
1462.014323686562
 21
627.3825557052187
 31
0.0
  0
LINE
  5
4D8
330
1F
100
AcDbEntity
  8
0
100
AcDbLine
 10
1471.896168127417
 20
626.9729874619307
 30
0.0
 11
1471.896398374041
 21
625.1619663741694
 31
0.0
  0
LINE
  5
4D9
330
1F
100
AcDbEntity
  8
0
100
AcDbLine
 10
1472.277923936139
 20
627.2167094721526
 30
0.0
 11
1472.277923936139
 21
624.9174696802286
 31
0.0
  0
ARC
  5
4DA
330
1F
100
AcDbEntity
  8
0
100
AcDbCircle
 10
1472.309419936139
 20
624.9174696802286
 30
0.0
 40
0.031496
100
AcDbArc
 50
180.0
 51
269.9441527973779
  0
LINE
  5
4DB
330
1F
100
AcDbEntity
  8
0
 48
4.0
100
AcDbLine
 10
1472.671593031813
 20
623.2271604983504
 30
0.0
 11
1472.671593031813
 21
623.2862154983505
 31
0.0
  0
LINE
  5
4DC
330
1F
100
AcDbEntity
  8
0
 48
4.0
100
AcDbLine
 10
1470.219109935283
 20
623.1533417483504
 30
0.0
 11
1470.219109935283
 21
623.3593397342318
 31
0.0
  0
LINE
  5
4DD
330
1F
100
AcDbEntity
  8
0
 48
4.0
100
AcDbLine
 10
1470.691549935283
 20
623.3593397342318
 30
0.0
 11
1470.691549935283
 21
623.1533417483504
 31
0.0
  0
ARC
  5
4DE
330
1F
100
AcDbEntity
  8
0
 48
4.0
100
AcDbCircle
 10
1470.455329935283
 20
622.6169254983504
 30
0.0
 40
0.7873999999999996
100
AcDbArc
 50
73.18154700659831
 51
106.8184529934017
  0
ARC
  5
4DF
330
1F
100
AcDbEntity
  8
0
 48
4.0
100
AcDbCircle
 10
1470.679738935283
 20
623.3593397342318
 30
0.0
 40
0.0118109999999999
100
AcDbArc
 50
0.0
 51
73.18154700659831
  0
ARC
  5
4E0
330
1F
100
AcDbEntity
  8
0
 48
4.0
100
AcDbCircle
 10
1470.230920935283
 20
623.3593397342318
 30
0.0
 40
0.0118109999999999
100
AcDbArc
 50
106.8184529934017
 51
180.0
  0
LINE
  5
4E1
330
1F
100
AcDbEntity
  8
0
 48
4.0
100
AcDbLine
 10
1472.671593031813
 20
623.2862154983502
 30
0.0
 11
1472.671593031813
 21
623.2271604983504
 31
0.0
  0
LINE
  5
4E2
330
1F
100
AcDbEntity
  8
0
 48
4.0
100
AcDbLine
 10
1472.256251122335
 20
621.2196943857207
 30
0.0
 11
1471.8539217135
 21
621.2200865416957
 31
0.0
  0
LINE
  5
4E3
330
1F
100
AcDbEntity
  8
0
 48
4.0
100
AcDbLine
 10
1471.8539217135
 20
623.031107405388
 30
0.0
 11
1472.258016355063
 21
623.0307135254188
 31
0.0
  0
LINE
  5
4E4
330
1F
100
AcDbEntity
  8
0
 48
4.0
100
AcDbLine
 10
1472.649682312941
 20
620.9437207703907
 30
0.0
 11
1472.309404568684
 21
620.9440524451906
 31
0.0
  0
ARC
  5
4E5
330
1F
100
AcDbEntity
  8
0
 48
4.0
100
AcDbCircle
 10
1472.651908041164
 20
620.9634057610396
 30
0.0
 40
0.019685
100
AcDbArc
 50
269.9441527973779
 51
359.9441527972126
  0
ARC
  5
4E6
330
1F
100
AcDbEntity
  8
0
 48
4.0
100
AcDbCircle
 10
1472.256231935023
 20
621.2000093950714
 30
0.0
 40
0.019685
100
AcDbArc
 50
359.9441527972126
 51
89.94415279737792
  0
LINE
  5
4E7
330
1F
100
AcDbEntity
  8
0
 48
4.0
100
AcDbLine
 10
1472.309465953122
 20
623.3062535074915
 30
0.0
 11
1472.651984790413
 21
623.3059196482579
 31
0.0
  0
ARC
  5
4E8
330
1F
100
AcDbEntity
  8
0
 48
4.0
100
AcDbCircle
 10
1472.6519656031
 20
623.2862346576093
 30
0.0
 40
0.019685
100
AcDbArc
 50
359.9441527972126
 51
89.94415279737792
  0
LINE
  5
4E9
330
1F
100
AcDbEntity
  8
0
 48
4.0
100
AcDbLine
 10
1472.671650593749
 20
623.2862154702973
 30
0.0
 11
1472.671593031813
 21
623.2271604983504
 31
0.0
  0
ARC
  5
4EA
330
1F
100
AcDbEntity
  8
0
 48
4.0
100
AcDbCircle
 10
1472.309435253422
 20
623.274757522453
 30
0.0
 40
0.0314960000000005
100
AcDbArc
 50
89.94415279737792
 51
179.9441527972125
  0
ARC
  5
4EB
330
1F
100
AcDbEntity
  8
0
 48
4.0
100
AcDbCircle
 10
1472.258035542375
 20
623.0503985160677
 30
0.0
 40
0.019685
100
AcDbArc
 50
269.9441527973779
 51
359.9441527972126
  0
LINE
  5
4EC
330
1F
100
AcDbEntity
  8
0
 48
4.0
100
AcDbLine
 10
1472.649682312941
 20
620.9437207703907
 30
0.0
 11
1472.651888853851
 21
620.9437207703907
 31
0.0
  0
LINE
  5
4ED
330
1F
100
AcDbEntity
  8
0
 48
4.0
100
AcDbLine
 10
1471.854032815931
 20
621.2200864334024
 30
0.0
 11
1471.854032815931
 21
621.2200864334024
 31
0.0
  0
LINE
  5
4EE
330
1F
100
AcDbEntity
  8
0
 48
4.0
100
AcDbLine
 10
1471.8539217135
 20
621.1061017483501
 30
0.0
 11
1469.8263667135
 21
621.1061017483501
 31
0.0
  0
LINE
  5
4EF
330
1F
100
AcDbEntity
  8
0
 48
4.0
100
AcDbLine
 10
1469.7673117135
 20
623.0942867483502
 30
0.0
 11
1469.7673117135
 21
621.1651567483502
 31
0.0
  0
ARC
  5
4F0
330
1F
100
AcDbEntity
  8
0
 48
4.0
100
AcDbCircle
 10
1469.8263667135
 20
621.1651567483502
 30
0.0
 40
0.059055
100
AcDbArc
 50
180.0
 51
270.0
  0
ARC
  5
4F1
330
1F
100
AcDbEntity
  8
0
 48
4.0
100
AcDbCircle
 10
1469.8263667135
 20
623.0942867483502
 30
0.0
 40
0.059055
100
AcDbArc
 50
90.0
 51
180.0
  0
LINE
  5
4F2
330
1F
100
AcDbEntity
  8
0
 48
4.0
100
AcDbLine
 10
1471.8539217135
 20
623.1533417483504
 30
0.0
 11
1469.8263667135
 21
623.1533417483504
 31
0.0
  0
LINE
  5
4F3
330
1F
100
AcDbEntity
  8
0
 48
4.0
100
AcDbLine
 10
1470.2161297135
 20
623.1533417483504
 30
0.0
 11
1470.219109935283
 21
623.1533417483504
 31
0.0
  0
LINE
  5
4F4
330
1F
100
AcDbEntity
  8
0
 48
4.0
100
AcDbLine
 10
1470.6964437135
 20
623.1533417483504
 30
0.0
 11
1470.691549935283
 21
623.1533417483504
 31
0.0
  0
LINE
  5
4F5
330
1F
100
AcDbEntity
  8
0
100
AcDbLine
 10
1472.277939268384
 20
623.2747882221527
 30
0.0
 11
1472.277939268384
 21
620.9755484302291
 31
0.0
  0
ARC
  5
4F6
330
1F
100
AcDbEntity
  8
0
100
AcDbCircle
 10
1472.309435268384
 20
620.9755484302291
 30
0.0
 40
0.031496
100
AcDbArc
 50
180.0
 51
269.9441527973779
  0
LINE
  5
4F7
330
1F
100
AcDbEntity
  8
0
100
AcDbLine
 10
1471.8539217135
 20
623.1533417483504
 30
0.0
 11
1471.8539217135
 21
621.1061017483501
 31
0.0
  0
LINE
  5
4F8
330
1F
100
AcDbEntity
  8
0
100
AcDbLine
 10
1470.6964437135
 20
623.1533417483504
 30
0.0
 11
1470.691549935283
 21
623.1533417483504
 31
0.0
  0
LINE
  5
4F9
330
1F
100
AcDbEntity
  8
0
100
AcDbLine
 10
1460.094243852496
 20
636.0693768275132
 30
0.0
 11
1463.777156225047
 21
636.0693768275132
 31
0.0
  0
LINE
  5
4FA
330
1F
100
AcDbEntity
  8
0
 48
4.0
100
AcDbLine
 10
1457.732043852496
 20
636.5418168275132
 30
0.0
 11
1457.732043852496
 21
636.4571432003432
 31
0.0
  0
LINE
  5
4FB
330
1F
100
AcDbEntity
  8
0
 48
4.0
100
AcDbLine
 10
1461.078493852496
 20
636.0693768275132
 30
0.0
 11
1458.338951140546
 21
636.0693768275132
 31
0.0
  0
ARC
  5
4FC
330
1F
100
AcDbEntity
  8
0
 48
4.0
100
AcDbCircle
 10
1458.338951140546
 20
636.1284318275132
 30
0.0
 40
0.059055
100
AcDbArc
 50
239.03624346804
 51
270.0
  0
LINE
  5
4FD
330
1F
100
AcDbEntity
  8
0
100
AcDbLine
 10
1457.732043852496
 20
636.5418168275132
 30
0.0
 11
1464.384063513097
 21
636.5418168275132
 31
0.0
  0
LINE
  5
4FE
330
1F
100
AcDbEntity
  8
0
 48
4.0
100
AcDbLine
 10
1459.956448852496
 20
636.0693768275132
 30
0.0
 11
1459.897393852496
 21
636.0693768275132
 31
0.0
  0
LINE
  5
4FF
330
1F
100
AcDbEntity
  8
0
 48
4.0
100
AcDbLine
 10
1462.220223852497
 20
636.0693768275132
 30
0.0
 11
1462.161168852496
 21
636.0693768275132
 31
0.0
  0
ARC
  5
500
330
1F
100
AcDbEntity
  8
0
 48
4.0
100
AcDbCircle
 10
1459.897393852496
 20
636.0496918275132
 30
0.0
 40
0.019685
100
AcDbArc
 50
90.0
 51
180.0
  0
LINE
  5
501
330
1F
100
AcDbEntity
  8
0
 48
4.0
100
AcDbLine
 10
1459.897393852496
 20
636.0693768275132
 30
0.0
 11
1459.956448852496
 21
636.0693768275132
 31
0.0
  0
LINE
  5
502
330
1F
100
AcDbEntity
  8
0
 48
4.0
100
AcDbLine
 10
1462.161168852496
 20
636.0693768275132
 30
0.0
 11
1462.220223852497
 21
636.0693768275132
 31
0.0
  0
LINE
  5
503
330
1F
100
AcDbEntity
  8
0
 48
4.0
100
AcDbLine
 10
1460.091079725384
 20
633.2199290750046
 30
0.0
 11
1460.067350471729
 21
633.2436583286595
 31
0.0
  0
LINE
  5
504
330
1F
100
AcDbEntity
  8
0
 48
4.0
100
AcDbLine
 10
1460.133613852496
 20
633.2074524557722
 30
0.0
 11
1461.078493852496
 21
633.2074524557722
 31
0.0
  0
ARC
  5
505
330
1F
100
AcDbEntity
  8
0
 48
4.0
100
AcDbCircle
 10
1460.133613852496
 20
633.2861924557723
 30
0.0
 40
0.0787400000000001
100
AcDbArc
 50
180.0
 51
270.0
  0
LINE
  5
506
330
1F
100
AcDbEntity
  8
0
 48
4.0
100
AcDbLine
 10
1460.054873852497
 20
635.2940624557723
 30
0.0
 11
1460.054873852497
 21
633.2861924557723
 31
0.0
  0
LINE
  5
507
330
1F
100
AcDbEntity
  8
0
 48
4.0
100
AcDbLine
 10
1462.102113852496
 20
633.2861924557723
 30
0.0
 11
1462.102113852496
 21
633.689734955772
 31
0.0
  0
ARC
  5
508
330
1F
100
AcDbEntity
  8
0
 48
4.0
100
AcDbCircle
 10
1462.023373852497
 20
633.2861924557723
 30
0.0
 40
0.0787400000000002
100
AcDbArc
 50
270.0
 51
0.0
  0
LINE
  5
509
330
1F
100
AcDbEntity
  8
0
 48
4.0
100
AcDbLine
 10
1461.078493852496
 20
633.2074524557722
 30
0.0
 11
1462.023373852497
 21
633.2074524557722
 31
0.0
  0
ARC
  5
50A
330
1F
100
AcDbEntity
  8
0
 48
4.0
100
AcDbCircle
 10
1462.023373852497
 20
633.2861924557723
 30
0.0
 40
0.0787400000000001
100
AcDbArc
 50
270.0
 51
0.0
  0
LINE
  5
50B
330
1F
100
AcDbEntity
  8
0
 48
4.0
100
AcDbLine
 10
1460.054873852497
 20
635.2940624557723
 30
0.0
 11
1460.054873852497
 21
633.2861924557723
 31
0.0
  0
LINE
  5
50C
330
1F
100
AcDbEntity
  8
0
 48
4.0
100
AcDbLine
 10
1462.102113852496
 20
635.2940624557723
 30
0.0
 11
1462.102113852496
 21
633.2861924557723
 31
0.0
  0
LINE
  5
50D
330
1F
100
AcDbEntity
  8
0
 48
4.0
100
AcDbLine
 10
1462.023373852497
 20
633.2074524557722
 30
0.0
 11
1460.133613852496
 21
633.2074524557722
 31
0.0
  0
LINE
  5
50E
330
1F
100
AcDbEntity
  8
0
 48
4.0
100
AcDbLine
 10
1461.963914965126
 20
635.6540349180362
 30
0.0
 11
1461.963564226677
 21
635.2941975019867
 31
0.0
  0
LINE
  5
50F
330
1F
100
AcDbEntity
  8
0
 48
4.0
100
AcDbLine
 10
1460.152543138916
 20
635.293967255362
 30
0.0
 11
1460.152895825428
 21
635.6558001507639
 31
0.0
  0
LINE
  5
510
330
1F
100
AcDbEntity
  8
0
 48
4.0
100
AcDbLine
 10
1462.161167805173
 20
636.0672278485402
 30
0.0
 11
1462.220222777119
 21
636.0671702866036
 31
0.0
  0
LINE
  5
511
330
1F
100
AcDbEntity
  8
0
 48
4.0
100
AcDbLine
 10
1462.239888580456
 20
636.0474661086425
 30
0.0
 11
1462.239556905656
 21
635.7071883643852
 31
0.0
  0
ARC
  5
512
330
1F
100
AcDbEntity
  8
0
 48
4.0
100
AcDbCircle
 10
1462.220203589807
 20
636.0474852959547
 30
0.0
 40
0.019685
100
AcDbArc
 50
359.9441527972126
 51
89.94415279737792
  0
ARC
  5
513
330
1F
100
AcDbEntity
  8
0
 48
4.0
100
AcDbCircle
 10
1461.983599955775
 20
635.6540157307239
 30
0.0
 40
0.019685
100
AcDbArc
 50
89.94415279737792
 51
179.9441527972125
  0
LINE
  5
514
330
1F
100
AcDbEntity
  8
0
 48
4.0
100
AcDbLine
 10
1459.877355843355
 20
635.7072497488227
 30
0.0
 11
1459.877689702589
 21
636.0497685861132
 31
0.0
  0
ARC
  5
515
330
1F
100
AcDbEntity
  8
0
 48
4.0
100
AcDbCircle
 10
1459.897374693237
 20
636.0497493988012
 30
0.0
 40
0.019685
100
AcDbArc
 50
89.94415279737792
 51
179.9441527972125
  0
LINE
  5
516
330
1F
100
AcDbEntity
  8
0
 48
4.0
100
AcDbLine
 10
1459.897393880551
 20
636.0694343894501
 30
0.0
 11
1459.956448852496
 21
636.0693768275132
 31
0.0
  0
ARC
  5
517
330
1F
100
AcDbEntity
  8
0
 48
4.0
100
AcDbCircle
 10
1459.908851828393
 20
635.7072190491232
 30
0.0
 40
0.0314960000000005
100
AcDbArc
 50
179.9441527972125
 51
269.9441527973779
  0
ARC
  5
518
330
1F
100
AcDbEntity
  8
0
 48
4.0
100
AcDbCircle
 10
1460.133210834779
 20
635.6558193380763
 30
0.0
 40
0.019685
100
AcDbArc
 50
359.9441527972126
 51
89.94415279737792
  0
LINE
  5
519
330
1F
100
AcDbEntity
  8
0
 48
4.0
100
AcDbLine
 10
1460.054873852497
 20
635.2940624557723
 30
0.0
 11
1460.152543138916
 21
635.293967255362
 31
0.0
  0
LINE
  5
51A
330
1F
100
AcDbEntity
  8
0
 48
4.0
100
AcDbLine
 10
1462.102113852496
 20
635.2940624557723
 30
0.0
 11
1461.963564226677
 21
635.2941975019867
 31
0.0
  0
LINE
  5
51B
330
1F
100
AcDbEntity
  8
0
100
AcDbLine
 10
1460.152543138916
 20
635.293967255362
 30
0.0
 11
1461.963564226677
 21
635.2941975019867
 31
0.0
  0
LINE
  5
51C
330
1F
100
AcDbEntity
  8
0
100
AcDbLine
 10
1459.908821128695
 20
635.6757230640847
 30
0.0
 11
1462.208060920618
 21
635.6757230640847
 31
0.0
  0
ARC
  5
51D
330
1F
100
AcDbEntity
  8
0
100
AcDbCircle
 10
1462.208060920618
 20
635.7072190640848
 30
0.0
 40
0.031496
100
AcDbArc
 50
270.0
 51
359.9441527972126
  0
LINE
  5
51E
330
1F
100
AcDbEntity
  8
0
100
AcDbLine
 10
1457.7409344889
 20
636.4259818516902
 30
0.0
 11
1464.375172876694
 21
636.4259818516902
 31
0.0
  0
LINE
  5
51F
330
1F
100
AcDbEntity
  8
0
100
AcDbLine
 10
1457.76071530566
 20
636.4065039556152
 30
0.0
 11
1458.30856759371
 21
636.0777925827853
 31
0.0
  0
ARC
  5
520
330
1F
100
AcDbEntity
  8
0
100
AcDbCircle
 10
1457.791098852496
 20
636.4571432003432
 30
0.0
 40
0.059055
100
AcDbArc
 50
180.0
 51
239.03624346804
  0
LINE
  5
521
330
1F
100
AcDbEntity
  8
0
 48
4.0
100
AcDbLine
 10
1464.384063513097
 20
636.5418168275132
 30
0.0
 11
1464.384063513097
 21
636.4571432003432
 31
0.0
  0
ARC
  5
522
330
1F
100
AcDbEntity
  8
0
 48
4.0
100
AcDbCircle
 10
1463.777156225047
 20
636.1284318275132
 30
0.0
 40
0.059055
100
AcDbArc
 50
270.0
 51
300.9637565319601
  0
LINE
  5
523
330
1F
100
AcDbEntity
  8
0
100
AcDbLine
 10
1464.355392059934
 20
636.4065039556152
 30
0.0
 11
1463.807539771884
 21
636.0777925827853
 31
0.0
  0
ARC
  5
524
330
1F
100
AcDbEntity
  8
0
100
AcDbCircle
 10
1464.325008513097
 20
636.4571432003432
 30
0.0
 40
0.059055
100
AcDbArc
 50
300.9637565319601
 51
0.0
  0
LINE
  5
525
330
1F
100
AcDbEntity
  8
0
100
AcDbLine
 10
1473.028182723745
 20
628.6206634945937
 30
0.0
 11
1473.028182723745
 21
619.575780002107
 31
0.0
  0
ENDSEC
  0
SECTION
  2
OBJECTS
  0
DICTIONARY
  5
C
330
0
100
AcDbDictionary
281
     1
  3
ACAD_CIP_PREVIOUS_PRODUCT_INFO
350
1A5
  3
ACAD_COLOR
350
73
  3
ACAD_GROUP
350
D
  3
ACAD_LAYOUT
350
1A
  3
ACAD_MATERIAL
350
72
  3
ACAD_MLEADERSTYLE
350
D7
  3
ACAD_MLINESTYLE
350
17
  3
ACAD_PLOTSETTINGS
350
19
  3
ACAD_PLOTSTYLENAME
350
E
  3
ACAD_SCALELIST
350
B6
  3
ACAD_TABLESTYLE
350
86
  3
ACAD_VISUALSTYLE
350
99
  3
ACDB_RECOMPOSE_DATA
350
661
  3
AcDbVariableDictionary
350
66
  0
DICTIONARY
  5
18E
330
2
100
AcDbDictionary
280
     1
281
     1
  3
ACAD_LAYERSTATES
360
18F
  0
DICTIONARY
  5
E6
330
10
100
AcDbDictionary
280
     1
281
     1
  0
DICTIONARY
  5
29B
330
29A
100
AcDbDictionary
280
     1
281
     1
  0
DICTIONARY
  5
15D
330
1F
100
AcDbDictionary
280
     1
281
     1
  0
XRECORD
  5
1A5
102
{ACAD_REACTORS
330
C
102
}
330
C
100
AcDbXrecord
280
     1
300
ACD
300
2012
300
85730ACD_2012_0F
  0
DICTIONARY
  5
73
102
{ACAD_REACTORS
330
C
102
}
330
C
100
AcDbDictionary
281
     1
  0
DICTIONARY
  5
D
102
{ACAD_REACTORS
330
C
102
}
330
C
100
AcDbDictionary
281
     1
  0
DICTIONARY
  5
1A
102
{ACAD_REACTORS
330
C
102
}
330
C
100
AcDbDictionary
281
     1
  3
Layout1
350
5D0
  3
Model
350
22
  0
DICTIONARY
  5
72
102
{ACAD_REACTORS
330
C
102
}
330
C
100
AcDbDictionary
281
     1
  3
ByBlock
350
97
  3
ByLayer
350
96
  3
Global
350
98
  0
DICTIONARY
  5
D7
102
{ACAD_REACTORS
330
C
102
}
330
C
100
AcDbDictionary
281
     1
  3
Standard
350
D8
  0
DICTIONARY
  5
17
102
{ACAD_REACTORS
330
C
102
}
330
C
100
AcDbDictionary
281
     1
  3
Standard
350
18
  0
DICTIONARY
  5
19
102
{ACAD_REACTORS
330
C
102
}
330
C
100
AcDbDictionary
281
     1
  0
ACDBDICTIONARYWDFLT
  5
E
102
{ACAD_REACTORS
330
C
102
}
330
C
100
AcDbDictionary
281
     1
  3
Normal
350
F
100
AcDbDictionaryWithDefault
340
F
  0
DICTIONARY
  5
B6
102
{ACAD_REACTORS
330
C
102
}
330
C
100
AcDbDictionary
281
     1
  3
A0
350
B7
  3
A1
350
124
  3
A2
350
125
  3
A3
350
126
  3
A4
350
127
  3
A5
350
128
  3
A6
350
129
  3
A7
350
12A
  3
A8
350
12B
  3
A9
350
12C
  3
B0
350
12D
  3
B1
350
12E
  3
B2
350
12F
  3
B3
350
130
  3
B4
350
131
  3
B5
350
132
  3
B6
350
133
  3
B7
350
134
  3
B8
350
135
  3
B9
350
136
  3
C0
350
137
  3
C1
350
138
  3
C2
350
139
  3
C3
350
13A
  3
C4
350
13B
  3
C5
350
13C
  3
C6
350
13D
  3
C7
350
13E
  3
C8
350
13F
  3
C9
350
140
  3
D0
350
141
  3
D1
350
142
  3
D2
350
143
  0
DICTIONARY
  5
86
102
{ACAD_REACTORS
330
C
102
}
330
C
100
AcDbDictionary
281
     1
  3
Standard
350
87
  0
DICTIONARY
  5
99
102
{ACAD_REACTORS
330
C
102
}
330
C
100
AcDbDictionary
281
     1
  3
2dWireframe
350
9F
  3
Basic
350
9E
  3
Brighten
350
A5
  3
ColorChange
350
A9
  3
Conceptual
350
A2
  3
Dim
350
A4
  3
EdgeColorOff
350
175
  3
Facepattern
350
A8
  3
Flat
350
9A
  3
FlatWithEdges
350
9B
  3
Gouraud
350
9C
  3
GouraudWithEdges
350
9D
  3
Hidden
350
A1
  3
JitterOff
350
173
  3
Linepattern
350
A7
  3
OverhangOff
350
174
  3
Realistic
350
A3
  3
Shaded
350
182
  3
Shaded with edges
350
181
  3
Shades of Gray
350
17E
  3
Sketchy
350
17F
  3
Thicken
350
A6
  3
Wireframe
350
A0
  3
X-Ray
350
180
  0
XRECORD
  5
661
102
{ACAD_REACTORS
330
C
102
}
330
C
100
AcDbXrecord
280
     1
 90
        1
330
87
  0
DICTIONARY
  5
66
102
{ACAD_REACTORS
330
C
102
}
330
C
100
AcDbDictionary
281
     1
  3
CANNOSCALE
350
F0
  3
CMLEADERSTYLE
350
EF
  3
CTABLESTYLE
350
89
  3
DIMASSOC
350
67
  3
HIDETEXT
350
6B
  3
LAYEREVAL
350
14D
  3
LAYERNOTIFY
350
14E
  3
LIGHTINGUNITS
350
54F
  3
MSLTSCALE
350
54E
  3
XCLIPFRAME
350
65D
  0
DICTIONARY
  5
18F
102
{ACAD_REACTORS
330
18E
102
}
330
18E
100
AcDbDictionary
281
     1
  0
LAYOUT
  5
5D0
102
{ACAD_REACTORS
330
1A
102
}
330
1A
100
AcDbPlotSettings
  1

  2
SHARP MX-3100N PCL6
  4

  6

 40
0.0
 41
0.0
 42
0.0
 43
0.0
 44
0.0
 45
0.0
 46
0.0
 47
0.0
 48
0.0
 49
0.0
140
0.0
141
0.0
142
1.0
143
1.0
 70
   688
 72
     0
 73
     0
 74
     5
  7

 75
    16
147
1.0
 76
     0
 77
     2
 78
   300
148
0.0
149
0.0
100
AcDbLayout
  1
Layout1
 70
     1
 71
     1
 10
0.0
 20
0.0
 11
12.0
 21
9.0
 12
0.0
 22
0.0
 32
0.0
 14
0.0
 24
0.0
 34
0.0
 15
0.0
 25
0.0
 35
0.0
146
0.0
 13
0.0
 23
0.0
 33
0.0
 16
1.0
 26
0.0
 36
0.0
 17
0.0
 27
1.0
 37
0.0
 76
     0
330
5CF
  0
LAYOUT
  5
22
102
{ACAD_XDICTIONARY
360
194
102
}
102
{ACAD_REACTORS
330
1A
102
}
330
1A
100
AcDbPlotSettings
  1

  2
none_device
  4
ANSI_A_(8.50_x_11.00_Inches)
  6

 40
6.349999904632567
 41
19.04999923706055
 42
6.350006103515625
 43
19.04998779296875
 44
215.8999938964844
 45
279.3999938964844
 46
0.0
 47
0.0
 48
0.0
 49
0.0
140
0.0
141
0.0
142
1.0
143
2.584895464708373
 70
 11952
 72
     0
 73
     1
 74
     0
  7

 75
     0
147
0.3868628397755418
 76
     0
 77
     2
 78
   300
148
0.0
149
0.0
100
AcDbLayout
  1
Model
 70
     1
 71
     0
 10
0.0
 20
0.0
 11
12.0
 21
9.0
 12
0.0
 22
0.0
 32
0.0
 14
0.0
 24
0.0
 34
0.0
 15
0.0
 25
0.0
 35
0.0
146
0.0
 13
0.0
 23
0.0
 33
0.0
 16
1.0
 26
0.0
 36
0.0
 17
0.0
 27
1.0
 37
0.0
 76
     0
330
1F
331
94
  0
MATERIAL
  5
97
102
{ACAD_XDICTIONARY
360
188
102
}
102
{ACAD_REACTORS
330
72
102
}
330
72
100
AcDbMaterial
  1
ByBlock
  0
MATERIAL
  5
96
102
{ACAD_XDICTIONARY
360
186
102
}
102
{ACAD_REACTORS
330
72
102
}
330
72
100
AcDbMaterial
  1
ByLayer
  0
MATERIAL
  5
98
102
{ACAD_XDICTIONARY
360
110
102
}
102
{ACAD_REACTORS
330
72
102
}
330
72
100
AcDbMaterial
  1
Global
 43
0.0208000000566244
 43
0.0
 43
0.0
 43
0.0
 43
0.0
 43
0.0208000000566244
 43
0.0
 43
0.0
 43
0.0
 43
0.0
 43
1.0
 43
0.0
 43
0.0
 43
0.0
 43
0.0
 43
1.0
 49
0.0208000000566244
 49
0.0
 49
0.0
 49
0.0
 49
0.0
 49
0.0208000000566244
 49
0.0
 49
0.0
 49
0.0
 49
0.0
 49
1.0
 49
0.0
 49
0.0
 49
0.0
 49
0.0
 49
1.0
142
0.0208000000566244
142
0.0
142
0.0
142
0.0
142
0.0
142
0.0208000000566244
142
0.0
142
0.0
142
0.0
142
0.0
142
1.0
142
0.0
142
0.0
142
0.0
142
0.0
142
1.0
144
0.0208000000566244
144
0.0
144
0.0
144
0.0
144
0.0
144
0.0208000000566244
144
0.0
144
0.0
144
0.0
144
0.0
144
1.0
144
0.0
144
0.0
144
0.0
144
0.0
144
1.0
1001
ACAD
1070
    -1
1070
     3
1070
     0
1000

1071
        0
1070
     0
  0
MLEADERSTYLE
  5
D8
102
{ACAD_XDICTIONARY
360
65F
102
}
102
{ACAD_REACTORS
330
D7
102
}
330
D7
100
AcDbMLeaderStyle
170
     2
171
     1
172
     0
 90
        2
 40
0.0
 41
0.0
173
     1
 91
-1056964608
340
14
 92
       -2
290
     1
 42
0.09
291
     1
 43
0.36
  3
Standard
 44
0.18
300

342
11
174
     1
178
     1
175
     1
176
     0
 93
-1056964608
 45
0.18
292
     0
297
     0
 46
0.18
 94
-1056964608
 47
1.0
 49
1.0
140
1.0
293
     1
141
0.0
294
     1
177
     0
142
1.0
295
     0
296
     0
143
0.125
1001
ACAD_MLEADERVER
1070
     2
  0
MLINESTYLE
  5
18
102
{ACAD_REACTORS
330
17
102
}
330
17
100
AcDbMlineStyle
  2
STANDARD
 70
     0
  3

 62
   256
 51
90.0
 52
90.0
 71
     2
 49
0.5
 62
   256
  6
BYLAYER
 49
-0.5
 62
   256
  6
BYLAYER
  0
ACDBPLACEHOLDER
  5
F
102
{ACAD_REACTORS
330
E
102
}
330
E
  0
SCALE
  5
B7
102
{ACAD_REACTORS
330
B6
102
}
330
B6
100
AcDbScale
 70
     0
300
1:1
140
1.0
141
1.0
290
     1
  0
SCALE
  5
124
102
{ACAD_REACTORS
330
B6
102
}
330
B6
100
AcDbScale
 70
     0
300
1:2
140
1.0
141
2.0
290
     0
  0
SCALE
  5
125
102
{ACAD_REACTORS
330
B6
102
}
330
B6
100
AcDbScale
 70
     0
300
1:4
140
1.0
141
4.0
290
     0
  0
SCALE
  5
126
102
{ACAD_REACTORS
330
B6
102
}
330
B6
100
AcDbScale
 70
     0
300
1:5
140
1.0
141
5.0
290
     0
  0
SCALE
  5
127
102
{ACAD_REACTORS
330
B6
102
}
330
B6
100
AcDbScale
 70
     0
300
1:8
140
1.0
141
8.0
290
     0
  0
SCALE
  5
128
102
{ACAD_REACTORS
330
B6
102
}
330
B6
100
AcDbScale
 70
     0
300
1:10
140
1.0
141
10.0
290
     0
  0
SCALE
  5
129
102
{ACAD_REACTORS
330
B6
102
}
330
B6
100
AcDbScale
 70
     0
300
1:16
140
1.0
141
16.0
290
     0
  0
SCALE
  5
12A
102
{ACAD_REACTORS
330
B6
102
}
330
B6
100
AcDbScale
 70
     0
300
1:20
140
1.0
141
20.0
290
     0
  0
SCALE
  5
12B
102
{ACAD_REACTORS
330
B6
102
}
330
B6
100
AcDbScale
 70
     0
300
1:30
140
1.0
141
30.0
290
     0
  0
SCALE
  5
12C
102
{ACAD_REACTORS
330
B6
102
}
330
B6
100
AcDbScale
 70
     0
300
1:40
140
1.0
141
40.0
290
     0
  0
SCALE
  5
12D
102
{ACAD_REACTORS
330
B6
102
}
330
B6
100
AcDbScale
 70
     0
300
1:50
140
1.0
141
50.0
290
     0
  0
SCALE
  5
12E
102
{ACAD_REACTORS
330
B6
102
}
330
B6
100
AcDbScale
 70
     0
300
1:100
140
1.0
141
100.0
290
     0
  0
SCALE
  5
12F
102
{ACAD_REACTORS
330
B6
102
}
330
B6
100
AcDbScale
 70
     0
300
2:1
140
2.0
141
1.0
290
     0
  0
SCALE
  5
130
102
{ACAD_REACTORS
330
B6
102
}
330
B6
100
AcDbScale
 70
     0
300
4:1
140
4.0
141
1.0
290
     0
  0
SCALE
  5
131
102
{ACAD_REACTORS
330
B6
102
}
330
B6
100
AcDbScale
 70
     0
300
8:1
140
8.0
141
1.0
290
     0
  0
SCALE
  5
132
102
{ACAD_REACTORS
330
B6
102
}
330
B6
100
AcDbScale
 70
     0
300
10:1
140
10.0
141
1.0
290
     0
  0
SCALE
  5
133
102
{ACAD_REACTORS
330
B6
102
}
330
B6
100
AcDbScale
 70
     0
300
100:1
140
100.0
141
1.0
290
     0
  0
SCALE
  5
134
102
{ACAD_REACTORS
330
B6
102
}
330
B6
100
AcDbScale
 70
     0
300
1/128" = 1'-0"
140
0.0078125
141
12.0
290
     0
  0
SCALE
  5
135
102
{ACAD_REACTORS
330
B6
102
}
330
B6
100
AcDbScale
 70
     0
300
1/64" = 1'-0"
140
0.015625
141
12.0
290
     0
  0
SCALE
  5
136
102
{ACAD_REACTORS
330
B6
102
}
330
B6
100
AcDbScale
 70
     0
300
1/32" = 1'-0"
140
0.03125
141
12.0
290
     0
  0
SCALE
  5
137
102
{ACAD_REACTORS
330
B6
102
}
330
B6
100
AcDbScale
 70
     0
300
1/16" = 1'-0"
140
0.0625
141
12.0
290
     0
  0
SCALE
  5
138
102
{ACAD_REACTORS
330
B6
102
}
330
B6
100
AcDbScale
 70
     0
300
3/32" = 1'-0"
140
0.09375
141
12.0
290
     0
  0
SCALE
  5
139
102
{ACAD_REACTORS
330
B6
102
}
330
B6
100
AcDbScale
 70
     0
300
1/8" = 1'-0"
140
0.125
141
12.0
290
     0
  0
SCALE
  5
13A
102
{ACAD_REACTORS
330
B6
102
}
330
B6
100
AcDbScale
 70
     0
300
3/16" = 1'-0"
140
0.1875
141
12.0
290
     0
  0
SCALE
  5
13B
102
{ACAD_REACTORS
330
B6
102
}
330
B6
100
AcDbScale
 70
     0
300
1/4" = 1'-0"
140
0.25
141
12.0
290
     0
  0
SCALE
  5
13C
102
{ACAD_REACTORS
330
B6
102
}
330
B6
100
AcDbScale
 70
     0
300
3/8" = 1'-0"
140
0.375
141
12.0
290
     0
  0
SCALE
  5
13D
102
{ACAD_REACTORS
330
B6
102
}
330
B6
100
AcDbScale
 70
     0
300
1/2" = 1'-0"
140
0.5
141
12.0
290
     0
  0
SCALE
  5
13E
102
{ACAD_REACTORS
330
B6
102
}
330
B6
100
AcDbScale
 70
     0
300
3/4" = 1'-0"
140
0.75
141
12.0
290
     0
  0
SCALE
  5
13F
102
{ACAD_REACTORS
330
B6
102
}
330
B6
100
AcDbScale
 70
     0
300
1" = 1'-0"
140
1.0
141
12.0
290
     0
  0
SCALE
  5
140
102
{ACAD_REACTORS
330
B6
102
}
330
B6
100
AcDbScale
 70
     0
300
1-1/2" = 1'-0"
140
1.5
141
12.0
290
     0
  0
SCALE
  5
141
102
{ACAD_REACTORS
330
B6
102
}
330
B6
100
AcDbScale
 70
     0
300
3" = 1'-0"
140
3.0
141
12.0
290
     0
  0
SCALE
  5
142
102
{ACAD_REACTORS
330
B6
102
}
330
B6
100
AcDbScale
 70
     0
300
6" = 1'-0"
140
6.0
141
12.0
290
     0
  0
SCALE
  5
143
102
{ACAD_REACTORS
330
B6
102
}
330
B6
100
AcDbScale
 70
     0
300
1'-0" = 1'-0"
140
12.0
141
12.0
290
     0
  0
TABLESTYLE
  5
87
102
{ACAD_XDICTIONARY
360
104
102
}
102
{ACAD_REACTORS
330
86
102
}
330
86
100
AcDbTableStyle
  3
Standard
 70
     0
 71
     0
 40
0.06
 41
0.06
280
     0
281
     0
  7
Standard
140
0.18
170
     2
 62
     0
 63
     7
283
     0
274
    -2
284
     1
 64
     0
275
    -2
285
     1
 65
     0
276
    -2
286
     1
 66
     0
277
    -2
287
     1
 67
     0
278
    -2
288
     1
 68
     0
279
    -2
289
     1
 69
     0
  7
Standard
140
0.25
170
     5
 62
     0
 63
     7
283
     0
274
    -2
284
     1
 64
     0
275
    -2
285
     1
 65
     0
276
    -2
286
     1
 66
     0
277
    -2
287
     1
 67
     0
278
    -2
288
     1
 68
     0
279
    -2
289
     1
 69
     0
  7
Standard
140
0.18
170
     5
 62
     0
 63
     7
283
     0
274
    -2
284
     1
 64
     0
275
    -2
285
     1
 65
     0
276
    -2
286
     1
 66
     0
277
    -2
287
     1
 67
     0
278
    -2
288
     1
 68
     0
279
    -2
289
     1
 69
     0
  0
VISUALSTYLE
  5
9F
102
{ACAD_XDICTIONARY
360
66D
102
}
102
{ACAD_REACTORS
330
99
102
}
330
99
100
AcDbVisualStyle
  2

 70
     4
 71
     0
 72
     2
 73
     1
 90
        0
 40
-0.6
 41
-30.0
 62
     5
 63
     7
421
 16777215
 74
     1
 91
        4
 64
     7
 65
   257
 75
     1
175
     1
 42
1.0
 92
        0
 66
   257
 43
1.0
 76
     1
 77
     6
 78
     2
 67
     7
 79
     5
170
     0
171
     0
290
     0
174
     0
 93
        1
 44
0.0
173
     0
291
     0
 45
0.0
1001
ACAD
1000
AcDbSavedByObjectVersion
1070
     0
  0
VISUALSTYLE
  5
9E
102
{ACAD_XDICTIONARY
360
66B
102
}
102
{ACAD_REACTORS
330
99
102
}
330
99
100
AcDbVisualStyle
  2

 70
     7
 71
     1
 72
     0
 73
     1
 90
        0
 40
-0.6
 41
-30.0
 62
     5
 63
     7
421
 16777215
 74
     0
 91
        4
 64
     7
 65
   257
 75
     1
175
     1
 42
1.0
 92
        8
 66
     7
 43
1.0
 76
     1
 77
     6
 78
     2
 67
     7
 79
     5
170
     0
171
     0
290
     0
174
     0
 93
        1
 44
0.0
173
     0
291
     1
 45
0.0
1001
ACAD
1000
AcDbSavedByObjectVersion
1070
     0
  0
VISUALSTYLE
  5
A5
102
{ACAD_XDICTIONARY
360
679
102
}
102
{ACAD_REACTORS
330
99
102
}
330
99
100
AcDbVisualStyle
  2

 70
    12
 71
     2
 72
     2
 73
     1
 90
        0
 40
-0.6
 41
-30.0
 62
     5
 63
     7
421
 16777215
 74
     1
 91
        4
 64
     7
 65
   257
 75
     1
175
     1
 42
1.0
 92
        8
 66
     7
 43
1.0
 76
     1
 77
     6
 78
     2
 67
     7
 79
     5
170
     0
171
     0
290
     0
174
     0
 93
        1
 44
50.0
173
     0
291
     1
 45
0.0
1001
ACAD
1000
AcDbSavedByObjectVersion
1070
     0
  0
VISUALSTYLE
  5
A9
102
{ACAD_XDICTIONARY
360
681
102
}
102
{ACAD_REACTORS
330
99
102
}
330
99
100
AcDbVisualStyle
  2

 70
    16
 71
     2
 72
     2
 73
     3
 90
        0
 40
-0.6
 41
-30.0
 62
     5
 63
     8
421
  8421504
 74
     1
 91
        4
 64
     7
 65
   257
 75
     1
175
     1
 42
1.0
 92
        8
 66
     8
424
  8421504
 43
1.0
 76
     1
 77
     6
 78
     2
 67
     7
 79
     5
170
     0
171
     0
290
     0
174
     0
 93
        1
 44
0.0
173
     0
291
     1
 45
0.0
1001
ACAD
1000
AcDbSavedByObjectVersion
1070
     0
  0
VISUALSTYLE
  5
A2
102
{ACAD_XDICTIONARY
360
673
102
}
102
{ACAD_REACTORS
330
99
102
}
330
99
100
AcDbVisualStyle
  2

 70
     9
 71
     3
 72
     2
 73
     1
 90
        0
 40
-0.6
 41
-30.0
 62
     5
 63
     7
421
 16777215
 74
     2
 91
        2
 64
     7
 65
   257
 75
     1
175
     1
 42
40.0
 92
        8
 66
     7
 43
1.0
 76
     1
 77
     6
 78
     2
 67
     7
 79
     3
170
     0
171
     0
290
     0
174
     0
 93
        1
 44
0.0
173
     0
291
     0
 45
0.0
1001
ACAD
1000
AcDbSavedByObjectVersion
1070
     0
  0
VISUALSTYLE
  5
A4
102
{ACAD_XDICTIONARY
360
677
102
}
102
{ACAD_REACTORS
330
99
102
}
330
99
100
AcDbVisualStyle
  2

 70
    11
 71
     2
 72
     2
 73
     1
 90
        0
 40
-0.6
 41
-30.0
 62
     5
 63
     7
421
 16777215
 74
     1
 91
        4
 64
     7
 65
   257
 75
     1
175
     1
 42
1.0
 92
        8
 66
     7
 43
1.0
 76
     1
 77
     6
 78
     2
 67
     7
 79
     5
170
     0
171
     0
290
     0
174
     0
 93
        1
 44
-50.0
173
     0
291
     1
 45
0.0
1001
ACAD
1000
AcDbSavedByObjectVersion
1070
     0
  0
VISUALSTYLE
  5
175
102
{ACAD_XDICTIONARY
360
687
102
}
102
{ACAD_REACTORS
330
99
102
}
330
99
100
AcDbVisualStyle
  2

 70
    22
 71
     2
 72
     2
 73
     0
 90
        0
 40
-0.6
 41
-30.0
 62
     5
 63
     7
421
 16777215
 74
     1
 91
        4
 64
     7
 65
   257
 75
     1
175
     1
 42
1.0
 92
        8
 66
     7
 43
1.0
 76
     1
 77
     6
 78
     2
 67
     7
 79
     5
170
     0
171
     0
290
     0
174
     0
 93
        1
 44
0.0
173
     0
291
     1
 45
0.0
1001
ACAD
1000
AcDbSavedByObjectVersion
1070
     0
  0
VISUALSTYLE
  5
A8
102
{ACAD_XDICTIONARY
360
67F
102
}
102
{ACAD_REACTORS
330
99
102
}
330
99
100
AcDbVisualStyle
  2

 70
    15
 71
     2
 72
     2
 73
     1
 90
        0
 40
-0.6
 41
-30.0
 62
     5
 63
     7
421
 16777215
 74
     1
 91
        4
 64
     7
 65
   257
 75
     1
175
     1
 42
1.0
 92
        8
 66
     7
 43
1.0
 76
     1
 77
     6
 78
     2
 67
     7
 79
     5
170
     0
171
     0
290
     0
174
     0
 93
        1
 44
0.0
173
     0
291
     1
 45
0.0
1001
ACAD
1000
AcDbSavedByObjectVersion
1070
     0
  0
VISUALSTYLE
  5
9A
102
{ACAD_XDICTIONARY
360
663
102
}
102
{ACAD_REACTORS
330
99
102
}
330
99
100
AcDbVisualStyle
  2

 70
     0
 71
     2
 72
     1
 73
     1
 90
        2
 40
-0.6
 41
30.0
 62
     5
 63
     7
421
 16777215
 74
     0
 91
        0
 64
     7
 65
   257
 75
     1
175
     1
 42
1.0
 92
        8
 66
     7
 43
1.0
 76
     1
 77
     6
 78
     2
 67
     7
 79
     5
170
     0
171
     0
290
     0
174
     0
 93
       13
 44
0.0
173
     0
291
     1
 45
0.0
1001
ACAD
1000
AcDbSavedByObjectVersion
1070
     0
  0
VISUALSTYLE
  5
9B
102
{ACAD_XDICTIONARY
360
665
102
}
102
{ACAD_REACTORS
330
99
102
}
330
99
100
AcDbVisualStyle
  2

 70
     1
 71
     2
 72
     1
 73
     1
 90
        2
 40
-0.6
 41
30.0
 62
     5
 63
     7
421
 16777215
 74
     1
 91
        0
 64
     7
 65
   257
 75
     1
175
     1
 42
1.0
 92
        0
 66
   257
 43
1.0
 76
     1
 77
     6
 78
     2
 67
     7
 79
     5
170
     0
171
     0
290
     0
174
     0
 93
       13
 44
0.0
173
     0
291
     1
 45
0.0
1001
ACAD
1000
AcDbSavedByObjectVersion
1070
     0
  0
VISUALSTYLE
  5
9C
102
{ACAD_XDICTIONARY
360
667
102
}
102
{ACAD_REACTORS
330
99
102
}
330
99
100
AcDbVisualStyle
  2

 70
     2
 71
     2
 72
     2
 73
     1
 90
        2
 40
-0.6
 41
30.0
 62
     5
 63
     7
421
 16777215
 74
     0
 91
        0
 64
     7
 65
   257
 75
     1
175
     1
 42
1.0
 92
        0
 66
     7
 43
1.0
 76
     1
 77
     6
 78
     2
 67
     7
 79
     5
170
     0
171
     0
290
     0
174
     0
 93
       13
 44
0.0
173
     0
291
     1
 45
0.0
1001
ACAD
1000
AcDbSavedByObjectVersion
1070
     0
  0
VISUALSTYLE
  5
9D
102
{ACAD_XDICTIONARY
360
669
102
}
102
{ACAD_REACTORS
330
99
102
}
330
99
100
AcDbVisualStyle
  2

 70
     3
 71
     2
 72
     2
 73
     1
 90
        2
 40
-0.6
 41
30.0
 62
     5
 63
     7
421
 16777215
 74
     1
 91
        0
 64
     7
 65
   257
 75
     1
175
     1
 42
1.0
 92
        0
 66
   257
 43
1.0
 76
     1
 77
     6
 78
     2
 67
     7
 79
     5
170
     0
171
     0
290
     0
174
     0
 93
       13
 44
0.0
173
     0
291
     1
 45
0.0
1001
ACAD
1000
AcDbSavedByObjectVersion
1070
     0
  0
VISUALSTYLE
  5
A1
102
{ACAD_XDICTIONARY
360
671
102
}
102
{ACAD_REACTORS
330
99
102
}
330
99
100
AcDbVisualStyle
  2

 70
     6
 71
     1
 72
     2
 73
     2
 90
        0
 40
-0.6
 41
-30.0
 62
     5
 63
     7
421
 16777215
 74
     2
 91
        2
 64
     7
 65
   257
 75
     2
175
     1
 42
40.0
 92
        0
 66
   257
 43
1.0
 76
     1
 77
     6
 78
     2
 67
     7
 79
     3
170
     0
171
     0
290
     0
174
     0
 93
        1
 44
0.0
173
     0
291
     0
 45
0.0
1001
ACAD
1000
AcDbSavedByObjectVersion
1070
     0
  0
VISUALSTYLE
  5
173
102
{ACAD_XDICTIONARY
360
683
102
}
102
{ACAD_REACTORS
330
99
102
}
330
99
100
AcDbVisualStyle
  2

 70
    20
 71
     2
 72
     2
 73
     0
 90
        0
 40
-0.6
 41
-30.0
 62
     5
 63
     7
421
 16777215
 74
     1
 91
        4
 64
     7
 65
   257
 75
     1
175
     1
 42
1.0
 92
       10
 66
     7
 43
1.0
 76
     1
 77
     6
 78
     2
 67
     7
 79
     5
170
     0
171
     0
290
     0
174
     0
 93
        1
 44
0.0
173
     0
291
     1
 45
0.0
1001
ACAD
1000
AcDbSavedByObjectVersion
1070
     0
  0
VISUALSTYLE
  5
A7
102
{ACAD_XDICTIONARY
360
67D
102
}
102
{ACAD_REACTORS
330
99
102
}
330
99
100
AcDbVisualStyle
  2

 70
    14
 71
     2
 72
     2
 73
     1
 90
        0
 40
-0.6
 41
-30.0
 62
     5
 63
     7
421
 16777215
 74
     1
 91
        4
 64
     7
 65
   257
 75
     7
175
     7
 42
1.0
 92
        8
 66
     7
 43
1.0
 76
     1
 77
     6
 78
     2
 67
     7
 79
     5
170
     0
171
     0
290
     0
174
     0
 93
        1
 44
0.0
173
     0
291
     1
 45
0.0
1001
ACAD
1000
AcDbSavedByObjectVersion
1070
     0
  0
VISUALSTYLE
  5
174
102
{ACAD_XDICTIONARY
360
685
102
}
102
{ACAD_REACTORS
330
99
102
}
330
99
100
AcDbVisualStyle
  2

 70
    21
 71
     2
 72
     2
 73
     0
 90
        0
 40
-0.6
 41
-30.0
 62
     5
 63
     7
421
 16777215
 74
     1
 91
        4
 64
     7
 65
   257
 75
     1
175
     1
 42
1.0
 92
        9
 66
     7
 43
1.0
 76
     1
 77
     6
 78
     2
 67
     7
 79
     5
170
     0
171
     0
290
     0
174
     0
 93
        1
 44
0.0
173
     0
291
     1
 45
0.0
1001
ACAD
1000
AcDbSavedByObjectVersion
1070
     0
  0
VISUALSTYLE
  5
A3
102
{ACAD_XDICTIONARY
360
675
102
}
102
{ACAD_REACTORS
330
99
102
}
330
99
100
AcDbVisualStyle
  2

 70
     8
 71
     2
 72
     3
 73
     0
 90
        2
 40
-0.6
 41
30.0
 62
     5
 63
     7
421
 16777215
 74
     0
 91
        0
 64
     7
 65
   257
 75
     1
175
     1
 42
1.0
 92
        8
 66
   257
 43
1.0
 76
     1
 77
     6
 78
     2
 67
     7
 79
     3
170
     0
171
     0
290
     0
174
     0
 93
       13
 44
0.0
173
     0
291
     0
 45
0.0
1001
ACAD
1000
AcDbSavedByObjectVersion
1070
     0
  0
VISUALSTYLE
  5
182
102
{ACAD_XDICTIONARY
360
691
102
}
102
{ACAD_REACTORS
330
99
102
}
330
99
100
AcDbVisualStyle
  2

 70
    27
 71
     2
 72
     2
 73
     1
 90
        2
 40
-0.6
 41
30.0
 62
     5
 63
     7
421
 16777215
 74
     0
 91
        4
 64
     7
 65
   257
 75
     1
175
     1
 42
1.0
 92
        8
 66
   257
 43
1.0
 76
     1
 77
     6
 78
     2
 67
     8
425
  7895160
 79
     3
170
     0
171
     0
290
     0
174
     0
 93
        5
 44
0.0
173
     0
291
     0
 45
0.0
1001
ACAD
1000
AcDbSavedByObjectVersion
1070
     0
  0
VISUALSTYLE
  5
181
102
{ACAD_XDICTIONARY
360
68F
102
}
102
{ACAD_REACTORS
330
99
102
}
330
99
100
AcDbVisualStyle
  2

 70
    26
 71
     2
 72
     2
 73
     1
 90
        2
 40
-0.6
 41
30.0
 62
     5
 63
     7
421
 16777215
 74
     1
 91
       10
 64
     7
 65
   257
 75
     2
175
     1
 42
1.0
 92
        8
 66
   257
 43
1.0
 76
     1
 77
     6
 78
     2
 67
     7
 79
     3
170
     0
171
     0
290
     0
174
     0
 93
        5
 44
0.0
173
     0
291
     0
 45
0.0
1001
ACAD
1000
AcDbSavedByObjectVersion
1070
     0
  0
VISUALSTYLE
  5
17E
102
{ACAD_XDICTIONARY
360
689
102
}
102
{ACAD_REACTORS
330
99
102
}
330
99
100
AcDbVisualStyle
  2

 70
    23
 71
     2
 72
     2
 73
     3
 90
        0
 40
-0.6
 41
-30.0
 62
     5
 63
     7
421
 16777215
 74
     2
 91
        2
 64
     7
 65
     7
 75
     1
175
     1
 42
40.0
 92
        8
 66
     7
 43
1.0
 76
     1
 77
     6
 78
     2
 67
     7
 79
     3
170
     0
171
     0
290
     0
174
     0
 93
        1
 44
0.0
173
     0
291
     0
 45
0.0
1001
ACAD
1000
AcDbSavedByObjectVersion
1070
     0
  0
VISUALSTYLE
  5
17F
102
{ACAD_XDICTIONARY
360
68B
102
}
102
{ACAD_REACTORS
330
99
102
}
330
99
100
AcDbVisualStyle
  2

 70
    24
 71
     1
 72
     2
 73
     2
 90
        0
 40
-0.6
 41
-30.0
 62
     5
 63
     7
421
 16777215
 74
     2
 91
        2
 64
     7
 65
     7
 75
     1
175
     1
 42
40.0
 92
       11
 66
     7
 43
1.0
 76
     1
 77
     6
 78
     2
 67
     7
 79
     6
170
     0
171
     0
290
     0
174
     0
 93
        1
 44
0.0
173
     0
291
     0
 45
0.0
1001
ACAD
1000
AcDbSavedByObjectVersion
1070
     0
  0
VISUALSTYLE
  5
A6
102
{ACAD_XDICTIONARY
360
67B
102
}
102
{ACAD_REACTORS
330
99
102
}
330
99
100
AcDbVisualStyle
  2

 70
    13
 71
     2
 72
     2
 73
     1
 90
        0
 40
-0.6
 41
-30.0
 62
     5
 63
     7
421
 16777215
 74
     1
 91
        4
 64
     7
 65
   257
 75
     1
175
     1
 42
1.0
 92
       12
 66
     7
 43
1.0
 76
     1
 77
     6
 78
     2
 67
     7
 79
     5
170
     0
171
     0
290
     0
174
     0
 93
        1
 44
0.0
173
     0
291
     1
 45
0.0
1001
ACAD
1000
AcDbSavedByObjectVersion
1070
     0
  0
VISUALSTYLE
  5
A0
102
{ACAD_XDICTIONARY
360
66F
102
}
102
{ACAD_REACTORS
330
99
102
}
330
99
100
AcDbVisualStyle
  2

 70
     5
 71
     0
 72
     2
 73
     0
 90
        0
 40
-0.6
 41
-30.0
 62
     5
 63
     7
421
 16777215
 74
     1
 91
        4
 64
     7
 65
   257
 75
     1
175
     1
 42
1.0
 92
        0
 66
   257
 43
1.0
 76
     1
 77
     6
 78
     2
 67
     7
 79
     3
170
     0
171
     0
290
     0
174
     0
 93
        1
 44
0.0
173
     0
291
     0
 45
0.0
1001
ACAD
1000
AcDbSavedByObjectVersion
1070
     0
  0
VISUALSTYLE
  5
180
102
{ACAD_XDICTIONARY
360
68D
102
}
102
{ACAD_REACTORS
330
99
102
}
330
99
100
AcDbVisualStyle
  2

 70
    25
 71
     2
 72
     2
 73
     1
 90
        1
 40
0.5
 41
-30.0
 62
     5
 63
     7
421
 16777215
 74
     1
 91
        0
 64
     7
 65
   257
 75
     1
175
     1
 42
1.0
 92
        8
 66
     7
 43
1.0
 76
     1
 77
     6
 78
     2
 67
     7
 79
     3
170
     0
171
     0
290
     0
174
     0
 93
       13
 44
0.0
173
     0
291
     0
 45
0.0
1001
ACAD
1000
AcDbSavedByObjectVersion
1070
     0
  0
DICTIONARYVAR
  5
F0
102
{ACAD_REACTORS
330
66
102
}
330
66
100
DictionaryVariables
280
     0
  1
1:1
  0
DICTIONARYVAR
  5
EF
102
{ACAD_REACTORS
330
66
102
}
330
66
100
DictionaryVariables
280
     0
  1
STANDARD
  0
DICTIONARYVAR
  5
89
102
{ACAD_REACTORS
330
66
102
}
330
66
100
DictionaryVariables
280
     0
  1
STANDARD
  0
DICTIONARYVAR
  5
67
102
{ACAD_REACTORS
330
66
102
}
330
66
100
DictionaryVariables
280
     0
  1
2
  0
DICTIONARYVAR
  5
6B
102
{ACAD_REACTORS
330
66
102
}
330
66
100
DictionaryVariables
280
     0
  1
1
  0
DICTIONARYVAR
  5
14D
102
{ACAD_REACTORS
330
66
102
}
330
66
100
DictionaryVariables
280
     0
  1
0
  0
DICTIONARYVAR
  5
14E
102
{ACAD_REACTORS
330
66
102
}
330
66
100
DictionaryVariables
280
     0
  1
0
  0
DICTIONARYVAR
  5
54F
102
{ACAD_REACTORS
330
66
102
}
330
66
100
DictionaryVariables
280
     0
  1
2
  0
DICTIONARYVAR
  5
54E
102
{ACAD_REACTORS
330
66
102
}
330
66
100
DictionaryVariables
280
     0
  1
1
  0
DICTIONARYVAR
  5
65D
102
{ACAD_REACTORS
330
66
102
}
330
66
100
DictionaryVariables
280
     0
  1
2
  0
DICTIONARY
  5
194
330
22
100
AcDbDictionary
280
     1
281
     1
  3
ADSK_XREC_LAYOUTTHUMBNAIL
360
195
  0
DICTIONARY
  5
188
330
97
100
AcDbDictionary
280
     1
281
     1
  3
ACAD_XREC_ROUNDTRIP
360
598
  3
FBXASSET
360
189
  0
DICTIONARY
  5
186
330
96
100
AcDbDictionary
280
     1
281
     1
  3
ACAD_XREC_ROUNDTRIP
360
597
  3
FBXASSET
360
187
  0
DICTIONARY
  5
110
330
98
100
AcDbDictionary
280
     1
281
     1
  3
ACAD_XREC_ROUNDTRIP
360
599
  3
BUMPTILE
360
112
  3
DIFFUSETILE
360
111
  3
FBXASSET
360
18A
  3
OPACITYTILE
360
113
  3
REFLECTIONTILE
360
114
  0
DICTIONARY
  5
65F
330
D8
100
AcDbDictionary
280
     1
281
     1
  3
ACAD_XREC_ROUNDTRIP
360
660
  0
DICTIONARY
  5
104
330
87
100
AcDbDictionary
280
     1
281
     1
  3
ACAD_ROUNDTRIP_2008_TABLESTYLE_CELLSTYLEMAP
360
65E
  3
ACAD_XREC_ROUNDTRIP
360
662
  0
DICTIONARY
  5
66D
330
9F
100
AcDbDictionary
280
     1
281
     1
  3
ACAD_XREC_ROUNDTRIP
360
66E
  0
DICTIONARY
  5
66B
330
9E
100
AcDbDictionary
280
     1
281
     1
  3
ACAD_XREC_ROUNDTRIP
360
66C
  0
DICTIONARY
  5
679
330
A5
100
AcDbDictionary
280
     1
281
     1
  3
ACAD_XREC_ROUNDTRIP
360
67A
  0
DICTIONARY
  5
681
330
A9
100
AcDbDictionary
280
     1
281
     1
  3
ACAD_XREC_ROUNDTRIP
360
682
  0
DICTIONARY
  5
673
330
A2
100
AcDbDictionary
280
     1
281
     1
  3
ACAD_XREC_ROUNDTRIP
360
674
  0
DICTIONARY
  5
677
330
A4
100
AcDbDictionary
280
     1
281
     1
  3
ACAD_XREC_ROUNDTRIP
360
678
  0
DICTIONARY
  5
687
330
175
100
AcDbDictionary
280
     1
281
     1
  3
ACAD_XREC_ROUNDTRIP
360
688
  0
DICTIONARY
  5
67F
330
A8
100
AcDbDictionary
280
     1
281
     1
  3
ACAD_XREC_ROUNDTRIP
360
680
  0
DICTIONARY
  5
663
330
9A
100
AcDbDictionary
280
     1
281
     1
  3
ACAD_XREC_ROUNDTRIP
360
664
  0
DICTIONARY
  5
665
330
9B
100
AcDbDictionary
280
     1
281
     1
  3
ACAD_XREC_ROUNDTRIP
360
666
  0
DICTIONARY
  5
667
330
9C
100
AcDbDictionary
280
     1
281
     1
  3
ACAD_XREC_ROUNDTRIP
360
668
  0
DICTIONARY
  5
669
330
9D
100
AcDbDictionary
280
     1
281
     1
  3
ACAD_XREC_ROUNDTRIP
360
66A
  0
DICTIONARY
  5
671
330
A1
100
AcDbDictionary
280
     1
281
     1
  3
ACAD_XREC_ROUNDTRIP
360
672
  0
DICTIONARY
  5
683
330
173
100
AcDbDictionary
280
     1
281
     1
  3
ACAD_XREC_ROUNDTRIP
360
684
  0
DICTIONARY
  5
67D
330
A7
100
AcDbDictionary
280
     1
281
     1
  3
ACAD_XREC_ROUNDTRIP
360
67E
  0
DICTIONARY
  5
685
330
174
100
AcDbDictionary
280
     1
281
     1
  3
ACAD_XREC_ROUNDTRIP
360
686
  0
DICTIONARY
  5
675
330
A3
100
AcDbDictionary
280
     1
281
     1
  3
ACAD_XREC_ROUNDTRIP
360
676
  0
DICTIONARY
  5
691
330
182
100
AcDbDictionary
280
     1
281
     1
  3
ACAD_XREC_ROUNDTRIP
360
692
  0
DICTIONARY
  5
68F
330
181
100
AcDbDictionary
280
     1
281
     1
  3
ACAD_XREC_ROUNDTRIP
360
690
  0
DICTIONARY
  5
689
330
17E
100
AcDbDictionary
280
     1
281
     1
  3
ACAD_XREC_ROUNDTRIP
360
68A
  0
DICTIONARY
  5
68B
330
17F
100
AcDbDictionary
280
     1
281
     1
  3
ACAD_XREC_ROUNDTRIP
360
68C
  0
DICTIONARY
  5
67B
330
A6
100
AcDbDictionary
280
     1
281
     1
  3
ACAD_XREC_ROUNDTRIP
360
67C
  0
DICTIONARY
  5
66F
330
A0
100
AcDbDictionary
280
     1
281
     1
  3
ACAD_XREC_ROUNDTRIP
360
670
  0
DICTIONARY
  5
68D
330
180
100
AcDbDictionary
280
     1
281
     1
  3
ACAD_XREC_ROUNDTRIP
360
68E
  0
XRECORD
  5
195
102
{ACAD_REACTORS
330
194
102
}
330
194
100
AcDbXrecord
280
     1
310
280000000001000079000000010008000000000000790000000000000000000000010000000000003028210000000000C8C8C8000000000000000000000000000000000000000000000000000000000000000000330000006600000099000000CC000000FF00000000330000333300006633000099330000CC330000FF3300
310
0000660000336600006666000099660000CC660000FF66000000990000339900006699000099990000CC990000FF99000000CC000033CC000066CC000099CC0000CCCC0000FFCC000000FF000033FF000066FF000099FF0000CCFF0000FFFF000000003300330033006600330099003300CC003300FF003300003333003333
310
33006633330099333300CC333300FF33330000663300336633006666330099663300CC663300FF66330000993300339933006699330099993300CC993300FF99330000CC330033CC330066CC330099CC3300CCCC3300FFCC330000FF330033FF330066FF330099FF3300CCFF3300FFFF330000006600330066006600660099
310
006600CC006600FF00660000336600333366006633660099336600CC336600FF33660000666600336666006666660099666600CC666600FF66660000996600339966006699660099996600CC996600FF99660000CC660033CC660066CC660099CC6600CCCC6600FFCC660000FF660033FF660066FF660099FF6600CCFF6600
310
FFFF660000009900330099006600990099009900CC009900FF00990000339900333399006633990099339900CC339900FF33990000669900336699006666990099669900CC669900FF66990000999900339999006699990099999900CC999900FF99990000CC990033CC990066CC990099CC9900CCCC9900FFCC990000FF99
310
0033FF990066FF990099FF9900CCFF9900FFFF99000000CC003300CC006600CC009900CC00CC00CC00FF00CC000033CC003333CC006633CC009933CC00CC33CC00FF33CC000066CC003366CC006666CC009966CC00CC66CC00FF66CC000099CC003399CC006699CC009999CC00CC99CC00FF99CC0000CCCC0033CCCC0066CC
310
CC0099CCCC00CCCCCC00FFCCCC0000FFCC0033FFCC0066FFCC0099FFCC00CCFFCC00FFFFCC000000FF003300FF006600FF009900FF00CC00FF00FF00FF000033FF003333FF006633FF009933FF00CC33FF00FF33FF000066FF003366FF006666FF009966FF00CC66FF00FF66FF000099FF003399FF006699FF009999FF00CC
310
99FF00FF99FF0000CCFF0033CCFF0066CCFF0099CCFF00CCCCFF00FFCCFF0000FFFF0033FFFF0066FFFF0099FFFF00CCFFFF00FFFFFF00000000000D0D0D001A1A1A00282828003535350043434300505050005D5D5D006B6B6B00787878008686860093939300A1A1A100AEAEAE00BBBBBB00C9C9C900D6D6D600E4E4E400
310
F1F1F100FFFFFF000000000000000000000000000000000000000000000000000000000000000000000000000000000000000000000000000000000000000000000000000000000000000000000000000000000000000000000000000000000000000000000000000000000000000000000000000000000000000000000000
310
00000000000000000000000000000000000000000000000000000000000000000000000000000000000000000000000000000000000000000000000000000000000000000000000000000000000000000000000000000000000000000000000000000000000000000000000000000000000000000000000000000000000000
310
000000000000000000000000000000000000000000000000000000000000000000000000000000000000000000000000000000000000000000000000000000000000000000000000000000000000000000000000000000000000000000000000000000000000000000000000000000000000000000000000000000F5F5F5F5
310
F5F5F5F5F5F5F5F5F5F5F5F5F5F5F5F5F5F5F5F5F5F5F5F5F5F5F5F5F5F5F5F5F5F5F5F5F5F5F5F5F5F5F5F5000000000000000000000000000000000000000000000000000000000000000000000000000000000000000000000000000000000000000000000000F5F5000000000000000000000000000000000000000000
310
0000000000000000000000000000000000000000000000000000000000000000000000000000000000000000000000000000000000000000000000000000000000000000000000000000000000000000000000000000000000000000000000000000000000000000000000000000000000000000000000000000000000F5F5
310
F5000000000000000000000000000000000000000000000000000000000000000000000000000000000000F5F5F50000000000000000000000000000000000000000000000000000000000000000000000000000000000000000000000000000000000000000000000F5F5F500000000000000000000000000000000000000
310
00000000000000000000000000000000000000000000000000000000000000000000000000000000000000000000000000000000000000000000000000000000000000000000000000000000000000000000000000000000000000000000000000000000000000000000000000000000000000000000000000000000000000
310
F50000F5F5F5F5F5F5F5F5F5F5F5F5F5F5F5F5F5F5F5F5F5F5F5F5F5F5F5F5F5F5F5F5F5F5F5F5F5F5F5F5F5F50000F500000000000000000000000000000000000000000000000000000000000000000000000000000000000000000000000000000000000000000000F500F5F50000000000000000000000000000000000
310
00000000000000000000000000000000000000000000000000000000000000000000000000000000000000000000000000000000000000000000000000000000000000000000000000000000000000000000000000000000000000000000000000000000000000000000000000000000000000000000000000000000000000
310
0000F5000000F50000000000000000000000000000000000000000000000000000000000000000000000000000F5000000F500000000000000000000000000000000000000000000000000000000000000000000000000000000000000000000000000000000000000000000F500F5F5000000000000000000000000000000
310
00000000000000000000000000000000000000000000000000000000000000000000000000000000000000000000000000000000000000000000000000000000000000000000000000000000000000000000000000000000000000000000000000000000000000000000000000000000000000000000000000000000000000
310
00000000F5000000F500000000000000000000000000000000F5F5F5F5F5F500000000000000000000000000000000F5000000F500000000000000000000000000000000000000000000000000000000000000000000000000000000000000000000000000000000000000000000F500F5F500000000000000000000000000
310
00000000000000000000000000000000000000000000000000000000000000000000000000000000000000000000000000000000000000000000000000000000000000000000000000000000000000000000000000000000000000000000000000000000000000000000000000000000000000000000000000000000000000
310
000000000000F5000000F500000000000000000000000000000000F5F5F5F5F5F500000000000000000000000000000000F5000000F500000000000000000000000000000000000000000000000000000000000000000000000000000000000000000000000000000000000000000000F500F5F50000000000000000000000
310
00000000000000000000000000000000000000000000000000000000000000000000000000000000000000000000000000000000000000000000000000000000000000000000000000000000000000000000000000000000000000000000000000000000000000000000000000000000000000000000000000000000000000
310
0000000000000000F5000000F50000000000000000000000000000000000000000000000000000000000000000000000000000F5000000F500000000000000000000000000000000000000000000000000000000000000000000000000000000000000000000000000000000000000000000F500F5F5000000000000000000
310
00000000000000000000000000000000000000000000000000000000000000000000000000000000000000000000000000000000000000000000000000000000000000000000000000000000000000000000000000000000000000000000000000000000000000000000000000000000000000000000000000000000000000
310
00000000000000000000F5000000F50000000000000000000000000000000000000000000000000000000000000000000000000000F5000000F500000000000000000000000000000000000000000000000000000000000000000000000000000000000000000000000000000000000000000000F500F5F500000000000000
310
00000000000000000000000000000000000000000000000000000000000000000000000000000000000000000000000000000000000000000000000000000000000000000000000000000000000000000000000000000000000000000000000000000000000000000000000000000000000000000000000000000000000000
310
000000000000000000000000F5000000F50000000000000000000000000000000000000000000000000000000000000000000000000000F5000000F500000000000000000000000000000000000000000000000000000000000000000000000000000000000000000000000000000000000000000000F500F5F50000000000
310
00000000000000000000000000000000000000000000000000000000000000000000000000000000000000000000000000000000000000000000000000000000000000000000000000000000000000000000000000000000000000000000000000000000000000000000000000000000000000000000000000000000000000
310
0000000000000000000000000000F5000000F50000000000000000000000000000000000F5F5F5F5F500000000000000000000000000000000F5000000F500000000000000000000000000000000000000000000000000000000000000000000000000000000000000000000000000000000000000F5F5F5F500F5F5000000
310
00000000000000000000000000000000000000000000000000000000000000000000000000000000000000000000000000000000000000000000000000000000000000000000000000000000000000000000000000000000000000000000000000000000000000000000000000000000000000000000000000000000000000
310
00000000000000000000000000000000F5000000F5000000000000000000000000F5F5F5F5F5F5F5F5F5F5F5F5F5F5F50000000000000000000000F5000000F500000000000000000000000000000000000000000000000000000000000000000000000000F5F5F5F5F5F5F5F5F5F5F5F5F5F5F5F50000F50000F500F5F500
310
00000000000000000000000000000000000000000000000000000000000000000000000000000000000000000000000000000000000000000000000000000000000000000000000000000000000000000000000000000000000000000000000000000000000000000000000000000000000000000000000000000000000000
310
000000000000000000000000000000000000F5000000F50000000000000000000000F50000000000000000000000000000F50000000000000000000000F5000000F500000000000000000000000000000000000000000000000000000000000000000000000000F50000000000000000000000000000F5F5F5F50000F500F5
310
F5000000000000000000000000000000000000000000000000000000000000000000000000000000000000000000000000000000000000000000000000000000000000000000000000000000000000000000000000000000000000000000000000000000000000000000000000000000000000000000000000000000000000
310
0000000000000000000000000000000000000000F5000000F50000000000000000000000F50000000000000000000000000000F50000000000000000000000F5000000F500000000000000000000000000000000000000000000000000000000000000000000000000F50000000000000000000000000000F50000F50000F5
310
00F5F500000000000000000000000000000000000000000000000000000000000000000000000000000000000000000000000000000000000000000000000000000000000000000000000000000000000000000000000000000000000000000000000000000000000000000000000000000000000000000000000000000000
310
00000000000000000000000000000000000000000000F5000000F50000000000000000000000F50000000000000000000000000000F50000000000000000000000F5000000F500000000000000000000000000000000000000000000000000000000000000000000000000F50000000000000000000000000000F50000F500
310
00F500F5F50000000000000000000000000000000000000000000000000000000000000000000000000000000000000000000000000000000000000000000000000000000000000000000000000000000000000000000000000000000000000000000000000000000000000000000000000000000000000000000000000000
310
000000000000000000000000000000000000000000000000F5000000F50000000000000000000000F50000000000000000000000000000F50000000000000000000000F5000000F500000000000000000000000000000000000000000000000000000000000000000000000000F50000000000000000000000000000F50000
310
F50000F500F5F5000000000000000000000000000000000000000000000000000000000000000000000000000000000000000000000000000000000000000000000000000000000000000000000000000000000000000000000000000000000000000000000000000000000000000000000000000000000000000000000000
310
0000000000000000000000000000000000000000000000000000F5000000F50000000000000000000000F50000000000000000000000000000F5F500000000000000000000F5000000F500000000000000000000000000000000000000000000000000000000000000000000000000F50000000000000000000000000000F5
310
0000F50000F500F5F500000000000000000000000000000000000000000000000000000000000000000000000000000000000000000000000000000000000000000000000000000000000000000000000000000000000000000000000000000000000000000000000000000000000000000000000000000000000000000000
310
00000000000000000000000000000000000000000000000000000000F5000000F500000000000000000000F5F50000000000000000000000000000F5F500000000000000000000F5000000F500000000000000000000000000000000000000000000000000000000000000000000000000F500000000000000000000000000
310
00F50000F50000F500F5F50000000000000000000000000000000000000000000000000000000000000000000000000000000000000000000000000000000000000000000000000000000000000000000000000000000000000000000000000000000000000000000000000000000000000000000000000000000000000000
310
000000000000000000000000000000000000000000000000000000000000F5000000F500000000000000000000F5F50000000000000000000000000000F5F500000000000000000000F5000000F500000000000000000000000000000000000000000000000000000000000000000000000000F50000000000000000000000
310
000000F50000F50000F500F5F5000000000000000000000000000000000000000000000000000000000000000000000000000000000000000000000000000000000000000000000000000000000000000000000000000000000000000000000000000000000000000000000000000000000000000000000000000000000000
310
0000000000000000000000000000000000000000000000000000000000000000F5000000F500000000000000000000F5F50000000000000000000000000000F5F500000000000000000000F5000000F500000000000000000000000000000000000000000000000000000000000000000000000000F5000000000000000000
310
0000000000F50000F50000F500F5F500000000000000000000000000000000000000000000000000000000000000000000000000000000000000000000000000000000000000000000000000000000000000000000000000000000000000000000000000000000000000000000000000000000000000000000000000000000
310
00000000000000000000000000000000000000000000000000000000000000000000F5000000F500000000000000F5F500F5F50000000000000000000000000000F5F50000F5F5000000000000F5000000F500000000000000000000000000000000000000000000000000000000000000000000000000F500000000000000
310
00000000000000F50000F50000F500F5F50000000000000000000000000000000000000000000000000000000000000000000000000000000000000000000000000000000000000000000000000000000000000000000000000000000000000000000000000000000000000000000000000000000000000000000000000000
310
000000000000000000000000000000000000000000000000000000000000000000000000F5000000F500000000000000F5F50000F50000000000000000000000000000F5F500F5F5F5000000000000F5000000F500000000000000000000000000000000000000000000000000000000000000000000000000F50000000000
310
000000000000000000F50000F50000F500F5F5000000000000000000000000000000000000000000000000000000000000000000000000000000000000000000000000000000000000000000000000000000000000000000000000000000000000000000000000000000000000000000000000000000000000000000000000
310
0000000000000000000000000000000000000000000000000000000000000000000000000000F5000000F500000000000000F5F50000F50000000000000000000000000000F50000F5F5F5000000000000F5000000F500000000000000000000000000000000000000000000000000000000000000000000000000F5000000
310
0000000000000000000000F50000F50000F500F5F500000000000000000000000000000000000000000000000000000000000000000000000000000000000000000000000000000000000000000000000000000000000000000000000000000000000000000000000000000000000000000000000000000000000000000000
310
00000000000000000000000000000000000000000000000000000000000000000000000000000000F5000000F50000000000000000F5F500F50000000000000000000000000000F50000F50000000000000000F5000000F500000000000000000000000000000000000000000000000000000000000000000000000000F500
310
00000000000000000000000000F50000F50000F500F5F50000000000000000000000000000000000000000000000000000000000000000000000000000000000000000000000000000000000000000000000000000000000000000000000000000000000000000000000000000000000000000000000000000000000000000
310
000000000000000000000000000000000000000000000000000000000000000000000000000000000000F5000000F5000000000000000000F500F50000000000000000000000000000F500F5F50000000000000000F5000000F500000000000000000000000000000000000000000000000000000000000000000000000000
310
F50000000000000000000000000000F50000F50000F500F5F5000000000000000000000000000000000000000000000000000000000000000000000000000000000000000000000000000000000000000000000000000000000000000000000000000000000000000000000000000000000000000000000000000000000000
310
0000000000000000000000000000000000000000000000000000000000000000000000000000000000000000F5000000F5000000000000000000F5F5F50000000000000000000000000000F5F5F5000000000000000000F5000000F50000000000000000000000000000000000000000000000000000000000000000000000
310
0000F50000000000000000000000000000F5F5F5F50000F500F5F500000000000000000000000000000000000000000000000000000000000000000000000000000000000000000000000000000000000000000000000000000000000000000000000000000000000000000000000000000000000000000000000000000000
310
00000000000000000000000000000000000000000000000000000000000000000000000000000000000000000000F5000000F500000000000000000000F5F5F5F5F5F5F5F5F5F5F5F5F5F5F5F5F5F5F5000000000000000000F5000000F5000000000000000000000000000000000000000000000000000000000000000000
310
00000000F5F5F5F5F5F5F5F5F5F5F5F5F5F5F5F50000F50000F500F5F50000000000000000000000000000000000000000000000000000000000000000000000000000000000000000000000000000000000000000000000000000000000000000000000000000000000000000000000000000000000000000000000000000
310
000000000000000000000000000000000000000000000000000000000000000000000000000000000000000000000000F5000000F50000000000000000000000F5F500000000F5F5F5F500000000F5F5F500000000000000000000F5000000F500000000000000000000000000000000000000000000000000000000000000
310
000000000000000000F5F5F5F5F500000000000000000000F5F5F5F500F5F5000000000000000000000000000000000000000000000000000000000000000000000000000000000000000000000000000000000000000000000000000000000000000000000000000000000000000000000000000000000000000000000000
310
0000000000000000000000000000000000000000000000000000000000000000000000000000000000000000000000000000F5000000F5000000000000000000000000F5F5F50000000000000000F5F5F5000000000000000000000000F5000000F50000000000000000000000000000000000000000000000000000000000
310
0000000000000000000000000000000000000000000000000000000000F500F5F500000000000000000000000000000000000000000000000000000000000000000000000000000000000000000000000000000000000000000000000000000000000000000000000000000000000000000000000000000000000000000000
310
00000000000000000000000000000000000000000000000000000000000000000000000000000000000000000000000000000000F5000000F500000000000000000000000000F5F5F5F5F5F5F5F5F5F5F5F500000000000000000000000000F5000000F5000000000000000000000000000000000000000000000000000000
310
00000000000000000000000000000000000000000000000000000000000000F500F5F50000000000000000000000000000000000000000000000000000000000000000000000000000000000000000000000000000000000000000000000000000000000000000000000000000000000000000000000000000000000000000
310
000000000000000000000000000000000000000000000000000000000000000000000000000000000000000000000000000000000000F5000000F50000000000000000000000000000000000F5F5F5F50000000000000000000000000000000000F5000000F500000000000000000000000000000000000000000000000000
310
000000000000000000000000000000000000000000000000000000000000000000F500F5F5000000000000000000000000000000000000000000000000000000000000000000000000000000000000000000000000000000000000000000000000000000000000000000000000000000000000000000000000000000000000
310
0000000000000000000000000000000000000000000000000000000000000000000000000000000000000000000000000000000000000000F5000000F50000000000000000000000000000000000000000000000000000000000000000000000000000F5000000F50000000000000000000000000000000000000000000000
310
0000000000000000000000000000000000000000000000000000000000000000000000F500F5F500000000000000000000000000000000000000000000000000000000000000000000000000000000000000000000000000000000000000000000000000000000000000000000000000000000000000000000000000000000
310
00000000000000000000000000000000000000000000000000000000000000000000000000000000000000000000000000000000000000000000F5000000F50000000000000000000000000000000000000000000000000000000000000000000000000000F5000000F5000000000000000000000000000000000000000000
310
00000000000000000000000000000000000000000000000000000000000000000000000000F500F5F50000000000000000000000000000000000000000000000000000000000000000000000000000000000000000000000000000000000000000000000000000000000000000000000000000000000000000000000000000
310
000000000000000000000000000000000000000000000000000000000000000000000000000000000000000000000000000000000000000000000000F5000000F50000000000000000000000000000000000000000000000000000000000000000000000000000F5000000F500000000000000000000000000000000000000
310
000000000000000000000000000000000000000000000000000000000000000000000000000000F500F5F5000000000000000000000000000000000000000000000000000000000000000000000000000000000000000000000000000000000000000000000000000000000000000000000000000000000000000000000000
310
0000000000000000000000000000000000000000000000000000000000000000000000000000000000000000000000000000000000000000000000000000F5000000F50000000000000000000000000000000000000000000000000000000000000000000000000000F5000000F50000000000000000000000000000000000
310
0000000000000000000000000000000000000000000000000000000000000000000000000000000000F500F5F500000000000000000000000000000000000000000000000000000000000000000000000000000000000000000000000000000000000000000000000000000000000000000000000000000000000000000000
310
00000000000000000000000000000000000000000000000000000000000000000000000000000000000000000000000000000000000000000000000000000000F5000000F50000000000000000000000000000000000000000000000000000000000000000000000000000F5000000F5000000000000000000000000000000
310
00000000000000000000000000000000000000000000000000000000000000000000000000000000000000F500F5F50000000000000000000000000000000000000000000000000000000000000000000000000000000000000000000000000000000000000000000000000000000000000000000000000000000000000000
310
000000000000000000000000000000000000000000000000000000000000000000000000000000000000000000000000000000000000000000000000000000000000F5000000F50000000000000000000000000000000000000000000000000000000000000000000000000000F5000000F500000000000000000000000000
310
000000000000000000000000000000000000000000000000000000000000000000000000000000000000000000F500F5F5000000000000000000000000000000000000000000000000000000000000000000000000000000000000000000000000000000000000000000000000000000000000000000000000000000000000
310
0000000000000000000000000000000000000000000000000000000000000000000000000000000000000000000000000000000000000000000000000000000000000000F5000000F50000000000000000000000000000000000000000000000000000000000000000000000000000F5000000F50000000000000000000000
310
0000000000000000000000000000000000000000000000000000000000000000000000000000000000000000000000F500F5F500000000000000000000000000000000000000000000000000000000000000000000000000000000000000000000000000000000000000000000000000000000000000000000000000000000
310
00000000000000000000000000000000000000000000000000000000000000000000000000000000000000000000000000000000000000000000000000000000000000000000F5000000F500000000000000000000000000000000F5F5F5F5F5F500000000000000000000000000000000F5000000F5000000000000000000
310
00000000000000000000000000000000000000000000000000000000000000000000000000000000000000000000F5F5F5F500F5F50000000000000000000000000000000000000000000000000000000000000000000000000000000000000000000000000000000000000000000000000000000000000000000000000000
310
000000000000000000000000000000000000000000000000000000000000000000000000000000000000000000000000000000000000000000000000000000000000000000000000F5000000F50000000000000000000000F5F5F5F5F5F5F5F5F5F5F5F5F5F5F5F50000000000000000000000F5000000F500000000000000
310
000000000000000000000000000000000000000000000000000000000000F5F5F5F5F5F5F5F5F5F5F5F5F5F5F5F50000F50000F500F5F5000000000000000000000000000000000000000000000000000000000000000000000000000000000000000000000000000000000000000000000000000000000000000000000000
310
0000000000000000000000000000000000000000000000000000000000000000000000000000000000000000000000000000000000000000000000000000000000000000000000000000F5000000F50000000000000000000000F50000000000000000000000000000F50000000000000000000000F5000000F50000000000
310
0000000000000000000000000000000000000000000000000000000000000000F50000000000000000000000000000F5F5F5F50000F500F5F500000000000000000000000000000000000000000000000000000000000000000000000000000000000000000000000000000000000000000000000000000000000000000000
310
00000000000000000000000000000000000000000000000000000000000000000000000000000000000000000000000000000000000000000000000000000000000000000000000000000000F5000000F50000000000000000000000F50000000000000000000000000000F50000000000000000000000F5000000F5000000
310
00000000000000000000000000000000000000000000000000000000000000000000F50000000000000000000000000000F50000F50000F500F5F50000000000000000000000000000000000000000000000000000000000000000000000000000000000000000000000000000000000000000000000000000000000000000
310
000000000000000000000000000000000000000000000000000000000000000000000000000000000000000000000000000000000000000000000000000000000000000000000000000000000000F5000000F50000000000000000000000F50000000000000000000000000000F50000000000000000000000F5000000F500
310
000000000000000000000000000000000000000000000000000000000000000000000000F50000000000000000000000000000F50000F50000F500F5F5000000000000000000000000000000000000000000000000000000000000000000000000000000000000000000000000000000000000000000000000000000000000
310
0000000000000000000000000000000000000000000000000000000000000000000000000000000000000000000000000000000000000000000000000000000000000000000000000000000000000000F5000000F50000000000000000000000F50000000000000000000000000000F50000000000000000000000F5000000
310
F500000000000000000000000000000000000000000000000000000000000000000000000000F50000000000000000000000000000F50000F50000F500F5F500000000000000000000000000000000000000000000000000000000000000000000000000000000000000000000000000000000000000000000000000000000
310
00000000000000000000000000000000000000000000000000000000000000000000000000000000000000000000000000000000000000000000000000000000000000000000000000000000000000000000F5000000F50000000000000000000000F50000000000000000000000000000F50000000000000000000000F500
310
0000F500000000000000000000000000000000000000000000000000000000000000000000000000F50000000000000000000000000000F50000F50000F500F5F50000000000000000000000000000000000000000000000000000000000000000000000000000000000000000000000000000000000000000000000000000
310
000000000000000000000000000000000000000000000000000000000000000000000000000000000000000000000000000000000000000000000000000000000000000000000000000000000000000000000000F5000000F50000000000000000000000F50000000000000000000000000000F50000000000000000000000
310
F5000000F500000000000000000000000000000000000000000000000000000000000000000000000000F50000000000000000000000000000F50000F50000F500F5F5000000000000000000000000000000000000000000000000000000000000000000000000000000000000000000000000000000000000000000000000
310
0000000000000000000000000000000000000000000000000000000000000000000000000000000000000000000000000000000000000000000000000000000000000000000000000000000000000000000000000000F5000000F50000000000000000000000F50000000000000000000000000000F5000000000000000000
310
0000F5000000F500000000000000000000000000000000000000000000000000000000000000000000000000F50000000000000000000000000000F50000F50000F500F5F500000000000000000000000000000000000000000000000000000000000000000000000000000000000000000000000000000000000000000000
310
00000000000000000000000000000000000000000000000000000000000000000000000000000000000000000000000000000000000000000000000000000000000000000000000000000000000000000000000000000000F5000000F50000000000000000000000F50000000000000000000000000000F50000F5F5000000
310
00000000F5000000F500000000000000000000000000000000000000000000000000000000000000000000000000F50000000000000000000000000000F50000F50000F500F5F50000000000000000000000000000000000000000000000000000000000000000000000000000000000000000000000000000000000000000
310
000000000000000000000000000000000000000000000000000000000000000000000000000000000000000000000000000000000000000000000000000000000000000000000000000000000000000000000000000000000000F5000000F50000000000000000000000F50000000000000000000000000000F50000F5F500
310
000000000000F5000000F500000000000000000000000000000000000000000000000000000000000000000000000000F50000000000000000000000000000F50000F50000F500F5F5000000000000000000000000000000000000000000000000000000000000000000000000000000000000000000000000000000000000
310
0000000000000000000000000000000000000000000000000000000000000000000000000000000000000000000000000000000000000000000000000000000000000000000000000000000000000000000000000000000000000000F5000000F50000000000000000000000F50000000000000000000000000000F5000000
310
0000000000000000F5000000F500000000000000000000000000000000000000000000000000000000000000000000000000F50000000000000000000000000000F50000F50000F500F5F500000000000000000000000000000000000000000000000000000000000000000000000000000000000000000000000000000000
310
00000000000000000000000000000000000000000000000000000000000000000000000000000000000000000000000000000000000000000000000000000000000000000000000000000000000000000000000000000000000000000000F5000000F50000000000000000000000F50000000000000000000000000000F500
310
00F50000000000000000F5000000F500000000000000000000000000000000000000000000000000000000000000000000000000F50000000000000000000000000000F50000F50000F500F5F50000000000000000000000000000000000000000000000000000000000000000000000000000000000000000000000000000
310
000000000000000000000000000000000000000000000000000000000000000000000000000000000000000000000000000000000000000000000000000000000000000000000000000000000000000000000000000000000000000000000000F5000000F50000000000000000000000F50000000000000000000000000000
310
F500F5F50000000000000000F5000000F500000000000000000000000000000000000000000000000000000000000000000000000000F50000000000000000000000000000F50000F50000F500F5F5000000000000000000000000000000000000000000000000000000000000000000000000000000000000000000000000
310
0000000000000000000000000000000000000000000000000000000000000000000000000000000000000000000000000000000000000000000000000000000000000000000000000000000000000000000000000000000000000000000000000000F5000000F50000000000000000000000F5000000000000000000000000
310
0000F500F5F50000000000000000F5000000F500000000000000000000000000000000000000000000000000000000000000000000000000F50000000000000000000000000000F5F5F5F50000F500F5F500000000000000000000000000000000000000000000000000000000000000000000000000000000000000000000
310
00000000000000000000000000000000000000000000000000000000000000000000000000000000000000000000000000000000000000000000000000000000000000000000000000000000000000000000000000000000000000000000000000000000F5000000F50000000000000000000000F5F5F5F5F5F5F5F5F5F5F5
310
F5F5F5F5F5F5F5000000000000000000F5000000F500000000000000000000000000000000000000000000000000000000000000000000000000F5F5F5F5F5F5F5F5F5F5F5F5F5F5F5F50000F50000F500F5F50000000000000000000000000000000000000000000000000000000000000000000000000000000000000000
310
000000000000000000000000000000000000000000000000000000000000000000000000000000000000000000000000000000000000000000000000000000000000000000000000000000000000000000000000000000000000000000000000000000000000F5000000F5000000000000000000000000000000F5F5F5F5F5
310
F5F5F5000000F5F500000000000000000000F5000000F500000000000000000000000000000000000000000000000000000000000000000000000000000000000000000000000000000000000000F5F5F5F500F5F5000000000000000000000000000000000000000000000000000000000000000000000000000000000000
310
0000000000000000000000000000000000000000000000000000000000000000000000000000000000000000000000000000000000000000000000000000000000000000000000000000000000000000000000000000000000000000000000000000000000000000F5000000F5000000000000000000000000000000000000
310
000000000000F5F5F50000000000000000000000F5000000F500000000000000000000000000000000000000000000000000000000000000000000000000000000000000000000000000000000000000000000F500F5F500000000000000000000000000000000000000000000000000000000000000000000000000000000
310
00000000000000000000000000000000000000000000000000000000000000000000000000000000000000000000000000000000000000000000000000000000000000000000000000000000000000000000000000000000000000000000000000000000000000000000F5000000F500000000000000000000000000000000
310
000000000000F5F5F5F5000000000000000000000000F5000000F500000000000000000000000000000000000000000000000000000000000000000000000000000000000000000000000000000000000000000000F500F5F50000000000000000000000000000000000000000000000000000000000000000000000000000
310
000000000000000000000000000000000000000000000000000000000000000000000000000000000000000000000000000000000000000000000000000000000000000000000000000000000000000000000000000000000000000000000000000000000000000000000000F5000000F50000000000000000000000000000
310
000000F5F5F5F5F5F5F50000000000000000000000000000F5000000F500000000000000000000000000000000000000000000000000000000000000000000000000000000000000000000000000000000000000000000F500F5F5000000000000000000000000000000000000000000000000000000000000000000000000
310
0000000000000000000000000000000000000000000000000000000000000000000000000000000000000000000000000000000000000000000000000000000000000000000000000000000000000000000000000000000000000000000000000000000000000000000000000000F5000000F5000000000000000000000000
310
0000000000F5F500F50000000000000000000000000000000000F5000000F500000000000000000000000000000000000000000000000000000000000000000000000000000000000000000000000000000000000000000000F500F5F500000000000000000000000000000000000000000000000000000000000000000000
310
00000000000000000000000000000000000000000000000000000000000000000000000000000000000000000000000000000000000000000000000000000000000000000000000000000000000000000000000000000000000000000000000000000000000000000000000000000000F5000000F500000000000000000000
310
00000000000000000000000000000000000000000000000000000000F5000000F500000000000000000000000000000000000000000000000000000000000000000000000000000000000000000000000000000000000000000000F500F5F50000000000000000000000000000000000000000000000000000000000000000
310
000000000000000000000000000000000000000000000000000000000000000000000000000000000000000000000000000000000000000000000000000000000000000000000000000000000000000000000000000000000000000000000000000000000000000000000000000000000000F5000000F50000000000000000
310
000000000000000000000000000000000000000000000000000000000000F5000000F500000000000000000000000000000000000000000000000000000000000000000000000000000000000000000000000000000000000000000000F500F5F5000000000000000000000000000000000000000000000000000000000000
310
0000000000000000000000000000000000000000000000000000000000000000000000000000000000000000000000000000000000000000000000000000000000000000000000000000000000000000000000000000000000000000000000000000000000000000000000000000000000000000F5000000F5F5F5F5F5F5F5
310
F5F5F5F5F5F5F5F5F5F5F5F5F5F5F5F5F5F5F5F5F5F5F5F5F5F5F5F5F5F5F5F5F5000000F500000000000000000000000000000000000000000000000000000000000000000000000000000000000000000000000000000000000000000000F500F5F500000000000000000000000000000000000000000000000000000000
310
00000000000000000000000000000000000000000000000000000000000000000000000000000000000000000000000000000000000000000000000000000000000000000000000000000000000000000000000000000000000000000000000000000000000000000000000000000000000000000000F50000F50000000000
310
0000000000000000000000000000000000000000000000000000000000000000000000F50000F50000000000000000000000000000000000000000000000000000000000000000000000000000000000000000000000000000000000000000000000F5F5F50000000000000000000000000000000000000000000000000000
310
000000000000000000000000000000000000000000000000000000000000000000000000000000000000000000000000000000000000000000000000000000000000000000000000000000000000000000000000000000000000000000000000000000000000000000000000000000000000000000000000F5F5F500000000
310
0000000000000000000000000000000000000000000000000000000000000000000000000000F5F5F50000000000000000000000000000000000000000000000000000000000000000000000000000000000000000000000000000000000000000000000F5F5F5000000000000000000000000000000000000000000000000
310
0000000000000000000000000000000000000000000000000000000000000000000000000000000000000000000000000000000000000000000000000000000000000000000000000000000000000000000000000000000000000000000000000000000000000000000000000000000000000000000000000000F5F5F5F5F5
310
F5F5F5F5F5F5F5F5F5F5F5F5F5F5F5F5F5F5F5F5F5F5F5F5F5F5F5F5F5F5F5F5F5F5F5F5F5F5F5F5F5F5F5000000000000000000000000000000000000000000000000000000000000000000000000000000000000000000000000000000000000000000000000F5F500000000000000000000000000000000000000000000
310
00000000000000000000000000000000000000000000000000000000000000000000000000000000000000000000000000000000000000000000000000000000000000000000000000000000000000000000000000000000000000000000000000000000000000000000000000000000000000000000000000000000000000
310
00000000000000000000000000000000000000000000000000000000000000000000000000000000000000000000000000000000000000000000000000000000000000000000000000000000000000000000000000000000000000000000000000000000000000000000000000000000000000000000000000000000000000
310
00000000000000000000000000000000000000000000000000000000000000000000000000000000000000000000000000000000000000000000000000000000000000000000000000000000000000000000000000000000000000000000000000000000000000000000000000000000000000000000000000000000000000
310
00000000000000000000000000000000000000000000000000000000000000000000000000000000000000000000000000000000000000000000000000000000000000000000000000000000000000000000000000000000000000000000000000000000000000000000000000000000000000000000000000000000000000
310
00000000000000000000000000000000000000000000000000000000000000000000000000000000000000000000000000000000000000000000000000000000000000000000000000000000000000000000000000000000000000000000000000000000000000000000000000000000000000000000000000000000000000
310
00000000000000000000000000000000000000000000000000000000000000000000000000000000000000000000000000000000000000000000000000000000000000000000000000000000000000000000000000000000000000000000000000000000000000000000000000000000000000000000000000000000000000
310
00000000000000000000000000000000000000000000000000000000000000000000000000000000000000000000000000000000000000000000000000000000000000000000000000000000000000000000000000000000000000000000000000000000000000000000000000000000000000000000000000000000000000
310
00000000000000000000000000000000000000000000000000000000000000000000000000000000000000000000000000000000000000000000000000000000000000000000000000000000000000000000000000000000000000000000000000000000000000000000000000000000000000000000000000000000000000
310
00000000000000000000000000000000000000000000000000000000000000000000000000000000000000000000000000000000000000000000000000000000000000000000000000000000000000000000000000000000000000000000000000000000000000000000000000000000000000000000000000000000000000
310
00000000000000000000000000000000000000000000000000000000000000000000000000000000000000000000000000000000000000000000000000000000000000000000000000000000000000000000000000000000000000000000000000000000000000000000000000000000000000000000000000000000000000
310
00000000000000000000000000000000000000000000000000000000000000000000000000000000000000000000000000000000000000000000000000000000000000000000000000000000000000000000000000000000000000000000000000000000000000000000000000000000000000000000000000000000000000
310
00000000000000000000000000000000000000000000000000000000000000000000000000000000000000000000000000000000000000000000000000000000000000000000000000000000000000000000000000000000000000000000000000000000000000000000000000000000000000000000000000000000000000
310
00000000000000000000000000000000000000000000000000000000000000000000000000000000000000000000000000000000000000000000000000000000000000000000000000000000000000000000000000000000000000000000000000000000000000000000000000000000000000000000000000000000000000
310
00000000000000000000000000000000000000000000000000000000000000000000000000000000000000000000000000000000000000000000000000000000000000000000000000000000000000000000000000000000000000000000000000000000000000000000000000000000000000000000000000000000000000
310
00000000000000000000000000000000000000000000000000000000000000000000000000000000000000000000000000000000000000000000000000000000000000000000000000000000000000000000000000000000000000000000000000000000000000000000000000000000000000000000000000000000000000
310
00000000000000000000000000000000000000000000000000000000000000000000000000000000000000000000000000000000000000000000000000000000000000000000000000000000000000000000000000000000000000000000000000000000000000000000000000000000000000000000000000000000000000
310
00000000000000000000000000000000000000000000000000000000000000000000000000000000000000000000000000000000000000000000000000000000000000000000000000000000000000000000000000000000000000000000000000000000000000000000000000000000000000000000000000000000000000
310
00000000000000000000000000000000000000000000000000000000000000000000000000000000000000000000000000000000000000000000000000000000000000000000000000000000000000000000000000000000000000000000000000000000000000000000000000000000000000000000000000000000000000
310
00000000000000000000000000000000000000000000000000000000000000000000000000000000000000000000000000000000000000000000000000000000000000000000000000000000000000000000000000000000000000000000000000000000000000000000000000000000000000000000000000000000000000
310
00000000000000000000000000000000000000000000000000000000000000000000000000000000000000000000000000000000000000000000000000000000000000000000000000000000000000000000000000000000000000000000000000000000000000000000000000000000000000000000000000000000000000
310
00000000000000000000000000000000000000000000000000000000000000000000000000000000000000000000000000000000000000000000000000000000000000000000000000000000000000000000000000000000000000000000000000000000000000000000000000000000000000000000000000000000000000
310
00000000000000000000000000000000000000000000000000000000000000000000000000000000000000000000000000000000000000000000000000000000000000000000000000000000000000000000000000000000000000000000000000000000000000000000000000000000000000000000000000000000000000
310
00000000000000000000000000000000000000000000000000000000000000000000000000000000000000000000000000000000000000000000000000000000000000000000000000000000000000000000000000000000000000000000000000000000000000000000000000000000000000000000000000000000000000
310
00000000000000000000000000000000000000000000000000000000000000000000000000000000000000000000000000000000000000000000000000000000000000000000000000000000000000000000000000000000000000000000000000000000000000000000000000000000000000000000000000000000000000
310
00000000000000000000000000000000000000000000000000000000000000000000000000000000000000000000000000000000000000000000000000000000000000000000000000000000000000000000000000000000000000000000000000000000000000000000000000000000000000000000000000000000000000
310
00000000000000000000000000000000000000000000000000000000000000000000000000000000000000000000000000000000000000000000000000000000000000000000000000000000000000000000000000000000000000000000000000000000000000000000000000000000000000000000000000000000000000
310
00000000000000000000000000000000000000000000000000000000000000000000000000000000000000000000000000000000000000000000000000000000000000000000000000000000000000000000000000000000000000000000000000000000000000000000000000000000000000000000000000000000000000
310
00000000000000000000000000000000000000000000000000000000000000000000000000000000000000000000000000000000000000000000000000000000000000000000000000000000000000000000000000000000000000000000000000000000000000000000000000000000000000000000000000000000000000
310
00000000000000000000000000000000000000000000000000000000000000000000000000000000000000000000000000000000000000000000000000000000000000000000000000000000000000000000000000000000000000000000000000000000000000000000000000000000000000000000000000000000000000
310
00000000000000000000000000000000000000000000000000000000000000000000000000000000000000000000000000000000000000000000000000000000000000000000000000000000000000000000000000000000000000000000000000000000000000000000000000000000000000000000000000000000000000
310
00000000000000000000000000000000000000000000000000000000000000000000000000000000000000000000000000000000000000000000000000000000000000000000000000000000000000000000000000000000000000000000000000000000000000000000000000000000000000000000000000000000000000
310
00000000000000000000000000000000000000000000000000000000000000000000000000000000000000000000000000000000000000000000000000000000000000000000000000000000000000000000000000000000000000000000000000000000000000000000000000000000000000000000000000000000000000
310
00000000000000000000000000000000000000000000000000000000000000000000000000000000000000000000000000000000000000000000000000000000000000000000000000000000000000000000000000000000000000000000000000000000000000000000000000000000000000000000000000000000000000
310
00000000000000000000000000000000000000000000000000000000000000000000000000000000000000000000000000000000000000000000000000000000000000000000000000000000000000000000000000000000000000000000000000000000000000000000000000000000000000000000000000000000000000
310
00000000000000000000000000000000000000000000000000000000000000000000000000000000000000000000000000000000000000000000000000000000000000000000000000000000000000000000000000000000000000000000000000000000000000000000000000000000000000000000000000000000000000
310
00000000000000000000000000000000000000000000000000000000000000000000000000000000000000000000000000000000000000000000000000000000000000000000000000000000000000000000000000000000000000000000000000000000000000000000000000000000000000000000000000000000000000
310
00000000000000000000000000000000000000000000000000000000000000000000000000000000000000000000000000000000000000000000000000000000000000000000000000000000000000000000000000000000000000000000000000000000000000000000000000000000000000000000000000000000000000
310
00000000000000000000000000000000000000000000000000000000000000000000000000000000000000000000000000000000000000000000000000000000000000000000000000000000000000000000000000000000000000000000000000000000000000000000000000000000000000000000000000000000000000
310
00000000000000000000000000000000000000000000000000000000000000000000000000000000000000000000000000000000000000000000000000000000000000000000000000000000000000000000000000000000000000000000000000000000000000000000000000000000000000000000000000000000000000
310
00000000000000000000000000000000000000000000000000000000000000000000000000000000000000000000000000000000000000000000000000000000000000000000000000000000000000000000000000000000000000000000000000000000000000000000000000000000000000000000000000000000000000
310
00000000000000000000000000000000000000000000000000000000000000000000000000000000000000000000000000000000000000000000000000000000000000000000000000000000000000000000000000000000000000000000000000000000000000000000000000000000000000000000000000000000000000
310
00000000000000000000000000000000000000000000000000000000000000000000000000000000000000000000000000000000000000000000000000000000000000000000000000000000000000000000000000000000000000000000000000000000000000000000000000000000000000000000000000000000000000
310
00000000000000000000000000000000000000000000000000000000000000000000000000000000000000000000000000000000000000000000000000000000000000000000000000000000000000000000000000000000000000000000000000000000000000000000000000000000000000000000000000000000000000
310
00000000000000000000000000000000000000000000000000000000000000000000000000000000000000000000000000000000000000000000000000000000000000000000000000000000000000000000000000000000000000000000000000000000000000000000000000000000000000000000000000000000000000
310
00000000000000000000000000000000000000000000000000000000000000000000000000000000000000000000000000000000000000000000000000000000000000000000000000000000000000000000000000000000000000000000000000000000000000000000000000000000000000000000000000000000000000
310
00000000000000000000000000000000000000000000000000000000000000000000000000000000000000000000000000000000000000000000000000000000000000000000000000000000000000000000000000000000000000000000000000000000000000000000000000000000000000000000000000000000000000
310
00000000000000000000000000000000000000000000000000000000000000000000000000000000000000000000000000000000000000000000000000000000000000000000000000000000000000000000000000000000000000000000000000000000000000000000000000000000000000000000000000000000000000
310
00000000000000000000000000000000000000000000000000000000000000000000000000000000000000000000000000000000000000000000000000000000000000000000000000000000000000000000000000000000000000000000000000000000000000000000000000000000000000000000000000000000000000
310
00000000000000000000000000000000000000000000000000000000000000000000000000000000000000000000000000000000000000000000000000000000000000000000000000000000000000000000000000000000000000000000000000000000000000000000000000000000000000000000000000000000000000
310
00000000000000000000000000000000000000000000000000000000000000000000000000000000000000000000000000000000000000000000000000000000000000000000000000000000000000000000000000000000000000000000000000000000000000000000000000000000000000000000000000000000000000
310
00000000000000000000000000000000000000000000000000000000000000000000000000000000000000000000000000000000000000000000000000000000000000000000000000000000000000000000000000000000000000000000000000000000000000000000000000000000000000000000000000000000000000
310
00000000000000000000000000000000000000000000000000000000000000000000000000000000000000000000000000000000000000000000000000000000000000000000000000000000000000000000000000000000000000000000000000000000000000000000000000000000000000000000000000000000000000
310
00000000000000000000000000000000000000000000000000000000000000000000000000000000000000000000000000000000000000000000000000000000000000000000000000000000000000000000000000000000000000000000000000000000000000000000000000000000000000000000000000000000000000
310
00000000000000000000000000000000000000000000000000000000000000000000000000000000000000000000000000000000000000000000000000000000000000000000000000000000000000000000000000000000000000000000000000000000000000000000000000000000000000000000000000000000000000
310
00000000000000000000000000000000000000000000000000000000000000000000000000000000000000000000000000000000000000000000000000000000000000000000000000000000000000000000000000000000000000000000000000000000000000000000000000000000000000000000000000000000000000
310
00000000000000000000000000000000000000000000000000000000000000000000000000000000000000000000000000000000000000000000000000000000000000000000000000000000000000000000000000000000000000000000000000000000000000000000000000000000000000000000000000000000000000
310
00000000000000000000000000000000000000000000000000000000000000000000000000000000000000000000000000000000000000000000000000000000000000000000000000000000000000000000000000000000000000000000000000000000000000000000000000000000000000000000000000000000000000
310
00000000000000000000000000000000000000000000000000000000000000000000000000000000000000000000000000000000000000000000000000000000000000000000000000000000000000000000000000000000000000000000000000000000000000000000000000000000000000000000000000000000000000
310
00000000000000000000000000000000000000000000000000000000000000000000000000000000000000000000000000000000000000000000000000000000000000000000000000000000000000000000000000000000000000000000000000000000000000000000000000000000000000000000000000000000000000
310
00000000000000000000000000000000000000000000000000000000000000000000000000000000000000000000000000000000000000000000000000000000000000000000000000000000000000000000000000000000000000000000000000000000000000000000000000000000000000000000000000000000000000
310
00000000000000000000000000000000000000000000000000000000000000000000000000000000000000000000000000000000000000000000000000000000000000000000000000000000000000000000000000000000000000000000000000000000000000000000000000000000000000000000000000000000000000
310
00000000000000000000000000000000000000000000000000000000000000000000000000000000000000000000000000000000000000000000000000000000000000000000000000000000000000000000000000000000000000000000000000000000000000000000000000000000000000000000000000000000000000
310
00000000000000000000000000000000000000000000000000000000000000000000000000000000000000000000000000000000000000000000000000000000000000000000000000000000000000000000000000000000000000000000000000000000000000000000000000000000000000000000000000000000000000
310
000000000000000000000000000000000000000000000000000000000000000000000000000000000000000000000000000000000000000000000000000000000000000000000000000000F5F5F5F5F5F5F5F5F5F5F5F5F5F5F5F5000000000000000000000000000000000000000000000000000000000000000000000000
310
00000000000000000000000000000000000000000000000000000000000000000000000000000000000000000000000000000000000000000000000000000000000000000000000000000000000000000000000000000000000000000000000000000000000000000000000000000000000000000000000000000000000000
310
0000000000000000000000000000000000000000000000000000000000000000000000000000000000000000000000000000000000000000000000000000000000000000000000000000000000F50000000000000000000000000000F500000000000000000000000000000000000000000000000000000000000000000000
310
00000000000000000000000000000000000000000000000000000000000000000000000000000000000000000000000000000000000000000000000000000000000000000000000000000000000000000000000000000000000000000000000000000000000000000000000000000000000000000000000000000000000000
310
00000000000000000000000000000000000000000000000000000000000000000000000000000000000000000000000000000000000000000000000000000000000000000000000000000000000000F50000000000000000000000000000F50000000000000000000000000000000000000000000000000000000000000000
310
00000000000000000000000000000000000000000000000000000000000000000000000000000000000000000000000000000000000000000000000000000000000000000000000000000000000000000000000000000000000000000000000000000000000000000000000000000000000000000000000000000000000000
310
000000000000000000000000000000000000000000000000000000000000000000000000000000000000000000000000000000000000000000000000000000000000000000000000000000000000000000F50000000000000000000000000000F5000000000000000000000000000000000000000000000000000000000000
310
00000000000000000000000000000000000000000000000000000000000000000000000000000000000000000000000000000000000000000000000000000000000000000000000000000000000000000000000000000000000000000000000000000000000000000000000000000000000000000000000000000000000000
310
0000000000000000000000000000000000000000000000000000000000000000000000000000000000000000000000000000000000000000000000000000000000000000000000000000000000000000000000F50000000000000000000000000000F500000000000000000000000000000000000000000000000000000000
310
00000000000000000000000000000000000000000000000000000000000000000000000000000000000000000000000000000000000000000000000000000000000000000000000000000000000000000000000000000000000000000000000000000000000000000000000000000000000000000000000000000000000000
310
00000000000000000000000000000000000000000000000000000000000000000000000000000000000000000000000000000000000000000000000000000000000000000000000000000000000000000000000000F50000000000000000000000000000F50000000000000000000000000000000000000000000000000000
310
00000000000000000000000000000000000000000000000000000000000000000000000000000000000000000000000000000000000000000000000000000000000000000000000000000000000000000000000000000000000000000000000000000000000000000000000000000000000000000000000000000000000000
310
000000000000000000000000000000000000000000000000000000000000000000000000000000000000000000000000000000000000000000000000000000000000000000000000000000000000000000000000000000F50000000000000000000000000000F5000000000000000000000000000000000000000000000000
310
00000000000000000000000000000000000000000000000000000000000000000000000000000000000000000000000000000000000000000000000000000000000000000000000000000000000000000000000000000000000000000000000000000000000000000000000000000000000000000000000000000000000000
310
0000000000000000000000000000000000000000000000000000000000000000000000000000000000000000000000000000000000000000000000000000000000000000000000000000000000000000000000000000000000F50000000000000000000000000000F500000000000000000000000000000000000000000000
310
00000000000000000000000000000000000000000000000000000000000000000000000000000000000000000000000000000000000000000000000000000000000000000000000000000000000000000000000000000000000000000000000000000000000000000000000000000000000000000000000000000000000000
310
00000000000000000000000000000000000000000000000000000000000000000000000000000000000000000000000000000000000000000000000000000000000000000000000000000000000000000000000000000000000000F50000000000000000000000000000F50000000000000000000000000000000000000000
310
00000000000000000000000000000000000000000000000000000000000000000000000000000000000000000000000000000000000000000000000000000000000000000000000000000000000000000000000000000000000000000000000000000000000000000000000000000000000000000000000000000000000000
310
000000000000000000000000000000000000000000000000000000000000000000000000000000000000000000000000000000000000000000000000000000000000000000000000000000000000000000000000000000000000000000F50000000000000000000000000000F5000000000000000000000000000000000000
310
00000000000000000000000000000000000000000000000000000000000000000000000000000000000000000000000000000000000000000000000000000000000000000000000000000000000000000000000000000000000000000000000000000000000000000000000000000000000000000000000000000000000000
310
0000000000000000000000000000000000000000000000000000000000000000000000000000000000000000000000000000000000000000000000000000000000000000000000000000000000000000000000000000000000000000000000F50000000000000000000000000000F500000000000000000000000000000000
310
00000000000000000000000000000000000000000000000000000000000000000000000000000000000000000000000000000000000000000000000000000000000000000000000000000000000000000000000000000000000000000000000000000000000000000000000000000000000000000000000000000000000000
310
00000000000000000000000000000000000000000000000000000000000000000000000000000000000000000000000000000000000000000000000000000000000000000000000000000000000000000000000000000000000000000000000000F50000000000000000000000000000F50000000000000000000000000000
310
00000000000000000000000000000000000000000000000000000000000000000000000000000000000000000000000000000000000000000000000000000000000000000000000000000000000000000000000000000000000000000000000000000000000000000000000000000000000000000000000000000000000000
310
000000000000000000000000000000000000000000000000000000000000000000000000000000000000000000000000000000000000000000000000000000000000000000000000000000000000000000000000000000000000000000000000000000F50000000000000000000000000000F5000000000000000000000000
310
00000000000000000000000000000000000000000000000000000000000000000000000000000000000000000000000000000000000000000000000000000000000000000000000000000000000000000000000000000000000000000000000000000000000000000000000000000000000000000000000000000000000000
310
0000000000000000000000000000000000000000000000000000000000000000000000000000000000000000000000000000000000000000000000000000000000000000000000000000000000000000000000000000000000000000000000000000000000F50000000000000000000000000000F500000000000000000000
310
00000000000000000000000000000000000000000000000000000000000000000000000000000000000000000000000000000000000000000000000000000000000000000000000000000000000000000000000000000000000000000000000000000000000000000000000000000000000000000000000000000000000000
310
00000000000000000000000000000000000000000000000000000000000000000000000000000000000000000000000000000000000000000000000000000000000000000000000000000000000000000000000000000000000000000000000000000000000000F50000000000000000000000000000F50000000000000000
310
00000000000000000000000000000000000000000000000000000000000000000000000000000000000000000000000000000000000000000000000000000000000000000000000000000000000000000000000000000000000000000000000000000000000000000000000000000000000000000000000000000000000000
310
000000000000000000000000000000000000000000000000000000000000000000000000000000000000000000000000000000000000000000000000000000000000000000000000000000000000000000000000000000000000000000000000000000000000000000F5F5F5F5F5F5F5F5F5F5F5F5F5F5F5F5000000000000
310
00000000000000000000000000000000000000000000000000000000000000000000000000000000000000000000000000000000000000000000000000000000000000000000000000000000000000000000000000000000000000000000000000000000000000000000000000000000000000000000000000000000000000
310
000000000000000000000000000000000000000000000000000000000000000000000000000000000000000000000000000000000000000000000000000000000000000000000000000000000000000000000000000000000000000000000000000000000000000000000000F5000000000000000000000000F50000000000
310
00000000000000000000000000000000000000000000000000000000000000000000000000000000000000000000000000000000000000000000000000000000000000000000000000000000000000000000000000000000000000000000000000000000000000000000000000000000000000000000000000000000000000
310
000000000000000000000000000000000000000000000000000000000000000000000000000000000000000000000000000000000000000000000000000000000000000000000000000000000000000000000000000000000000000000000000000000000000000000000000F5F5F5F5F5F5F5F5F5F5F5F5F5F5F5F5F5F500
310
00000000000000000000000000000000000000000000000000000000000000000000000000000000000000000000000000000000000000000000000000000000000000000000000000000000000000000000000000000000000000000000000000000000000000000000000000000000000000000000000000000000000000
310
0000000000000000000000000000000000000000000000000000000000000000000000000000000000000000000000000000000000000000000000000000000000000000000000000000000000000000000000000000000000000000000000000000000000000000000000000000F500000000000000000000000000000000
310
F5000000000000000000000000000000000000000000000000000000000000000000000000000000000000000000000000000000000000000000000000000000000000000000000000000000000000000000000000000000000000000000000000000000000000000000000000000000000000000000000000000000000000
310
00000000000000000000000000000000000000000000000000000000000000000000000000000000000000000000000000000000000000000000000000000000000000000000000000000000000000000000000000000000000000000000000000000000000000000000000000000000F50000000000000000000000000000
310
0000F500000000000000000000000000000000000000000000000000000000000000000000000000000000000000000000000000000000000000000000000000000000000000000000000000000000000000000000000000000000000000000000000000000000000000000000000000000000000000000000000000000000
310
00000000000000000000000000000000000000000000000000000000000000000000000000000000000000000000000000000000000000000000000000000000000000000000000000000000000000000000000000000000000000000000000000000000000000F5F5F5F5F5F5F5F5F5F5F5F5F5F5F5F5F5F5F5F5F5F5F5F5
310
F5F5F5F5F5F5F5F5F5F5F5F5F5F5F5F5000000000000000000000000000000000000000000000000000000000000000000000000000000000000000000000000000000000000000000000000000000000000000000000000000000000000000000000000000000000000000000000000000000000000000000000000000000
310
00000000000000000000000000000000000000000000000000000000000000000000000000000000000000000000000000000000000000000000000000000000000000000000000000000000000000000000000000000000000000000000000000000000000000F5F500000000000000000000000000000000000000000000
310
000000000000000000000000000000000000F5F50000000000000000000000000000000000000000000000000000000000000000000000000000000000000000000000000000000000000000000000000000000000000000000000000000000000000000000000000000000000000000000000000000000000000000000000
310
00000000000000000000000000000000000000000000000000000000000000000000000000000000000000000000000000000000000000000000000000000000000000000000000000000000000000000000000000000000000000000000000000000000000000F5F500000000000000000000000000000000000000000000
310
00000000000000000000000000000000000000000000F5F500000000000000000000000000000000000000000000000000000000000000000000000000000000000000000000000000000000000000000000000000000000000000000000000000000000000000000000000000000000000000000000000000000000000000
310
000000000000000000000000000000000000000000000000000000000000000000000000000000000000000000000000000000000000000000000000000000000000000000000000000000000000000000000000000000000000000000000000000000000000000000F5F5F5F5F5F5F5F5F5F5F5F5F5F5F5F5F5F5F5F5F5F5
310
F5F5F5F5F5F5F5F5F5F5F5F5F5F5F5F5F5F5F5F5F5F5F5F5F5F50000000000000000000000000000000000000000000000000000000000000000000000000000000000000000000000000000000000000000000000000000000000000000000000000000000000000000000000000000000000000000000000000000000000
310
00000000000000000000000000000000000000000000000000000000000000000000000000000000000000000000000000000000000000000000000000000000000000000000000000000000000000000000000000000000000000000000000000000000000000000000000000000000000000000000000000000000000000
310
00000000000000000000000000000000000000000000000000000000000000000000000000000000000000000000000000000000000000000000000000000000000000000000000000000000000000000000000000000000000000000000000000000000000000000000000000000000000000000000000000000000000000
310
000000000000000000000000000000000000000000000000000000000000000000000000
  0
XRECORD
  5
598
102
{ACAD_REACTORS
330
188
102
}
330
188
100
AcDbXrecord
280
     1
102
MATERIAL
148
0.0
149
0.0
149
0.0
 93
        0
 94
      127
282
     0
 72
     1
 77
     1
171
     1
175
     1
179
     1
273
     0
  0
XRECORD
  5
189
102
{ACAD_REACTORS
330
188
102
}
330
188
100
AcDbXrecord
280
     1
 70
     1
 90
429727718
  1
508B35C9-AEE7-456F-BE74-D52651303AC6
310
504B03040A0000080000B670623B3DEE336E79000000790000001B0000006175746F6465736B2D64657369676E2D7061636B6167652E786D6C3C3F786D6C2076657273696F6E3D22312E302220656E636F64696E673D227574662D3822203F3E3C666F726D6174733E3C666F726D61743E687474703A2F2F736368656D612E
310
6175746F6465736B2E636F6D2F64657369676E2D7061636B6167652F323030393C2F666F726D61743E3C2F666F726D6174733E504B0304140006080800B670623BD486FD9CA0000000F4000000130000005B436F6E74656E745F54797065735D2E786D6C7D8EC10E82300C865F65E91D8A1E8C310C0EEA1BF002731658846E
310
D98AC1B77784ABF1D8FE5FBFBF75BBCE937A534CCEB38643598122B6FEE978D0B0485F9C41B54DDD7D022595594E1A469170414C76A4D9A4D207E29CF43ECE46F218070CC6BECC4078ACAA135ACF422C856C0E68EA1BF5669944DDD7BCDE7B1F8E415D77AECB980613C2E4AC91FC167A2B244592486606FC29C8FD7F045B9A
310
EF7053A7E60B504B0304140006080800B670623B28ED286BEB0000007C01000008000000636F72652E786D6C8D90416EC3201045AF82665B6183218D6D61A254764FD00B204C5C94182C03558F5F9C3852BBEB6A467FFE9B197D71FA9E6FE8CBACC17AD7012D0820E3B41FAD9B3A48F1826B40272956EFE32F1B20A766D3C1
310
268314D3EAD3B24BDABB685CCCAAF3A3D94515828980F42D371D04FD696655A814B3235C8B45E9AB9A4C419F5D8653B2237A1CB163DE672FD6AC209BF3C08E0D1B30EB19C3FC9D72FCC6EB231EFA33EDE96BDD341517E5064B11EDFCBCAF57A3A2194156843498524CAA0FCA5B7268F9E185D42D21A2DCEC7FA0B48CFF8492
310
759155FBBB0F2C80A4F991FB408A72CB22977B50B96EB9C91F504B0304140006080800B670623B55019EA25F0000007C00000007000000636E782E786D6C4DCB3B0E80201045D1AD90E915ED2CF8AC45050C11660C8261F98AB1B07AC9C97D42D718D865D3E909258CFD00CCE24AC6E326A164D74DC0B4128928FF32603847
310
2BA13128B1252AC747C6BAB984FC68F0B87FE8960A5C09FE86CFB69FBA01504B0304140006080800B670623B7BC41AC871010000D40300000C0000006662782F636F72652E786D6CC553ED6E8320147D15C2DF4501B56B6D90A64BBB27D80B50A5CE54C120983EFEAE1F4DD7A56BBA5FF3879273EEE59E7310BE393735EA95
310
ED2AA333CC428A91D2B9292A5D66D8BB63B0C26823B835C67D2BC348CB46657880B1E0A535BE9DA1DC68A7B403549B42CDA0EC3AE530CA6B5864B8CB3F552343E91D5474A7B095F949962A6421D0502778E72C0840D390E18DC5F170E664C205F7BE2A66B62A605A75AC94C522DDEEE3651AEF837817C741F2CE92E02D592D
310
83FD6ECB76EC7595A651C2C9D02CB8AB9A8BBADC2AE954814544691A3016D0E883256BBA58278B17BA5A53CAC9507ED3E4DBE2C9265F691747B3DCA9ADC382819091F8E1162272A8933DE82182932144F88C09DF060D8140C84E1EEA8B8F1340BDCA9DB1093085F157AA97B557309586747CD0EF0B4EA64E983A6E0EAEEFCE
310
889E9EF17847386AA94B30211D2C0FDE0D3AF9A4610EAD5536E8DD1969631B593F67E381C33F5157F17725E5A636F6BF1491F980C8FC7B90E13E8A2F504B0304140006080800B670623B70102A487D0000009D0000000B0000006662782F636E782E786D6C4DCCD10A83201886E15B91FFDC95A5C30335ACCDFB886521330D
310
A76397BF1A1DECE883878F57749FD5A3B74D2F17830472A901D9F088930B8B849267CC01754AA418F3DF0D5018572BE160506249B16C274D761E8BCFBB7A179E27F65CB39A0F14D396184C9921B81F34C3ACA1B4B99ABB6E6F062A25AA5F69DF23ACBE504B0304140006080800B670623B3610CA3329010000120200003100
310
00006662782F42384135303843342D343331462D343546312D424341352D3532343432364645413344462F636F72652E786D6C8D515B6EC32010BC0AE22B55850D0E446E848992B43E412FE000495162B07854397EA176A4F62F3F2C9A9D991D58BEBB8F37F0AD7D30CE76905418026DA553C65E3A98E219B510EC04F7CEC5
310
3F3408EC30EA0E16180A7EF12E4D0B249D8DDAC68C5AA7F4020E21E80881BCE54B0783FCD2E3500D296646B856D320AFC34557A4CAEDCC133C449F0380794839A138B47B86DB2345744D7A44594FD0E1B867883594369BFE63BF7EEF793D0B054FC9A8456E548E63CE46FB674D8A58F068C6477CE9F510B582A2C1F80D1182
310
70F349E816B32D65AFB8DD62CCEB42FF274A937A52948C8DEB66893BCB021484D7734370E5D2E9F608A3EF93F3119479ABA0E50B14B8C298119A43CCC4FCFCECB8A18B6388CEE7EF5D5D4F994BD86CBBA182D76543B9FCAE2FD7B24DF103504B0304140006080800B670623B1B8617914E0100003303000030000000666278
310
2F42384135303843342D343331462D343546312D424341352D3532343432364645413344462F636E782E786D6CD593C16EC32010447F0571AD6CE3D489D20813A9877E410FBD62D82434182CC055F3F75D1292E692438FBD206B7698593D61BEFD1E2DF982108D773D6D6B460938E5B571FB9ECE6957AD29D90A1EBC4F7736
310
4A9C1CA1A759A682EF839FA72269D8C9D92654AD71C72206887E0E0A22CAF926B15E498B01E0AA19451807D01A34B919F16B070157417138917400F2F6FA41FCF0092A45DEE414C19BDC21783E4BD39D891265658C3D8DEA00A3ACE59CBC8678ACB54CB26EEB6BD7839D7E9348BE70AD9C8321B9BCA7F9A4A26C542347DEE0
310
50F09802D22BA6749A800A394DD62899107273365E3C82CFC6A55557BC06C10774B7ABE7AEC3B0F34CF06446280E154026D0542C187BA9DAB6628BF7B6DBB0E5A65B3EB1F58631DE64BBE083F7B65CC218087E22CABB042E51D1F2268F1FE12B3EA24D40D63E9CFE00120194D60B9D5BC67FE6D39CDF37E20AF817881F504B
310
0304140006080800B670623BBFEF2E3B690500003C100000340000006662782F42384135303843342D343331462D343546312D424341352D3532343432364645413344462F6F626A656374732E786D6CAD575D739B3814FD2B0CFB0C98D84E931D4227B6938EA793B6534F3BFB90198F0099B001899144EAECAFDF231018B0
310
D37A3FFC609090EEE7B94757C1FB7D915B2F54C88CB31BDB7727B64559CC938CA53776A576CE956DBD0F03C1B9EA2DB32D460A7A63EB693B0C52C1ABD24C257447AA5C8D66EF177F5832A68CDA569C13296F6C193FD182B8A4523CA1F2D94D88226EBADBBBBEDB2C1C8A4D05299F46424B222853B014F30C52ACC6287F389C
310
D85E1878FA7B18E87FB36AFAF62AAFF667A83F635211161F291B8999FAB3D5DDC5FCDA99CF6653677679E13B8BFBC5CAF1DF4D27CBCBE5F2FAF6EE1A8AA51290642C117467871F101B91C581D77CEA2C36869F3229E68CD1B8F61F1ED6361B89092D294B90C78C4A68EB793D190E7D1D9BDEE7A91E1B95FDE9F3BCEAEFE809
310
6A6D6F9F7D4B79F4275C90E7A04248AA51D5C4C738DAE06F72885AC4796EBE65D22A88A22223B995679120E2D50EB1542F098381188D4EA111AE3DB043FF20AF6F2B4AE3D7D83D65E5AECA730D4D3BAC91BD05FEA992B565D95F549CD6069B90AB2A63EACA38A45E4B6A87D781574F86817E4C2FCCC72690D62E2729520E37
310
9BAF234797BAF6D62B3BFC781FED37BA1E4F2B2F052FA9501A3E80569BB8F6A9A364D4FA67654E6F803383981F82F21591FF84F23D9882BC896C3FDBCF8C162508933B2E0AE4C69DD43F6BD2BE38DDDBF10BF86CB4FA784D37F3AF16075E67EC9030DECA1FC0A55373F5DFF3378C591FA9BDF485C10B0A8C8BA909E5262639
310
A8E72163488806A595734C81CB77D1DE0ED7604A303B76913CEC0272F412782FF88EFF4636D8AA56DF7B322474C4B767303F625997056C7B032C473C592B36CEBD15F3F9FF5233B7ABCDC74D257624A60F8658567497B14CE1EC3C80B76FD02011038F9EE9EB0F2E12387A9C844D3F09855125116D1D731DF8B43D2CF4E0A0
310
79A020C6BE946BCE0B7EA1E1219331CD73C228AF5A2DDD31A4B1DA918CE91350854D40A71723140BFA92E94E62B0626016CEFA5864A50E5977E8753CEDBEE1CBB7F52780D20E17AF0BA0F5F9B02A3AD07DCC732EB6D1EBB661421BE0C39E21BABF0FE16D22EA6929407C8DE596724C88B749B6DB5512BC7B228ADFD7CB7EA6
310
3A22397E690BA8D5D8D4E40CEC8CDA23C2C0B7D5898640101CEC9C6D331CE328CB93CAFBBAC70A642DF70DF95155945B52F08AA973C23469FD69ADEF84F7BB18F983A8F8C90E37F5D35980B2139A1C523540813E824EF83448CF7C72B598CE97D7CEEDDDDD3B6736BFBC771677EF66CE6A7E7139F7A793E9EDF2B2B3A8B624
310
0CDA13AA5F8388264EC4A0129909F3B7F5A16CEDF08128E97D680ACA4B9BE7B7B58BB638F0B00700EF36AE8B32A705658A68F83EE897FC2B41573190D1CCAF0B92D233A47CFEB019D9809933F67DD1A5467F8CF69AD9A5AE859342D45355448C64F968A371DC2D596ADC6E43D93D1B466F877A64E2893E54F23C4B40388995
310
525E5005DA3983ED45412510D3EFCA13737B3863F74BD30F2A12E5B4B5E489A025CE25500DB855B11ACE5BBFA185D35DD48D8DC3CE7DC69F2944DB42AA6F6CF09BCA622ADD08C7A36E7C6AE18000BAB08E040135C2D21C9D75B3A91B77BB746C403F38018DFE6EC939DD92F16B40BC05294B9CDA035AAD6D330AE27FE4786B
310
8E45145EA34A75BE1C263A676A35A8ACC6297337400BF16C54EF515F3F77CB77EB3583889C754FFA29081AA98E2222ADEF05DA3E63D2EDEA8B8756C05A7FB6CABC4A91CBF325398202CC952E70A008A830324BA200D5E5EF8F5F04C75DB4B0EE3340E071C98B823333B83577596BF3849B69F2085AA0FAFA212F26BEFF5877
310
FDE622B28D88A42E49E43326DA82D31E8CB006401E1DA726059ECEC168F97A6599036306A135688F9AD2E61A6EA178F4CD51974A9F2CCB9F36FE5EBD14601068D9C3BF01504B0304140006080000B670623B000000000000000000000000350000006662782F42384135303843342D343331462D343546312D424341352D35
310
32343432364645413344462F76657274696365732E62696E504B0304140006080800B670623BF270F1330600000004000000360000006662782F42384135303843342D343331462D343546312D424341352D3532343432364645413344462F747269616E676C65732E62696E636660600000504B0304140006080000B67062
310
3B000000000000000000000000370000006662782F42384135303843342D343331462D343546312D424341352D3532343432364645413344462F617474726962757465732E62696E504B0304140006080800B670623B08DA0BD19000000041010000360000006662782F42384135303843342D343331462D343546312D4243
310
41352D3532343432364645413344462F6469726563746F72792E786D6C858F410AC3201045AF22B36F53E9A60B35CBEEBAE80D244E44489C6234F4F835464A48035D0DF398FF9F8AF63D0E6CC63039F212F8F9020C7D47C6792B21C5FE7403D62A1188E2E60C98D7234A5830286103A55745067B9D86B8A3CF9C7F90C11DE6
310
07FB144396D7B6A82D282E9A152AD114D5EF2CB866EEE831B8EEA07A7BB5A8D7D61A2BAAEB7FD5F70921FF497D00504B0304140006080800B670623B3B4606F3FE000000A00100003B0000006662782F42384135303843342D343331462D343546312D424341352D3532343432364645413344462F7265736F75726365732F
310
636F72652E786D6C8D504B6E833010BD0A9A6D65B08134808CA354A427E8052C332156828DFCA97AFC9A40A576D7CDCCE87D344F8F9FBEE647F689CE6B6B7A6039850C8DB2A336530F315C4903D94970676DF82583CCC8197B5861107C72362E3BA4AC096842428D1D7107A5F71820538F74F4E0D50D6799CB1892C2DFF345
310
AABB9C306779A2934E701F5C0A906D4FD609C2A1B7D129F4BCD858C163D4E3AED163FAA9AF1A1D88F67CA98E6D35906AA82A52BFB39ABCD5CD915C86331BD86BD3B665CD8BD52C78D0F34F46E550061C419494B6843142CB0F5677F4D0D58717DA7494F26295FF31C565FCA7296A13AA728FBBD93C0896823C09C18BB5AFB4
310
9E65A6BD762BBE01504B010214000A0000080000B670623B3DEE336E79000000790000001B00000000000000000000000000000000006175746F6465736B2D64657369676E2D7061636B6167652E786D6C504B01021400140006080800B670623BD486FD9CA0000000F40000001300000000000000000000000000B2000000
310
5B436F6E74656E745F54797065735D2E786D6C504B01021400140006080800B670623B28ED286BEB0000007C010000080000000000000000000000000083010000636F72652E786D6C504B01021400140006080800B670623B55019EA25F0000007C000000070000000000000000000000000094020000636E782E786D6C50
310
4B01021400140006080800B670623B7BC41AC871010000D40300000C00000000000000000000000000180300006662782F636F72652E786D6C504B01021400140006080800B670623B70102A487D0000009D0000000B00000000000000000000000000B30400006662782F636E782E786D6C504B01021400140006080800B6
310
70623B3610CA3329010000120200003100000000000000000000000000590500006662782F42384135303843342D343331462D343546312D424341352D3532343432364645413344462F636F72652E786D6C504B01021400140006080800B670623B1B8617914E010000330300003000000000000000000000000000D10600
310
006662782F42384135303843342D343331462D343546312D424341352D3532343432364645413344462F636E782E786D6C504B01021400140006080800B670623BBFEF2E3B690500003C10000034000000000000000000000000006D0800006662782F42384135303843342D343331462D343546312D424341352D35323434
310
32364645413344462F6F626A656374732E786D6C504B01021400140006080000B670623B0000000000000000000000003500000000000000000000000000280E00006662782F42384135303843342D343331462D343546312D424341352D3532343432364645413344462F76657274696365732E62696E504B010214001400
310
06080800B670623BF270F133060000000400000036000000000000000000000000007B0E00006662782F42384135303843342D343331462D343546312D424341352D3532343432364645413344462F747269616E676C65732E62696E504B01021400140006080000B670623B00000000000000000000000037000000000000
310
00000000000000D50E00006662782F42384135303843342D343331462D343546312D424341352D3532343432364645413344462F617474726962757465732E62696E504B01021400140006080800B670623B08DA0BD1900000004101000036000000000000000000000000002A0F00006662782F42384135303843342D3433
310
31462D343546312D424341352D3532343432364645413344462F6469726563746F72792E786D6C504B01021400140006080800B670623B3B4606F3FE000000A00100003B000000000000000000000000000E1000006662782F42384135303843342D343331462D343546312D424341352D3532343432364645413344462F72
310
65736F75726365732F636F72652E786D6C504B0506000000000E000E0080040000651100000000
  0
XRECORD
  5
597
102
{ACAD_REACTORS
330
186
102
}
330
186
100
AcDbXrecord
280
     1
102
MATERIAL
148
0.0
149
0.0
149
0.0
 93
        0
 94
      127
282
     0
 72
     1
 77
     1
171
     1
175
     1
179
     1
273
     0
  0
XRECORD
  5
187
102
{ACAD_REACTORS
330
186
102
}
330
186
100
AcDbXrecord
280
     1
 70
     1
 90
429727718
  1
887D55A9-D0DD-414E-B741-A7DCD4DA2B4C
310
504B03040A0000080000B670623B3DEE336E79000000790000001B0000006175746F6465736B2D64657369676E2D7061636B6167652E786D6C3C3F786D6C2076657273696F6E3D22312E302220656E636F64696E673D227574662D3822203F3E3C666F726D6174733E3C666F726D61743E687474703A2F2F736368656D612E
310
6175746F6465736B2E636F6D2F64657369676E2D7061636B6167652F323030393C2F666F726D61743E3C2F666F726D6174733E504B0304140006080800B670623BD486FD9CA0000000F4000000130000005B436F6E74656E745F54797065735D2E786D6C7D8EC10E82300C865F65E91D8A1E8C310C0EEA1BF002731658846E
310
D98AC1B77784ABF1D8FE5FBFBF75BBCE937A534CCEB38643598122B6FEE978D0B0485F9C41B54DDD7D022595594E1A469170414C76A4D9A4D207E29CF43ECE46F218070CC6BECC4078ACAA135ACF422C856C0E68EA1BF5669944DDD7BCDE7B1F8E415D77AECB980613C2E4AC91FC167A2B244592486606FC29C8FD7F045B9A
310
EF7053A7E60B504B0304140006080800B670623BBC1638F5EC0000007C01000008000000636F72652E786D6C8D90416EC3201045AF82665B61836BE2D8C24471DB9CA01740401C94182C03558F5F9C3852BBEB6A467FFE9B197D7EF89E6EE8CB2CC17AD7032D0820E394D7D68D3DA478C67B4007C117EFE32F1B202727D3C3
310
2A83E0E3E2D3BC49CABB685CCCAAF3DA6CA20CC14440EA969B1E82BA98491632C5EC08D76296EA2A4753D06797E194AC468F2356E77DF66CCD02825543D50CACC62D39ED70FDC68EB8FD68F6F8787A6784342D1DDA1D2F5758F068A7E77DB518198D065111D2624A31A93E69DD11D6D5EC85EC3B4278B9DAFF4069D6FF8492
310
75F1B5DADE7D600104CD8FDC0782976B16B9DC83CA75CD4DFC00504B0304140006080800B670623B55019EA25F0000007C00000007000000636E782E786D6C4DCB3B0E80201045D1AD90E915ED2CF8AC45050C11660C8261F98AB1B07AC9C97D42D718D865D3E909258CFD00CCE24AC6E326A164D74DC0B4128928FF326038
310
472BA13128B1252AC747C6BAB984FC68F0B87FE8960A5C09FE86CFB69FBA01504B0304140006080800B670623B3586FFB671010000D40300000C0000006662782F636F72652E786D6CC553ED6E8320147D15C2DF4541A76D6D90A6DDD627D80B50A4CE54C120983EFEAE1F4DD7A55BBA5FF3879273EEE59E7310B6393735EA
310
95ED2AA3731C851423A5A5292A5DE6D8BB63B0C268C39935C67D29C3488B46E578803167A535BE9D2169B453DA01AA4DA16650749D7218C91A1639EEE4876A4428BC838AEE14B6429E44A9C228041AEA38EB9C0501681A32BC313F1ECE8C4C3867DE57C5CC56054CAB8E95B298A7F12E5EEED224C8E87E11242FE936C8DE96
310
AB60BB7F4D295D66D12E5B30323473E6AAE6A24E5A259C2A308F29CD82280A68FC1E256B9AAE93F489AED694323294DF34F9B678B0C957DA3DC7B3DCA9ADC33C022123F1CD2D44E450277AD04338234388F01913BE0D1A0281909D38D4171F27807A259DB1093085F157AA17B557309586747CD0CF0B46A64E983A6E0EAEEF
310
CE881F9EF1FB8E70D44297604238581EBC1B74B249C31C5AAB6CD0BB33D2C636A27ECCC62F0EFF445DC5DF95244D6DEC7F2922F30191F9F720C37DE49F504B0304140006080800B670623B4220A0FF7D0000009D0000000B0000006662782F636E782E786D6C4DCCD10A83201886E15B91FFDCE542CB0335D0EC3E6259C84A
310
C3E9D8E5AF46073BFAE0E1E315DD675BD1DBA5978F41C2FD4600B9F088930F8B849267CC01754AA418F3DF0D50183727E164506249B1EC174D6E1ECB9A0F5D7D785E68DB8151CD286E5A5363CA6B8A39E90D36D40E96B086F55A43A544F52B1D7B86D517504B0304140006080800B670623B2FA3FEDE290100001202000031
310
0000006662782F45374635344235342D363743322D343832342D383044432D4334454645303536354442422F636F72652E786D6C8D515B6EC32010BC0AE22B55850D2E386E848994D7097A0117488A1283C5A3CAF10BB523B57FF961D1ECCCECC0F2ED7DBC816FED8371B687A4C210682B9D32F6D2C314CFA883602BB8772E
310
FEA141608751F7B0C050F08B77695A20E96CD43666D43AA5177008414708E42D5F7A18E4971E876A483133C2B59A06791D2EBA22556E679EE021FA1C00CC43CA09C5717D6274C7286AD7FB06D1AEA1A8C3873DDAD3E3E98859CB0EBB1DAF67A1E02919B5C88DCA71CCD968FFAC49110B1ECDF8882FBD1EA256503418BF2342
310
106E3E08DD60B6A1EC15771B8C795DE8FF4469524F8A92B1F1AD59E2CEB20005E1F5DC105CB9F4797B84D1F7C9F908CABC55D0F2050A5C61CC1AD2F27A26E6E767C7962E8E213A9FBF7775FDCC5CC266DB960A5E970DE5F2BBBE5CCB36C50F504B0304140006080800B670623B1B8617914E01000033030000300000006662
310
782F45374635344235342D363743322D343832342D383044432D4334454645303536354442422F636E782E786D6CD593C16EC32010447F0571AD6CE3D489D20813A9877E410FBD62D82434182CC055F3F75D1292E692438FBD206B7698593D61BEFD1E2DF982108D773D6D6B460938E5B571FB9ECE6957AD29D90A1EBC4F77
310
364A9C1CA1A759A682EF839FA72269D8C9D92654AD71C72206887E0E0A22CAF926B15E498B01E0AA19451807D01A34B919F16B070157417138917400F2F6FA41FCF0092A45DEE414C19BDC21783E4BD39D891265658C3D8DEA00A3ACE59CBC8678ACB54CB26EEB6BD7839D7E9348BE70AD9C8321B9BCA7F9A4A26C542347DE
310
E050F09802D22BA6749A800A394DD62899107273365E3C82CFC6A55557BC06C10774B7ABE7AEC3B0F34CF06446280E154026D0542C187BA9DAB6628BF7B6DBB0E5A65B3EB1F58631DE64BBE083F7B65CC218087E22CABB042E51D1F2268F1FE12B3EA24D40D63E9CFE00120194D60B9D5BC67FE6D39CDF37E20AF817881F50
310
4B0304140006080800B670623B29652116630500003C100000340000006662782F45374635344235342D363743322D343832342D383044432D4334454645303536354442422F6F626A656374732E786D6CAD575D739B3814FD2B0CFB0C989834C90EA1639B24E3E9A6EDD4D3CE3E64C623834CD8006224913AFDF57B040203
310
B65BEF871F0C12D2FD3CF7E8CA7FBFCB33E3957291B2E2D674ED8969D02262715A24B76625B7D6B569BC0F7CCE98EC2D338D82E4F4D654D366E0279C55A59E8AE99654991CCDDECFFF3444440B6A1A514684B83545F44C7362934AB2988A173B2692D8C97667BB76B3702836E1A47C1E092D09A78584A5982F20C5688C7287
310
C389E904BEA3BE07BEFAD7ABA6A75739B53F43FD69212429A20365233153D70BEF2E2E6FAC4BCF9B5ADEBB0BD79ADFCF43CBBD9A4E16EF168B9BD9DD0D140BC921495BC2E9D60C1E101B9E46BED37CEA2CD6861F3329624541A3DA7F7858DBAC25C6B4A4458C3CA654405BCFEBC970E8AAD8F43E4FD558ABEC4F9FE7557F47
310
4F506B7BFBEC5BCA367FC105710E2AB8A00A554D7CB4A30DFE26FBA86D18CBF4B75418399194A72433B274C3097F33032C554B027F2046A1932B842B0FCCC0DDCBEBDB8AD2F835768F59B9ADB24C41D30C6A64AF817F2A456D59FA83F2E3DA60137255A585BCD60EC9B7929AC18DEFD49381AF1ED30BFDB109A4B1CD488294
310
C3CDE6EBC8D185AABD6568061FEE37BB95AAC7E3CA4BCE4ACAA5820FA0D526AE7DAA2869B5EE5999531BE0CC20E6FBA07C41E43FA27CF7A6206F3CDD793B4F6B919C1462CB788EDCD893FA674CDA17AB7B3B7C019F8D561FAEE966FED562DFE98C1D12C6A9FC015C2A35D7FF3D7FC398F591DA4B5FE0BFA2C0189FEA50AE22
310
92817A1ED3020951A03432862970F976B33383259812CC8E5D240BBA801CBCF8CE2BBEE3BF910DB6AAD5F79E05123AE2DB33981FB1ACCB02B69D00CB014FD68AB573A7627EF9BFD4CC2C5C7D58557C4B22FAA88925A4DBB44825CECE3D78FB060D1231F0E885BE7D673C86A3874958F593906B5502D1563157814FDAC3420D
310
F69A070A22EC4B98E23CFF171A1E5311D12C23056555ABA53B8614563B92D17D02AAB009E8F46284624E5F53D5490C560CCCC2591FF1B45421EB0EBD8EA7ED13BE7C5D7E0428CD60FEF60779EB13E6664FF711CB185F6FDED60D139A001FF60CD1FD6D086F1D51474901E26B2CB794A343BC8ED3EDB612E0DD2351FCB65CF4
310
33D511C9E14B5B40ADC6A6263DB0336A8F700DDF56271A024E70B0B3629DE21847591E55DED73D56206AB927E46FAABC5C939C55853C274C93D69FD6FA4E78BF8B11DF898C9ECD60553FAD39283BA6F18984AA23E8884F83F45C5F5F859797B31B2B9C84A1E5B9DE9D35BFF25C6B76152E422F9C5DCC3D847F5801ED09D5AF
310
41441327A25FF15487F9EB725FB666F048A4701E9A827292E6F97569A32DF61DEC01C0BB8DCBBCCC684E0B49147C1FD54BF685A0AB18C868E6973949E819523E3DAC463660E68C7D9F55A9D1EFA3BD7A76A16AE1A810F95CE59B82A4D968A376DC2E8B44BBDD86B27B368CDE0ED548C7137DA860591A83706223A12CA712B4
310
7306DBF39C0A20A6DF95C7FAF670C6EED7A61F946493D1D6926782963813403548A78AE470DEF80D2D9CEAA26E4D1C76F60BFE74219A06527D6B82DF641A51616F703CAAC6A7160E08A00BEB4810A0274592A1B36E3675E36E978A0DE80727A0D6DF2D39A75BD27E0D8837276589537B40ABB56D5A41F48F1C6FCD3188C4EB
310
A6929D2FFB89CE995A4D00AE813BDD032DC48B56BD437DFDDC2DD7AED70C2272D63DE9A72068A45A92F0A4BE17A8A06B9366E16707AD80B1FC649459952097E74BB23805982B55E0401150A165964402AA8BDF9F3E7386BB686EDCA780C0D382E5392BF460A6EFB2C6EA1937D3F809B440D5F5435C4C5CF7A9EEFAF54564BD
310
2182DA24162F98680B4E7930C21A0079709CEAEB99A372305ABE0C0D7D6078105A83F6A0296DAEE1068A47DD1C55A9F4C9B2FC69E3EFD44B81028E963DF81B504B0304140006080000B670623B000000000000000000000000350000006662782F45374635344235342D363743322D343832342D383044432D433445464530
310
3536354442422F76657274696365732E62696E504B0304140006080800B670623BF270F1330600000004000000360000006662782F45374635344235342D363743322D343832342D383044432D4334454645303536354442422F747269616E676C65732E62696E636660600000504B0304140006080000B670623B00000000
310
0000000000000000370000006662782F45374635344235342D363743322D343832342D383044432D4334454645303536354442422F617474726962757465732E62696E504B0304140006080800B670623B08DA0BD19000000041010000360000006662782F45374635344235342D363743322D343832342D383044432D4334
310
454645303536354442422F6469726563746F72792E786D6C858F410AC3201045AF22B36F53E9A60B35CBEEBAE80D244E44489C6234F4F835464A48035D0DF398FF9F8AF63D0E6CC63039F212F8F9020C7D47C6792B21C5FE7403D62A1188E2E60C98D7234A5830286103A55745067B9D86B8A3CF9C7F90C11DE607FB144396
310
D7B6A82D282E9A152AD114D5EF2CB866EEE831B8EEA07A7BB5A8D7D61A2BAAEB7FD5F70921FF497D00504B0304140006080800B670623B6378F24DFF000000A00100003B0000006662782F45374635344235342D363743322D343832342D383044432D4334454645303536354442422F7265736F75726365732F636F72652E
310
786D6C8D504B6E833010BD0A9A6D65B0094E42641C85B639412F6099496225D8C89FAAC7AF09546A77DDCC8CDE47F3F4C4F16B7C149FE88371B603565228D06A37187BED20C50BD9437194C23B177FC9A0B06AC40E6618A4B87A97A615D2CE46B431A3D60DB8822A048C50E8473E3A08FA86A32A558A5911EEE5A4F45D5DB1
310
6465A6B34E8A107D0E502C4FE609D26370C96B0CA25A58295232C3AA3143FE692E063D485EF7F5AEE71BD2D2F39634AFFC44DAF7DD9E9CCE6F9CD25DCBFA762BAAD92C4534E34F46ED51451C40D694B6843142EB0FD61C283F34FC85EE0F948A6A96FF31A569F8A729191B37F51A77B105902C0779125254735F793DCBCC7B
310
EE567E03504B010214000A0000080000B670623B3DEE336E79000000790000001B00000000000000000000000000000000006175746F6465736B2D64657369676E2D7061636B6167652E786D6C504B01021400140006080800B670623BD486FD9CA0000000F40000001300000000000000000000000000B20000005B436F6E
310
74656E745F54797065735D2E786D6C504B01021400140006080800B670623BBC1638F5EC0000007C010000080000000000000000000000000083010000636F72652E786D6C504B01021400140006080800B670623B55019EA25F0000007C000000070000000000000000000000000095020000636E782E786D6C504B010214
310
00140006080800B670623B3586FFB671010000D40300000C00000000000000000000000000190300006662782F636F72652E786D6C504B01021400140006080800B670623B4220A0FF7D0000009D0000000B00000000000000000000000000B40400006662782F636E782E786D6C504B01021400140006080800B670623B2F
310
A3FEDE290100001202000031000000000000000000000000005A0500006662782F45374635344235342D363743322D343832342D383044432D4334454645303536354442422F636F72652E786D6C504B01021400140006080800B670623B1B8617914E010000330300003000000000000000000000000000D2060000666278
310
2F45374635344235342D363743322D343832342D383044432D4334454645303536354442422F636E782E786D6C504B01021400140006080800B670623B29652116630500003C10000034000000000000000000000000006E0800006662782F45374635344235342D363743322D343832342D383044432D4334454645303536
310
354442422F6F626A656374732E786D6C504B01021400140006080000B670623B0000000000000000000000003500000000000000000000000000230E00006662782F45374635344235342D363743322D343832342D383044432D4334454645303536354442422F76657274696365732E62696E504B01021400140006080800
310
B670623BF270F13306000000040000003600000000000000000000000000760E00006662782F45374635344235342D363743322D343832342D383044432D4334454645303536354442422F747269616E676C65732E62696E504B01021400140006080000B670623B0000000000000000000000003700000000000000000000
310
000000D00E00006662782F45374635344235342D363743322D343832342D383044432D4334454645303536354442422F617474726962757465732E62696E504B01021400140006080800B670623B08DA0BD190000000410100003600000000000000000000000000250F00006662782F45374635344235342D363743322D34
310
3832342D383044432D4334454645303536354442422F6469726563746F72792E786D6C504B01021400140006080800B670623B6378F24DFF000000A00100003B00000000000000000000000000091000006662782F45374635344235342D363743322D343832342D383044432D4334454645303536354442422F7265736F75
310
726365732F636F72652E786D6C504B0506000000000E000E0080040000611100000000
  0
XRECORD
  5
599
102
{ACAD_REACTORS
330
110
102
}
330
110
100
AcDbXrecord
280
     1
102
MATERIAL
148
0.0
149
0.0
149
0.0
 93
        0
 94
      127
282
     0
 72
     1
 77
     1
171
     1
175
     1
179
     1
273
     0
  0
XRECORD
  5
112
102
{ACAD_REACTORS
330
110
102
}
330
110
100
AcDbXrecord
280
     1
270
     1
271
     1
  0
XRECORD
  5
111
102
{ACAD_REACTORS
330
110
102
}
330
110
100
AcDbXrecord
280
     1
270
     1
271
     1
  0
XRECORD
  5
18A
102
{ACAD_REACTORS
330
110
102
}
330
110
100
AcDbXrecord
280
     1
 70
     0
 90
1778669749
  1
9BF507EE-FAF7-4A99-A33D-4EE51894BC40
310
504B03040A0000080000B670623B3DEE336E79000000790000001B0000006175746F6465736B2D64657369676E2D7061636B6167652E786D6C3C3F786D6C2076657273696F6E3D22312E302220656E636F64696E673D227574662D3822203F3E3C666F726D6174733E3C666F726D61743E687474703A2F2F736368656D612E
310
6175746F6465736B2E636F6D2F64657369676E2D7061636B6167652F323030393C2F666F726D61743E3C2F666F726D6174733E504B0304140006080800B670623BD486FD9CA0000000F4000000130000005B436F6E74656E745F54797065735D2E786D6C7D8EC10E82300C865F65E91D8A1E8C310C0EEA1BF002731658846E
310
D98AC1B77784ABF1D8FE5FBFBF75BBCE937A534CCEB38643598122B6FEE978D0B0485F9C41B54DDD7D022595594E1A469170414C76A4D9A4D207E29CF43ECE46F218070CC6BECC4078ACAA135ACF422C856C0E68EA1BF5669944DDD7BCDE7B1F8E415D77AECB980613C2E4AC91FC167A2B244592486606FC29C8FD7F045B9A
310
EF7053A7E60B504B0304140006080800B670623BCA089DFFEC0000007C01000008000000636F72652E786D6C8D90416E83301045AF62CDB632D8402020E32882F604BD80653BC44AB011B6AB1EBF262152BBEB6A467FFE9B197D76FA9EEFE84BAFDE38DB03CD08206DA553C64E3DC470C1474027CE56E7C22F1B202B66DDC3
310
260367D3EAE2B24BD2D9A06D48AA754AEFA2F05E0740F29E9A1EBCBCEA59642286E4F0B76C11F226269DD15797E0188D42CF2346A57DE662F40ABCAEC77628C6120F654571D50C04B7F5B9C1E3997CD4F550BE3745C3F20DE62C98F9755FAE5A04AD801784B498524C8A4F5A75E4D055873772EC0861F966FF03C545FD138A
310
C686B2D8DF7D621E384D8F3C069CE55B16A93C824A75CB8DFF00504B0304140006080800B670623B55019EA25F0000007C00000007000000636E782E786D6C4DCB3B0E80201045D1AD90E915ED2CF8AC45050C11660C8261F98AB1B07AC9C97D42D718D865D3E909258CFD00CCE24AC6E326A164D74DC0B4128928FF326038
310
472BA13128B1252AC747C6BAB984FC68F0B87FE8960A5C09FE86CFB69FBA01504B0304140006080800B670623B68FC0B7272010000D40300000C0000006662782F636F72652E786D6CC5535B6E833010BC8AE5DF0A6C1E8124328E22D29EA01770C0A128602363A31CBFCB234A53A555FA553EC09AD9F5CE8C31DB5DDA060D
310
D2F4B556190E7C8A9154852E6B5565D8D993B7C668C799D1DA7E29C3488956667884316795D1AE5BA0422B2B950554E9522EA0E87B69312A1A5864B82F3E642B7CE12C54F467BF13C55954D20F7CA0A18EB3DE1A1080E621E31BF3D3F1C2C88C73E65C5D2E6C5DC2B4FA544B8379921C36797888BC3C8A032F4E73EA6D927D
310
EA1DF6F42D49F2E8350D5346C666CE6CDD5ED515460A2B4BCC434A375E1078347C0FE22D5D6DE3D50B5D6F2965642CBF6B725DF96493AB958DC245EEDCD6631E809089F8E61622B2A81703E8219C913144F84C09DF070D8140C8561C9BAB8F3340832CAC363130A576376A108D933095FA747AD0CF0B46E64E983A6D0EAE1F
310
CE089F9EF1FB8E70D44255604258581E9D1D75B259C3125A278D37D80B52DAB4A279CEC62F0EFF44DDC43F9454E8469BFF5244960322CBEF41C6FBC83F01504B0304140006080800B670623B0F71DDB67E0000009D0000000B0000006662782F636E782E786D6C4DCCD10A83201886E15B91FFDCA54DB73F502386BB8F5816
310
32D3703976F9ABD1C18E3E78F87855FB990379BBFCF2296AE02706C4C5471A7C9C349475A408A4352AA7B4FEDD80C47E761A7606A3A69CCA72D0E0C6BE8475D3E0E3F3409428EA6B27A84079A782899AA2EC1A7AE3ECCC2FD858CB2D544655BFD2B67BD87C01504B0304140006080800B670623BE134B4FB28010000120200
310
00310000006662782F38353834323741342D343835462D343034322D383541392D4331303331363839454531452F636F72652E786D6C8D515B6EC32010BC0AE22B55850D0EA424C24451959EA0172086A42831583CAA1CBF503B52FB971F16CDCECC0EACD8DFC71BF836215AEF7A481A0C817183D7D65D7A98D3197108F652
310
04EFD31F1A044E8DA6871586525C82CFD3020DDE25E352419DD76601558C264130DCCAA58771F832A36A544E8511AFCDA486ABBA988634A55D7852C4144A00300FA927949C71DABD1D28A29C7D208A6987383B6CD13BC16BB2E1DBE3911C453B0BA5C8D9EA456E758963CFD684674DAA588A64C747FC2118958C86B2C3788B
310
0841B8FB247487D98EB257CC77188BB6D2FF89F2A49F1465EBD2BA5BE2CEB2082511EDDC9042FB7CBA3DC298FBE4430275DE2A9AE1054ADC60CC08E3A29D89E5F9C5714317C7987C28DFBBBA9E0A97B0D97643A568EB864AF95D5FA9759BF207504B0304140006080800B670623B1B8617914E010000330300003000000066
310
62782F38353834323741342D343835462D343034322D383541392D4331303331363839454531452F636E782E786D6CD593C16EC32010447F0571AD6CE3D489D20813A9877E410FBD62D82434182CC055F3F75D1292E692438FBD206B7698593D61BEFD1E2DF982108D773D6D6B460938E5B571FB9ECE6957AD29D90A1EBC4F
310
77364A9C1CA1A759A682EF839FA72269D8C9D92654AD71C72206887E0E0A22CAF926B15E498B01E0AA19451807D01A34B919F16B070157417138917400F2F6FA41FCF0092A45DEE414C19BDC21783E4BD39D891265658C3D8DEA00A3ACE59CBC8678ACB54CB26EEB6BD7839D7E9348BE70AD9C8321B9BCA7F9A4A26C542347
310
DEE050F09802D22BA6749A800A394DD62899107273365E3C82CFC6A55557BC06C10774B7ABE7AEC3B0F34CF06446280E154026D0542C187BA9DAB6628BF7B6DBB0E5A65B3EB1F58631DE64BBE083F7B65CC218087E22CABB042E51D1F2268F1FE12B3EA24D40D63E9CFE00120194D60B9D5BC67FE6D39CDF37E20AF817881F
310
504B0304140006080800B670623B5933D422630500003B100000340000006662782F38353834323741342D343835462D343034322D383541392D4331303331363839454531452F6F626A656374732E786D6CAD575B6FA33814FE2B887D0642934E9B156594264D158D3A534DD4D13E548A0C38942D60649B4EBABF7E3F8321
310
40924EF6928780CDF1B97EE762EFF32E4B8D37CA45C2F21BD3B547A641F39045491EDF98A5DC5AD7A6F1D9F73863B243661A39C9E88DA9B64DDF8B392B0BBD15D12D295339D85DDEFE618890E6D434C2940871638AF08566C426A5641115AF764424B1E3EDCE76ED9AB0CF36E6A47819302D08A7B984A6D8CFC1C5A89572FB
310
CB91E9F89EA3BEFB9EFAD754E3D3544E654F5F7E920B49F2F040D880CDD89D2CEE2E2EA7D6E56432B6269F2E5CEB7679BBB0DCABF168FE693E9FCEEEA6102C240727AD09A75BD3BF876F78127A4EFDA9D5582B7E4CA590E5390D2BFB6161A5B3E618D182E611E2985001691DAB47FDA5AB7CD3F93C566B2DB2BB7D9E55DD13
310
1D468DEECDB3AB290BFE8409E21C54704115AA6AFF68436BFC8DF65E0B184BF5B74418199194272435D224E084BF9B3E481589EFF5D828747285706581E9BB7B7E5D5D911ABFC6EE312DB7659A2A689A7E85EC0DF04FA5A8344BFEA2FCB834E8845895492EAFB541F2BDA0A63FF59C6AD3F7D4637CA13FD68E34B629891172
310
98597F1D183A57B9B75A98FE9765B05BAB7C3C2EBCE0ACA05C2AF8005A4DE09AA7F29216EB9E15397500C6F47CBE77CA7778FE2BD277AF0AE2C693DD6437D1522427B9D8329E2136F6A8FA19A3E6C56ADF0E5F50CF06D48734EDCEBF22F69C56D97EC138153F804B85E6FABFC7AFEFB32E523BE1F3BD372418E363EDCA7548
310
52949E8724474014288D94610BB57C1BEC4C7F854A89CA8E5324F55B871CBC78CE1BBEE3BFE68D6A5589EF3C730474506FCFA8FCF0659516D0ED04580EEA6425581B77CAE797FF4BCECC16EB2FEB926F49481F746159D06D922712BD730FDEAE42BD40F42C7AA5EF3F198F60E86110D6DD20645A9480B795CF95E3E3A659A8
310
C55E724F408873315335CFFB8584874484344D494E59D94869DB90C26A5B64F49C802CAC1D3ABE18A098D3B7444D123D8A9E5AE8F5214F0AE5B2B6E9B575DA3E61CBD3EA2B4009FA940524DD1305FB6A1FB294F14DF0BEA90BA109ECE1481FDC3FFAE8D60E75141700BE82725371B4873751B2DD960265F788137FACE6DD40
310
B575E4F0A5C99F46629D92131467A41EE11ABD8D4CCC039CA0AFB37C93A08B232B8F0AEFCA1E0A1015DF13FC83322B362463652ECF71D3A8B1A7D1BE65DE1D62C44F22C317D35F574FEB16153BA2D13E543D10A80E74C4A65E78A6B7CBCBD1D5DD9DB59C2DAFACC96C3AB566E3F1C29ADCDD5DBAD7D3C9ED7C822ED74F80A6
310
41755310DE4443F44A9E68373FADF6596BFA0F440AE7BECE2727AE9F4F2B1B53B1E7E00CF0DD1E5C65454A339A4BA2D0FBA05ED2EF0443458F47BDBFCA484CCFE0F2ED7E3DD0013B679C7B5499467F0ECEEADDB9CA85A34CE44B99053949D2C1416DB85DE4B136BB7165FBAC0B7AB3542BED4F8CA182A549847A1319316519
310
95A83A67147B9E5101C47487F2485F1ECE38FD568F839204296D3479219888530154036E6528FBFBC66F98E0D4107563A2D7D9AFF8D389681A08F58D89F22693900A3B407754734FC51C10C010D6D640809EE4718AC1BA3ED4AEDB53CA37283F68805A7E4B72CEB0A4EDEAD5DD8C14059A76AFAA56BA6901E13F32BC51C720
310
12AF41295B5BF61BAD3195181FB506E6B40F4C10AF5AF40EF9F5B159AE5DD1F43C72D635E94310D45C2D49785C5D0B94D3B54AB3C5A38349C0587D338AB48C11CBF339599C02CCA54A70A008A8D03C0B2201D5F9EFCF8F9CE12A9A19CB0410789EB32C63B95ECCF455D658BFE0621A3DA32C5075FB101723D77DAE867E7D0F
310
D90444509B44E2151B4DC2290B065803200FBAA9BE9D392A0603F2D5C2D00D6302A615680F66D2FA166E2079D4C551A54AB758161FCEFD4E450A14704CECFEDF504B0304140006080000B670623B000000000000000000000000350000006662782F38353834323741342D343835462D343034322D383541392D4331303331
310
363839454531452F76657274696365732E62696E504B0304140006080800B670623BF270F1330600000004000000360000006662782F38353834323741342D343835462D343034322D383541392D4331303331363839454531452F747269616E676C65732E62696E636660600000504B0304140006080000B670623B000000
310
000000000000000000370000006662782F38353834323741342D343835462D343034322D383541392D4331303331363839454531452F617474726962757465732E62696E504B0304140006080800B670623B08DA0BD19000000041010000360000006662782F38353834323741342D343835462D343034322D383541392D43
310
31303331363839454531452F6469726563746F72792E786D6C858F410AC3201045AF22B36F53E9A60B35CBEEBAE80D244E44489C6234F4F835464A48035D0DF398FF9F8AF63D0E6CC63039F212F8F9020C7D47C6792B21C5FE7403D62A1188E2E60C98D7234A5830286103A55745067B9D86B8A3CF9C7F90C11DE607FB1443
310
96D7B6A82D282E9A152AD114D5EF2CB866EEE831B8EEA07A7BB5A8D7D61A2BAAEB7FD5F70921FF497D00504B0304140006080800B670623BD9A3B367FE000000A00100003B0000006662782F38353834323741342D343835462D343034322D383541392D4331303331363839454531452F7265736F75726365732F636F7265
310
2E786D6C8D504B6E833010BD0A9A6D65B01D0201194711694FD00B586642AD043BF2A7EAF16B122AB5BB6E6646EFA3797AE2F8B5DC8A4FF4C1383B002B291468B59B8C9D0748F1420E501CA5F0CEC55F3228AC5A708015062966EFD27D83B4B3116DCCA875136EA00A012314FA968F0182FEC045952AC5AC08D7F2AEF455CD
310
58B232D3592745883E07289E4FD609D26370C96B0CA27AB252A464A64D63A6FCD35C0C7A904D73EE467EE664DCD58CD4ED4849D79C5A723ED1B7A61977AF2D6F45B59AA58866F9C9A83DAA8813484E6947182394BFB3BAA7FBBEDEBFD0434FA9A856F91F53BA4FFF342563E38E6F719FB60092E5200F428A6AED2BAF479979
310
AFDDCA6F504B010214000A0000080000B670623B3DEE336E79000000790000001B00000000000000000000000000000000006175746F6465736B2D64657369676E2D7061636B6167652E786D6C504B01021400140006080800B670623BD486FD9CA0000000F40000001300000000000000000000000000B20000005B436F6E
310
74656E745F54797065735D2E786D6C504B01021400140006080800B670623BCA089DFFEC0000007C010000080000000000000000000000000083010000636F72652E786D6C504B01021400140006080800B670623B55019EA25F0000007C000000070000000000000000000000000095020000636E782E786D6C504B010214
310
00140006080800B670623B68FC0B7272010000D40300000C00000000000000000000000000190300006662782F636F72652E786D6C504B01021400140006080800B670623B0F71DDB67E0000009D0000000B00000000000000000000000000B50400006662782F636E782E786D6C504B01021400140006080800B670623BE1
310
34B4FB280100001202000031000000000000000000000000005C0500006662782F38353834323741342D343835462D343034322D383541392D4331303331363839454531452F636F72652E786D6C504B01021400140006080800B670623B1B8617914E010000330300003000000000000000000000000000D3060000666278
310
2F38353834323741342D343835462D343034322D383541392D4331303331363839454531452F636E782E786D6C504B01021400140006080800B670623B5933D422630500003B10000034000000000000000000000000006F0800006662782F38353834323741342D343835462D343034322D383541392D4331303331363839
310
454531452F6F626A656374732E786D6C504B01021400140006080000B670623B0000000000000000000000003500000000000000000000000000240E00006662782F38353834323741342D343835462D343034322D383541392D4331303331363839454531452F76657274696365732E62696E504B01021400140006080800
310
B670623BF270F13306000000040000003600000000000000000000000000770E00006662782F38353834323741342D343835462D343034322D383541392D4331303331363839454531452F747269616E676C65732E62696E504B01021400140006080000B670623B0000000000000000000000003700000000000000000000
310
000000D10E00006662782F38353834323741342D343835462D343034322D383541392D4331303331363839454531452F617474726962757465732E62696E504B01021400140006080800B670623B08DA0BD190000000410100003600000000000000000000000000260F00006662782F38353834323741342D343835462D34
310
3034322D383541392D4331303331363839454531452F6469726563746F72792E786D6C504B01021400140006080800B670623BD9A3B367FE000000A00100003B000000000000000000000000000A1000006662782F38353834323741342D343835462D343034322D383541392D4331303331363839454531452F7265736F75
310
726365732F636F72652E786D6C504B0506000000000E000E0080040000611100000000
  0
XRECORD
  5
113
102
{ACAD_REACTORS
330
110
102
}
330
110
100
AcDbXrecord
280
     1
270
     1
271
     1
  0
XRECORD
  5
114
102
{ACAD_REACTORS
330
110
102
}
330
110
100
AcDbXrecord
280
     1
270
     1
271
     1
  0
XRECORD
  5
660
102
{ACAD_REACTORS
330
65F
102
}
330
65F
100
AcDbXrecord
280
     1
102
ACAD_ROUNDTRIP_2012_MLEADER_STYLE
298
     1
  0
CELLSTYLEMAP
  5
65E
102
{ACAD_REACTORS
330
104
102
}
330
104
100
AcDbCellStyleMap
 90
        3
300
CELLSTYLE
  1
TABLEFORMAT_BEGIN
 90
        5
170
     1
 91
        0
 92
    32768
 62
   257
 93
        1
300
CONTENTFORMAT
  1
CONTENTFORMAT_BEGIN
 90
        0
 91
        0
 92
      512
 93
        0
300

 40
0.0
140
1.0
 94
        5
 62
     0
340
11
144
0.25
309
CONTENTFORMAT_END
171
     1
301
MARGIN
  1
CELLMARGIN_BEGIN
 40
0.06
 40
0.06
 40
0.06
 40
0.06
 40
0.18
 40
0.18
309
CELLMARGIN_END
 94
        6
 95
        1
302
GRIDFORMAT
  1
GRIDFORMAT_BEGIN
 90
        0
 91
        1
 62
     0
 92
       -2
340
0
 93
        0
 40
0.045
309
GRIDFORMAT_END
 95
        2
302
GRIDFORMAT
  1
GRIDFORMAT_BEGIN
 90
        0
 91
        1
 62
     0
 92
       -2
340
0
 93
        0
 40
0.045
309
GRIDFORMAT_END
 95
        4
302
GRIDFORMAT
  1
GRIDFORMAT_BEGIN
 90
        0
 91
        1
 62
     0
 92
       -2
340
0
 93
        0
 40
0.045
309
GRIDFORMAT_END
 95
        8
302
GRIDFORMAT
  1
GRIDFORMAT_BEGIN
 90
        0
 91
        1
 62
     0
 92
       -2
340
0
 93
        0
 40
0.045
309
GRIDFORMAT_END
 95
       16
302
GRIDFORMAT
  1
GRIDFORMAT_BEGIN
 90
        0
 91
        1
 62
     0
 92
       -2
340
0
 93
        0
 40
0.045
309
GRIDFORMAT_END
 95
       32
302
GRIDFORMAT
  1
GRIDFORMAT_BEGIN
 90
        0
 91
        1
 62
     0
 92
       -2
340
0
 93
        0
 40
0.045
309
GRIDFORMAT_END
309
TABLEFORMAT_END
  1
CELLSTYLE_BEGIN
 90
        1
 91
        1
300
_TITLE
309
CELLSTYLE_END
300
CELLSTYLE
  1
TABLEFORMAT_BEGIN
 90
        5
170
     1
 91
        0
 92
        0
 62
   257
 93
        1
300
CONTENTFORMAT
  1
CONTENTFORMAT_BEGIN
 90
        0
 91
        0
 92
      512
 93
        0
300

 40
0.0
140
1.0
 94
        5
 62
     0
340
11
144
0.18
309
CONTENTFORMAT_END
171
     1
301
MARGIN
  1
CELLMARGIN_BEGIN
 40
0.06
 40
0.06
 40
0.06
 40
0.06
 40
0.18
 40
0.18
309
CELLMARGIN_END
 94
        6
 95
        1
302
GRIDFORMAT
  1
GRIDFORMAT_BEGIN
 90
        0
 91
        1
 62
     0
 92
       -2
340
0
 93
        0
 40
0.045
309
GRIDFORMAT_END
 95
        2
302
GRIDFORMAT
  1
GRIDFORMAT_BEGIN
 90
        0
 91
        1
 62
     0
 92
       -2
340
0
 93
        0
 40
0.045
309
GRIDFORMAT_END
 95
        4
302
GRIDFORMAT
  1
GRIDFORMAT_BEGIN
 90
        0
 91
        1
 62
     0
 92
       -2
340
0
 93
        0
 40
0.045
309
GRIDFORMAT_END
 95
        8
302
GRIDFORMAT
  1
GRIDFORMAT_BEGIN
 90
        0
 91
        1
 62
     0
 92
       -2
340
0
 93
        0
 40
0.045
309
GRIDFORMAT_END
 95
       16
302
GRIDFORMAT
  1
GRIDFORMAT_BEGIN
 90
        0
 91
        1
 62
     0
 92
       -2
340
0
 93
        0
 40
0.045
309
GRIDFORMAT_END
 95
       32
302
GRIDFORMAT
  1
GRIDFORMAT_BEGIN
 90
        0
 91
        1
 62
     0
 92
       -2
340
0
 93
        0
 40
0.045
309
GRIDFORMAT_END
309
TABLEFORMAT_END
  1
CELLSTYLE_BEGIN
 90
        2
 91
        1
300
_HEADER
309
CELLSTYLE_END
300
CELLSTYLE
  1
TABLEFORMAT_BEGIN
 90
        5
170
     1
 91
        0
 92
        0
 62
   257
 93
        1
300
CONTENTFORMAT
  1
CONTENTFORMAT_BEGIN
 90
        0
 91
        0
 92
      512
 93
        0
300

 40
0.0
140
1.0
 94
        2
 62
     0
340
11
144
0.18
309
CONTENTFORMAT_END
171
     1
301
MARGIN
  1
CELLMARGIN_BEGIN
 40
0.06
 40
0.06
 40
0.06
 40
0.06
 40
0.18
 40
0.18
309
CELLMARGIN_END
 94
        6
 95
        1
302
GRIDFORMAT
  1
GRIDFORMAT_BEGIN
 90
        0
 91
        1
 62
     0
 92
       -2
340
0
 93
        0
 40
0.045
309
GRIDFORMAT_END
 95
        2
302
GRIDFORMAT
  1
GRIDFORMAT_BEGIN
 90
        0
 91
        1
 62
     0
 92
       -2
340
0
 93
        0
 40
0.045
309
GRIDFORMAT_END
 95
        4
302
GRIDFORMAT
  1
GRIDFORMAT_BEGIN
 90
        0
 91
        1
 62
     0
 92
       -2
340
0
 93
        0
 40
0.045
309
GRIDFORMAT_END
 95
        8
302
GRIDFORMAT
  1
GRIDFORMAT_BEGIN
 90
        0
 91
        1
 62
     0
 92
       -2
340
0
 93
        0
 40
0.045
309
GRIDFORMAT_END
 95
       16
302
GRIDFORMAT
  1
GRIDFORMAT_BEGIN
 90
        0
 91
        1
 62
     0
 92
       -2
340
0
 93
        0
 40
0.045
309
GRIDFORMAT_END
 95
       32
302
GRIDFORMAT
  1
GRIDFORMAT_BEGIN
 90
        0
 91
        1
 62
     0
 92
       -2
340
0
 93
        0
 40
0.045
309
GRIDFORMAT_END
309
TABLEFORMAT_END
  1
CELLSTYLE_BEGIN
 90
        3
 91
        2
300
_DATA
309
CELLSTYLE_END
  0
XRECORD
  5
662
102
{ACAD_REACTORS
330
104
102
}
330
104
100
AcDbXrecord
280
     1
102
ACAD_ROUNDTRIP_PRE2007_TABLESTYLE
 90
      512
 91
        0
  1

 92
      512
 93
        0
  2

 94
      512
 95
        0
  3

  0
XRECORD
  5
66E
102
{ACAD_REACTORS
330
66D
102
}
330
66D
100
AcDbXrecord
280
     1
102
RTVSPropertyOp0
 70
     1
102
RTVSPropertyOp1
 70
     1
102
RTVSPropertyOp2
 70
     1
102
RTVSPropertyOp3
 70
     1
102
RTVSPropertyOp4
 70
     1
102
RTVSPropertyOp5
 70
     1
102
RTVSPropertyOp6
 70
     1
102
RTVSPropertyOp7
 70
     1
102
RTVSPropertyOp8
 70
     1
102
RTVSPropertyOp9
 70
     1
102
RTVSPropertyOp10
 70
     1
102
RTVSPropertyOp11
 70
     1
102
RTVSPropertyOp12
 70
     1
102
RTVSPropertyOp13
 70
     1
102
RTVSPropertyOp14
 70
     1
102
RTVSPropertyOp15
 70
     1
102
RTVSPropertyOp16
 70
     1
102
RTVSPropertyOp17
 70
     1
102
RTVSPropertyOp18
 70
     1
102
RTVSPropertyOp19
 70
     1
102
RTVSPropertyOp20
 70
     1
102
RTVSPropertyOp21
 70
     1
102
RTVSPropertyOp22
 70
     1
102
RTVSPropertyOp23
 70
     1
102
RTVSPropertyOp24
 70
     1
102
RTVSPropertyOp25
 70
     1
102
RTVSPropertyOp26
 70
     1
102
RTVSPropertyOp27
 70
     1
102
RTVSPropertyOp28
 70
     1
102
RTVSPropertyOp29
 70
     1
102
RTVSPropertyOp30
 70
     1
102
RTVSPropertyOp31
 70
     1
102
RTVSPropertyOp32
 70
     1
  0
XRECORD
  5
66C
102
{ACAD_REACTORS
330
66B
102
}
330
66B
100
AcDbXrecord
280
     1
102
RTVSPropertyOp0
 70
     1
102
RTVSPropertyOp1
 70
     1
102
RTVSPropertyOp2
 70
     1
102
RTVSPropertyOp3
 70
     1
102
RTVSPropertyOp4
 70
     1
102
RTVSPropertyOp5
 70
     1
102
RTVSPropertyOp6
 70
     1
102
RTVSPropertyOp7
 70
     1
102
RTVSPropertyOp8
 70
     1
102
RTVSPropertyOp9
 70
     1
102
RTVSPropertyOp10
 70
     1
102
RTVSPropertyOp11
 70
     1
102
RTVSPropertyOp12
 70
     1
102
RTVSPropertyOp13
 70
     1
102
RTVSPropertyOp14
 70
     1
102
RTVSPropertyOp15
 70
     1
102
RTVSPropertyOp16
 70
     1
102
RTVSPropertyOp17
 70
     1
102
RTVSPropertyOp18
 70
     1
102
RTVSPropertyOp19
 70
     1
102
RTVSPropertyOp20
 70
     1
102
RTVSPropertyOp21
 70
     1
102
RTVSPropertyOp22
 70
     1
102
RTVSPropertyOp23
 70
     1
102
RTVSPropertyOp24
 70
     1
102
RTVSPropertyOp25
 70
     1
102
RTVSPropertyOp26
 70
     1
102
RTVSPropertyOp27
 70
     1
102
RTVSPropertyOp28
 70
     1
102
RTVSPropertyOp29
 70
     1
102
RTVSPropertyOp30
 70
     1
102
RTVSPropertyOp31
 70
     1
102
RTVSPropertyOp32
 70
     1
  0
XRECORD
  5
67A
102
{ACAD_REACTORS
330
679
102
}
330
679
100
AcDbXrecord
280
     1
102
RTVSPropertyOp0
 70
     1
102
RTVSPropertyOp1
 70
     1
102
RTVSPropertyOp2
 70
     1
102
RTVSPropertyOp3
 70
     1
102
RTVSPropertyOp4
 70
     1
102
RTVSPropertyOp5
 70
     1
102
RTVSPropertyOp6
 70
     1
102
RTVSPropertyOp7
 70
     1
102
RTVSPropertyOp8
 70
     1
102
RTVSPropertyOp9
 70
     1
102
RTVSPropertyOp10
 70
     1
102
RTVSPropertyOp11
 70
     1
102
RTVSPropertyOp12
 70
     1
102
RTVSPropertyOp13
 70
     1
102
RTVSPropertyOp14
 70
     1
102
RTVSPropertyOp15
 70
     1
102
RTVSPropertyOp16
 70
     1
102
RTVSPropertyOp17
 70
     1
102
RTVSPropertyOp18
 70
     1
102
RTVSPropertyOp19
 70
     1
102
RTVSPropertyOp20
 70
     1
102
RTVSPropertyOp21
 70
     1
102
RTVSPropertyOp22
 70
     1
102
RTVSPropertyOp23
 70
     1
102
RTVSPropertyOp24
 70
     1
102
RTVSPropertyOp25
 70
     1
102
RTVSPropertyOp26
 70
     1
102
RTVSPropertyOp27
 70
     1
102
RTVSPropertyOp28
 70
     1
102
RTVSPropertyOp29
 70
     1
102
RTVSPropertyOp30
 70
     1
102
RTVSPropertyOp31
 70
     1
102
RTVSPropertyOp32
 70
     1
  0
XRECORD
  5
682
102
{ACAD_REACTORS
330
681
102
}
330
681
100
AcDbXrecord
280
     1
102
RTVSPropertyOp0
 70
     1
102
RTVSPropertyOp1
 70
     1
102
RTVSPropertyOp2
 70
     1
102
RTVSPropertyOp3
 70
     1
102
RTVSPropertyOp4
 70
     1
102
RTVSPropertyOp5
 70
     1
102
RTVSPropertyOp6
 70
     1
102
RTVSPropertyOp7
 70
     1
102
RTVSPropertyOp8
 70
     1
102
RTVSPropertyOp9
 70
     1
102
RTVSPropertyOp10
 70
     1
102
RTVSPropertyOp11
 70
     1
102
RTVSPropertyOp12
 70
     1
102
RTVSPropertyOp13
 70
     1
102
RTVSPropertyOp14
 70
     1
102
RTVSPropertyOp15
 70
     1
102
RTVSPropertyOp16
 70
     1
102
RTVSPropertyOp17
 70
     1
102
RTVSPropertyOp18
 70
     1
102
RTVSPropertyOp19
 70
     1
102
RTVSPropertyOp20
 70
     1
102
RTVSPropertyOp21
 70
     1
102
RTVSPropertyOp22
 70
     1
102
RTVSPropertyOp23
 70
     1
102
RTVSPropertyOp24
 70
     1
102
RTVSPropertyOp25
 70
     1
102
RTVSPropertyOp26
 70
     1
102
RTVSPropertyOp27
 70
     1
102
RTVSPropertyOp28
 70
     1
102
RTVSPropertyOp29
 70
     1
102
RTVSPropertyOp30
 70
     1
102
RTVSPropertyOp31
 70
     1
102
RTVSPropertyOp32
 70
     1
  0
XRECORD
  5
674
102
{ACAD_REACTORS
330
673
102
}
330
673
100
AcDbXrecord
280
     1
102
RTVSPropertyOp0
 70
     1
102
RTVSPropertyOp1
 70
     1
102
RTVSPropertyOp2
 70
     1
102
RTVSPropertyOp3
 70
     1
102
RTVSPropertyOp4
 70
     1
102
RTVSPropertyOp5
 70
     1
102
RTVSPropertyOp6
 70
     1
102
RTVSPropertyOp7
 70
     1
102
RTVSPropertyOp8
 70
     1
102
RTVSPropertyOp9
 70
     1
102
RTVSPropertyOp10
 70
     1
102
RTVSPropertyOp11
 70
     1
102
RTVSPropertyOp12
 70
     1
102
RTVSPropertyOp13
 70
     1
102
RTVSPropertyOp14
 70
     1
102
RTVSPropertyOp15
 70
     1
102
RTVSPropertyOp16
 70
     1
102
RTVSPropertyOp17
 70
     1
102
RTVSPropertyOp18
 70
     1
102
RTVSPropertyOp19
 70
     1
102
RTVSPropertyOp20
 70
     1
102
RTVSPropertyOp21
 70
     1
102
RTVSPropertyOp22
 70
     1
102
RTVSPropertyOp23
 70
     1
102
RTVSPropertyOp24
 70
     1
102
RTVSPropertyOp25
 70
     1
102
RTVSPropertyOp26
 70
     1
102
RTVSPropertyOp27
 70
     1
102
RTVSPropertyOp28
 70
     1
102
RTVSPropertyOp29
 70
     1
102
RTVSPropertyOp30
 70
     1
102
RTVSPropertyOp31
 70
     1
102
RTVSPropertyOp32
 70
     1
  0
XRECORD
  5
678
102
{ACAD_REACTORS
330
677
102
}
330
677
100
AcDbXrecord
280
     1
102
RTVSPropertyOp0
 70
     1
102
RTVSPropertyOp1
 70
     1
102
RTVSPropertyOp2
 70
     1
102
RTVSPropertyOp3
 70
     1
102
RTVSPropertyOp4
 70
     1
102
RTVSPropertyOp5
 70
     1
102
RTVSPropertyOp6
 70
     1
102
RTVSPropertyOp7
 70
     1
102
RTVSPropertyOp8
 70
     1
102
RTVSPropertyOp9
 70
     1
102
RTVSPropertyOp10
 70
     1
102
RTVSPropertyOp11
 70
     1
102
RTVSPropertyOp12
 70
     1
102
RTVSPropertyOp13
 70
     1
102
RTVSPropertyOp14
 70
     1
102
RTVSPropertyOp15
 70
     1
102
RTVSPropertyOp16
 70
     1
102
RTVSPropertyOp17
 70
     1
102
RTVSPropertyOp18
 70
     1
102
RTVSPropertyOp19
 70
     1
102
RTVSPropertyOp20
 70
     1
102
RTVSPropertyOp21
 70
     1
102
RTVSPropertyOp22
 70
     1
102
RTVSPropertyOp23
 70
     1
102
RTVSPropertyOp24
 70
     1
102
RTVSPropertyOp25
 70
     1
102
RTVSPropertyOp26
 70
     1
102
RTVSPropertyOp27
 70
     1
102
RTVSPropertyOp28
 70
     1
102
RTVSPropertyOp29
 70
     1
102
RTVSPropertyOp30
 70
     1
102
RTVSPropertyOp31
 70
     1
102
RTVSPropertyOp32
 70
     1
  0
XRECORD
  5
688
102
{ACAD_REACTORS
330
687
102
}
330
687
100
AcDbXrecord
280
     1
102
RTVSPropertyOp0
 70
     0
102
RTVSPropertyOp1
 70
     0
102
RTVSPropertyOp2
 70
     0
102
RTVSPropertyOp3
 70
     0
102
RTVSPropertyOp4
 70
     0
102
RTVSPropertyOp5
 70
     0
102
RTVSPropertyOp6
 70
     0
102
RTVSPropertyOp7
 70
     0
102
RTVSPropertyOp8
 70
     0
102
RTVSPropertyOp9
 70
     0
102
RTVSPropertyOp10
 70
     0
102
RTVSPropertyOp11
 70
     0
102
RTVSPropertyOp12
 70
     0
102
RTVSPropertyOp13
 70
     0
102
RTVSPropertyOp14
 70
     2
102
RTVSPropertyOp15
 70
     0
102
RTVSPropertyOp16
 70
     0
102
RTVSPropertyOp17
 70
     0
102
RTVSPropertyOp18
 70
     0
102
RTVSPropertyOp19
 70
     0
102
RTVSPropertyOp20
 70
     0
102
RTVSPropertyOp21
 70
     0
102
RTVSPropertyOp22
 70
     0
102
RTVSPropertyOp23
 70
     0
102
RTVSPropertyOp24
 70
     0
102
RTVSPropertyOp25
 70
     0
102
RTVSPropertyOp26
 70
     0
102
RTVSPropertyOp27
 70
     0
102
RTVSPropertyOp28
 70
     1
102
RTVSPropertyOp29
 70
     1
102
RTVSPropertyOp30
 70
     1
102
RTVSPropertyOp31
 70
     1
102
RTVSPropertyOp32
 70
     1
  0
XRECORD
  5
680
102
{ACAD_REACTORS
330
67F
102
}
330
67F
100
AcDbXrecord
280
     1
102
RTVSPropertyOp0
 70
     1
102
RTVSPropertyOp1
 70
     1
102
RTVSPropertyOp2
 70
     1
102
RTVSPropertyOp3
 70
     1
102
RTVSPropertyOp4
 70
     1
102
RTVSPropertyOp5
 70
     1
102
RTVSPropertyOp6
 70
     1
102
RTVSPropertyOp7
 70
     1
102
RTVSPropertyOp8
 70
     1
102
RTVSPropertyOp9
 70
     1
102
RTVSPropertyOp10
 70
     1
102
RTVSPropertyOp11
 70
     1
102
RTVSPropertyOp12
 70
     1
102
RTVSPropertyOp13
 70
     1
102
RTVSPropertyOp14
 70
     1
102
RTVSPropertyOp15
 70
     1
102
RTVSPropertyOp16
 70
     1
102
RTVSPropertyOp17
 70
     1
102
RTVSPropertyOp18
 70
     1
102
RTVSPropertyOp19
 70
     1
102
RTVSPropertyOp20
 70
     1
102
RTVSPropertyOp21
 70
     1
102
RTVSPropertyOp22
 70
     1
102
RTVSPropertyOp23
 70
     1
102
RTVSPropertyOp24
 70
     1
102
RTVSPropertyOp25
 70
     1
102
RTVSPropertyOp26
 70
     1
102
RTVSPropertyOp27
 70
     1
102
RTVSPropertyOp28
 70
     1
102
RTVSPropertyOp29
 70
     1
102
RTVSPropertyOp30
 70
     1
102
RTVSPropertyOp31
 70
     1
102
RTVSPropertyOp32
 70
     1
  0
XRECORD
  5
664
102
{ACAD_REACTORS
330
663
102
}
330
663
100
AcDbXrecord
280
     1
102
RTVSPropertyOp0
 70
     1
102
RTVSPropertyOp1
 70
     1
102
RTVSPropertyOp2
 70
     1
102
RTVSPropertyOp3
 70
     1
102
RTVSPropertyOp4
 70
     1
102
RTVSPropertyOp5
 70
     1
102
RTVSPropertyOp6
 70
     1
102
RTVSPropertyOp7
 70
     1
102
RTVSPropertyOp8
 70
     1
102
RTVSPropertyOp9
 70
     1
102
RTVSPropertyOp10
 70
     1
102
RTVSPropertyOp11
 70
     1
102
RTVSPropertyOp12
 70
     1
102
RTVSPropertyOp13
 70
     1
102
RTVSPropertyOp14
 70
     1
102
RTVSPropertyOp15
 70
     1
102
RTVSPropertyOp16
 70
     1
102
RTVSPropertyOp17
 70
     1
102
RTVSPropertyOp18
 70
     1
102
RTVSPropertyOp19
 70
     1
102
RTVSPropertyOp20
 70
     1
102
RTVSPropertyOp21
 70
     1
102
RTVSPropertyOp22
 70
     1
102
RTVSPropertyOp23
 70
     1
102
RTVSPropertyOp24
 70
     1
102
RTVSPropertyOp25
 70
     1
102
RTVSPropertyOp26
 70
     1
102
RTVSPropertyOp27
 70
     1
102
RTVSPropertyOp28
 70
     1
102
RTVSPropertyOp29
 70
     1
102
RTVSPropertyOp30
 70
     1
102
RTVSPropertyOp31
 70
     1
102
RTVSPropertyOp32
 70
     1
  0
XRECORD
  5
666
102
{ACAD_REACTORS
330
665
102
}
330
665
100
AcDbXrecord
280
     1
102
RTVSPropertyOp0
 70
     1
102
RTVSPropertyOp1
 70
     1
102
RTVSPropertyOp2
 70
     1
102
RTVSPropertyOp3
 70
     1
102
RTVSPropertyOp4
 70
     1
102
RTVSPropertyOp5
 70
     1
102
RTVSPropertyOp6
 70
     1
102
RTVSPropertyOp7
 70
     1
102
RTVSPropertyOp8
 70
     1
102
RTVSPropertyOp9
 70
     1
102
RTVSPropertyOp10
 70
     1
102
RTVSPropertyOp11
 70
     1
102
RTVSPropertyOp12
 70
     1
102
RTVSPropertyOp13
 70
     1
102
RTVSPropertyOp14
 70
     1
102
RTVSPropertyOp15
 70
     1
102
RTVSPropertyOp16
 70
     1
102
RTVSPropertyOp17
 70
     1
102
RTVSPropertyOp18
 70
     1
102
RTVSPropertyOp19
 70
     1
102
RTVSPropertyOp20
 70
     1
102
RTVSPropertyOp21
 70
     1
102
RTVSPropertyOp22
 70
     1
102
RTVSPropertyOp23
 70
     1
102
RTVSPropertyOp24
 70
     1
102
RTVSPropertyOp25
 70
     1
102
RTVSPropertyOp26
 70
     1
102
RTVSPropertyOp27
 70
     1
102
RTVSPropertyOp28
 70
     1
102
RTVSPropertyOp29
 70
     1
102
RTVSPropertyOp30
 70
     1
102
RTVSPropertyOp31
 70
     1
102
RTVSPropertyOp32
 70
     1
  0
XRECORD
  5
668
102
{ACAD_REACTORS
330
667
102
}
330
667
100
AcDbXrecord
280
     1
102
RTVSPropertyOp0
 70
     1
102
RTVSPropertyOp1
 70
     1
102
RTVSPropertyOp2
 70
     1
102
RTVSPropertyOp3
 70
     1
102
RTVSPropertyOp4
 70
     1
102
RTVSPropertyOp5
 70
     1
102
RTVSPropertyOp6
 70
     1
102
RTVSPropertyOp7
 70
     1
102
RTVSPropertyOp8
 70
     1
102
RTVSPropertyOp9
 70
     1
102
RTVSPropertyOp10
 70
     1
102
RTVSPropertyOp11
 70
     1
102
RTVSPropertyOp12
 70
     1
102
RTVSPropertyOp13
 70
     1
102
RTVSPropertyOp14
 70
     1
102
RTVSPropertyOp15
 70
     1
102
RTVSPropertyOp16
 70
     1
102
RTVSPropertyOp17
 70
     1
102
RTVSPropertyOp18
 70
     1
102
RTVSPropertyOp19
 70
     1
102
RTVSPropertyOp20
 70
     1
102
RTVSPropertyOp21
 70
     1
102
RTVSPropertyOp22
 70
     1
102
RTVSPropertyOp23
 70
     1
102
RTVSPropertyOp24
 70
     1
102
RTVSPropertyOp25
 70
     1
102
RTVSPropertyOp26
 70
     1
102
RTVSPropertyOp27
 70
     1
102
RTVSPropertyOp28
 70
     1
102
RTVSPropertyOp29
 70
     1
102
RTVSPropertyOp30
 70
     1
102
RTVSPropertyOp31
 70
     1
102
RTVSPropertyOp32
 70
     1
  0
XRECORD
  5
66A
102
{ACAD_REACTORS
330
669
102
}
330
669
100
AcDbXrecord
280
     1
102
RTVSPropertyOp0
 70
     1
102
RTVSPropertyOp1
 70
     1
102
RTVSPropertyOp2
 70
     1
102
RTVSPropertyOp3
 70
     1
102
RTVSPropertyOp4
 70
     1
102
RTVSPropertyOp5
 70
     1
102
RTVSPropertyOp6
 70
     1
102
RTVSPropertyOp7
 70
     1
102
RTVSPropertyOp8
 70
     1
102
RTVSPropertyOp9
 70
     1
102
RTVSPropertyOp10
 70
     1
102
RTVSPropertyOp11
 70
     1
102
RTVSPropertyOp12
 70
     1
102
RTVSPropertyOp13
 70
     1
102
RTVSPropertyOp14
 70
     1
102
RTVSPropertyOp15
 70
     1
102
RTVSPropertyOp16
 70
     1
102
RTVSPropertyOp17
 70
     1
102
RTVSPropertyOp18
 70
     1
102
RTVSPropertyOp19
 70
     1
102
RTVSPropertyOp20
 70
     1
102
RTVSPropertyOp21
 70
     1
102
RTVSPropertyOp22
 70
     1
102
RTVSPropertyOp23
 70
     1
102
RTVSPropertyOp24
 70
     1
102
RTVSPropertyOp25
 70
     1
102
RTVSPropertyOp26
 70
     1
102
RTVSPropertyOp27
 70
     1
102
RTVSPropertyOp28
 70
     1
102
RTVSPropertyOp29
 70
     1
102
RTVSPropertyOp30
 70
     1
102
RTVSPropertyOp31
 70
     1
102
RTVSPropertyOp32
 70
     1
  0
XRECORD
  5
672
102
{ACAD_REACTORS
330
671
102
}
330
671
100
AcDbXrecord
280
     1
102
RTVSPropertyOp0
 70
     1
102
RTVSPropertyOp1
 70
     1
102
RTVSPropertyOp2
 70
     1
102
RTVSPropertyOp3
 70
     1
102
RTVSPropertyOp4
 70
     1
102
RTVSPropertyOp5
 70
     1
102
RTVSPropertyOp6
 70
     1
102
RTVSPropertyOp7
 70
     1
102
RTVSPropertyOp8
 70
     1
102
RTVSPropertyOp9
 70
     1
102
RTVSPropertyOp10
 70
     1
102
RTVSPropertyOp11
 70
     1
102
RTVSPropertyOp12
 70
     1
102
RTVSPropertyOp13
 70
     1
102
RTVSPropertyOp14
 70
     1
102
RTVSPropertyOp15
 70
     1
102
RTVSPropertyOp16
 70
     1
102
RTVSPropertyOp17
 70
     1
102
RTVSPropertyOp18
 70
     1
102
RTVSPropertyOp19
 70
     1
102
RTVSPropertyOp20
 70
     1
102
RTVSPropertyOp21
 70
     1
102
RTVSPropertyOp22
 70
     1
102
RTVSPropertyOp23
 70
     1
102
RTVSPropertyOp24
 70
     1
102
RTVSPropertyOp25
 70
     1
102
RTVSPropertyOp26
 70
     1
102
RTVSPropertyOp27
 70
     1
102
RTVSPropertyOp28
 70
     1
102
RTVSPropertyOp29
 70
     1
102
RTVSPropertyOp30
 70
     1
102
RTVSPropertyOp31
 70
     1
102
RTVSPropertyOp32
 70
     1
  0
XRECORD
  5
684
102
{ACAD_REACTORS
330
683
102
}
330
683
100
AcDbXrecord
280
     1
102
RTVSPropertyOp0
 70
     0
102
RTVSPropertyOp1
 70
     0
102
RTVSPropertyOp2
 70
     0
102
RTVSPropertyOp3
 70
     0
102
RTVSPropertyOp4
 70
     0
102
RTVSPropertyOp5
 70
     0
102
RTVSPropertyOp6
 70
     0
102
RTVSPropertyOp7
 70
     0
102
RTVSPropertyOp8
 70
     0
102
RTVSPropertyOp9
 70
     0
102
RTVSPropertyOp10
 70
     0
102
RTVSPropertyOp11
 70
     0
102
RTVSPropertyOp12
 70
     0
102
RTVSPropertyOp13
 70
     0
102
RTVSPropertyOp14
 70
     2
102
RTVSPropertyOp15
 70
     0
102
RTVSPropertyOp16
 70
     0
102
RTVSPropertyOp17
 70
     0
102
RTVSPropertyOp18
 70
     0
102
RTVSPropertyOp19
 70
     0
102
RTVSPropertyOp20
 70
     0
102
RTVSPropertyOp21
 70
     0
102
RTVSPropertyOp22
 70
     0
102
RTVSPropertyOp23
 70
     0
102
RTVSPropertyOp24
 70
     0
102
RTVSPropertyOp25
 70
     0
102
RTVSPropertyOp26
 70
     0
102
RTVSPropertyOp27
 70
     0
102
RTVSPropertyOp28
 70
     1
102
RTVSPropertyOp29
 70
     1
102
RTVSPropertyOp30
 70
     1
102
RTVSPropertyOp31
 70
     1
102
RTVSPropertyOp32
 70
     1
  0
XRECORD
  5
67E
102
{ACAD_REACTORS
330
67D
102
}
330
67D
100
AcDbXrecord
280
     1
102
RTVSPropertyOp0
 70
     1
102
RTVSPropertyOp1
 70
     1
102
RTVSPropertyOp2
 70
     1
102
RTVSPropertyOp3
 70
     1
102
RTVSPropertyOp4
 70
     1
102
RTVSPropertyOp5
 70
     1
102
RTVSPropertyOp6
 70
     1
102
RTVSPropertyOp7
 70
     1
102
RTVSPropertyOp8
 70
     1
102
RTVSPropertyOp9
 70
     1
102
RTVSPropertyOp10
 70
     1
102
RTVSPropertyOp11
 70
     1
102
RTVSPropertyOp12
 70
     1
102
RTVSPropertyOp13
 70
     1
102
RTVSPropertyOp14
 70
     1
102
RTVSPropertyOp15
 70
     1
102
RTVSPropertyOp16
 70
     1
102
RTVSPropertyOp17
 70
     1
102
RTVSPropertyOp18
 70
     1
102
RTVSPropertyOp19
 70
     1
102
RTVSPropertyOp20
 70
     1
102
RTVSPropertyOp21
 70
     1
102
RTVSPropertyOp22
 70
     1
102
RTVSPropertyOp23
 70
     1
102
RTVSPropertyOp24
 70
     1
102
RTVSPropertyOp25
 70
     1
102
RTVSPropertyOp26
 70
     1
102
RTVSPropertyOp27
 70
     1
102
RTVSPropertyOp28
 70
     1
102
RTVSPropertyOp29
 70
     1
102
RTVSPropertyOp30
 70
     1
102
RTVSPropertyOp31
 70
     1
102
RTVSPropertyOp32
 70
     1
  0
XRECORD
  5
686
102
{ACAD_REACTORS
330
685
102
}
330
685
100
AcDbXrecord
280
     1
102
RTVSPropertyOp0
 70
     0
102
RTVSPropertyOp1
 70
     0
102
RTVSPropertyOp2
 70
     0
102
RTVSPropertyOp3
 70
     0
102
RTVSPropertyOp4
 70
     0
102
RTVSPropertyOp5
 70
     0
102
RTVSPropertyOp6
 70
     0
102
RTVSPropertyOp7
 70
     0
102
RTVSPropertyOp8
 70
     0
102
RTVSPropertyOp9
 70
     0
102
RTVSPropertyOp10
 70
     0
102
RTVSPropertyOp11
 70
     0
102
RTVSPropertyOp12
 70
     0
102
RTVSPropertyOp13
 70
     0
102
RTVSPropertyOp14
 70
     2
102
RTVSPropertyOp15
 70
     0
102
RTVSPropertyOp16
 70
     0
102
RTVSPropertyOp17
 70
     0
102
RTVSPropertyOp18
 70
     0
102
RTVSPropertyOp19
 70
     0
102
RTVSPropertyOp20
 70
     0
102
RTVSPropertyOp21
 70
     0
102
RTVSPropertyOp22
 70
     0
102
RTVSPropertyOp23
 70
     0
102
RTVSPropertyOp24
 70
     0
102
RTVSPropertyOp25
 70
     0
102
RTVSPropertyOp26
 70
     0
102
RTVSPropertyOp27
 70
     0
102
RTVSPropertyOp28
 70
     1
102
RTVSPropertyOp29
 70
     1
102
RTVSPropertyOp30
 70
     1
102
RTVSPropertyOp31
 70
     1
102
RTVSPropertyOp32
 70
     1
  0
XRECORD
  5
676
102
{ACAD_REACTORS
330
675
102
}
330
675
100
AcDbXrecord
280
     1
102
RTVSPropertyOp0
 70
     1
102
RTVSPropertyOp1
 70
     1
102
RTVSPropertyOp2
 70
     1
102
RTVSPropertyOp3
 70
     1
102
RTVSPropertyOp4
 70
     1
102
RTVSPropertyOp5
 70
     1
102
RTVSPropertyOp6
 70
     1
102
RTVSPropertyOp7
 70
     1
102
RTVSPropertyOp8
 70
     1
102
RTVSPropertyOp9
 70
     1
102
RTVSPropertyOp10
 70
     1
102
RTVSPropertyOp11
 70
     1
102
RTVSPropertyOp12
 70
     1
102
RTVSPropertyOp13
 70
     1
102
RTVSPropertyOp14
 70
     1
102
RTVSPropertyOp15
 70
     1
102
RTVSPropertyOp16
 70
     1
102
RTVSPropertyOp17
 70
     1
102
RTVSPropertyOp18
 70
     1
102
RTVSPropertyOp19
 70
     1
102
RTVSPropertyOp20
 70
     1
102
RTVSPropertyOp21
 70
     1
102
RTVSPropertyOp22
 70
     1
102
RTVSPropertyOp23
 70
     1
102
RTVSPropertyOp24
 70
     1
102
RTVSPropertyOp25
 70
     1
102
RTVSPropertyOp26
 70
     1
102
RTVSPropertyOp27
 70
     1
102
RTVSPropertyOp28
 70
     1
102
RTVSPropertyOp29
 70
     1
102
RTVSPropertyOp30
 70
     1
102
RTVSPropertyOp31
 70
     1
102
RTVSPropertyOp32
 70
     1
  0
XRECORD
  5
692
102
{ACAD_REACTORS
330
691
102
}
330
691
100
AcDbXrecord
280
     1
102
RTVSPropertyOp0
 70
     1
102
RTVSPropertyOp1
 70
     1
102
RTVSPropertyOp2
 70
     1
102
RTVSPropertyOp3
 70
     1
102
RTVSPropertyOp4
 70
     1
102
RTVSPropertyOp5
 70
     1
102
RTVSPropertyOp6
 70
     1
102
RTVSPropertyOp7
 70
     1
102
RTVSPropertyOp8
 70
     1
102
RTVSPropertyOp9
 70
     1
102
RTVSPropertyOp10
 70
     1
102
RTVSPropertyOp11
 70
     1
102
RTVSPropertyOp12
 70
     1
102
RTVSPropertyOp13
 70
     1
102
RTVSPropertyOp14
 70
     1
102
RTVSPropertyOp15
 70
     1
102
RTVSPropertyOp16
 70
     1
102
RTVSPropertyOp17
 70
     1
102
RTVSPropertyOp18
 70
     1
102
RTVSPropertyOp19
 70
     1
102
RTVSPropertyOp20
 70
     1
102
RTVSPropertyOp21
 70
     1
102
RTVSPropertyOp22
 70
     1
102
RTVSPropertyOp23
 70
     1
102
RTVSPropertyOp24
 70
     1
102
RTVSPropertyOp25
 70
     1
102
RTVSPropertyOp26
 70
     1
102
RTVSPropertyOp27
 70
     1
102
RTVSPropertyOp28
 70
     1
102
RTVSPropertyOp29
 70
     1
102
RTVSPropertyOp30
 70
     1
102
RTVSPropertyOp31
 70
     1
102
RTVSPropertyOp32
 70
     1
  0
XRECORD
  5
690
102
{ACAD_REACTORS
330
68F
102
}
330
68F
100
AcDbXrecord
280
     1
102
RTVSPropertyOp0
 70
     1
102
RTVSPropertyOp1
 70
     1
102
RTVSPropertyOp2
 70
     1
102
RTVSPropertyOp3
 70
     1
102
RTVSPropertyOp4
 70
     1
102
RTVSPropertyOp5
 70
     1
102
RTVSPropertyOp6
 70
     1
102
RTVSPropertyOp7
 70
     1
102
RTVSPropertyOp8
 70
     1
102
RTVSPropertyOp9
 70
     1
102
RTVSPropertyOp10
 70
     1
102
RTVSPropertyOp11
 70
     1
102
RTVSPropertyOp12
 70
     1
102
RTVSPropertyOp13
 70
     1
102
RTVSPropertyOp14
 70
     1
102
RTVSPropertyOp15
 70
     1
102
RTVSPropertyOp16
 70
     1
102
RTVSPropertyOp17
 70
     1
102
RTVSPropertyOp18
 70
     1
102
RTVSPropertyOp19
 70
     1
102
RTVSPropertyOp20
 70
     1
102
RTVSPropertyOp21
 70
     1
102
RTVSPropertyOp22
 70
     1
102
RTVSPropertyOp23
 70
     1
102
RTVSPropertyOp24
 70
     1
102
RTVSPropertyOp25
 70
     1
102
RTVSPropertyOp26
 70
     1
102
RTVSPropertyOp27
 70
     1
102
RTVSPropertyOp28
 70
     1
102
RTVSPropertyOp29
 70
     1
102
RTVSPropertyOp30
 70
     1
102
RTVSPropertyOp31
 70
     1
102
RTVSPropertyOp32
 70
     1
  0
XRECORD
  5
68A
102
{ACAD_REACTORS
330
689
102
}
330
689
100
AcDbXrecord
280
     1
102
RTVSPropertyOp0
 70
     1
102
RTVSPropertyOp1
 70
     1
102
RTVSPropertyOp2
 70
     1
102
RTVSPropertyOp3
 70
     1
102
RTVSPropertyOp4
 70
     1
102
RTVSPropertyOp5
 70
     1
102
RTVSPropertyOp6
 70
     1
102
RTVSPropertyOp7
 70
     1
102
RTVSPropertyOp8
 70
     1
102
RTVSPropertyOp9
 70
     1
102
RTVSPropertyOp10
 70
     1
102
RTVSPropertyOp11
 70
     1
102
RTVSPropertyOp12
 70
     1
102
RTVSPropertyOp13
 70
     1
102
RTVSPropertyOp14
 70
     1
102
RTVSPropertyOp15
 70
     1
102
RTVSPropertyOp16
 70
     1
102
RTVSPropertyOp17
 70
     1
102
RTVSPropertyOp18
 70
     1
102
RTVSPropertyOp19
 70
     1
102
RTVSPropertyOp20
 70
     1
102
RTVSPropertyOp21
 70
     1
102
RTVSPropertyOp22
 70
     1
102
RTVSPropertyOp23
 70
     1
102
RTVSPropertyOp24
 70
     1
102
RTVSPropertyOp25
 70
     1
102
RTVSPropertyOp26
 70
     1
102
RTVSPropertyOp27
 70
     1
102
RTVSPropertyOp28
 70
     1
102
RTVSPropertyOp29
 70
     1
102
RTVSPropertyOp30
 70
     1
102
RTVSPropertyOp31
 70
     1
102
RTVSPropertyOp32
 70
     1
  0
XRECORD
  5
68C
102
{ACAD_REACTORS
330
68B
102
}
330
68B
100
AcDbXrecord
280
     1
102
RTVSPropertyOp0
 70
     1
102
RTVSPropertyOp1
 70
     1
102
RTVSPropertyOp2
 70
     1
102
RTVSPropertyOp3
 70
     1
102
RTVSPropertyOp4
 70
     1
102
RTVSPropertyOp5
 70
     1
102
RTVSPropertyOp6
 70
     1
102
RTVSPropertyOp7
 70
     1
102
RTVSPropertyOp8
 70
     1
102
RTVSPropertyOp9
 70
     1
102
RTVSPropertyOp10
 70
     1
102
RTVSPropertyOp11
 70
     1
102
RTVSPropertyOp12
 70
     1
102
RTVSPropertyOp13
 70
     1
102
RTVSPropertyOp14
 70
     1
102
RTVSPropertyOp15
 70
     1
102
RTVSPropertyOp16
 70
     1
102
RTVSPropertyOp17
 70
     1
102
RTVSPropertyOp18
 70
     1
102
RTVSPropertyOp19
 70
     1
102
RTVSPropertyOp20
 70
     1
102
RTVSPropertyOp21
 70
     1
102
RTVSPropertyOp22
 70
     1
102
RTVSPropertyOp23
 70
     1
102
RTVSPropertyOp24
 70
     1
102
RTVSPropertyOp25
 70
     1
102
RTVSPropertyOp26
 70
     1
102
RTVSPropertyOp27
 70
     1
102
RTVSPropertyOp28
 70
     1
102
RTVSPropertyOp29
 70
     1
102
RTVSPropertyOp30
 70
     1
102
RTVSPropertyOp31
 70
     1
102
RTVSPropertyOp32
 70
     1
  0
XRECORD
  5
67C
102
{ACAD_REACTORS
330
67B
102
}
330
67B
100
AcDbXrecord
280
     1
102
RTVSPropertyOp0
 70
     1
102
RTVSPropertyOp1
 70
     1
102
RTVSPropertyOp2
 70
     1
102
RTVSPropertyOp3
 70
     1
102
RTVSPropertyOp4
 70
     1
102
RTVSPropertyOp5
 70
     1
102
RTVSPropertyOp6
 70
     1
102
RTVSPropertyOp7
 70
     1
102
RTVSPropertyOp8
 70
     1
102
RTVSPropertyOp9
 70
     1
102
RTVSPropertyOp10
 70
     1
102
RTVSPropertyOp11
 70
     1
102
RTVSPropertyOp12
 70
     1
102
RTVSPropertyOp13
 70
     1
102
RTVSPropertyOp14
 70
     1
102
RTVSPropertyOp15
 70
     1
102
RTVSPropertyOp16
 70
     1
102
RTVSPropertyOp17
 70
     1
102
RTVSPropertyOp18
 70
     1
102
RTVSPropertyOp19
 70
     1
102
RTVSPropertyOp20
 70
     1
102
RTVSPropertyOp21
 70
     1
102
RTVSPropertyOp22
 70
     1
102
RTVSPropertyOp23
 70
     1
102
RTVSPropertyOp24
 70
     1
102
RTVSPropertyOp25
 70
     1
102
RTVSPropertyOp26
 70
     1
102
RTVSPropertyOp27
 70
     1
102
RTVSPropertyOp28
 70
     1
102
RTVSPropertyOp29
 70
     1
102
RTVSPropertyOp30
 70
     1
102
RTVSPropertyOp31
 70
     1
102
RTVSPropertyOp32
 70
     1
  0
XRECORD
  5
670
102
{ACAD_REACTORS
330
66F
102
}
330
66F
100
AcDbXrecord
280
     1
102
RTVSPropertyOp0
 70
     1
102
RTVSPropertyOp1
 70
     1
102
RTVSPropertyOp2
 70
     1
102
RTVSPropertyOp3
 70
     1
102
RTVSPropertyOp4
 70
     1
102
RTVSPropertyOp5
 70
     1
102
RTVSPropertyOp6
 70
     1
102
RTVSPropertyOp7
 70
     1
102
RTVSPropertyOp8
 70
     1
102
RTVSPropertyOp9
 70
     1
102
RTVSPropertyOp10
 70
     1
102
RTVSPropertyOp11
 70
     1
102
RTVSPropertyOp12
 70
     1
102
RTVSPropertyOp13
 70
     1
102
RTVSPropertyOp14
 70
     1
102
RTVSPropertyOp15
 70
     1
102
RTVSPropertyOp16
 70
     1
102
RTVSPropertyOp17
 70
     1
102
RTVSPropertyOp18
 70
     1
102
RTVSPropertyOp19
 70
     1
102
RTVSPropertyOp20
 70
     1
102
RTVSPropertyOp21
 70
     1
102
RTVSPropertyOp22
 70
     1
102
RTVSPropertyOp23
 70
     1
102
RTVSPropertyOp24
 70
     1
102
RTVSPropertyOp25
 70
     1
102
RTVSPropertyOp26
 70
     1
102
RTVSPropertyOp27
 70
     1
102
RTVSPropertyOp28
 70
     1
102
RTVSPropertyOp29
 70
     1
102
RTVSPropertyOp30
 70
     1
102
RTVSPropertyOp31
 70
     1
102
RTVSPropertyOp32
 70
     1
  0
XRECORD
  5
68E
102
{ACAD_REACTORS
330
68D
102
}
330
68D
100
AcDbXrecord
280
     1
102
RTVSPropertyOp0
 70
     1
102
RTVSPropertyOp1
 70
     1
102
RTVSPropertyOp2
 70
     1
102
RTVSPropertyOp3
 70
     1
102
RTVSPropertyOp4
 70
     1
102
RTVSPropertyOp5
 70
     1
102
RTVSPropertyOp6
 70
     1
102
RTVSPropertyOp7
 70
     1
102
RTVSPropertyOp8
 70
     1
102
RTVSPropertyOp9
 70
     1
102
RTVSPropertyOp10
 70
     1
102
RTVSPropertyOp11
 70
     1
102
RTVSPropertyOp12
 70
     1
102
RTVSPropertyOp13
 70
     1
102
RTVSPropertyOp14
 70
     1
102
RTVSPropertyOp15
 70
     1
102
RTVSPropertyOp16
 70
     1
102
RTVSPropertyOp17
 70
     1
102
RTVSPropertyOp18
 70
     1
102
RTVSPropertyOp19
 70
     1
102
RTVSPropertyOp20
 70
     1
102
RTVSPropertyOp21
 70
     1
102
RTVSPropertyOp22
 70
     1
102
RTVSPropertyOp23
 70
     1
102
RTVSPropertyOp24
 70
     1
102
RTVSPropertyOp25
 70
     1
102
RTVSPropertyOp26
 70
     1
102
RTVSPropertyOp27
 70
     1
102
RTVSPropertyOp28
 70
     1
102
RTVSPropertyOp29
 70
     1
102
RTVSPropertyOp30
 70
     1
102
RTVSPropertyOp31
 70
     1
102
RTVSPropertyOp32
 70
     1
  0
ENDSEC
  0
EOF
