  0
SECTION
  2
HEADER
  9
$ACADVER
  1
AC1015
  9
$ACADMAINTVER
 70
    20
  9
$DWGCODEPAGE
  3
ANSI_1252
  9
$INSBASE
 10
-20.80256754294402
 20
105.248990860253
 30
0.0
  9
$EXTMIN
 10
-12.15917762684717
 20
11.8361550861533
 30
0.0
  9
$EXTMAX
 10
101.4987182739775
 20
88.97103951064066
 30
0.0
  9
$LIMMIN
 10
0.0
 20
0.0
  9
$LIMMAX
 10
0.0
 20
0.0
  9
$ORTHOMODE
 70
     0
  9
$REGENMODE
 70
     1
  9
$FILLMODE
 70
     1
  9
$QTEXTMODE
 70
     0
  9
$MIRRTEXT
 70
     1
  9
$LTSCALE
 40
1.0
  9
$ATTMODE
 70
     1
  9
$TEXTSIZE
 40
0.0
  9
$TRACEWID
 40
0.05
  9
$TEXTSTYLE
  7
SLDTEXTSTYLE0
  9
$CLAYER
  8
0
  9
$CELTYPE
  6
CONTINUOUS
  9
$CECOLOR
 62
   256
  9
$CELTSCALE
 40
1.0
  9
$DISPSILH
 70
     0
  9
$DIMSCALE
 40
1.0
  9
$DIMASZ
 40
1.0
  9
$DIMEXO
 40
0.5
  9
$DIMDLI
 40
0.38
  9
$DIMRND
 40
0.0
  9
$DIMDLE
 40
0.0
  9
$DIMEXE
 40
0.125
  9
$DIMTP
 40
0.0
  9
$DIMTM
 40
0.0
  9
$DIMTXT
 40
1.0
  9
$DIMCEN
 40
0.09
  9
$DIMTSZ
 40
0.0
  9
$DIMTOL
 70
     0
  9
$DIMLIM
 70
     0
  9
$DIMTIH
 70
     1
  9
$DIMTOH
 70
     1
  9
$DIMSE1
 70
     0
  9
$DIMSE2
 70
     0
  9
$DIMTAD
 70
     0
  9
$DIMZIN
 70
    12
  9
$DIMBLK
  1

  9
$DIMASO
 70
     1
  9
$DIMSHO
 70
     1
  9
$DIMPOST
  1
\X
  9
$DIMAPOST
  1
mm
  9
$DIMALT
 70
     1
  9
$DIMALTD
 70
     0
  9
$DIMALTF
 40
25.4
  9
$DIMLFAC
 40
1.0
  9
$DIMTOFL
 70
     0
  9
$DIMTVP
 40
0.0
  9
$DIMTIX
 70
     0
  9
$DIMSOXD
 70
     0
  9
$DIMSAH
 70
     0
  9
$DIMBLK1
  1

  9
$DIMBLK2
  1

  9
$DIMSTYLE
  2
SLDDIMSTYLE0
  9
$DIMCLRD
 70
     7
  9
$DIMCLRE
 70
     7
  9
$DIMCLRT
 70
     7
  9
$DIMTFAC
 40
1.0
  9
$DIMGAP
 40
0.5
  9
$DIMJUST
 70
     0
  9
$DIMSD1
 70
     0
  9
$DIMSD2
 70
     0
  9
$DIMTOLJ
 70
     1
  9
$DIMTZIN
 70
    12
  9
$DIMALTZ
 70
     0
  9
$DIMALTTZ
 70
     0
  9
$DIMUPT
 70
     1
  9
$DIMDEC
 70
     0
  9
$DIMTDEC
 70
     0
  9
$DIMALTU
 70
     2
  9
$DIMALTTD
 70
     0
  9
$DIMTXSTY
  7
STANDARD
  9
$DIMAUNIT
 70
     0
  9
$DIMADEC
 70
     0
  9
$DIMALTRND
 40
0.0
  9
$DIMAZIN
 70
     0
  9
$DIMDSEP
 70
    46
  9
$DIMATFIT
 70
     2
  9
$DIMFRAC
 70
     0
  9
$DIMLDRBLK
  1

  9
$DIMLUNIT
 70
     2
  9
$DIMLWD
 70
    -2
  9
$DIMLWE
 70
    -2
  9
$DIMTMOVE
 70
     0
  9
$LUNITS
 70
     2
  9
$LUPREC
 70
     3
  9
$SKETCHINC
 40
0.1
  9
$FILLETRAD
 40
0.0
  9
$AUNITS
 70
     0
  9
$AUPREC
 70
     0
  9
$MENU
  1
acad
  9
$ELEVATION
 40
0.0
  9
$PELEVATION
 40
0.0
  9
$THICKNESS
 40
0.0
  9
$LIMCHECK
 70
     0
  9
$CHAMFERA
 40
0.0
  9
$CHAMFERB
 40
0.0
  9
$CHAMFERC
 40
0.0
  9
$CHAMFERD
 40
0.0
  9
$SKPOLY
 70
     0
  9
$TDCREATE
 40
2444971.708333333
  9
$TDUCREATE
 40
2444972.000000000
  9
$TDUPDATE
 40
2454922.399815845
  9
$TDUUPDATE
 40
2454922.691482511
  9
$TDINDWG
 40
1.4053415509
  9
$TDUSRTIMER
 40
1.4053415509
  9
$USRTIMER
 70
     1
  9
$ANGBASE
 50
0.0
  9
$ANGDIR
 70
     0
  9
$PDMODE
 70
     0
  9
$PDSIZE
 40
-1.0
  9
$PLINEWID
 40
0.0
  9
$SPLFRAME
 70
     0
  9
$SPLINETYPE
 70
     6
  9
$SPLINESEGS
 70
     8
  9
$HANDSEED
  5
19079
  9
$SURFTAB1
 70
     6
  9
$SURFTAB2
 70
     6
  9
$SURFTYPE
 70
     6
  9
$SURFU
 70
     6
  9
$SURFV
 70
     6
  9
$UCSBASE
  2

  9
$UCSNAME
  2

  9
$UCSORG
 10
0.0
 20
0.0
 30
0.0
  9
$UCSXDIR
 10
1.0
 20
0.0
 30
0.0
  9
$UCSYDIR
 10
0.0
 20
1.0
 30
0.0
  9
$UCSORTHOREF
  2

  9
$UCSORTHOVIEW
 70
     0
  9
$UCSORGTOP
 10
0.0
 20
0.0
 30
0.0
  9
$UCSORGBOTTOM
 10
0.0
 20
0.0
 30
0.0
  9
$UCSORGLEFT
 10
0.0
 20
0.0
 30
0.0
  9
$UCSORGRIGHT
 10
0.0
 20
0.0
 30
0.0
  9
$UCSORGFRONT
 10
0.0
 20
0.0
 30
0.0
  9
$UCSORGBACK
 10
0.0
 20
0.0
 30
0.0
  9
$PUCSBASE
  2

  9
$PUCSNAME
  2

  9
$PUCSORG
 10
0.0
 20
0.0
 30
0.0
  9
$PUCSXDIR
 10
1.0
 20
0.0
 30
0.0
  9
$PUCSYDIR
 10
0.0
 20
1.0
 30
0.0
  9
$PUCSORTHOREF
  2

  9
$PUCSORTHOVIEW
 70
     0
  9
$PUCSORGTOP
 10
0.0
 20
0.0
 30
0.0
  9
$PUCSORGBOTTOM
 10
0.0
 20
0.0
 30
0.0
  9
$PUCSORGLEFT
 10
0.0
 20
0.0
 30
0.0
  9
$PUCSORGRIGHT
 10
0.0
 20
0.0
 30
0.0
  9
$PUCSORGFRONT
 10
0.0
 20
0.0
 30
0.0
  9
$PUCSORGBACK
 10
0.0
 20
0.0
 30
0.0
  9
$USERI1
 70
     0
  9
$USERI2
 70
     0
  9
$USERI3
 70
     0
  9
$USERI4
 70
     0
  9
$USERI5
 70
     0
  9
$USERR1
 40
0.0
  9
$USERR2
 40
0.0
  9
$USERR3
 40
0.0
  9
$USERR4
 40
0.0
  9
$USERR5
 40
0.0
  9
$WORLDVIEW
 70
     1
  9
$SHADEDGE
 70
     3
  9
$SHADEDIF
 70
    70
  9
$TILEMODE
 70
     0
  9
$MAXACTVP
 70
    16
  9
$PINSBASE
 10
0.0
 20
0.0
 30
0.0
  9
$PLIMCHECK
 70
     0
  9
$PEXTMIN
 10
1.07500002421732
 20
0.8249999641433474
 30
0.0
  9
$PEXTMAX
 10
9.675000217955883
 20
7.817611356893448
 30
0.0
  9
$PLIMMIN
 10
-0.1249995194082185
 20
-0.1249999981226884
  9
$PLIMMAX
 10
10.87500024029589
 20
8.37499976158142
  9
$UNITMODE
 70
     0
  9
$VISRETAIN
 70
     0
  9
$PLINEGEN
 70
     1
  9
$PSLTSCALE
 70
     1
  9
$TREEDEPTH
 70
  3020
  9
$CMLSTYLE
  2
STANDARD
  9
$CMLJUST
 70
     0
  9
$CMLSCALE
 40
1.0
  9
$PROXYGRAPHICS
 70
     1
  9
$MEASUREMENT
 70
     0
  9
$CELWEIGHT
370
    -1
  9
$ENDCAPS
280
     0
  9
$JOINSTYLE
280
     0
  9
$LWDISPLAY
290
     0
  9
$INSUNITS
 70
     0
  9
$HYPERLINKBASE
  1

  9
$STYLESHEET
  1
monochrome.ctb
  9
$XEDIT
290
     1
  9
$CEPSNTYPE
380
     0
  9
$PSTYLEMODE
290
     1
  9
$FINGERPRINTGUID
  2
{A3D86BFA-E8AC-46DA-9D69-DFFDD105C793}
  9
$VERSIONGUID
  2
{AAE9415C-A6B2-4609-994E-A172D193C0A0}
  9
$EXTNAMES
290
     1
  9
$PSVPSCALE
 40
0.0
  9
$OLESTARTUP
290
     0
  0
ENDSEC
  0
SECTION
  2
CLASSES
  0
CLASS
  1
IMAGE
  2
AcDbRasterImage
  3
ISM
 90
    34943
280
     0
281
     1
  0
CLASS
  1
DICTIONARYVAR
  2
AcDbDictionaryVar
  3
ObjectDBX Classes
 90
        0
280
     0
281
     0
  0
CLASS
  1
RASTERVARIABLES
  2
AcDbRasterVariables
  3
ISM
 90
    32768
280
     0
281
     0
  0
CLASS
  1
IMAGEDEF
  2
AcDbRasterImageDef
  3
ISM
 90
    32768
280
     0
281
     0
  0
CLASS
  1
IMAGEDEF_REACTOR
  2
AcDbRasterImageDefReactor
  3
ISM
 90
    32769
280
     0
281
     0
  0
CLASS
  1
IDBUFFER
  2
AcDbIdBuffer
  3
ObjectDBX Classes
 90
    32768
280
     0
281
     0
  0
CLASS
  1
SPATIAL_FILTER
  2
AcDbSpatialFilter
  3
ObjectDBX Classes
 90
    32768
280
     0
281
     0
  0
CLASS
  1
SORTENTSTABLE
  2
AcDbSortentsTable
  3
ObjectDBX Classes
 90
        0
280
     0
281
     0
  0
CLASS
  1
LAYER_INDEX
  2
AcDbLayerIndex
  3
ObjectDBX Classes
 90
    32768
280
     0
281
     0
  0
CLASS
  1
SPATIAL_INDEX
  2
AcDbSpatialIndex
  3
ObjectDBX Classes
 90
    32768
280
     0
281
     0
  0
CLASS
  1
OBJECT_PTR
  2
CAseDLPNTableRecord
  3
ASE-LPNTableRecord
 90
    32769
280
     0
281
     0
  0
CLASS
  1
LAYOUT
  2
AcDbLayout
  3
ObjectDBX Classes
 90
        0
280
     0
281
     0
  0
CLASS
  1
PLOTSETTINGS
  2
AcDbPlotSettings
  3
ObjectDBX Classes
 90
    32768
280
     0
281
     0
  0
CLASS
  1
ACDBDICTIONARYWDFLT
  2
AcDbDictionaryWithDefault
  3
ObjectDBX Classes
 90
        0
280
     0
281
     0
  0
CLASS
  1
ACDBPLACEHOLDER
  2
AcDbPlaceHolder
  3
ObjectDBX Classes
 90
        0
280
     0
281
     0
  0
CLASS
  1
VBA_PROJECT
  2
AcDbVbaProject
  3
acad
 90
    32768
280
     0
281
     0
  0
CLASS
  1
WIPEOUT
  2
AcDbWipeout
  3
"WipeOut|Product Desc: Object Enabler for WipeOut entity                        |Company: Autodesk, Inc.                        |WEB Address: www.autodesk.com"
 90
    34943
280
     0
281
     1
  0
CLASS
  1
WIPEOUTVARIABLES
  2
AcDbWipeoutVariables
  3
"WipeOut|Product Desc:     WipeOut Dbx Application|Company:          Autodesk, Inc.|WEB Address:      www.autodesk.com"
 90
    32768
280
     0
281
     0
  0
CLASS
  1
RTEXT
  2
RText
  3
RText|AutoCAD Express Tool|expresstools@autodesk.com
 90
    33791
280
     0
281
     1
  0
CLASS
  1
ARCALIGNEDTEXT
  2
AcDbArcAlignedText
  3
ATEXT|AutoCAD Express Tool|expresstools@autodesk.com
 90
    32768
280
     0
281
     1
  0
CLASS
  1
TABLESTYLE
  2
AcDbTableStyle
  3
ObjectDBX Classes
 90
     4095
280
     0
281
     0
  0
CLASS
  1
MATERIAL
  2
AcDbMaterial
  3
ObjectDBX Classes
 90
     1024
280
     0
281
     0
  0
CLASS
  1
VISUALSTYLE
  2
AcDbVisualStyle
  3
ObjectDBX Classes
 90
     4095
280
     0
281
     0
  0
ENDSEC
  0
SECTION
  2
TABLES
  0
TABLE
  2
VPORT
  5
7
102
{ACAD_XDICTIONARY
360
18FC7
102
}
330
0
100
AcDbSymbolTable
 70
     1
  0
VPORT
  5
18126
330
7
100
AcDbSymbolTableRecord
100
AcDbViewportTableRecord
  2
*Active
 70
     0
 10
0.0
 20
0.0
 11
1.0
 21
1.0
 12
44.66977058819561
 22
50.40461378446288
 13
0.0
 23
0.0
 14
1.0
 24
1.0
 15
0.0
 25
0.0
 16
0.0
 26
0.0
 36
1.0
 17
0.0
 27
0.0
 37
0.0
 40
77.78832393213201
 41
1.646976090014064
 42
50.0
 43
0.0
 44
0.0
 50
0.0
 51
0.0
 71
     0
 72
  2000
 73
     1
 74
     1
 75
     0
 76
     0
 77
     0
 78
     0
281
     0
 65
     1
110
0.0
120
0.0
130
0.0
111
1.0
121
0.0
131
0.0
112
0.0
122
1.0
132
0.0
 79
     0
146
0.0
  0
ENDTAB
  0
TABLE
  2
LTYPE
  5
4
330
0
100
AcDbSymbolTable
 70
     1
  0
LTYPE
  5
11
330
4
100
AcDbSymbolTableRecord
100
AcDbLinetypeTableRecord
  2
BYBLOCK
 70
     0
  3

 72
    65
 73
     0
 40
0.0
  0
LTYPE
  5
12
330
4
100
AcDbSymbolTableRecord
100
AcDbLinetypeTableRecord
  2
BYLAYER
 70
     0
  3

 72
    65
 73
     0
 40
0.0
  0
LTYPE
  5
13
330
4
100
AcDbSymbolTableRecord
100
AcDbLinetypeTableRecord
  2
CONTINUOUS
 70
     0
  3
Solid line
 72
    65
 73
     0
 40
0.0
  0
ENDTAB
  0
TABLE
  2
LAYER
  5
2
102
{ACAD_XDICTIONARY
360
11555
102
}
330
0
100
AcDbSymbolTable
 70
     3
  0
LAYER
  5
14
330
2
100
AcDbSymbolTableRecord
100
AcDbLayerTableRecord
  2
0
 70
     0
 62
     7
  6
CONTINUOUS
370
    -3
390
101E
  0
LAYER
  5
26
330
2
100
AcDbSymbolTableRecord
100
AcDbLayerTableRecord
  2
DEFPOINTS
 70
     0
 62
     7
  6
CONTINUOUS
290
     0
370
    -3
390
101E
  0
LAYER
  5
165D0
330
2
100
AcDbSymbolTableRecord
100
AcDbLayerTableRecord
  2
Dim
 70
     0
 62
     6
  6
CONTINUOUS
370
    -3
390
101E
1001
AcAecLayerStandard
1000

1000

  0
ENDTAB
  0
TABLE
  2
STYLE
  5
3
330
0
100
AcDbSymbolTable
 70
     2
  0
STYLE
  5
17
330
3
100
AcDbSymbolTableRecord
100
AcDbTextStyleTableRecord
  2
STANDARD
 70
     0
 40
0.0
 41
1.0
 50
0.0
 71
     0
 42
7.227576520067259
  3
simplex.shx
  4

  0
STYLE
  5
5032
330
3
100
AcDbSymbolTableRecord
100
AcDbTextStyleTableRecord
  2
SLDTEXTSTYLE0
 70
     0
 40
0.0
 41
0.75
 50
0.0
 71
     0
 42
0.0
  3
simplex.shx
  4

  0
ENDTAB
  0
TABLE
  2
VIEW
  5
5
330
0
100
AcDbSymbolTable
 70
     3
  0
ENDTAB
  0
TABLE
  2
UCS
  5
6
330
0
100
AcDbSymbolTable
 70
     0
  0
ENDTAB
  0
TABLE
  2
APPID
  5
8
330
0
100
AcDbSymbolTable
 70
    13
  0
APPID
  5
16
330
8
100
AcDbSymbolTableRecord
100
AcDbRegAppTableRecord
  2
ACAD
 70
     0
  0
APPID
  5
1027
330
8
100
AcDbSymbolTableRecord
100
AcDbRegAppTableRecord
  2
DCO15
 70
     0
  0
APPID
  5
1157F
330
8
100
AcDbSymbolTableRecord
100
AcDbRegAppTableRecord
  2
ACAD_DSTYLE_DIMTEXT_FILL
 70
     0
  0
APPID
  5
11580
330
8
100
AcDbSymbolTableRecord
100
AcDbRegAppTableRecord
  2
ACAD_DSTYLE_DIMEXT_LENGTH
 70
     0
  0
APPID
  5
11581
330
8
100
AcDbSymbolTableRecord
100
AcDbRegAppTableRecord
  2
ACAD_DSTYLE_DIMEXT_ENABLED
 70
     0
  0
APPID
  5
11582
330
8
100
AcDbSymbolTableRecord
100
AcDbRegAppTableRecord
  2
ACAD_DSTYLE_DIM_LINETYPE
 70
     0
  0
APPID
  5
11583
330
8
100
AcDbSymbolTableRecord
100
AcDbRegAppTableRecord
  2
ACAD_DSTYLE_DIM_EXT1_LINETYPE
 70
     0
  0
APPID
  5
11584
330
8
100
AcDbSymbolTableRecord
100
AcDbRegAppTableRecord
  2
ACAD_DSTYLE_DIM_EXT2_LINETYPE
 70
     0
  0
APPID
  5
11640
330
8
100
AcDbSymbolTableRecord
100
AcDbRegAppTableRecord
  2
ACAD_DSTYLE_DIMJOGGED_JOGANGLE_SYMBOL
 70
     0
  0
APPID
  5
116A4
330
8
100
AcDbSymbolTableRecord
100
AcDbRegAppTableRecord
  2
ACAD_DSTYLE_DIMARC_LENGTH_SYMBOL
 70
     0
  0
APPID
  5
142B5
330
8
100
AcDbSymbolTableRecord
100
AcDbRegAppTableRecord
  2
ACAD_EXEMPT_FROM_CAD_STANDARDS
 70
     0
  0
APPID
  5
14449
330
8
100
AcDbSymbolTableRecord
100
AcDbRegAppTableRecord
  2
ACAD_PSEXT
 70
     0
  0
APPID
  5
165DE
330
8
100
AcDbSymbolTableRecord
100
AcDbRegAppTableRecord
  2
AcAecLayerStandard
 70
     0
  0
ENDTAB
  0
TABLE
  2
DIMSTYLE
  5
9
330
0
100
AcDbSymbolTable
 70
     2
100
AcDbDimStyleTable
 71
     2
340
2FE
340
18
  0
DIMSTYLE
105
18
330
9
100
AcDbSymbolTableRecord
100
AcDbDimStyleTableRecord
  2
STANDARD
 70
     0
289
     0
340
17
  0
DIMSTYLE
105
2FE
330
9
100
AcDbSymbolTableRecord
100
AcDbDimStyleTableRecord
  2
SLDDIMSTYLE0
 70
     0
  3
\X
  4
mm
 41
1.0
 42
0.5
 44
0.125
 78
    12
140
1.0
147
0.5
170
     1
171
     0
176
     7
177
     7
178
     7
271
     0
272
     0
274
     0
284
    12
288
     1
289
     2
340
17
1001
ACAD_DSTYLE_DIMJOGGED_JOGANGLE_SYMBOL
1070
   384
1040
0.7853981633974483
1001
ACAD_DSTYLE_DIMEXT_LENGTH
1070
   378
1040
0.125
  0
ENDTAB
  0
TABLE
  2
BLOCK_RECORD
  5
1
330
0
100
AcDbSymbolTable
 70
    18
  0
BLOCK_RECORD
  5
A
102
{ACAD_XDICTIONARY
360
181D6
102
}
330
1
100
AcDbSymbolTableRecord
100
AcDbBlockTableRecord
  2
*MODEL_SPACE
340
1021
  0
BLOCK_RECORD
  5
18FAE
330
1
100
AcDbSymbolTableRecord
100
AcDbBlockTableRecord
  2
*Paper_Space
340
18FAF
  0
BLOCK_RECORD
  5
AE
330
1
100
AcDbSymbolTableRecord
100
AcDbBlockTableRecord
  2
NOTE34
340
0
102
{BLKREFS
331
B1
331
1881C
102
}
  0
BLOCK_RECORD
  5
B2
330
1
100
AcDbSymbolTableRecord
100
AcDbBlockTableRecord
  2
NOTE35
340
0
102
{BLKREFS
331
B5
331
1881D
102
}
  0
BLOCK_RECORD
  5
B6
330
1
100
AcDbSymbolTableRecord
100
AcDbBlockTableRecord
  2
NOTE36
340
0
102
{BLKREFS
331
B9
331
1881E
102
}
  0
BLOCK_RECORD
  5
BA
330
1
100
AcDbSymbolTableRecord
100
AcDbBlockTableRecord
  2
NOTE37
340
0
102
{BLKREFS
331
BD
331
1881F
102
}
  0
BLOCK_RECORD
  5
BE
330
1
100
AcDbSymbolTableRecord
100
AcDbBlockTableRecord
  2
NOTE38
340
0
102
{BLKREFS
331
C1
331
18820
102
}
  0
BLOCK_RECORD
  5
C2
330
1
100
AcDbSymbolTableRecord
100
AcDbBlockTableRecord
  2
NOTE39
340
0
102
{BLKREFS
331
C5
331
18821
102
}
  0
BLOCK_RECORD
  5
C6
330
1
100
AcDbSymbolTableRecord
100
AcDbBlockTableRecord
  2
NOTE40
340
0
102
{BLKREFS
331
C9
331
18822
331
18F67
102
}
  0
BLOCK_RECORD
  5
D2
330
1
100
AcDbSymbolTableRecord
100
AcDbBlockTableRecord
  2
NOTE49
340
0
102
{BLKREFS
331
D5
331
18823
102
}
  0
BLOCK_RECORD
  5
DE
330
1
100
AcDbSymbolTableRecord
100
AcDbBlockTableRecord
  2
NOTE58
340
0
102
{BLKREFS
331
E1
331
18824
102
}
  0
BLOCK_RECORD
  5
E2
330
1
100
AcDbSymbolTableRecord
100
AcDbBlockTableRecord
  2
NOTE59
340
0
102
{BLKREFS
331
E5
331
18825
102
}
  0
BLOCK_RECORD
  5
18E5C
330
1
100
AcDbSymbolTableRecord
100
AcDbBlockTableRecord
  2
NOTE41
340
0
102
{BLKREFS
331
18F68
102
}
  0
BLOCK_RECORD
  5
18E5F
330
1
100
AcDbSymbolTableRecord
100
AcDbBlockTableRecord
  2
NOTE42
340
0
102
{BLKREFS
331
18F69
102
}
  0
BLOCK_RECORD
  5
18E62
330
1
100
AcDbSymbolTableRecord
100
AcDbBlockTableRecord
  2
NOTE43
340
0
102
{BLKREFS
331
18F6A
102
}
  0
BLOCK_RECORD
  5
18E65
330
1
100
AcDbSymbolTableRecord
100
AcDbBlockTableRecord
  2
NOTE44
340
0
102
{BLKREFS
331
18F6B
102
}
  0
BLOCK_RECORD
  5
18E68
330
1
100
AcDbSymbolTableRecord
100
AcDbBlockTableRecord
  2
NOTE45
340
0
102
{BLKREFS
331
18F6C
102
}
  0
BLOCK_RECORD
  5
18E6B
330
1
100
AcDbSymbolTableRecord
100
AcDbBlockTableRecord
  2
NOTE65
340
0
102
{BLKREFS
331
18F6D
102
}
  0
BLOCK_RECORD
  5
18E6E
330
1
100
AcDbSymbolTableRecord
100
AcDbBlockTableRecord
  2
NOTE66
340
0
102
{BLKREFS
331
18F6E
102
}
  0
BLOCK_RECORD
  5
18E71
330
1
100
AcDbSymbolTableRecord
100
AcDbBlockTableRecord
  2
NOTE74
340
0
102
{BLKREFS
331
18F6F
102
}
  0
ENDTAB
  0
ENDSEC
  0
SECTION
  2
BLOCKS
  0
BLOCK
  5
D
330
A
100
AcDbEntity
  8
0
100
AcDbBlockBegin
  2
*MODEL_SPACE
 70
     0
 10
0.0
 20
0.0
 30
0.0
  3
*MODEL_SPACE
  1

  0
ENDBLK
  5
E
330
A
100
AcDbEntity
  8
0
100
AcDbBlockEnd
  0
BLOCK
  5
18FB0
330
18FAE
100
AcDbEntity
 67
     1
  8
0
100
AcDbBlockBegin
  2
*Paper_Space
 70
     0
 10
0.0
 20
0.0
 30
0.0
  3
*Paper_Space
  1

  0
ENDBLK
  5
18FB1
330
18FAE
100
AcDbEntity
 67
     1
  8
0
100
AcDbBlockEnd
  0
BLOCK
  5
AF
330
AE
100
AcDbEntity
  8
0
 62
     0
100
AcDbBlockBegin
  2
NOTE34
 70
     0
 10
0.0
 20
0.0
 30
0.0
  3
NOTE34
  1

  0
ENDBLK
  5
B0
330
AE
100
AcDbEntity
  8
0
100
AcDbBlockEnd
  0
BLOCK
  5
B3
330
B2
100
AcDbEntity
  8
0
 62
     0
100
AcDbBlockBegin
  2
NOTE35
 70
     0
 10
0.0
 20
0.0
 30
0.0
  3
NOTE35
  1

  0
ENDBLK
  5
B4
330
B2
100
AcDbEntity
  8
0
100
AcDbBlockEnd
  0
BLOCK
  5
B7
330
B6
100
AcDbEntity
  8
0
 62
     0
100
AcDbBlockBegin
  2
NOTE36
 70
     0
 10
0.0
 20
0.0
 30
0.0
  3
NOTE36
  1

  0
ENDBLK
  5
B8
330
B6
100
AcDbEntity
  8
0
100
AcDbBlockEnd
  0
BLOCK
  5
BB
330
BA
100
AcDbEntity
  8
0
 62
     0
100
AcDbBlockBegin
  2
NOTE37
 70
     0
 10
0.0
 20
0.0
 30
0.0
  3
NOTE37
  1

  0
ENDBLK
  5
BC
330
BA
100
AcDbEntity
  8
0
100
AcDbBlockEnd
  0
BLOCK
  5
BF
330
BE
100
AcDbEntity
  8
0
 62
     0
100
AcDbBlockBegin
  2
NOTE38
 70
     0
 10
0.0
 20
0.0
 30
0.0
  3
NOTE38
  1

  0
ENDBLK
  5
C0
330
BE
100
AcDbEntity
  8
0
100
AcDbBlockEnd
  0
BLOCK
  5
C3
330
C2
100
AcDbEntity
  8
0
 62
     0
100
AcDbBlockBegin
  2
NOTE39
 70
     0
 10
0.0
 20
0.0
 30
0.0
  3
NOTE39
  1

  0
ENDBLK
  5
C4
330
C2
100
AcDbEntity
  8
0
100
AcDbBlockEnd
  0
BLOCK
  5
C7
330
C6
100
AcDbEntity
  8
0
 62
     0
100
AcDbBlockBegin
  2
NOTE40
 70
     0
 10
0.0
 20
0.0
 30
0.0
  3
NOTE40
  1

  0
ENDBLK
  5
C8
330
C6
100
AcDbEntity
  8
0
100
AcDbBlockEnd
  0
BLOCK
  5
D3
330
D2
100
AcDbEntity
  8
0
 62
     0
100
AcDbBlockBegin
  2
NOTE49
 70
     0
 10
0.0
 20
0.0
 30
0.0
  3
NOTE49
  1

  0
ENDBLK
  5
D4
330
D2
100
AcDbEntity
  8
0
100
AcDbBlockEnd
  0
BLOCK
  5
DF
330
DE
100
AcDbEntity
  8
0
 62
     0
100
AcDbBlockBegin
  2
NOTE58
 70
     0
 10
0.0
 20
0.0
 30
0.0
  3
NOTE58
  1

  0
ENDBLK
  5
E0
330
DE
100
AcDbEntity
  8
0
100
AcDbBlockEnd
  0
BLOCK
  5
E3
330
E2
100
AcDbEntity
  8
0
 62
     0
100
AcDbBlockBegin
  2
NOTE59
 70
     0
 10
0.0
 20
0.0
 30
0.0
  3
NOTE59
  1

  0
ENDBLK
  5
E4
330
E2
100
AcDbEntity
  8
0
100
AcDbBlockEnd
  0
BLOCK
  5
18E5D
330
18E5C
100
AcDbEntity
  8
0
 62
     0
100
AcDbBlockBegin
  2
NOTE41
 70
     0
 10
0.0
 20
0.0
 30
0.0
  3
NOTE41
  1

  0
ENDBLK
  5
18E5E
330
18E5C
100
AcDbEntity
  8
0
100
AcDbBlockEnd
  0
BLOCK
  5
18E60
330
18E5F
100
AcDbEntity
  8
0
 62
     0
100
AcDbBlockBegin
  2
NOTE42
 70
     0
 10
0.0
 20
0.0
 30
0.0
  3
NOTE42
  1

  0
ENDBLK
  5
18E61
330
18E5F
100
AcDbEntity
  8
0
100
AcDbBlockEnd
  0
BLOCK
  5
18E63
330
18E62
100
AcDbEntity
  8
0
 62
     0
100
AcDbBlockBegin
  2
NOTE43
 70
     0
 10
0.0
 20
0.0
 30
0.0
  3
NOTE43
  1

  0
ENDBLK
  5
18E64
330
18E62
100
AcDbEntity
  8
0
100
AcDbBlockEnd
  0
BLOCK
  5
18E66
330
18E65
100
AcDbEntity
  8
0
 62
     0
100
AcDbBlockBegin
  2
NOTE44
 70
     0
 10
0.0
 20
0.0
 30
0.0
  3
NOTE44
  1

  0
ENDBLK
  5
18E67
330
18E65
100
AcDbEntity
  8
0
100
AcDbBlockEnd
  0
BLOCK
  5
18E69
330
18E68
100
AcDbEntity
  8
0
 62
     0
100
AcDbBlockBegin
  2
NOTE45
 70
     0
 10
0.0
 20
0.0
 30
0.0
  3
NOTE45
  1

  0
ENDBLK
  5
18E6A
330
18E68
100
AcDbEntity
  8
0
100
AcDbBlockEnd
  0
BLOCK
  5
18E6C
330
18E6B
100
AcDbEntity
  8
0
 62
     0
100
AcDbBlockBegin
  2
NOTE65
 70
     0
 10
0.0
 20
0.0
 30
0.0
  3
NOTE65
  1

  0
ENDBLK
  5
18E6D
330
18E6B
100
AcDbEntity
  8
0
100
AcDbBlockEnd
  0
BLOCK
  5
18E6F
330
18E6E
100
AcDbEntity
  8
0
 62
     0
100
AcDbBlockBegin
  2
NOTE66
 70
     0
 10
0.0
 20
0.0
 30
0.0
  3
NOTE66
  1

  0
ENDBLK
  5
18E70
330
18E6E
100
AcDbEntity
  8
0
100
AcDbBlockEnd
  0
BLOCK
  5
18E72
330
18E71
100
AcDbEntity
  8
0
 62
     0
100
AcDbBlockBegin
  2
NOTE74
 70
     0
 10
0.0
 20
0.0
 30
0.0
  3
NOTE74
  1

  0
ENDBLK
  5
18E73
330
18E71
100
AcDbEntity
  8
0
100
AcDbBlockEnd
  0
ENDSEC
  0
SECTION
  2
ENTITIES
  0
INSERT
  5
B1
330
A
100
AcDbEntity
  8
0
100
AcDbBlockReference
  2
NOTE34
 10
0.0
 20
0.0
 30
0.0
  0
INSERT
  5
B5
330
A
100
AcDbEntity
  8
0
100
AcDbBlockReference
  2
NOTE35
 10
0.0
 20
0.0
 30
0.0
  0
INSERT
  5
B9
330
A
100
AcDbEntity
  8
0
100
AcDbBlockReference
  2
NOTE36
 10
0.0
 20
0.0
 30
0.0
  0
INSERT
  5
BD
330
A
100
AcDbEntity
  8
0
100
AcDbBlockReference
  2
NOTE37
 10
0.0
 20
0.0
 30
0.0
  0
INSERT
  5
C1
330
A
100
AcDbEntity
  8
0
100
AcDbBlockReference
  2
NOTE38
 10
0.0
 20
0.0
 30
0.0
  0
INSERT
  5
C5
330
A
100
AcDbEntity
  8
0
100
AcDbBlockReference
  2
NOTE39
 10
0.0
 20
0.0
 30
0.0
  0
INSERT
  5
C9
330
A
100
AcDbEntity
  8
0
100
AcDbBlockReference
  2
NOTE40
 10
0.0
 20
0.0
 30
0.0
  0
INSERT
  5
D5
330
A
100
AcDbEntity
  8
0
100
AcDbBlockReference
  2
NOTE49
 10
0.0
 20
0.0
 30
0.0
  0
INSERT
  5
E1
330
A
100
AcDbEntity
  8
0
100
AcDbBlockReference
  2
NOTE58
 10
0.0
 20
0.0
 30
0.0
  0
INSERT
  5
E5
330
A
100
AcDbEntity
  8
0
100
AcDbBlockReference
  2
NOTE59
 10
0.0
 20
0.0
 30
0.0
  0
LINE
  5
EED4
330
A
100
AcDbEntity
  8
0
  6
Continuous
 62
     7
100
AcDbLine
 10
69.32449151521814
 20
14.11828196253924
 30
0.0
 11
62.29755075072171
 21
14.11828196253924
 31
0.0
  0
LINE
  5
EED5
330
A
100
AcDbEntity
  8
0
  6
Continuous
 62
     7
100
AcDbLine
 10
78.78600833808104
 20
14.57044800972613
 30
0.0
 11
52.83603392785881
 21
14.57044800972613
 31
0.0
  0
LINE
  5
EED6
330
A
100
AcDbEntity
  8
0
  6
Continuous
 62
     7
100
AcDbLine
 10
52.83603392785881
 20
16.04596578765978
 30
0.0
 11
78.78600833808104
 21
16.04596578765978
 31
0.0
  0
LINE
  5
EED7
330
A
100
AcDbEntity
  8
0
  6
Continuous
 62
     7
100
AcDbLine
 10
81.31102113296993
 20
11.8361550861533
 30
0.0
 11
77.81102113296992
 21
11.8361550861533
 31
0.0
  0
LINE
  5
EEE1
330
A
100
AcDbEntity
  8
0
  6
Continuous
 62
     7
100
AcDbLine
 10
47.12651524977127
 20
35.64830334975006
 30
0.0
 11
84.49552701616836
 21
35.64830334975006
 31
0.0
  0
LINE
  5
EEE2
330
A
100
AcDbEntity
  8
0
  6
Continuous
 62
     7
100
AcDbLine
 10
47.12651524977127
 20
35.34128721598865
 30
0.0
 11
84.49552701616836
 21
35.34128721598865
 31
0.0
  0
LINE
  5
EEE3
330
A
100
AcDbEntity
  8
0
  6
Continuous
 62
     7
100
AcDbLine
 10
84.49552701616836
 20
32.33554959697818
 30
0.0
 11
47.12651524977127
 21
32.33554959697818
 31
0.0
  0
LINE
  5
EEE4
330
A
100
AcDbEntity
  8
0
  6
Continuous
 62
     7
100
AcDbLine
 10
47.12651524977127
 20
32.42292483134753
 30
0.0
 11
84.49552701616836
 21
32.42292483134753
 31
0.0
  0
ARC
  5
F008
330
A
100
AcDbEntity
  8
0
  6
Continuous
 62
     7
100
AcDbCircle
 10
41.50059919278691
 20
16.15283137695911
 30
0.0
 40
1.58238336723307
100
AcDbArc
 50
199.2435150577664
 51
270.000001672464
  0
LINE
  5
F009
330
A
100
AcDbEntity
  8
0
  6
Continuous
 62
     7
100
AcDbLine
 10
52.74844706734075
 20
14.11828196253924
 30
0.0
 11
44.70656209914136
 21
14.11828196253924
 31
0.0
  0
LINE
  5
F00A
330
A
100
AcDbEntity
  8
0
  6
Continuous
 62
     7
100
AcDbLine
 10
53.75325987465408
 20
11.8361550861533
 30
0.0
 11
50.23641284097857
 21
11.8361550861533
 31
0.0
  0
LINE
  5
F00B
330
A
100
AcDbEntity
  8
0
  6
Continuous
 62
     7
100
AcDbLine
 10
52.83603392785881
 20
14.57044800972613
 30
0.0
 11
41.50059923897652
 21
14.57044800972613
 31
0.0
  0
LINE
  5
F00C
330
A
100
AcDbEntity
  8
0
  6
Continuous
 62
     7
100
AcDbLine
 10
43.70512531237591
 20
14.57044800972613
 30
0.0
 11
44.70656209914136
 21
14.11828196253924
 31
0.0
  0
LINE
  5
F010
330
A
100
AcDbEntity
  8
0
  6
Continuous
 62
     7
100
AcDbLine
 10
62.29755075072171
 20
14.11828196253924
 30
0.0
 11
63.29898753748739
 21
14.57044800972613
 31
0.0
  0
LINE
  5
F011
330
A
100
AcDbEntity
  8
0
  6
Continuous
 62
     7
100
AcDbLine
 10
52.74844706734075
 20
14.11828196253924
 30
0.0
 11
52.74844716836105
 21
14.57044800972613
 31
0.0
  0
LINE
  5
F013
330
A
100
AcDbEntity
  8
0
  6
Continuous
 62
     7
100
AcDbLine
 10
62.29755075072171
 20
14.11828196253924
 30
0.0
 11
52.74844706734075
 21
14.11828196253924
 31
0.0
  0
LWPOLYLINE
  5
F014
330
A
100
AcDbEntity
  8
0
  6
Continuous
 62
     7
100
AcDbPolyline
 90
       32
 70
   128
 43
0.0
 10
40.00778191786412
 20
15.63168604573467
 10
40.00749001900112
 20
15.63167744406423
 10
40.02862347345671
 20
15.63229316901398
 10
40.08967221043849
 20
15.63408099658943
 10
40.19045222758086
 20
15.63703841971139
 10
40.33077952251915
 20
15.64116293130103
 10
40.51034018522478
 20
15.64645239917758
 10
40.72920158391752
 20
15.65292483304791
 10
40.98612919665311
 20
15.66056021817646
 10
41.27988850148699
 20
15.66933853982745
 10
41.60924497647488
 20
15.67923978326502
 10
41.97296409967202
 20
15.69024393375363
 10
42.37018668118458
 20
15.70234617308521
 10
42.80161192222567
 20
15.71558894563463
 10
43.26506630542849
 20
15.72992367686022
 10
43.75837631342711
 20
15.74530179222004
 10
44.27936842885515
 20
15.76167471717264
 10
44.82586913434602
 20
15.7789938771762
 10
45.39802348049784
 20
15.79728504943791
 10
45.99568478886704
 20
15.81655345135049
 10
46.61591888633665
 20
15.83670938670388
 10
47.25579159978997
 20
15.85766315928739
 10
47.91236875611048
 20
15.87932507289079
 10
48.58271618218077
 20
15.90160543130371
 10
49.26852916746793
 20
15.92456468409048
 10
49.968110064033
 20
15.94813497866433
 10
50.67805481150685
 20
15.97218827158846
 10
51.39495934952083
 20
15.99659651942637
 10
52.11541961770535
 20
16.02123167874117
 10
52.83603155569199
 20
16.04596570609625
 10
52.83603392785881
 20
16.04596578765975
 10
52.83603392785881
 20
16.04596578765975
  0
LINE
  5
F015
330
A
100
AcDbEntity
  8
0
  6
Continuous
 62
     7
100
AcDbLine
 10
47.12651524977127
 20
35.64830334975006
 30
0.0
 11
30.77502209918154
 21
35.64830334975006
 31
0.0
  0
LINE
  5
F016
330
A
100
AcDbEntity
  8
0
  6
Continuous
 62
     7
100
AcDbLine
 10
47.12651524977127
 20
35.34128721598865
 30
0.0
 11
30.44003939274259
 21
35.34128721598865
 31
0.0
  0
LINE
  5
F017
330
A
100
AcDbEntity
  8
0
  6
Continuous
 62
     7
100
AcDbLine
 10
30.12362849531382
 20
32.42292483134742
 30
0.0
 11
47.12651524977127
 21
32.42292483134753
 31
0.0
  0
LINE
  5
F018
330
A
100
AcDbEntity
  8
0
  6
Continuous
 62
     7
100
AcDbLine
 10
47.12651524977127
 20
32.33554959697818
 30
0.0
 11
30.2037090670178
 21
32.33554959697807
 31
0.0
  0
LINE
  5
F019
330
A
100
AcDbEntity
  8
0
  6
Continuous
 62
     7
100
AcDbLine
 10
34.17979072254775
 20
32.33554959697818
 30
0.0
 11
40.00662939175845
 21
15.63130347350562
 31
0.0
  0
ARC
  5
F01A
330
A
100
AcDbEntity
  8
0
  6
Continuous
 62
     7
100
AcDbCircle
 10
30.2037090670178
 20
32.41593467203353
 30
0.0
 40
0.0803850750554482
100
AcDbArc
 50
175.0113487085687
 51
270.0
  0
ARC
  5
F01C
330
A
100
AcDbEntity
  8
0
  6
Continuous
 62
     7
100
AcDbCircle
 10
30.77502209918154
 20
35.3120468842131
 30
0.0
 40
0.3362564655370369
100
AcDbArc
 50
90.0
 51
175.011348708668
  0
POINT
  5
F01D
330
A
100
AcDbEntity
  8
0
 62
     7
100
AcDbPoint
 10
34.17979072254775
 20
32.33554959697818
 30
0.0
  0
LINE
  5
F01F
330
A
100
AcDbEntity
  8
0
  6
Continuous
 62
     7
100
AcDbLine
 10
47.12651524977127
 20
35.34128721598865
 30
0.0
 11
47.12651524977127
 21
35.64830334975006
 31
0.0
  0
LINE
  5
F020
330
A
100
AcDbEntity
  8
0
  6
Continuous
 62
     7
100
AcDbLine
 10
47.12651524977127
 20
32.42292483134753
 30
0.0
 11
47.12651524977127
 21
32.33554959697818
 31
0.0
  0
ARC
  5
F065
330
A
100
AcDbEntity
  8
0
  6
Continuous
 62
     7
100
AcDbCircle
 10
90.12144307315294
 20
16.15283137695911
 30
0.0
 40
1.58238336723307
100
AcDbArc
 50
269.9999983275489
 51
340.7562475099064
  0
LINE
  5
F067
330
A
100
AcDbEntity
  8
0
  6
Continuous
 62
     7
100
AcDbLine
 10
86.91547980610176
 20
14.11828196253924
 30
0.0
 11
78.87359511824934
 21
14.11828196253924
 31
0.0
  0
LINE
  5
F068
330
A
100
AcDbEntity
  8
0
  6
Continuous
 62
     7
100
AcDbLine
 10
90.12144302696333
 20
14.57044800972613
 30
0.0
 11
78.78600833808104
 21
14.57044800972613
 31
0.0
  0
LINE
  5
F069
330
A
100
AcDbEntity
  8
0
  6
Continuous
 62
     7
100
AcDbLine
 10
78.87359511824934
 20
14.11828196253924
 30
0.0
 11
69.32449151521814
 21
14.11828196253924
 31
0.0
  0
LINE
  5
F06A
330
A
100
AcDbEntity
  8
0
  6
Continuous
 62
     7
100
AcDbLine
 10
67.23917641782737
 20
14.44426679070403
 30
0.0
 11
67.39139817791784
 21
14.50428096209538
 31
0.0
  0
LINE
  5
F06B
330
A
100
AcDbEntity
  8
0
  6
Continuous
 62
     7
100
AcDbLine
 10
67.23917641782737
 20
14.44426679070403
 30
0.0
 11
67.23922440698425
 21
14.44426679070403
 31
0.0
  0
ARC
  5
F06C
330
A
100
AcDbEntity
  8
0
  6
Continuous
 62
     7
100
AcDbCircle
 10
66.8588422555381
 20
15.37429876028039
 30
0.0
 40
1.004813438192986
100
AcDbArc
 50
270.0
 51
292.2445127705395
  0
ARC
  5
F06D
330
A
100
AcDbEntity
  8
0
  6
Continuous
 62
     7
100
AcDbCircle
 10
67.74999683806277
 20
13.56563457153305
 30
0.0
 40
1.004813438193004
100
AcDbArc
 50
90.0
 51
110.908760603429
  0
LINE
  5
F06E
330
A
100
AcDbEntity
  8
0
  6
Continuous
 62
     7
100
AcDbLine
 10
69.32449151521814
 20
14.11828196253924
 30
0.0
 11
68.32305472845246
 21
14.57044800972613
 31
0.0
  0
LINE
  5
F06F
330
A
100
AcDbEntity
  8
0
  6
Continuous
 62
     7
100
AcDbLine
 10
65.81102113296992
 20
14.36948532208754
 30
0.0
 11
64.76320001040176
 21
14.36948532208754
 31
0.0
  0
LINE
  5
F070
330
A
100
AcDbEntity
  8
0
  6
Continuous
 62
     7
100
AcDbLine
 10
64.23064408802179
 20
14.50428096209538
 30
0.0
 11
64.38281785895537
 21
14.44426679070403
 31
0.0
  0
ARC
  5
F071
330
A
100
AcDbEntity
  8
0
  6
Continuous
 62
     7
100
AcDbCircle
 10
63.87204542787708
 20
13.56563457153305
 30
0.0
 40
1.004813438193004
100
AcDbArc
 50
69.09123939657101
 51
90.0
  0
LINE
  5
F072
330
A
100
AcDbEntity
  8
0
  6
Continuous
 62
     7
100
AcDbLine
 10
64.38281785895537
 20
14.44426679070403
 30
0.0
 11
65.81102113296992
 21
14.44426679070403
 31
0.0
  0
LINE
  5
F073
330
A
100
AcDbEntity
  8
0
  6
Continuous
 62
     7
100
AcDbLine
 10
65.81102113296992
 20
14.50428096209538
 30
0.0
 11
64.23064408802179
 21
14.50428096209538
 31
0.0
  0
ARC
  5
F074
330
A
100
AcDbEntity
  8
0
  6
Continuous
 62
     7
100
AcDbCircle
 10
64.76320001040176
 20
15.37429876028039
 30
0.0
 40
1.004813438192986
100
AcDbArc
 50
247.7554872294608
 51
270.0
  0
LINE
  5
F075
330
A
100
AcDbEntity
  8
0
  6
Continuous
 62
     7
100
AcDbLine
 10
67.39139817791784
 20
14.50428096209538
 30
0.0
 11
65.81102113296992
 21
14.50428096209538
 31
0.0
  0
LINE
  5
F076
330
A
100
AcDbEntity
  8
0
  6
Continuous
 62
     7
100
AcDbLine
 10
65.81102113296992
 20
14.44426679070403
 30
0.0
 11
67.23917641782737
 21
14.44426679070403
 31
0.0
  0
LINE
  5
F077
330
A
100
AcDbEntity
  8
0
  6
Continuous
 62
     7
100
AcDbLine
 10
66.8588422555381
 20
14.36948532208754
 30
0.0
 11
65.81102113296992
 21
14.36948532208754
 31
0.0
  0
LINE
  5
F078
330
A
100
AcDbEntity
  8
0
  6
Continuous
 62
     7
100
AcDbLine
 10
81.38562942496127
 20
11.8361550861533
 30
0.0
 11
77.86878239128578
 21
11.8361550861533
 31
0.0
  0
LINE
  5
F079
330
A
100
AcDbEntity
  8
0
  6
Continuous
 62
     7
100
AcDbLine
 10
78.87359511824934
 20
14.11828196253924
 30
0.0
 11
78.8735950975788
 21
14.57044800972613
 31
0.0
  0
LINE
  5
F07D
330
A
100
AcDbEntity
  8
0
  6
Continuous
 62
     7
100
AcDbLine
 10
86.91547980610176
 20
14.11828196253924
 30
0.0
 11
87.91691659286744
 21
14.57044800972613
 31
0.0
  0
LWPOLYLINE
  5
F07E
330
A
100
AcDbEntity
  8
0
  6
Continuous
 62
     7
100
AcDbPolyline
 90
       30
 70
   128
 43
0.0
 10
78.78600833808082
 20
16.04596578765975
 10
78.78601071024764
 20
16.04596570609625
 10
79.46095930739716
 20
16.02279328402823
 10
80.13393237354149
 20
15.99976728954568
 10
80.85105775057241
 20
15.97533805442147
 10
81.56363201471959
 20
15.95118844283549
 10
82.26830803242979
 20
15.92743820961262
 10
82.96173867015069
 20
15.90420710957759
 10
83.64057679432836
 20
15.88161489755548
 10
84.30147527141116
 20
15.85978132837104
 10
84.94590367026763
 20
15.8386634718718
 10
85.5722527426451
 20
15.81830392485013
 10
86.17773022368373
 20
15.79878051720597
 10
86.75954384852389
 20
15.78017107883947
 10
87.31490135230615
 20
15.76255343965065
 10
87.84101047017088
 20
15.74600542953953
 10
88.33806989132018
 20
15.73050509290086
 10
88.80584687863665
 20
15.71603580332827
 10
89.24240950335116
 20
15.70263618014166
 10
89.64582583669495
 20
15.6903448426611
 10
90.01416394989837
 20
15.67920041020672
 10
90.3454919141925
 20
15.66924150209829
 10
90.63921967069019
 20
15.66046375238419
 10
90.89604921400406
 20
15.65282787573278
 10
91.11507814630385
 20
15.64634733367426
 10
91.29540406975911
 20
15.64103558773881
 10
91.43612458653866
 20
15.63690609945637
 10
91.53633729881244
 20
15.63397233035731
 10
91.59558641650347
 20
15.63223632881899
 10
91.61426034807574
 20
15.63168604573467
  0
LINE
  5
F07F
330
A
100
AcDbEntity
  8
0
  6
Continuous
 62
     7
100
AcDbLine
 10
101.1820028731972
 20
35.34128721598865
 30
0.0
 11
84.49552701616836
 21
35.34128721598865
 31
0.0
  0
LINE
  5
F080
330
A
100
AcDbEntity
  8
0
  6
Continuous
 62
     7
100
AcDbLine
 10
84.49552701616836
 20
32.42292483134753
 30
0.0
 11
101.498413770626
 21
32.42292483134742
 31
0.0
  0
LINE
  5
F081
330
A
100
AcDbEntity
  8
0
  6
Continuous
 62
     7
100
AcDbLine
 10
100.8470201667583
 20
35.64830334975006
 30
0.0
 11
84.49552701616836
 21
35.64830334975006
 31
0.0
  0
LINE
  5
F082
330
A
100
AcDbEntity
  8
0
  6
Continuous
 62
     7
100
AcDbLine
 10
101.418333198922
 20
32.33554959697808
 30
0.0
 11
84.49552701616836
 21
32.33554959697818
 31
0.0
  0
LINE
  5
F086
330
A
100
AcDbEntity
  8
0
  6
Continuous
 62
     7
100
AcDbLine
 10
84.49552701616836
 20
35.34128721598865
 30
0.0
 11
84.49552701616836
 21
35.64830334975006
 31
0.0
  0
LINE
  5
F087
330
A
100
AcDbEntity
  8
0
  6
Continuous
 62
     7
100
AcDbLine
 10
84.49552701616836
 20
32.42292483134753
 30
0.0
 11
84.49552701616836
 21
32.33554959697818
 31
0.0
  0
LINE
  5
F08C
330
A
100
AcDbEntity
  8
0
  6
Continuous
 62
     7
100
AcDbLine
 10
91.61541071296937
 20
15.6312972825354
 30
0.0
 11
97.44225154339211
 21
32.33554959697818
 31
0.0
  0
POINT
  5
F092
330
A
100
AcDbEntity
  8
0
 62
     7
100
AcDbPoint
 10
97.44225154339211
 20
32.33554959697807
 30
0.0
  0
ARC
  5
F093
330
A
100
AcDbEntity
  8
0
  6
Continuous
 62
     7
100
AcDbCircle
 10
100.8470201667583
 20
35.3120468842131
 30
0.0
 40
0.3362564655370369
100
AcDbArc
 50
4.98865129132308
 51
90.0
  0
ARC
  5
F094
330
A
100
AcDbEntity
  8
0
  6
Continuous
 62
     7
100
AcDbCircle
 10
101.418333198922
 20
32.41593467203353
 30
0.0
 40
0.0803850750554482
100
AcDbArc
 50
270.0
 51
4.988651291320644
  0
ARC
  5
F096
330
A
100
AcDbEntity
  8
0
  6
Continuous
 62
     7
100
AcDbCircle
 10
16.95479161734681
 20
16.15283137695913
 30
0.0
 40
1.582383367233071
100
AcDbArc
 50
270.0
 51
356.1276064161889
  0
ARC
  5
F097
330
A
100
AcDbEntity
  8
0
  6
Continuous
 62
     7
100
AcDbCircle
 10
-5.835764355423521
 20
16.15283137695913
 30
0.0
 40
1.582383367233051
100
AcDbArc
 50
183.8723935838208
 51
270.0
  0
LINE
  5
F098
330
A
100
AcDbEntity
  8
0
  6
Continuous
 62
     7
100
AcDbLine
 10
13.60139751831127
 20
14.11828196253926
 30
0.0
 11
-2.482370795631481
 21
14.11828196253926
 31
0.0
  0
LINE
  5
F099
330
A
100
AcDbEntity
  8
0
  6
Continuous
 62
     7
100
AcDbLine
 10
16.95479161734681
 20
14.57044800972615
 30
0.0
 11
-5.835764355423293
 21
14.57044800972615
 31
0.0
  0
LINE
  5
F09D
330
A
100
AcDbEntity
  8
0
  6
Continuous
 62
     7
100
AcDbLine
 10
-2.482370795631481
 20
14.11828196253926
 30
0.0
 11
-3.483807582396934
 21
14.57044800972615
 31
0.0
  0
ARC
  5
F09F
330
A
100
AcDbEntity
  8
0
  6
Continuous
 62
     7
100
AcDbCircle
 10
16.76779085794135
 20
13.56563457153306
 30
0.0
 40
1.004813438193004
100
AcDbArc
 50
90.0
 51
110.9087606034168
  0
LINE
  5
F0A0
330
A
100
AcDbEntity
  8
0
  6
Continuous
 62
     7
100
AcDbLine
 10
16.25701842686305
 20
14.44426679070405
 30
0.0
 11
16.40919219779664
 21
14.50428096209539
 31
0.0
  0
ARC
  5
F0A1
330
A
100
AcDbEntity
  8
0
  6
Continuous
 62
     7
100
AcDbCircle
 10
15.87663627541667
 20
15.37429876028041
 30
0.0
 40
1.004813438192986
100
AcDbArc
 50
270.0
 51
292.2445127705397
  0
LINE
  5
F0A3
330
A
100
AcDbEntity
  8
0
  6
Continuous
 62
     7
100
AcDbLine
 10
15.87663627541667
 20
14.36948532208755
 30
0.0
 11
14.15775182798018
 21
14.36948532208755
 31
0.0
  0
LINE
  5
F0A4
330
A
100
AcDbEntity
  8
0
  6
Continuous
 62
     7
100
AcDbLine
 10
14.32337409471131
 20
14.44426679070405
 30
0.0
 11
16.25701842686305
 21
14.44426679070405
 31
0.0
  0
LINE
  5
F0A5
330
A
100
AcDbEntity
  8
0
  6
Continuous
 62
     7
100
AcDbLine
 10
16.40919219779664
 20
14.50428096209539
 30
0.0
 11
14.45629075347653
 21
14.50428096209539
 31
0.0
  0
LINE
  5
F0A7
330
A
100
AcDbEntity
  8
0
  6
Continuous
 62
     7
100
AcDbLine
 10
13.60139751831127
 20
14.11828196253926
 30
0.0
 11
13.60139751831127
 21
14.11828196253926
 31
0.0
  0
LINE
  5
F0A8
330
A
100
AcDbEntity
  8
0
  6
Continuous
 62
     7
100
AcDbLine
 10
13.60139751831127
 20
14.11828196253926
 30
0.0
 11
13.60139751831127
 21
14.11828196253926
 31
0.0
  0
LINE
  5
F0AC
330
A
100
AcDbEntity
  8
0
  6
Continuous
 62
     7
100
AcDbLine
 10
13.60139751831127
 20
14.11828196253926
 30
0.0
 11
14.60283452284841
 21
14.57044800972615
 31
0.0
  0
LINE
  5
F0AD
330
A
100
AcDbEntity
  8
0
  6
Continuous
 62
     7
100
AcDbLine
 10
13.60139751831127
 20
14.11828196253926
 30
0.0
 11
14.60283430507672
 21
14.57044800972615
 31
0.0
  0
LINE
  5
F0AE
330
A
100
AcDbEntity
  8
0
  6
Continuous
 62
     7
100
AcDbLine
 10
13.60139751831127
 20
14.11828196253926
 30
0.0
 11
14.15775182798018
 21
14.36948532208755
 31
0.0
  0
LINE
  5
F0AF
330
A
100
AcDbEntity
  8
0
  6
Continuous
 62
     7
100
AcDbLine
 10
13.60139751831127
 20
14.11828196253926
 30
0.0
 11
14.15775182798018
 21
14.36948532208755
 31
0.0
  0
LWPOLYLINE
  5
F0B0
330
A
100
AcDbEntity
  8
0
  6
Continuous
 62
     7
100
AcDbPolyline
 90
       59
 70
   128
 43
0.0
 10
-7.414535037542805
 20
16.04596578765977
 10
-7.414535032021717
 20
16.04596570609635
 10
-7.395042044533852
 20
16.02279328402824
 10
-7.339816733376096
 20
15.9997672895457
 10
-7.240649657375684
 20
15.97533805442148
 10
-7.100170761890126
 20
15.95118844283551
 10
-6.919379470461421
 20
15.92743820961263
 10
-6.699275206632023
 20
15.9042071095776
 10
-6.440857393943701
 20
15.8816148975555
 10
-6.145125455938682
 20
15.85978132837105
 10
-5.810871673349197
 20
15.83866347187181
 10
-5.439260547246817
 20
15.81830392485015
 10
-5.032353506708545
 20
15.79878051720598
 10
-4.592211980812294
 20
15.78017107883949
 10
-4.120897398634383
 20
15.76255343965067
 10
-3.62047118925318
 20
15.74600542953954
 10
-3.090222157204493
 20
15.73050509290087
 10
-2.530963129700353
 20
15.71603580332829
 10
-1.945523049345297
 20
15.70263618014168
 10
-1.336730858742498
 20
15.6903448426612
 10
-0.7074155004967225
 20
15.67920041020674
 10
-0.0604059172113694
 20
15.66924150209831
 10
0.6037292692245729
 20
15.6604637523842
 10
1.285407843782763
 20
15.6528278757328
 10
1.981374447256825
 20
15.64634733367427
 10
2.688373720439926
 20
15.64103558773882
 10
3.403150304125233
 20
15.63690609945638
 10
4.122448839106141
 20
15.63397233035732
 10
4.844379505630627
 20
15.632236328819
 10
5.570722864377671
 20
15.63167744406424
 10
6.298141865653519
 20
15.63229316901399
 10
7.023299459764189
 20
15.63408099658945
 10
7.742858597016152
 20
15.63703841971141
 10
8.453482227714971
 20
15.64116293130104
 10
9.152690718701137
 20
15.6464523991776
 10
9.842934203683967
 20
15.65292483304792
 10
10.52112274807848
 20
15.66056021817647
 10
11.18416641730039
 20
15.66933853982746
 10
11.82897527676516
 20
15.67923978326503
 10
12.45245939188737
 20
15.69024393375365
 10
13.05267769074464
 20
15.70234617308523
 10
13.63156867314194
 20
15.71558894563465
 10
14.18659331477113
 20
15.72992367686024
 10
14.71521259132316
 20
15.74530179222005
 10
15.21488747848946
 20
15.76167471717266
 10
15.68307895196233
 20
15.77899387717622
 10
16.11934829084669
 20
15.79728504943792
 10
16.52398499551066
 20
15.8165534513505
 10
16.89528115952578
 20
15.83670938670389
 10
17.23152887646495
 20
15.8576631592874
 10
17.53102023990061
 20
15.87932507289081
 10
17.79204734340499
 20
15.90160543130373
 10
18.01464103095907
 20
15.9245646840905
 10
18.19845866006415
 20
15.94813497866435
 10
18.34287991581743
 20
15.97218827158848
 10
18.44728448331682
 20
15.99659651942638
 10
18.5110520476602
 20
16.02123167874118
 10
18.53356229394478
 20
16.04596570609626
 10
18.5335622994661
 20
16.04596578765977
  0
LINE
  5
F0B1
330
A
100
AcDbEntity
  8
0
  6
Continuous
 62
     7
100
AcDbLine
 10
22.62650678155148
 20
35.64830334975007
 30
0.0
 11
-11.50747951962798
 21
35.64830334975007
 31
0.0
  0
LINE
  5
F0B2
330
A
100
AcDbEntity
  8
0
  6
Continuous
 62
     7
100
AcDbLine
 10
22.96148948799023
 20
35.34128721598867
 30
0.0
 11
-11.84246222606685
 21
35.34128721598867
 31
0.0
  0
LINE
  5
F0B3
330
A
100
AcDbEntity
  8
0
  6
Continuous
 62
     7
100
AcDbLine
 10
-12.15887312349571
 20
32.42292483134732
 30
0.0
 11
23.27790038541897
 21
32.42292483134754
 31
0.0
  0
LINE
  5
F0B4
330
A
100
AcDbEntity
  8
0
  6
Continuous
 62
     7
100
AcDbLine
 10
23.197819813715
 20
32.3355495969782
 30
0.0
 11
-12.07879255179172
 21
32.33554959697808
 31
0.0
  0
LINE
  5
F0B5
330
A
100
AcDbEntity
  8
0
  6
Continuous
 62
     7
100
AcDbLine
 10
-8.517162539395826
 20
32.33554959697809
 30
0.0
 11
-7.414535037542805
 21
16.04596578765979
 31
0.0
  0
ARC
  5
F0B6
330
A
100
AcDbEntity
  8
0
  6
Continuous
 62
     7
100
AcDbCircle
 10
-11.50747951962798
 20
35.31204688421311
 30
0.0
 40
0.3362564655370369
100
AcDbArc
 50
90.0
 51
175.0113487086768
  0
ARC
  5
F0B7
330
A
100
AcDbEntity
  8
0
  6
Continuous
 62
     7
100
AcDbCircle
 10
-12.07879255179172
 20
32.41593467203355
 30
0.0
 40
0.0803850750554482
100
AcDbArc
 50
175.0113487086793
 51
270.0
  0
POINT
  5
F0B9
330
A
100
AcDbEntity
  8
0
 62
     7
100
AcDbPoint
 10
-8.517162539395826
 20
32.33554959697809
 30
0.0
  0
LINE
  5
F0BA
330
A
100
AcDbEntity
  8
0
  6
Continuous
 62
     7
100
AcDbLine
 10
18.5335622994661
 20
16.04596578765979
 30
0.0
 11
19.63618980131935
 21
32.3355495969782
 31
0.0
  0
ARC
  5
F0BB
330
A
100
AcDbEntity
  8
0
  6
Continuous
 62
     7
100
AcDbCircle
 10
23.197819813715
 20
32.41593467203355
 30
0.0
 40
0.0803850750554482
100
AcDbArc
 50
270.0
 51
4.988651291466966
  0
POINT
  5
F0BD
330
A
100
AcDbEntity
  8
0
 62
     7
100
AcDbPoint
 10
19.63618980131935
 20
32.33554959697809
 30
0.0
  0
ARC
  5
F0BE
330
A
100
AcDbEntity
  8
0
  6
Continuous
 62
     7
100
AcDbCircle
 10
22.62650678155148
 20
35.31204688421311
 30
0.0
 40
0.3362564655370369
100
AcDbArc
 50
4.988651291323101
 51
90.0
  0
LINE
  5
F0C3
330
A
100
AcDbEntity
  8
0
  6
Continuous
 62
     7
100
AcDbLine
 10
84.49552701616857
 20
88.9707350072892
 30
0.0
 11
47.12651524977127
 21
88.9707350072892
 31
0.0
  0
LINE
  5
F0C4
330
A
100
AcDbEntity
  8
0
  6
Continuous
 62
     7
100
AcDbLine
 10
84.45857603468311
 20
85.31148199360661
 30
0.0
 11
47.16346623125628
 21
85.31148199360661
 31
0.0
  0
LINE
  5
F0C5
330
A
100
AcDbEntity
  8
0
  6
Continuous
 62
     7
100
AcDbLine
 10
47.16346623125628
 20
85.43178431958409
 30
0.0
 11
84.45857603468311
 21
85.43178431958409
 31
0.0
  0
LINE
  5
F0C6
330
A
100
AcDbEntity
  8
0
  6
Continuous
 62
     7
100
AcDbLine
 10
47.12651524977127
 20
88.31934140342168
 30
0.0
 11
84.49552701616857
 21
88.31934140342168
 31
0.0
  0
LINE
  5
F0C7
330
A
100
AcDbEntity
  8
0
  6
Continuous
 62
     7
100
AcDbLine
 10
47.12651524977127
 20
88.65432410986052
 30
0.0
 11
84.49552701616857
 21
88.65432410986052
 31
0.0
  0
LINE
  5
F0C8
330
A
100
AcDbEntity
  8
0
  6
Continuous
 62
     7
100
AcDbLine
 10
84.49552701616857
 20
88.97103951064066
 30
0.0
 11
47.12651524977127
 21
88.97103951064066
 31
0.0
  0
LINE
  5
F0C9
330
A
100
AcDbEntity
  8
0
  6
Continuous
 62
     7
100
AcDbLine
 10
52.83603392785881
 20
82.64762623921701
 30
0.0
 11
62.46047804647985
 21
82.64762623921701
 31
0.0
  0
LINE
  5
F0CA
330
A
100
AcDbEntity
  8
0
  6
Continuous
 62
     7
100
AcDbLine
 10
78.78600833808104
 20
83.94569149405555
 30
0.0
 11
72.18184729518566
 21
83.94569149405555
 31
0.0
  0
LINE
  5
F0CB
330
A
100
AcDbEntity
  8
0
  6
Continuous
 62
     7
100
AcDbLine
 10
47.12651524977127
 20
53.53396149837447
 30
0.0
 11
84.49552701616836
 21
53.53396149837447
 31
0.0
  0
LINE
  5
F0CC
330
A
100
AcDbEntity
  8
0
  6
Continuous
 62
     7
100
AcDbLine
 10
47.12651524977127
 20
53.85037239580327
 30
0.0
 11
84.49552701616836
 21
53.85037239580327
 31
0.0
  0
LINE
  5
F0CD
330
A
100
AcDbEntity
  8
0
  6
Continuous
 62
     7
100
AcDbLine
 10
47.16346623125628
 20
57.19321451205718
 30
0.0
 11
84.45857603468311
 21
57.19321451205718
 31
0.0
  0
LINE
  5
F0CE
330
A
100
AcDbEntity
  8
0
  6
Continuous
 62
     7
100
AcDbLine
 10
84.45857603468311
 20
57.07291218607969
 30
0.0
 11
47.16346623125628
 21
57.07291218607969
 31
0.0
  0
LINE
  5
F0CF
330
A
100
AcDbEntity
  8
0
  6
Continuous
 62
     7
100
AcDbLine
 10
47.12651524977127
 20
54.1853551022421
 30
0.0
 11
84.49552701616836
 21
54.1853551022421
 31
0.0
  0
LINE
  5
F0D0
330
A
100
AcDbEntity
  8
0
  6
Continuous
 62
     7
100
AcDbLine
 10
47.12651524977127
 20
53.53365699502313
 30
0.0
 11
84.49552701616836
 21
53.53365699502313
 31
0.0
  0
LINE
  5
F0D1
330
A
100
AcDbEntity
  8
0
  6
Continuous
 62
     7
100
AcDbLine
 10
78.78600833808104
 20
59.85707026644689
 30
0.0
 11
52.83603392785881
 21
59.85707026644689
 31
0.0
  0
LINE
  5
F0D2
330
A
100
AcDbEntity
  8
0
  6
Continuous
 62
     7
100
AcDbLine
 10
52.83603392785881
 20
58.55900501160846
 30
0.0
 11
78.78600833808104
 21
58.55900501160846
 31
0.0
  0
LWPOLYLINE
  5
F0D3
330
A
100
AcDbEntity
  8
0
  6
Continuous
 62
     7
100
AcDbPolyline
 90
       57
 70
   128
 43
0.0
 10
47.16346623125628
 20
57.0729121860797
 10
46.41811364576347
 20
57.09254681914235
 10
45.67482423085244
 20
57.15134181921825
 10
44.88721417396232
 20
57.25742042177396
 10
44.10439043206679
 20
57.40828292912901
 10
43.32996782846794
 20
57.60291126418922
 10
42.56756118646831
 20
57.84028734986005
 10
41.82078532936998
 20
58.11939310904701
 10
41.09325508047618
 20
58.43921046465561
 10
40.38490753365045
 20
58.80025271387258
 10
39.695915969206
 20
59.20198930044865
 10
39.02935515331842
 20
59.6422604285369
 10
38.38829985216467
 20
60.11890630229006
 10
37.775824831921
 20
60.62976712586091
 10
37.19500485876392
 20
61.17268310340245
 10
36.64601150104636
 20
61.7480904029949
 10
36.12876312518665
 20
62.35549208509616
 10
35.64544622241465
 20
62.99183198577771
 10
35.19824728395952
 20
63.65405394111128
 10
34.78935280104997
 20
64.33910178716828
 10
34.42094926491563
 20
65.04391936002043
 10
34.09341150539854
 20
65.7686986576353
 10
33.80641282479564
 20
66.51315294743359
 10
33.56100549448502
 20
67.27367626598276
 10
33.35824178584517
 20
68.04666264985034
 10
33.19917397025483
 20
68.82850613560368
 10
33.08485431909185
 20
69.61560075981053
 10
33.01571293955749
 20
70.40780774154389
 10
32.99131518626018
 20
71.20515865431814
 10
33.01146244748429
 20
72.00390494720027
 10
33.07595611151374
 20
72.8002980692575
 10
33.18459756663287
 20
73.59058946955667
 10
33.33718820112518
 20
74.37103059716496
 10
33.53404784027339
 20
75.14120170128069
 10
33.77480409773648
 20
75.90142584780338
 10
34.05803178306064
 20
76.64823338000582
 10
34.38230570579299
 20
77.37815464116103
 10
34.74620067547994
 20
78.0877199745417
 10
35.1482915016677
 20
78.77345972342077
 10
35.58871683848201
 20
79.43483494250452
 10
36.06725492731766
 20
80.07231151317814
 10
36.58141494990946
 20
80.68308759317217
 10
37.12870608799108
 20
81.264361340217
 10
37.70663752329756
 20
81.8133309120434
 10
38.31271843756326
 20
82.3271944663816
 10
38.94700748234573
 20
82.80547178617204
 10
39.60935305096246
 20
83.24858893020813
 10
40.29647719369132
 20
83.6547261384825
 10
41.00510196081063
 20
84.02206365098789
 10
41.7319494025985
 20
84.34878170771712
 10
42.47374156933301
 20
84.63306054866286
 10
43.23057470040658
 20
84.87448544456421
 10
44.00225357915497
 20
85.07343010219029
 10
44.78508018859588
 20
85.22926342002319
 10
45.57535651174794
 20
85.34135429654499
 10
46.36938453162861
 20
85.4090716302381
 10
47.16346623125628
 20
85.43178431958413
  0
LWPOLYLINE
  5
F0D4
330
A
100
AcDbEntity
  8
0
  6
Continuous
 62
     7
100
AcDbPolyline
 90
       61
 70
   128
 43
0.0
 10
47.16346623125628
 20
85.31148199360659
 10
47.16346385768815
 20
85.31148199399147
 10
46.37608771801683
 20
85.28910353110042
 10
45.58875703164608
 20
85.22212859566824
 10
44.80513479740602
 20
85.11118011379329
 10
44.02888401412702
 20
84.956881011574
 10
43.26366768063917
 20
84.75985421510861
 10
42.51314879577262
 20
84.52072265049556
 10
41.77743696549214
 20
84.23907931847908
 10
41.05652516320742
 20
83.91535772500713
 10
40.3536644850808
 20
83.55135852621707
 10
39.67210602727618
 20
83.14888237824602
 10
39.01510088595705
 20
82.70972993723125
 10
38.38590015728641
 20
82.23570185931004
 10
37.78457495542784
 20
81.72630101542926
 10
37.2111573907805
 20
81.18206456998057
 10
36.66812156174274
 20
80.60577041769073
 10
36.15794156671291
 20
80.00019645328672
 10
35.68309150408891
 20
79.36812057149523
 10
35.24604547226909
 20
78.71232066704343
 10
34.84698286635057
 20
78.03225560666612
 10
34.48581864187554
 20
77.32853206496386
 10
34.1639699391601
 20
76.60459471307662
 10
33.88285389852126
 20
75.86388822214438
 10
33.64388766027492
 20
75.10985726330723
 10
33.44848836473784
 20
74.34594650770525
 10
33.29702063434161
 20
73.57179589375441
 10
33.18917798426856
 20
72.78786063670269
 10
33.12515798999766
 20
71.99786432595352
 10
33.10515822700927
 20
71.20553055091019
 10
33.12937627078236
 20
70.41458290097603
 10
33.19800969679727
 20
69.62874496555466
 10
33.31148674415954
 20
68.84800674930329
 10
33.46938047020785
 20
68.07248482852145
 10
33.67064433041378
 20
67.30576013448999
 10
33.91423178024934
 20
66.55141359848972
 10
34.19909627518632
 20
65.81302615180169
 10
34.52419127069652
 20
65.09417872570651
 10
34.88980301099037
 20
64.39522209190609
 10
35.29558681300273
 20
63.71589481843241
 10
35.73936999788043
 20
63.05922848347162
 10
36.21897988677142
 20
62.42825466520962
 10
36.73224380082252
 20
61.82600494183216
 10
37.27698906118144
 20
61.25551089152541
 10
37.85321511549773
 20
60.71733436723443
 10
38.46082118124059
 20
60.21096184428057
 10
39.09675621059705
 20
59.73853185161193
 10
39.75796915575415
 20
59.30218291817635
 10
40.44140896889871
 20
58.90405357292199
 10
41.14402460221754
 20
58.54628234479668
 10
41.8655498803514
 20
58.22943020040646
 10
42.6061347669497
 20
57.95293825599229
 10
43.36219748697226
 20
57.71781234221226
 10
44.13015626537912
 20
57.52505828972438
 10
44.90642932712989
 20
57.37568192918672
 10
45.68743489718417
 20
57.27068909125731
 10
45.92720987946449
 20
57.24748510510696
 10
46.40813081872124
 20
57.21340407887513
 10
46.88993749298311
 20
57.19583183210717
 10
47.16346385768815
 20
57.19321451167235
 10
47.16346623125628
 20
57.19321451205715
  0
LWPOLYLINE
  5
F0D5
330
A
100
AcDbEntity
  8
0
  6
Continuous
 62
     7
100
AcDbPolyline
 90
       48
 70
   128
 43
0.0
 10
52.83603392785881
 20
59.85707026644691
 10
52.07684211350374
 20
59.88313869527704
 10
51.31856652826582
 20
59.96075058437297
 10
50.5663005035135
 20
60.08901583764279
 10
49.82513737061572
 20
60.26704435899482
 10
49.10017046094004
 20
60.49394605233695
 10
48.39251974046897
 20
60.76989756727994
 10
47.70275231557116
 20
61.09403028524288
 10
47.035333913881
 20
61.46381541150278
 10
46.39473026303244
 20
61.87672415133718
 10
45.7854070906601
 20
62.3302277100235
 10
45.206773220061
 20
62.82564796168171
 10
44.66094526808364
 20
63.36067853953631
 10
44.15129806641516
 20
63.93146341806198
 10
43.681206446744
 20
64.534146571734
 10
43.25404524075771
 20
65.16487197502723
 10
42.8688869116163
 20
65.82658457480923
 10
42.52798476609586
 20
66.51504000209907
 10
42.23328392176632
 20
67.22546077643205
 10
41.98672949619822
 20
67.9530694173437
 10
41.79026660696149
 20
68.69308844436952
 10
41.64409937865662
 20
69.44809833015277
 10
41.54883396135597
 20
70.21383975655348
 10
41.50476203437256
 20
70.98511485119408
 10
41.51217527701851
 20
71.75672574169687
 10
41.57136536860662
 20
72.52347455568417
 10
41.68310069595122
 20
73.28597400818193
 10
41.84665015948053
 20
74.04176233849392
 10
42.0605876001382
 20
74.78578754816841
 10
42.32348685886836
 20
75.5129976387544
 10
42.63392177661467
 20
76.21834061180004
 10
42.99170943846547
 20
76.90010667060646
 10
43.39622104417594
 20
77.55834535124495
 10
43.84443983751316
 20
78.18873031733158
 10
44.33334906224354
 20
78.78693523248216
 10
44.85993196213349
 20
79.34863376031286
 10
45.421870956897
 20
79.87087193695526
 10
46.01997993087979
 20
80.35548215432505
 10
46.64998105032895
 20
80.79938572137747
 10
47.30759648149296
 20
81.19950394706767
 10
47.98854839061869
 20
81.5527581403508
 10
48.68862524640781
 20
81.85672488903314
 10
49.41017444706199
 20
82.11342441474014
 10
50.14816591777844
 20
82.32140559063703
 10
50.89756958375597
 20
82.47921728988897
 10
51.653355370192
 20
82.58540838566142
 10
52.2438775673072
 20
82.63204962409817
 10
52.83603392785881
 20
82.64762623921702
  0
LWPOLYLINE
  5
F0D6
330
A
100
AcDbEntity
  8
0
  6
Continuous
 62
     7
100
AcDbPolyline
 90
       59
 70
   128
 43
0.0
 10
52.83603392785881
 20
83.94569149405549
 10
52.83603155527908
 20
83.94569148941378
 10
52.17580337170625
 20
83.92689478234906
 10
51.5174905383501
 20
83.8731957700075
 10
50.81582908451583
 20
83.77656989181296
 10
50.1185953169429
 20
83.63957366086609
 10
49.42905908450575
 20
83.46317858609337
 10
48.7504902360788
 20
83.24835617642097
 10
48.08615862053648
 20
82.99607794077514
 10
47.43933408675366
 20
82.70731538808226
 10
46.80831686066426
 20
82.38074069112768
 10
46.19496070148715
 20
82.01760210502461
 10
45.60200128479436
 20
81.61991175307885
 10
45.0321742861588
 20
81.18968175859622
 10
44.48821538115271
 20
80.72892424488223
 10
43.97286024534856
 20
80.23965133524271
 10
43.48570095958575
 20
79.7209215085862
 10
43.02720964487412
 20
79.17374532450768
 10
42.59928464594122
 20
78.60089390964664
 10
42.20382430751442
 20
78.00513839064281
 10
41.84272697432106
 20
77.38924989413551
 10
41.51789099108873
 20
76.75599954676444
 10
41.22981039279102
 20
76.10572974518721
 10
40.97790846149791
 20
75.43823377565712
 10
40.7630735962166
 20
74.75670768634086
 10
40.58619419595379
 20
74.06434752540516
 10
40.44815865971623
 20
73.36434934101688
 10
40.34985538651063
 20
72.65990918134278
 10
40.29172996476472
 20
71.95281617015493
 10
40.27312442213065
 20
71.24138829298452
 10
40.29385752277926
 20
70.52890368753947
 10
40.35374803088166
 20
69.81864049152799
 10
40.45261471060894
 20
69.1138768426577
 10
40.59027632613288
 20
68.41789087863682
 10
40.76639151671452
 20
67.73322908700865
 10
40.9810446049305
 20
67.05737110605094
 10
41.23302081040129
 20
66.3933488196176
 10
41.52110535274869
 20
65.74419411156269
 10
41.84408345159363
 20
65.1129388657406
 10
42.20074032655725
 20
64.50261496600512
 10
42.59007794551599
 20
63.9153411995819
 10
43.01290796078819
 20
63.34898325378233
 10
43.46709652227173
 20
62.80602563543507
 10
43.9505097798658
 20
62.2889528513688
 10
44.46101388346846
 20
61.80024940841221
 10
44.99647498297849
 20
61.34239981339401
 10
45.55676844403182
 20
60.91602076813334
 10
46.14198995673769
 20
60.52060777562005
 10
46.74926767253873
 20
60.15782577536279
 10
47.37572974287809
 20
59.82933970687021
 10
48.01850431919888
 20
59.53681450965065
 10
48.67471955294423
 20
59.28191512321311
 10
49.34578252870119
 20
59.0646817569198
 10
50.03027219752062
 20
58.88534512449297
 10
50.72486524699525
 20
58.7445071800726
 10
51.42623836471807
 20
58.64276987779864
 10
52.13106823828184
 20
58.58073517181114
 10
52.83603155527908
 20
58.55900501625005
 10
52.83603392785881
 20
58.55900501160845
  0
LINE
  5
F0D7
330
A
100
AcDbEntity
  8
0
  6
Continuous
 62
     7
100
AcDbLine
 10
52.83603392785881
 20
58.55900501160846
 30
0.0
 11
52.83603392785881
 21
59.85707026644689
 31
0.0
  0
LINE
  5
F0D8
330
A
100
AcDbEntity
  8
0
  6
Continuous
 62
     7
100
AcDbLine
 10
52.83603392785881
 20
58.55900501160846
 30
0.0
 11
47.16346623125628
 21
57.19321451205718
 31
0.0
  0
LINE
  5
F0DA
330
A
100
AcDbEntity
  8
0
  6
Continuous
 62
     7
100
AcDbLine
 10
47.16346623125628
 20
57.07291218607969
 30
0.0
 11
47.16346623125628
 21
57.19321451205718
 31
0.0
  0
LINE
  5
F0DD
330
A
100
AcDbEntity
  8
0
  6
Continuous
 62
     7
100
AcDbLine
 10
47.16346623125628
 20
85.31148199360661
 30
0.0
 11
52.83603392785881
 21
83.94569149405555
 31
0.0
  0
LINE
  5
F0E1
330
A
100
AcDbEntity
  8
0
  6
Continuous
 62
     7
100
AcDbLine
 10
47.16346623125628
 20
85.31148199360661
 30
0.0
 11
47.16346623125628
 21
85.43178431958409
 31
0.0
  0
LINE
  5
F0E3
330
A
100
AcDbEntity
  8
0
  6
Continuous
 62
     7
100
AcDbLine
 10
52.83603392785881
 20
83.94569149405555
 30
0.0
 11
52.83603392785881
 21
82.64762623921701
 31
0.0
  0
LWPOLYLINE
  5
F0E7
330
A
100
AcDbEntity
  8
0
  6
Continuous
 62
     7
100
AcDbPolyline
 90
       57
 70
   128
 43
0.0
 10
84.45857603468335
 20
85.43178431958413
 10
85.20392862017638
 20
85.41214968652138
 10
85.94721803508742
 20
85.35335468644557
 10
86.73482809197754
 20
85.24727608388989
 10
87.51765183387306
 20
85.09641357653464
 10
88.29207443747192
 20
84.90178524147443
 10
89.05448107947178
 20
84.66440915580369
 10
89.80125693656964
 20
84.38530339661673
 10
90.52878718546367
 20
84.06548604100814
 10
91.23713473228917
 20
83.70444379179126
 10
91.92612629673385
 20
83.30270720521509
 10
92.59268711262121
 20
82.86243607712695
 10
93.23374241377496
 20
82.38579020337388
 10
93.84621743401885
 20
81.87492937980293
 10
94.42703740717593
 20
81.33201340226131
 10
94.97603076489349
 20
80.75660610266885
 10
95.49327914075297
 20
80.14920442056768
 10
95.9765960435252
 20
79.51286451988604
 10
96.42379498198033
 20
78.85064256455255
 10
96.83268946488965
 20
78.16559471849554
 10
97.201093001024
 20
77.4607771456434
 10
97.5286307605411
 20
76.73599784802853
 10
97.81562944114421
 20
75.99154355823023
 10
98.06103677145484
 20
75.23102023968109
 10
98.26380048009468
 20
74.45803385581349
 10
98.42286829568502
 20
73.67619037006005
 10
98.53718794684802
 20
72.88909574585329
 10
98.6063293263826
 20
72.09688876411994
 10
98.63072707967967
 20
71.29953785134569
 10
98.61057981845556
 20
70.50079155846346
 10
98.5460861544259
 20
69.70439843640635
 10
98.43744469930697
 20
68.91410703610715
 10
98.28485406481469
 20
68.13366590849877
 10
98.08799442566646
 20
67.36349480438313
 10
97.8472381682036
 20
66.60327065786045
 10
97.56401048287921
 20
65.85646312565791
 10
97.23973656014686
 20
65.1265418645028
 10
96.87584159045991
 20
64.41697653112213
 10
96.47375076427216
 20
63.73123678224306
 10
96.03332542745739
 20
63.0698615631594
 10
95.55478733862173
 20
62.43238499248571
 10
95.04062731603061
 20
61.82160891249167
 10
94.49333617794877
 20
61.24033516544663
 10
93.91540474264207
 20
60.69136559362035
 10
93.30932382837636
 20
60.17750203928216
 10
92.67503478359413
 20
59.69922471949169
 10
92.01268921497741
 20
59.25610757545571
 10
91.32556507224853
 20
58.84997036718134
 10
90.61694030512922
 20
58.48263285467595
 10
89.89009286334157
 20
58.15591479794672
 10
89.14830069660684
 20
57.87163595700097
 10
88.39146756553327
 20
57.63021106109963
 10
87.61978868678488
 20
57.43126640347355
 10
86.83696207734374
 20
57.27543308564063
 10
86.04668575419191
 20
57.16334220911865
 10
85.25265773431101
 20
57.09562487542583
 10
84.45857603468335
 20
57.0729121860797
  0
LWPOLYLINE
  5
F0E8
330
A
100
AcDbEntity
  8
0
  6
Continuous
 62
     7
100
AcDbPolyline
 90
       61
 70
   128
 43
0.0
 10
84.45857603468335
 20
57.19321451205724
 10
84.45857840825146
 20
57.19321451167235
 10
85.24595454792303
 20
57.21559297456341
 10
86.03328523429377
 20
57.2825679099956
 10
86.81690746853382
 20
57.39351639187055
 10
87.59315825181284
 20
57.54781549408983
 10
88.35837458530068
 20
57.74484229055514
 10
89.10889347016746
 20
57.98397385516818
 10
89.84460530044747
 20
58.26561718718476
 10
90.56551710273243
 20
58.58933878065672
 10
91.26837778085883
 20
58.95333797944677
 10
91.94993623866343
 20
59.35581412741773
 10
92.6069413799828
 20
59.79496656843251
 10
93.23614210865343
 20
60.26899464635372
 10
93.83746731051202
 20
60.77839549023448
 10
94.41088487515935
 20
61.32263193568326
 10
94.95392070419688
 20
61.898926087973
 10
95.46410069922695
 20
62.50450005237711
 10
95.93895076185095
 20
63.13657593416841
 10
96.37599679367077
 20
63.79237583862032
 10
96.77505939958928
 20
64.4724408989976
 10
97.13622362406432
 20
65.17616444069997
 10
97.45807232677954
 20
65.90010179258721
 10
97.73918836741859
 20
66.64080828351934
 10
97.97815460566472
 20
67.3948392423566
 10
98.17355390120201
 20
68.15874999795858
 10
98.32502163159825
 20
68.93290061190942
 10
98.43286428167131
 20
69.71683586896114
 10
98.4968842759422
 20
70.5068321797103
 10
98.51688403893058
 20
71.29916595475363
 10
98.4926659951575
 20
72.0901136046877
 10
98.42403256914236
 20
72.87595154010917
 10
98.31055552178009
 20
73.65668975636044
 10
98.152661795732
 20
74.43221167714229
 10
97.95139793552607
 20
75.19893637117384
 10
97.70781048569029
 20
75.95328290717403
 10
97.4229459907533
 20
76.69167035386223
 10
97.09785099524333
 20
77.41051777995732
 10
96.7322392549495
 20
78.10947441375775
 10
96.32645545293712
 20
78.78880168723132
 10
95.88267226805919
 20
79.44546802219211
 10
95.40306237916842
 20
80.07644184045421
 10
94.88979846511711
 20
80.67869156383158
 10
94.34505320475819
 20
81.24918561413842
 10
93.76882715044212
 20
81.78736213842951
 10
93.16122108469926
 20
82.29373466138326
 10
92.5252860553428
 20
82.76616465405192
 10
91.86407311018569
 20
83.20251358748739
 10
91.1806332970409
 20
83.60064293274175
 10
90.47801766372208
 20
83.95841416086716
 10
89.75649238558844
 20
84.27526630525729
 10
89.01590749899014
 20
84.55175824967156
 10
88.25984477896758
 20
84.78688416345148
 10
87.49188600056072
 20
84.97963821593936
 10
86.71561293880996
 20
85.12901457647711
 10
85.93460736875568
 20
85.23400741440644
 10
85.69483238647512
 20
85.25721140055688
 10
85.21391144721883
 20
85.29129242678882
 10
84.73210477295651
 20
85.30886467355676
 10
84.45857840825146
 20
85.31148199399147
 10
84.45857603468335
 20
85.31148199360659
  0
LWPOLYLINE
  5
F0EA
330
A
100
AcDbEntity
  8
0
  6
Continuous
 62
     7
100
AcDbPolyline
 90
       48
 70
   128
 43
0.0
 10
78.78600833808082
 20
82.64762623921702
 10
79.54520015243611
 20
82.62155781038691
 10
80.30347573767404
 20
82.54394592129097
 10
81.05574176242589
 20
82.41568066802114
 10
81.79690489532413
 20
82.2376521466692
 10
82.52187180499959
 20
82.01075045332698
 10
83.22952252547066
 20
81.73479893838401
 10
83.91928995036847
 20
81.41066622042115
 10
84.58670835205884
 20
81.04088109416126
 10
85.2273120029074
 20
80.62797235432684
 10
85.83663517527998
 20
80.17446879564053
 10
86.41526904587863
 20
79.67904854398212
 10
86.96109699785642
 20
79.14401796612771
 10
87.47074419952468
 20
78.57323308760205
 10
87.94083581919585
 20
77.97054993393003
 10
88.36799702518192
 20
77.33982453063679
 10
88.75315535432333
 20
76.67811193085468
 10
89.09405749984399
 20
75.98965650356487
 10
89.38875834417331
 20
75.27923572923199
 10
89.63531276974164
 20
74.55162708832023
 10
89.83177565897813
 20
73.8116080612944
 10
89.97794288728323
 20
73.05659817551124
 10
90.07320830458366
 20
72.29085674911044
 10
90.11728023156729
 20
71.51958165446984
 10
90.10986698892111
 20
70.74797076396706
 10
90.05067689733323
 20
69.98122194997977
 10
89.93894156998839
 20
69.2187224974819
 10
89.77539210645909
 20
68.4629341671701
 10
89.56145466580165
 20
67.71890895749542
 10
89.2985554070715
 20
66.99169886690963
 10
88.98812048932541
 20
66.28635589386387
 10
88.63033282747437
 20
65.60458983505748
 10
88.22582122176369
 20
64.94635115441908
 10
87.77760242842669
 20
64.31596618833245
 10
87.28869320369609
 20
63.71776127318184
 10
86.76211030380637
 20
63.15606274535115
 10
86.20017130904262
 20
62.63382456870868
 10
85.60206233506027
 20
62.14921435133888
 10
84.9720612156109
 20
61.70531078428647
 10
84.31444578444688
 20
61.30519255859636
 10
83.63349387532094
 20
60.95193836531312
 10
82.93341701953158
 20
60.64797161663088
 10
82.21186781887785
 20
60.39127209092377
 10
81.47387634816096
 20
60.183290915027
 10
80.72447268218367
 20
60.02547921577495
 10
79.96868689574785
 20
59.91928812000252
 10
79.37816469863264
 20
59.87264688156577
 10
78.78600833808082
 20
59.85707026644691
  0
LWPOLYLINE
  5
F0EB
330
A
100
AcDbEntity
  8
0
  6
Continuous
 62
     7
100
AcDbPolyline
 90
       59
 70
   128
 43
0.0
 10
78.78600833808082
 20
58.55900501160845
 10
78.78601071066078
 20
58.55900501625005
 10
79.44623889423337
 20
58.57780172331496
 10
80.10455172758975
 20
58.63150073565643
 10
80.80621318142403
 20
58.72812661385096
 10
81.50344694899695
 20
58.86512284479785
 10
82.1929831814341
 20
59.04151791957065
 10
82.87155202986104
 20
59.25634032924297
 10
83.53588364540337
 20
59.50861856488879
 10
84.18270817918619
 20
59.79738111758158
 10
84.81372540527535
 20
60.12395581453626
 10
85.4270815644527
 20
60.48709440063941
 10
86.02004098114525
 20
60.88478475258509
 10
86.58986797978105
 20
61.31501474706772
 10
87.13382688478715
 20
61.7757722607817
 10
87.64918202059106
 20
62.2650451704212
 10
88.1363413063541
 20
62.78377499707772
 10
88.59483262106573
 20
63.33095118115625
 10
89.02275761999863
 20
63.9038025960173
 10
89.41821795842542
 20
64.49955811502121
 10
89.77931529161855
 20
65.11544661152841
 10
90.10415127485112
 20
65.74869695889957
 10
90.39223187314883
 20
66.39896676047673
 10
90.64413380444193
 20
67.06646273000679
 10
90.85896866972325
 20
67.74798881932307
 10
91.03584806998606
 20
68.44034898025876
 10
91.17388360622362
 20
69.14034716464695
 10
91.27218687942923
 20
69.84478732432123
 10
91.33031230117513
 20
70.55188033550909
 10
91.3489178438092
 20
71.2633082126795
 10
91.32818474316081
 20
71.97579281812446
 10
91.26829423505819
 20
72.68605601413603
 10
91.16942755533045
 20
73.39081966300613
 10
91.03176593980675
 20
74.08680562702712
 10
90.85565074922532
 20
74.77146741865528
 10
90.64099766100936
 20
75.44732539961308
 10
90.38902145553857
 20
76.11134768604634
 10
90.10093691319116
 20
76.76050239410113
 10
89.77795881434621
 20
77.39175763992332
 10
89.42130193938259
 20
78.00208153965889
 10
89.0319643204234
 20
78.58935530608192
 10
88.60913430515166
 20
79.15571325188159
 10
88.15494574366789
 20
79.69867087022885
 10
87.67153248607405
 20
80.21574365429513
 10
87.16102838247138
 20
80.70444709725181
 10
86.62556728296113
 20
81.16229669226992
 10
86.0652738219078
 20
81.58867573753061
 10
85.48005230920216
 20
81.98408873004398
 10
84.87277459340111
 20
82.34687073030114
 10
84.24631252306154
 20
82.67535679879383
 10
83.60353794674074
 20
82.96788199601319
 10
82.94732271299563
 20
83.22278138245083
 10
82.27625973723865
 20
83.44001474874415
 10
81.59177006841924
 20
83.61935138117106
 10
80.89717701894461
 20
83.76018932559144
 10
80.19580390122177
 20
83.8619266278653
 10
79.49097402765801
 20
83.92396133385281
 10
78.78601071066078
 20
83.94569148941378
 10
78.78600833808082
 20
83.94569149405549
  0
LINE
  5
F0EC
330
A
100
AcDbEntity
  8
0
  6
Continuous
 62
     7
100
AcDbLine
 10
78.78600833808104
 20
59.85707026644689
 30
0.0
 11
78.78600833808104
 21
58.55900501160846
 31
0.0
  0
LWPOLYLINE
  5
F0ED
330
A
100
AcDbEntity
  8
0
  6
Continuous
 62
     7
100
AcDbPolyline
 90
       60
 70
   128
 43
0.0
 10
65.81102113296992
 20
57.49820054976007
 10
65.67751472950636
 20
57.49771890203861
 10
65.54552100694036
 20
57.4962794161356
 10
65.41653550689102
 20
57.49389840200146
 10
65.29201968661346
 20
57.49060283747763
 10
65.1733843601055
 20
57.48643006262709
 10
65.06197371302096
 20
57.48142735665625
 10
64.95905007250849
 20
57.4756514022227
 10
64.86577960454133
 20
57.4691676431981
 10
64.78321910079102
 20
57.46204954316308
 10
64.71230400475383
 20
57.45437775303525
 10
64.65383781280434
 20
57.44623919726222
 10
64.6084829702595
 20
57.43772608893294
 10
64.57675336560805
 20
57.42893488496635
 10
64.5590085079491
 20
57.41996519321627
 10
64.55544945361044
 20
57.41091864387438
 10
64.56611652809988
 20
57.40189773795946
 10
64.59088886920153
 20
57.39300468594002
 10
64.62948579639124
 20
57.38434024964909
 10
64.68146999106238
 20
57.37600260061185
 10
64.74625245151674
 20
57.36808620772354
 10
64.82309916659232
 20
57.36068076687883
 10
64.91113943230016
 20
57.35387018468142
 10
65.00937571725149
 20
57.34773162774904
 10
65.11669496508375
 20
57.34233464838466
 10
65.231881205837
 20
57.33774039652091
 10
65.35362933337728
 20
57.3340009268673
 10
65.48055989277145
 20
57.33115860910896
 10
65.61123471006249
 20
57.32924564784212
 10
65.74417318735573
 20
57.32828371768213
 10
65.8778690785839
 20
57.32828371768213
 10
66.01080755587736
 20
57.32924564784212
 10
66.1414823731684
 20
57.33115860910896
 10
66.26841293256257
 20
57.3340009268673
 10
66.39016106010263
 20
57.33774039652091
 10
66.5053473008561
 20
57.34233464838466
 10
66.61266654868859
 20
57.34773162774904
 10
66.71090283363946
 20
57.35387018468142
 10
66.79894309934752
 20
57.36068076687883
 10
66.87578981442289
 20
57.36808620772354
 10
66.94057227487746
 20
57.37600260061185
 10
66.99255646954816
 20
57.38434024964909
 10
67.03115339673832
 20
57.39300468594002
 10
67.05592573783952
 20
57.40189773795946
 10
67.06659281232919
 20
57.41091864387438
 10
67.06303375799052
 20
57.41996519321627
 10
67.0452889003318
 20
57.42893488496635
 10
67.01355929568013
 20
57.43772608893294
 10
66.96820445313528
 20
57.44623919726222
 10
66.90973826118602
 20
57.45437775303525
 10
66.83882316514882
 20
57.46204954316308
 10
66.75626266139829
 20
57.4691676431981
 10
66.66299219343113
 20
57.4756514022227
 10
66.56006855291889
 20
57.48142735665625
 10
66.44865790583413
 20
57.48643006262709
 10
66.33002257932639
 20
57.49060283747763
 10
66.2055067590486
 20
57.49389840200146
 10
66.07652125899949
 20
57.4962794161356
 10
65.94452753643349
 20
57.49771890203861
 10
65.81102113296992
 20
57.49820054976007
  0
LINE
  5
F0EE
330
A
100
AcDbEntity
  8
0
  6
Continuous
 62
     7
100
AcDbLine
 10
78.78600833808104
 20
58.55900501160846
 30
0.0
 11
84.45857603468311
 21
57.19321451205718
 31
0.0
  0
LINE
  5
F0F0
330
A
100
AcDbEntity
  8
0
  6
Continuous
 62
     7
100
AcDbLine
 10
84.45857603468311
 20
57.07291218607969
 30
0.0
 11
84.45857603468311
 21
57.19321451205718
 31
0.0
  0
LINE
  5
F0F3
330
A
100
AcDbEntity
  8
0
  6
Continuous
 62
     7
100
AcDbLine
 10
51.44218896680968
 20
57.33777415622814
 30
0.0
 11
51.44218896680968
 21
57.40563380543318
 31
0.0
  0
LWPOLYLINE
  5
F0F4
330
A
100
AcDbEntity
  8
0
  6
Continuous
 62
     7
100
AcDbPolyline
 90
       19
 70
   128
 43
0.0
 10
51.44218896680968
 20
57.33777415622815
 10
51.354946955591
 20
57.33828962650372
 10
51.27035574873662
 20
57.33982037502712
 10
51.19098560726138
 20
57.34231989077888
 10
51.11924815275142
 20
57.34571222723791
 10
51.05732309146015
 20
57.34989430997732
 10
51.00709198504024
 20
57.35473906852938
 10
50.97008108024147
 20
57.36009929735712
 10
50.94741493467814
 20
57.36581212861991
 10
50.93978224771331
 20
57.37170398083073
 10
50.94741493467814
 20
57.37759583304153
 10
50.97008108024147
 20
57.3833086643043
 10
51.00709198504024
 20
57.38866889313197
 10
51.05732309146015
 20
57.39351365168403
 10
51.11924815275142
 20
57.39769573442352
 10
51.19098560726138
 20
57.40108807088247
 10
51.27035574873662
 20
57.40358758663423
 10
51.354946955591
 20
57.4051183351576
 10
51.44218896680968
 20
57.40563380543321
  0
LINE
  5
F0F5
330
A
100
AcDbEntity
  8
0
  6
Continuous
 62
     7
100
AcDbLine
 10
54.05470390611163
 20
57.33777415622814
 30
0.0
 11
54.05470390611163
 21
57.40563380543318
 31
0.0
  0
LWPOLYLINE
  5
F0F6
330
A
100
AcDbEntity
  8
0
  6
Continuous
 62
     7
100
AcDbPolyline
 90
       19
 70
   128
 43
0.0
 10
54.05470390611163
 20
57.40563380543321
 10
54.1419459173303
 20
57.4051183351576
 10
54.22653712418469
 20
57.40358758663423
 10
54.3059072656597
 20
57.40108807088247
 10
54.37764472016988
 20
57.39769573442352
 10
54.43956978146116
 20
57.39351365168403
 10
54.48980088788108
 20
57.38866889313197
 10
54.52681179267983
 20
57.3833086643043
 10
54.5494779382434
 20
57.37759583304153
 10
54.557110625208
 20
57.37170398083073
 10
54.5494779382434
 20
57.36581212861991
 10
54.52681179267983
 20
57.36009929735712
 10
54.48980088788108
 20
57.35473906852938
 10
54.43956978146116
 20
57.34989430997732
 10
54.37764472016988
 20
57.34571222723791
 10
54.3059072656597
 20
57.34231989077899
 10
54.22653712418469
 20
57.33982037502712
 10
54.1419459173303
 20
57.33828962650372
 10
54.05470390611163
 20
57.33777415622815
  0
LINE
  5
F0F7
330
A
100
AcDbEntity
  8
0
  6
Continuous
 62
     7
100
AcDbLine
 10
51.44218896680968
 20
57.40563380543318
 30
0.0
 11
54.05470390611163
 21
57.40563380543318
 31
0.0
  0
LINE
  5
F0F8
330
A
100
AcDbEntity
  8
0
  6
Continuous
 62
     7
100
AcDbLine
 10
54.05470390611163
 20
57.33777415622814
 30
0.0
 11
51.44218896680968
 21
57.33777415622814
 31
0.0
  0
LINE
  5
F101
330
A
100
AcDbEntity
  8
0
  6
Continuous
 62
     7
100
AcDbLine
 10
78.78600833808104
 20
83.94569149405555
 30
0.0
 11
84.45857603468311
 21
85.31148199360661
 31
0.0
  0
LINE
  5
F105
330
A
100
AcDbEntity
  8
0
  6
Continuous
 62
     7
100
AcDbLine
 10
84.45857603468311
 20
85.31148199360661
 30
0.0
 11
84.45857603468311
 21
85.43178431958409
 31
0.0
  0
LINE
  5
F106
330
A
100
AcDbEntity
  8
0
  6
Continuous
 62
     7
100
AcDbLine
 10
78.78600833808104
 20
82.64762623921701
 30
0.0
 11
78.78600833808104
 21
83.94569149405555
 31
0.0
  0
LINE
  5
142BE
330
A
100
AcDbEntity
  8
0
  6
Continuous
 62
     7
100
AcDbLine
 10
-1.44048636903831
 20
11.83615508615331
 30
0.0
 11
2.059513630961674
 21
11.83615508615331
 31
0.0
  0
MTEXT
  5
17F14
330
A
100
AcDbEntity
  8
Dim
 62
     4
100
AcDbMText
 10
-1148.459821812823
 20
-43.75729900380202
 30
0.0
 40
1.125
 41
0.0
 71
     1
 72
     1
  1
\A1;
 73
     1
 44
1.0
1001
ACAD
1000
MTEXTBEGIN
1070
    73
1070
     1
1070
    44
1040
1.0
1070
    74
1070
     0
1000
MTEXTEND
  0
MTEXT
  5
17F16
330
A
100
AcDbEntity
  8
Dim
 62
     4
100
AcDbMText
 10
-1156.095202825975
 20
-43.50652667122642
 30
0.0
 40
1.125
 41
0.0
 71
     1
 72
     1
  1
\A1;
 73
     1
 44
1.0
1001
ACAD
1000
MTEXTBEGIN
1070
    73
1070
     1
1070
    44
1040
1.0
1070
    74
1070
     0
1000
MTEXTEND
  0
ARC
  5
181CE
330
A
100
AcDbEntity
  8
0
  6
Continuous
100
AcDbCircle
 10
83.76529009021799
 20
71.25234825283183
 30
0.0
 40
17.7334281837594
100
AcDbArc
 50
272.3600246298493
 51
87.63997537014995
  0
ARC
  5
181CF
330
A
100
AcDbEntity
  8
0
  6
Continuous
100
AcDbCircle
 10
83.76468704101785
 20
71.2523482528319
 30
0.0
 40
17.41731583217936
100
AcDbArc
 50
272.404867895408
 51
87.59513210459127
  0
ARC
  5
181D0
330
A
100
AcDbEntity
  8
0
  6
Continuous
100
AcDbCircle
 10
83.76437278064138
 20
71.2523482528319
 30
0.0
 40
17.08264738611695
100
AcDbArc
 50
272.4530654992853
 51
87.54693450071389
  0
ARC
  5
181D1
330
A
100
AcDbEntity
  8
0
  6
Continuous
100
AcDbCircle
 10
47.85675217572186
 20
71.25234825283183
 30
0.0
 40
17.7334281837594
100
AcDbArc
 50
92.36002462985046
 51
267.6399753701512
  0
ARC
  5
181D2
330
A
100
AcDbEntity
  8
0
  6
Continuous
100
AcDbCircle
 10
47.857355224922
 20
71.2523482528319
 30
0.0
 40
17.41731583217936
100
AcDbArc
 50
92.40486789540934
 51
267.5951321045923
  0
ARC
  5
181D3
330
A
100
AcDbEntity
  8
0
  6
Continuous
100
AcDbCircle
 10
47.85766948529847
 20
71.2523482528319
 30
0.0
 40
17.08264738611695
100
AcDbArc
 50
92.45306549928644
 51
267.5469345007152
  0
CIRCLE
  5
181D8
330
A
100
AcDbEntity
  8
0
  6
Continuous
100
AcDbCircle
 10
65.81102113296992
 20
62.03365699502313
 30
0.0
 40
1.0
  0
LINE
  5
181D9
330
A
100
AcDbEntity
  8
0
  6
Continuous
100
AcDbLine
 10
101.1820028731972
 20
35.34128721598865
 30
0.0
 11
101.498413770626
 21
32.42292483134742
 31
0.0
  0
LINE
  5
181DA
330
A
100
AcDbEntity
  8
0
  6
Continuous
100
AcDbLine
 10
30.12362849531382
 20
32.42292483134742
 30
0.0
 11
30.44003939274266
 21
35.34128721598865
 31
0.0
  0
LINE
  5
181DB
330
A
100
AcDbEntity
  8
0
  6
Continuous
100
AcDbLine
 10
-11.84246222606685
 20
35.34128721598867
 30
0.0
 11
-12.15887312349571
 21
32.42292483134732
 31
0.0
  0
LINE
  5
181DC
330
A
100
AcDbEntity
  8
0
  6
Continuous
100
AcDbLine
 10
22.96148948799035
 20
35.34128721598867
 30
0.0
 11
23.27790038541897
 21
32.42292483134754
 31
0.0
  0
ARC
  5
181E0
330
A
100
AcDbEntity
  8
0
  6
Continuous
100
AcDbCircle
 10
65.81102113296992
 20
31.89830334975006
 30
0.0
 40
1.1875
100
AcDbArc
 50
158.394896685198
 51
21.60510331480198
  0
LINE
  5
181E2
330
A
100
AcDbEntity
  8
0
  6
Continuous
100
AcDbLine
 10
77.81102113296991
 20
14.11828196253924
 30
0.0
 11
77.81102113296992
 21
11.8361550861533
 31
0.0
  0
LINE
  5
181E3
330
A
100
AcDbEntity
  8
0
  6
Continuous
100
AcDbLine
 10
53.81102113296993
 20
14.11828196253924
 30
0.0
 11
53.81102113296993
 21
11.8361550861533
 31
0.0
  0
LINE
  5
181E4
330
A
100
AcDbEntity
  8
0
  6
Continuous
100
AcDbLine
 10
81.31102113296993
 20
14.11828196253924
 30
0.0
 11
81.31102113296991
 21
11.8361550861533
 31
0.0
  0
LINE
  5
181E5
330
A
100
AcDbEntity
  8
0
  6
Continuous
100
AcDbLine
 10
50.31102113296993
 20
14.11828196253924
 30
0.0
 11
50.31102113296992
 21
11.8361550861533
 31
0.0
  0
LINE
  5
181E7
330
A
100
AcDbEntity
  8
0
  6
Continuous
100
AcDbLine
 10
9.059513630961674
 20
14.11828196253925
 30
0.0
 11
9.059513630961674
 21
11.8361550861533
 31
0.0
  0
LINE
  5
181E8
330
A
100
AcDbEntity
  8
0
  6
Continuous
100
AcDbLine
 10
2.059513630961674
 20
14.11828196253925
 30
0.0
 11
2.059513630961674
 21
11.8361550861533
 31
0.0
  0
LINE
  5
181E9
330
A
100
AcDbEntity
  8
0
  6
Continuous
100
AcDbLine
 10
-1.440486369038325
 20
14.11828196253925
 30
0.0
 11
-1.44048636903831
 21
11.83615508615331
 31
0.0
  0
LINE
  5
181EA
330
A
100
AcDbEntity
  8
0
  6
Continuous
100
AcDbLine
 10
12.55951363096167
 20
14.11828196253925
 30
0.0
 11
12.55951363096167
 21
11.8361550861533
 31
0.0
  0
INSERT
  5
1881C
330
A
100
AcDbEntity
  8
0
100
AcDbBlockReference
  2
NOTE34
 10
176.2505693976287
 20
-22.59652389507747
 30
0.0
  0
INSERT
  5
1881D
330
A
100
AcDbEntity
  8
0
100
AcDbBlockReference
  2
NOTE35
 10
176.2505693976287
 20
-22.59652389507747
 30
0.0
  0
INSERT
  5
1881E
330
A
100
AcDbEntity
  8
0
100
AcDbBlockReference
  2
NOTE36
 10
176.2505693976287
 20
-22.59652389507747
 30
0.0
  0
INSERT
  5
1881F
330
A
100
AcDbEntity
  8
0
100
AcDbBlockReference
  2
NOTE37
 10
176.2505693976287
 20
-22.59652389507747
 30
0.0
  0
INSERT
  5
18820
330
A
100
AcDbEntity
  8
0
100
AcDbBlockReference
  2
NOTE38
 10
176.2505693976287
 20
-22.59652389507747
 30
0.0
  0
INSERT
  5
18821
330
A
100
AcDbEntity
  8
0
100
AcDbBlockReference
  2
NOTE39
 10
176.2505693976287
 20
-22.59652389507747
 30
0.0
  0
INSERT
  5
18822
330
A
100
AcDbEntity
  8
0
100
AcDbBlockReference
  2
NOTE40
 10
176.2505693976287
 20
-22.59652389507747
 30
0.0
  0
INSERT
  5
18823
330
A
100
AcDbEntity
  8
0
100
AcDbBlockReference
  2
NOTE49
 10
176.2505693976287
 20
-22.59652389507747
 30
0.0
  0
INSERT
  5
18824
330
A
100
AcDbEntity
  8
0
100
AcDbBlockReference
  2
NOTE58
 10
176.2505693976287
 20
-22.59652389507747
 30
0.0
  0
INSERT
  5
18825
330
A
100
AcDbEntity
  8
0
100
AcDbBlockReference
  2
NOTE59
 10
176.2505693976287
 20
-22.59652389507747
 30
0.0
  0
MTEXT
  5
18E34
330
A
100
AcDbEntity
  8
Dim
 62
     4
100
AcDbMText
 10
-972.2092524151939
 20
-66.35382289887949
 30
0.0
 40
1.125
 41
0.0
 71
     1
 72
     1
  1
\A1;
 73
     1
 44
1.0
1001
ACAD
1000
MTEXTBEGIN
1070
    73
1070
     1
1070
    44
1040
1.0
1070
    74
1070
     0
1000
MTEXTEND
  0
MTEXT
  5
18E35
330
A
100
AcDbEntity
  8
Dim
 62
     4
100
AcDbMText
 10
-979.8446334283466
 20
-66.10305056630389
 30
0.0
 40
1.125
 41
0.0
 71
     1
 72
     1
  1
\A1;
 73
     1
 44
1.0
1001
ACAD
1000
MTEXTBEGIN
1070
    73
1070
     1
1070
    44
1040
1.0
1070
    74
1070
     0
1000
MTEXTEND
  0
INSERT
  5
18F67
330
A
100
AcDbEntity
  8
0
100
AcDbBlockReference
  2
NOTE40
 10
-125.3537907137167
 20
259.7166946473874
 30
0.0
 50
180.0
  0
INSERT
  5
18F68
330
A
100
AcDbEntity
  8
0
100
AcDbBlockReference
  2
NOTE41
 10
-125.3537907137167
 20
259.7166946473874
 30
0.0
 50
180.0
  0
INSERT
  5
18F69
330
A
100
AcDbEntity
  8
0
100
AcDbBlockReference
  2
NOTE42
 10
-125.3537907137167
 20
259.7166946473874
 30
0.0
 50
180.0
  0
INSERT
  5
18F6A
330
A
100
AcDbEntity
  8
0
100
AcDbBlockReference
  2
NOTE43
 10
-125.3537907137167
 20
259.7166946473874
 30
0.0
 50
180.0
  0
INSERT
  5
18F6B
330
A
100
AcDbEntity
  8
0
100
AcDbBlockReference
  2
NOTE44
 10
-125.3537907137167
 20
259.7166946473874
 30
0.0
 50
180.0
  0
INSERT
  5
18F6C
330
A
100
AcDbEntity
  8
0
100
AcDbBlockReference
  2
NOTE45
 10
-125.3537907137167
 20
259.7166946473874
 30
0.0
 50
180.0
  0
INSERT
  5
18F6D
330
A
100
AcDbEntity
  8
0
100
AcDbBlockReference
  2
NOTE65
 10
-125.3537907137167
 20
259.7166946473874
 30
0.0
 50
180.0
  0
INSERT
  5
18F6E
330
A
100
AcDbEntity
  8
0
100
AcDbBlockReference
  2
NOTE66
 10
-125.3537907137167
 20
259.7166946473874
 30
0.0
 50
180.0
  0
INSERT
  5
18F6F
330
A
100
AcDbEntity
  8
0
100
AcDbBlockReference
  2
NOTE74
 10
-125.3537907137167
 20
259.7166946473874
 30
0.0
 50
180.0
  0
LWPOLYLINE
  5
18F8C
330
A
100
AcDbEntity
  8
0
  6
Continuous
 62
     7
100
AcDbPolyline
 90
        6
 70
   128
 43
0.0
 10
63.93784793202659
 20
83.52344745604671
 10
63.46505227380237
 20
83.63301909693246
 10
62.8455548302897
 20
83.82446264536023
 10
62.24169964607632
 20
84.05983763295495
 10
61.65793286979994
 20
84.33705203055058
 10
61.54504806718814
 20
84.40085950677451
  0
LWPOLYLINE
  5
18F8D
330
A
100
AcDbEntity
  8
0
  6
Continuous
 62
     7
100
AcDbPolyline
 90
        6
 70
   128
 43
0.0
 10
70.07702323841624
 20
84.40080670738444
 10
69.9636086819242
 20
84.33668478145973
 10
69.38039043264453
 20
84.0598681392692
 10
68.77666490026673
 20
83.82457176409969
 10
68.15716379012974
 20
83.63305429652582
 10
67.73104279271587
 20
83.53429479740396
  0
LWPOLYLINE
  5
18F8E
330
A
100
AcDbEntity
  8
0
  6
Continuous
 62
     7
100
AcDbPolyline
 90
        7
 70
   128
 43
0.0
 10
61.54704505745208
 20
84.39486501602337
 10
61.46385785843771
 20
84.44482966549413
 10
61.38605942383851
 20
84.50370685200653
 10
61.31456846304156
 20
84.57122905865089
 10
61.25005494164057
 20
84.64708418236602
 10
61.14785644224637
 20
84.81772477111139
 10
61.08656427029877
 20
85.00113577233184
  0
LWPOLYLINE
  5
18F8F
330
A
100
AcDbEntity
  8
0
  6
Continuous
 62
     7
100
AcDbPolyline
 90
        7
 70
   128
 43
0.0
 10
70.53547799564109
 20
85.00113577233184
 10
70.47418582369352
 20
84.81772477111139
 10
70.37198732429928
 20
84.64708418236602
 10
70.30747380289833
 20
84.57122905865089
 10
70.23598284210135
 20
84.50370685200653
 10
70.15818440750217
 20
84.44482966549413
 10
70.07499720848779
 20
84.39486501602337
  0
LWPOLYLINE
  5
18F90
330
A
100
AcDbEntity
  8
0
  6
Continuous
 62
     7
100
AcDbPolyline
 90
        9
 70
   128
 43
0.0
 10
72.71407616162253
 20
85.0477986999444
 10
72.6709607663619
 20
85.04828797429226
 10
72.62769459950971
 20
85.04871271605228
 10
72.58429936748178
 20
85.04907292522444
 10
72.54079677669409
 20
85.04936742848901
 10
72.49720794690261
 20
85.04959622584591
 10
72.45355399786345
 20
85.04976049061497
 10
72.4098572226523
 20
85.04985904947643
 10
72.36613932768517
 20
85.04989190243021
  0
LWPOLYLINE
  5
18F91
330
A
100
AcDbEntity
  8
0
  6
Continuous
 62
     7
100
AcDbPolyline
 90
        9
 70
   128
 43
0.0
 10
58.90796610431736
 20
85.0477986999444
 10
58.95108149957795
 20
85.04828797429226
 10
58.99434766643018
 20
85.04871271605228
 10
59.03774289845808
 20
85.04907292522444
 10
59.08124548924576
 20
85.04936742848901
 10
59.12483431903724
 20
85.04959622584591
 10
59.16848826807644
 20
85.04976049061497
 10
59.21218504328756
 20
85.04985904947643
 10
59.25590293825468
 20
85.04989190243021
  0
LWPOLYLINE
  5
18F92
330
A
100
AcDbEntity
  8
0
  6
Continuous
 62
     7
100
AcDbPolyline
 90
        4
 70
   128
 43
0.0
 10
63.93737229752117
 20
83.52085793929438
 10
64.5222736740239
 20
83.41462556649981
 10
65.16775817066522
 20
83.34501837060807
 10
65.8110211329722
 20
83.32204007605529
  0
LWPOLYLINE
  5
18F93
330
A
100
AcDbEntity
  8
0
  6
Continuous
 62
     7
100
AcDbPolyline
 90
       13
 70
   128
 43
0.0
 10
65.8110211329722
 20
82.18031075874312
 10
65.05062976374256
 20
82.20364691582853
 10
64.28645517155269
 20
82.2743828453477
 10
63.5229118987364
 20
82.39322019252853
 10
62.76452859297837
 20
82.56032439545981
 10
62.01586697491462
 20
82.77528713885855
 10
61.28142511258301
 20
83.03711462087182
 10
60.60588419648935
 20
83.32552483579906
 10
59.95031347636491
 20
83.65251497838102
 10
59.31791934183591
 20
84.01596603309675
 10
58.71161397259392
 20
84.41342576160804
 10
58.13398512541168
 20
84.84216032882974
 10
58.13385577864151
 20
85.00070289039683
  0
LWPOLYLINE
  5
18F94
330
A
100
AcDbEntity
  8
0
  6
Continuous
 62
     7
100
AcDbPolyline
 90
       13
 70
   128
 43
0.0
 10
65.8110211329722
 20
82.18031075874312
 10
66.57141250219729
 20
82.20364691582853
 10
67.33558709438717
 20
82.2743828453477
 10
68.09913036720349
 20
82.39322019252853
 10
68.85751367296149
 20
82.56032439545981
 10
69.60617529102524
 20
82.77528713885855
 10
70.34061715335685
 20
83.03711462087182
 10
71.01615806945054
 20
83.32552483579906
 10
71.67172878957495
 20
83.65251497838102
 10
72.30412292410398
 20
84.01596603309675
 10
72.91042829334594
 20
84.41342576160804
 10
73.48805714052821
 20
84.84216032882974
 10
73.48818648730293
 20
85.00070289039683
  0
LWPOLYLINE
  5
18F95
330
A
100
AcDbEntity
  8
0
  6
Continuous
 62
     7
100
AcDbPolyline
 90
        4
 70
   128
 43
0.0
 10
67.73192923580893
 20
83.52944194679784
 10
67.09976859191596
 20
83.41462556649981
 10
66.45428409527463
 20
83.34501837060807
 10
65.8110211329722
 20
83.32204007605529
  0
LWPOLYLINE
  5
18F96
330
A
100
AcDbEntity
  8
0
  6
Continuous
 62
     7
100
AcDbPolyline
 90
        9
 70
   128
 43
0.0
 10
73.38813077488612
 20
85.02033832383569
 10
73.32267771767206
 20
85.02549623758435
 10
73.25053556439769
 20
85.03022940957299
 10
73.17230446812999
 20
85.03449912024894
 10
73.08863620800622
 20
85.0382701700188
 10
73.00022714931521
 20
85.04150970592872
 10
72.90781355021834
 20
85.04419191494362
 10
72.81216452183073
 20
85.04629333066787
 10
72.71407616162253
 20
85.0477986999444
  0
LWPOLYLINE
  5
18F97
330
A
100
AcDbEntity
  8
0
  6
Continuous
 62
     7
100
AcDbPolyline
 90
        9
 70
   128
 43
0.0
 10
58.23391149105376
 20
85.02033832383569
 10
58.29936454826779
 20
85.02549623758435
 10
58.37150670154216
 20
85.03022940957299
 10
58.44973779780986
 20
85.03449912024894
 10
58.53340605793364
 20
85.0382701700188
 10
58.62181511662465
 20
85.04150970592872
 10
58.71422871572153
 20
85.04419191494362
 10
58.80987774410912
 20
85.04629333066787
 10
58.90796610431736
 20
85.0477986999444
  0
LWPOLYLINE
  5
18F98
330
A
100
AcDbEntity
  8
0
  6
Continuous
 62
     7
100
AcDbPolyline
 90
       12
 70
   128
 43
0.0
 10
61.08661178974982
 20
85.00070281733338
 10
61.06683812484355
 20
85.00944170304771
 10
61.01014976637896
 20
85.01730059892773
 10
60.92085778455425
 20
85.02371396483999
 10
60.77844140309376
 20
85.0295136845078
 10
60.62859028085337
 20
85.03446040069624
 10
60.47440315536955
 20
85.03866792542391
 10
60.31589058652026
 20
85.04213860533031
 10
60.05585593712937
 20
85.04609855958458
 10
59.79025740534627
 20
85.04825512133846
 10
59.52341398127764
 20
85.04948241382733
 10
59.25590293825468
 20
85.04989190243021
  0
LWPOLYLINE
  5
18F99
330
A
100
AcDbEntity
  8
0
  6
Continuous
 62
     7
100
AcDbPolyline
 90
       12
 70
   128
 43
0.0
 10
70.53543047619005
 20
85.00070281733338
 10
70.55520414109631
 20
85.00944170304771
 10
70.6118924995609
 20
85.01730059892773
 10
70.70118448138564
 20
85.02371396483999
 10
70.84360086284613
 20
85.0295136845078
 10
70.99345198508649
 20
85.03446040069624
 10
71.14763911057031
 20
85.03866792542391
 10
71.3061516794196
 20
85.04213860533031
 10
71.56618632881048
 20
85.04609855958458
 10
71.83178486059358
 20
85.04825512133846
 10
72.09862828466225
 20
85.04948241382733
 10
72.36613932768517
 20
85.04989190243021
  0
LWPOLYLINE
  5
18F9A
330
A
100
AcDbEntity
  8
0
  6
Continuous
 62
     7
100
AcDbPolyline
 90
        5
 70
   128
 43
0.0
 10
73.4881862057039
 20
85.00070281733338
 10
73.48171358714279
 20
85.00596632986219
 10
73.46247290274615
 20
85.01108552405815
 10
73.43099097309476
 20
85.01591960154781
 10
73.38813077488612
 20
85.02033832383569
  0
LWPOLYLINE
  5
18F9B
330
A
100
AcDbEntity
  8
0
  6
Continuous
 62
     7
100
AcDbPolyline
 90
        5
 70
   128
 43
0.0
 10
58.13385606023599
 20
85.00070281733338
 10
58.14032867879706
 20
85.00596632986219
 10
58.1595693631937
 20
85.01108552405815
 10
58.19105129284509
 20
85.01591960154781
 10
58.23391149105376
 20
85.02033832383569
  0
LINE
  5
18F9C
330
A
100
AcDbEntity
  8
0
  6
Continuous
 62
     7
100
AcDbLine
 10
69.08743498075087
 20
83.94569149405555
 30
0.0
 11
62.53454188235942
 21
83.94569149405555
 31
0.0
  0
LINE
  5
18F9D
330
A
100
AcDbEntity
  8
0
  6
Continuous
 62
     7
100
AcDbLine
 10
69.16156421946002
 20
82.64762623921701
 30
0.0
 11
78.78600833808104
 21
82.64762623921701
 31
0.0
  0
LINE
  5
18F9E
330
A
100
AcDbEntity
  8
0
  6
Continuous
 62
     7
100
AcDbLine
 10
59.44019497075421
 20
83.94569149405555
 30
0.0
 11
52.83603392785881
 21
83.94569149405555
 31
0.0
  0
LINE
  5
18FAC
330
A
100
AcDbEntity
  8
0
  6
Continuous
 62
     7
100
AcDbLine
 10
53.81102113296993
 20
11.8361550861533
 30
0.0
 11
50.31102113296991
 21
11.8361550861533
 31
0.0
  0
LINE
  5
18FAD
330
A
100
AcDbEntity
  8
0
  6
Continuous
 62
     7
100
AcDbLine
 10
9.059513630961674
 20
11.8361550861533
 30
0.0
 11
12.55951363096168
 21
11.8361550861533
 31
0.0
  0
VIEWPORT
  5
18FB5
102
{ACAD_XDICTIONARY
360
19075
102
}
330
18FAE
100
AcDbEntity
 67
     1
  8
0
  6
Continuous
100
AcDbViewport
 10
5.375000386055205
 20
4.321494952346128
 30
0.0
 40
11.6150373633174
 41
7.05234121718076
 68
     1
 69
     1
 12
5.375000386055205
 22
4.321494952346128
 13
0.0
 23
0.0
 14
0.5
 24
0.5
 15
0.5
 25
0.5
 16
0.0
 26
0.0
 36
1.0
 17
0.0
 27
0.0
 37
0.0
 42
50.0
 43
0.0
 44
0.0
 45
7.05234121718076
 50
0.0
 51
0.0
 72
  2000
 90
   557088
  1

281
     0
 71
     1
 74
     0
110
0.0
120
0.0
130
0.0
111
1.0
121
0.0
131
0.0
112
0.0
122
1.0
132
0.0
 79
     0
146
0.0
  0
VIEWPORT
  5
18FB7
102
{ACAD_XDICTIONARY
360
19077
102
}
330
18FAE
100
AcDbEntity
 67
     1
  8
0
  6
Continuous
100
AcDbViewport
 10
5.375000121086602
 20
4.124999820716737
 30
0.0
 40
8.600000193738562
 41
6.599999713146781
 68
     2
 69
     2
 12
44.66977032356516
 22
50.40359729839699
 13
0.0
 23
0.0
 14
1.0
 24
1.0
 15
0.0
 25
0.0
 16
0.0
 26
0.0
 36
1.0
 17
0.0
 27
0.0
 37
0.0
 42
50.0
 43
0.0
 44
0.0
 45
88.25807957121581
 50
0.0
 51
0.0
 72
  2000
 90
   819232
  1

281
     0
 71
     1
 74
     0
110
0.0
120
0.0
130
0.0
111
1.0
121
0.0
131
0.0
112
0.0
122
1.0
132
0.0
 79
     0
146
0.0
  0
MTEXT
  5
1902F
330
18FAE
100
AcDbEntity
 67
     1
  8
0
  6
Continuous
100
AcDbMText
 10
7.46374978501646
 20
7.817611356893445
 30
0.0
 40
0.15
 41
16.9171875
 71
     1
 72
     1
  1
AD-00154, ABY794, V.01
  7
SLDTEXTSTYLE0
 73
     1
 44
1.0
1001
ACAD
1000
MTEXTBEGIN
1070
    73
1070
     1
1070
    44
1040
1.0
1070
    74
1070
     0
1000
MTEXTEND
  0
ENDSEC
  0
SECTION
  2
OBJECTS
  0
DICTIONARY
  5
19
330
0
100
AcDbDictionary
281
     1
  3
ACAD_2007HEADERVARS_RT
350
19068
  3
ACAD_COLOR
350
11548
  3
ACAD_GROUP
350
1A
  3
ACAD_LAYOUT
350
101F
  3
ACAD_MATERIAL
350
11547
  3
ACAD_MLINESTYLE
350
1B
  3
ACAD_PLOTSETTINGS
350
1020
  3
ACAD_PLOTSTYLENAME
350
101D
  3
ACAD_TABLESTYLE
350
11549
  3
ACAD_VISUALSTYLE
350
1812A
  3
AcDbVariableDictionary
350
102A
  3
ASE_INDEX_DICTIONARY
350
18124
  3
DWGPROPS
350
19067
  0
DICTIONARY
  5
18FC7
330
7
100
AcDbDictionary
280
     1
281
     1
  0
DICTIONARY
  5
11555
330
2
100
AcDbDictionary
280
     1
281
     1
  3
ACAD_LAYERSTATES
360
11556
  0
DICTIONARY
  5
181D6
330
A
100
AcDbDictionary
280
     1
281
     1
  3
ACAD_SORTENTS
360
181D7
  0
DICTIONARY
  5
19075
330
18FB5
100
AcDbDictionary
280
     1
281
     1
  3
ACAD_XREC_ROUNDTRIP
360
19076
  0
DICTIONARY
  5
19077
330
18FB7
100
AcDbDictionary
280
     1
281
     1
  3
ACAD_XREC_ROUNDTRIP
360
19078
  0
DICTIONARY
  5
19068
102
{ACAD_REACTORS
330
19
102
}
330
19
100
AcDbDictionary
281
     1
  3
DIMFXL
350
19069
  0
DICTIONARY
  5
11548
102
{ACAD_REACTORS
330
19
102
}
330
19
100
AcDbDictionary
281
     1
  0
DICTIONARY
  5
1A
102
{ACAD_REACTORS
330
19
102
}
330
19
100
AcDbDictionary
281
     1
  0
DICTIONARY
  5
101F
102
{ACAD_REACTORS
330
19
102
}
330
19
100
AcDbDictionary
281
     1
  3
Layout1
350
18FAF
  3
Model
350
1021
  0
DICTIONARY
  5
11547
102
{ACAD_REACTORS
330
19
102
}
330
19
100
AcDbDictionary
281
     1
  3
ByBlock
350
18129
  3
ByLayer
350
18128
  3
Global
350
165DF
  0
DICTIONARY
  5
1B
102
{ACAD_REACTORS
330
19
102
}
330
19
100
AcDbDictionary
281
     1
  3
STANDARD
350
1C
  0
DICTIONARY
  5
1020
102
{ACAD_REACTORS
330
19
102
}
330
19
100
AcDbDictionary
281
     1
  0
ACDBDICTIONARYWDFLT
  5
101D
102
{ACAD_REACTORS
330
19
102
}
330
19
100
AcDbDictionary
281
     1
  3
Normal
350
101E
100
AcDbDictionaryWithDefault
340
101E
  0
DICTIONARY
  5
11549
102
{ACAD_REACTORS
330
19
102
}
330
19
100
AcDbDictionary
281
     1
  3
Standard
350
1154A
  0
DICTIONARY
  5
1812A
102
{ACAD_REACTORS
330
19
102
}
330
19
100
AcDbDictionary
281
     1
  3
2dWireframe
350
18130
  3
3D Hidden
350
18132
  3
3dWireframe
350
18131
  3
Basic
350
1812F
  3
Brighten
350
18136
  3
ColorChange
350
1813A
  3
Conceptual
350
18133
  3
Dim
350
18135
  3
Facepattern
350
18139
  3
Flat
350
1812B
  3
FlatWithEdges
350
1812C
  3
Gouraud
350
1812D
  3
GouraudWithEdges
350
1812E
  3
Linepattern
350
18138
  3
Realistic
350
18134
  3
Thicken
350
18137
  0
DICTIONARY
  5
102A
102
{ACAD_REACTORS
330
19
102
}
330
19
100
AcDbDictionary
281
     1
  3
CTABLESTYLE
350
1156E
  3
DIMASSOC
350
102B
  3
INDEXCTL
350
1905D
  3
SORTENTS
350
1905C
  0
DICTIONARY
  5
18124
102
{ACAD_REACTORS
330
19
102
}
330
19
100
AcDbDictionary
281
     1
  3
ASEBlockHierarchyIndexRecord
350
18125
1001
DCO15
1040
1579855854.008
  0
XRECORD
  5
19067
102
{ACAD_REACTORS
330
19
102
}
330
19
100
AcDbXrecord
280
     1
  1
DWGPROPS COOKIE
  2

  3

  4

  6

  7

  8
nnguyen
  9

300
=
301
=
302
=
303
=
304
=
305
=
306
=
307
=
308
=
309
=
 40
1.405340104166666
 41
2444971.708333333
 42
2454922.399815845
  1

 90
        0
  0
DICTIONARY
  5
11556
102
{ACAD_REACTORS
330
11555
102
}
330
11555
100
AcDbDictionary
281
     1
  0
SORTENTSTABLE
  5
181D7
102
{ACAD_REACTORS
330
181D6
102
}
330
181D6
100
AcDbSortentsTable
330
A
331
E5
  5
E5
331
F0B2
  5
F0B5
331
EEE4
  5
F009
331
F0BA
  5
F0BE
331
F00C
  5
F010
331
18F9A
  5
18FAC
331
F014
  5
F016
331
F101
  5
17F14
331
181DC
  5
181E7
331
F0CA
  5
F0CE
331
F01C
  5
F020
331
181E4
  5
1881D
331
F0D2
  5
F0DA
331
F093
  5
F097
331
F0DA
  5
F0EB
331
1881C
  5
18822
331
142BE
  5
181D0
331
F0A3
  5
F0A7
331
F06C
  5
F06F
331
18824
  5
18E3D
331
18F6B
  5
18F70
331
F0EA
  5
F0F4
331
EED5
  5
EED5
331
F074
  5
F077
331
18E34
  5
18F6A
331
18F93
  5
18F98
331
F0B3
  5
F0B6
331
F0BB
  5
F0C3
331
18F9B
  5
18FAD
331
17F16
  5
181D8
331
F0C3
  5
F0C6
331
F015
  5
F018
331
F08C
  5
F094
331
F0CB
  5
F0D2
331
F01D
  5
F062
331
181E5
  5
181EA
331
F0D3
  5
F0DD
331
F094
  5
F098
331
F065
  5
F069
331
1881D
  5
18823
331
F0E3
  5
F0EE
331
F0A4
  5
F0A8
331
F06D
  5
F070
331
18825
  5
18E3E
331
18F6C
  5
18F71
331
F0EB
  5
F0F5
331
F0AC
  5
F0AF
331
EED6
  5
EED6
331
F075
  5
F078
331
18E35
  5
18F6B
331
18F8C
  5
18F91
331
181CE
  5
181D9
331
18F94
  5
18F99
331
F0F3
  5
F100
331
F0B4
  5
F0B7
331
F07D
  5
F080
331
18F9C
  5
F0CF
331
F0C4
  5
F0C7
331
F016
  5
F019
331
18FAC
  5
EED8
331
F0CC
  5
F0D3
331
F0D4
  5
F0E1
331
F09D
  5
F0A1
331
1881E
  5
18824
331
F0A5
  5
F0A9
331
F06E
  5
F071
331
18F6D
  5
18F72
331
F0EC
  5
F0F6
331
F0AD
  5
F0B0
331
EED7
  5
EED7
331
F076
  5
F079
331
18F8D
  5
18F92
331
181CF
  5
181DA
331
18F95
  5
18F9A
331
F0F4
  5
F101
331
F0B5
  5
F0B9
331
F07E
  5
F081
331
B1
  5
B1
331
F0BD
  5
F0C4
331
F086
  5
F08D
331
B9
  5
B9
331
18F9D
  5
F0CD
331
F0C5
  5
F0C8
331
F017
  5
F01A
331
18FAD
  5
181D1
331
F0CD
  5
F0D4
331
F01F
  5
F067
331
181E7
  5
18820
331
C1
  5
C1
331
C9
  5
C9
331
F0D5
  5
F0E2
331
F096
  5
F099
331
F0DD
  5
F0EC
331
F067
  5
F06A
331
1881F
  5
18825
331
F06F
  5
F072
331
18F6E
  5
18F8F
331
F0ED
  5
F0F7
331
F0AE
  5
F0B1
331
F077
  5
F07A
331
18F8E
  5
18F93
331
18F96
  5
18F9B
331
E1
  5
E1
331
F0F5
  5
142BD
331
F0B6
  5
F0BA
331
F07F
  5
F082
331
F008
  5
F00A
331
181D0
  5
181DB
331
181D8
  5
181E2
331
F0BE
  5
F0C5
331
F087
  5
F092
331
F010
  5
F012
331
18F9E
  5
F0D0
331
181E0
  5
181E8
331
F105
  5
17F16
331
F018
  5
F01C
331
F0C6
  5
F0C9
331
181E8
  5
1881E
331
F0CE
  5
F0D5
331
F020
  5
F068
331
F0D6
  5
F0E3
331
F097
  5
F09C
331
18820
  5
18E34
331
F09F
  5
F0A3
331
F068
  5
F06B
331
18F67
  5
18F6C
331
18F6F
  5
18F90
331
F0A7
  5
F0AD
331
F070
  5
F073
331
18F8F
  5
18F94
331
F0EE
  5
F0F8
331
F0AF
  5
F0B2
331
18F97
  5
18F9C
331
F078
  5
F07D
331
EEE1
  5
EEE3
331
181D1
  5
181DC
331
F0F6
  5
142BE
331
F0B7
  5
F0BB
331
F080
  5
F084
331
F009
  5
F00B
331
181D9
  5
181E3
331
F011
  5
F014
331
F0C7
  5
F0CA
331
F019
  5
F01D
331
F106
  5
181CE
331
181E9
  5
1881F
331
F0CF
  5
F0D6
331
F0D7
  5
F0E7
331
F098
  5
F09E
331
18821
  5
18E35
331
F0A0
  5
F0A4
331
F069
  5
F06C
331
18F68
  5
18F6D
331
F0E7
  5
F0F0
331
F0A8
  5
F0AE
331
F071
  5
F074
331
18F90
  5
18F95
331
F0B0
  5
F0B3
331
F079
  5
F07E
331
EEE2
  5
EEE4
331
181D2
  5
181DE
331
F0F7
  5
142BF
331
F081
  5
F087
331
F00A
  5
F00C
331
18F98
  5
18F9D
331
181DA
  5
181E4
331
181E2
  5
1881C
331
F0C8
  5
F0CB
331
F01A
  5
F01F
331
181EA
  5
18821
331
F0D0
  5
F0D7
331
F0D8
  5
F0EA
331
F099
  5
F0A0
331
18822
  5
18E3B
331
F0A1
  5
F0A5
331
F06A
  5
F06D
331
18F69
  5
18F6E
331
F0E8
  5
F0F3
331
F072
  5
F075
331
18F91
  5
18F96
331
F0F0
  5
F0F9
331
F0B1
  5
F0B4
331
EEE3
  5
F008
331
181D3
  5
181E0
331
F0F8
  5
142C0
331
F0B9
  5
F0BD
331
F082
  5
F089
331
B5
  5
B5
331
F00B
  5
F00E
331
18F99
  5
18F9E
331
181DB
  5
181E5
331
17F14
  5
181D4
331
BD
  5
BD
331
F013
  5
F015
331
181E3
  5
181E9
331
F0C9
  5
F0CC
331
C5
  5
C5
331
F0D1
  5
F0D8
331
F092
  5
F096
331
D5
  5
D5
331
18823
  5
18E3C
331
F0E1
  5
F0ED
331
F06B
  5
F06E
331
18F6A
  5
18F6F
331
EED4
  5
EED4
331
F073
  5
F076
331
18F92
  5
18F97
  0
XRECORD
  5
19076
102
{ACAD_REACTORS
330
19075
102
}
330
19075
100
AcDbXrecord
280
     1
102
SHADEPLOT
 70
     0
  0
XRECORD
  5
19078
102
{ACAD_REACTORS
330
19077
102
}
330
19077
100
AcDbXrecord
280
     1
102
SHADEPLOT
 70
     0
  0
XRECORD
  5
19069
102
{ACAD_REACTORS
330
19068
102
}
330
19068
100
AcDbXrecord
280
     1
 40
0.125
  0
LAYOUT
  5
18FAF
102
{ACAD_XDICTIONARY
360
18FBC
102
}
102
{ACAD_REACTORS
330
101F
102
}
330
101F
100
AcDbPlotSettings
  1

  2
Fax
  4
Letter
  6

 40
3.174999952316284
 41
3.174999952316284
 42
3.175003051757812
 43
3.17498779296875
 44
215.8999938964844
 45
279.3999938964844
 46
0.0
 47
0.0
 48
0.0
 49
0.0
140
0.0
141
0.0
142
1.0
143
1.0
 70
   688
 72
     0
 73
     1
 74
     5
  7
monochrome.ctb
 75
    16
147
1.0
148
0.0
149
0.0
100
AcDbLayout
  1
Layout1
 70
     1
 71
     1
 10
-0.1249995194082185
 20
-0.1249999981226884
 11
10.87500024029589
 21
8.37499976158142
 12
0.0
 22
0.0
 32
0.0
 14
1.07500002421732
 24
0.8249999641433474
 34
0.0
 15
9.675000217955883
 25
7.817611356893448
 35
0.0
146
0.0
 13
0.0
 23
0.0
 33
0.0
 16
1.0
 26
0.0
 36
0.0
 17
0.0
 27
1.0
 37
0.0
 76
     0
330
18FAE
331
18FB5
1001
ACAD_PSEXT
1000
Fax
1000
Microsoft Shared Fax Driver
1000
SHRFAX:
1000

1070
     0
  0
LAYOUT
  5
1021
102
{ACAD_XDICTIONARY
360
1906A
102
}
102
{ACAD_REACTORS
330
101F
102
}
330
101F
100
AcDbPlotSettings
  1

  2
Adobe PDF
  4
Letter
  6

 40
3.174999952316284
 41
3.174999952316284
 42
3.175003051757812
 43
3.17498779296875
 44
215.8999938964844
 45
279.3999938964844
 46
12.12273055614784
 47
0.0
 48
0.0
 49
0.0
140
0.0
141
0.0
142
1.0
143
10.57347260164245
 70
 11956
 72
     0
 73
     1
 74
     1
  7
monochrome.ctb
 75
     0
147
0.0945763078673569
148
308.9312065188366
149
-300.6210058302169
100
AcDbLayout
  1
Model
 70
     1
 71
     0
 10
0.0
 20
0.0
 11
12.0
 21
9.0
 12
0.0
 22
0.0
 32
0.0
 14
0.0
 24
0.0
 34
0.0
 15
0.0
 25
0.0
 35
0.0
146
0.0
 13
0.0
 23
0.0
 33
0.0
 16
1.0
 26
0.0
 36
0.0
 17
0.0
 27
1.0
 37
0.0
 76
     0
330
A
331
18126
1001
ACAD_PSEXT
1000
Adobe PDF
1000
Adobe PDF Converter
1000
My Documents
1000

1070
     0
  0
MATERIAL
  5
18129
102
{ACAD_XDICTIONARY
360
19072
102
}
102
{ACAD_REACTORS
330
11547
102
}
330
11547
100
AcDbMaterial
  1
ByBlock
  0
MATERIAL
  5
18128
102
{ACAD_XDICTIONARY
360
19070
102
}
102
{ACAD_REACTORS
330
11547
102
}
330
11547
100
AcDbMaterial
  1
ByLayer
  0
MATERIAL
  5
165DF
102
{ACAD_XDICTIONARY
360
1906E
102
}
102
{ACAD_REACTORS
330
11547
102
}
330
11547
100
AcDbMaterial
  1
Global
  0
MLINESTYLE
  5
1C
102
{ACAD_REACTORS
330
1B
102
}
330
1B
100
AcDbMlineStyle
  2
STANDARD
 70
     0
  3

 62
     0
 51
90.0
 52
90.0
 71
     2
 49
0.5
 62
   256
  6
BYLAYER
 49
-0.5
 62
   256
  6
BYLAYER
  0
ACDBPLACEHOLDER
  5
101E
102
{ACAD_REACTORS
330
101D
102
}
330
101D
  0
TABLESTYLE
  5
1154A
102
{ACAD_XDICTIONARY
360
1906C
102
}
102
{ACAD_REACTORS
330
11549
102
}
330
11549
100
AcDbTableStyle
  3
Standard
 70
     0
 71
     0
 40
0.06
 41
0.06
280
     0
281
     0
  7
STANDARD
140
0.18
170
     2
 62
     0
 63
     7
283
     0
274
    -2
284
     1
 64
     0
275
    -2
285
     1
 65
     0
276
    -2
286
     1
 66
     0
277
    -2
287
     1
 67
     0
278
    -2
288
     1
 68
     0
279
    -2
289
     1
 69
     0
  7
STANDARD
140
0.25
170
     5
 62
     0
 63
     7
283
     0
274
    -2
284
     1
 64
     0
275
    -2
285
     1
 65
     0
276
    -2
286
     1
 66
     0
277
    -2
287
     1
 67
     0
278
    -2
288
     1
 68
     0
279
    -2
289
     1
 69
     0
  7
STANDARD
140
0.18
170
     5
 62
     0
 63
     7
283
     0
274
    -2
284
     1
 64
     0
275
    -2
285
     1
 65
     0
276
    -2
286
     1
 66
     0
277
    -2
287
     1
 67
     0
278
    -2
288
     1
 68
     0
279
    -2
289
     1
 69
     0
  0
VISUALSTYLE
  5
18130
102
{ACAD_REACTORS
330
1812A
102
}
330
1812A
100
AcDbVisualStyle
  2
2dWireframe
 70
     4
 71
     0
 72
     2
 73
     0
 90
        0
 40
-0.6
 41
-30.0
 62
     5
 63
     7
 74
     1
 91
        4
 64
     7
 65
   257
 75
     1
175
     1
 42
1.0
 92
        0
 66
   257
 43
1.0
 76
     1
 77
     6
 78
     2
 67
     7
 79
     5
170
     0
171
     0
290
     0
174
     0
 93
        1
 44
0.0
173
     0
291
     0
 45
0.0
1001
ACAD
1000
AcDbSavedByObjectVersion
1070
     0
  0
VISUALSTYLE
  5
18132
102
{ACAD_REACTORS
330
1812A
102
}
330
1812A
100
AcDbVisualStyle
  2
3D Hidden
 70
     6
 71
     1
 72
     2
 73
     2
 90
        0
 40
-0.6
 41
-30.0
 62
     5
 63
     7
 74
     2
 91
        2
 64
     7
 65
   257
 75
     2
175
     1
 42
40.0
 92
        0
 66
   257
 43
1.0
 76
     1
 77
     6
 78
     2
 67
     7
 79
     3
170
     0
171
     0
290
     0
174
     0
 93
        1
 44
0.0
173
     0
291
     0
 45
0.0
1001
ACAD
1000
AcDbSavedByObjectVersion
1070
     0
  0
VISUALSTYLE
  5
18131
102
{ACAD_REACTORS
330
1812A
102
}
330
1812A
100
AcDbVisualStyle
  2
3dWireframe
 70
     5
 71
     0
 72
     2
 73
     0
 90
        0
 40
-0.6
 41
-30.0
 62
     5
 63
     7
 74
     1
 91
        4
 64
     7
 65
   257
 75
     1
175
     1
 42
1.0
 92
        0
 66
   257
 43
1.0
 76
     1
 77
     6
 78
     2
 67
     7
 79
     5
170
     0
171
     0
290
     0
174
     0
 93
        1
 44
0.0
173
     0
291
     0
 45
0.0
1001
ACAD
1000
AcDbSavedByObjectVersion
1070
     0
  0
VISUALSTYLE
  5
1812F
102
{ACAD_REACTORS
330
1812A
102
}
330
1812A
100
AcDbVisualStyle
  2
Basic
 70
     7
 71
     1
 72
     0
 73
     1
 90
        0
 40
-0.6
 41
-30.0
 62
     5
 63
     7
 74
     0
 91
        4
 64
     7
 65
   257
 75
     1
175
     1
 42
1.0
 92
        8
 66
     7
 43
1.0
 76
     1
 77
     6
 78
     2
 67
     7
 79
     5
170
     0
171
     0
290
     0
174
     0
 93
        1
 44
0.0
173
     0
291
     1
 45
0.0
1001
ACAD
1000
AcDbSavedByObjectVersion
1070
     0
  0
VISUALSTYLE
  5
18136
102
{ACAD_REACTORS
330
1812A
102
}
330
1812A
100
AcDbVisualStyle
  2
Brighten
 70
    12
 71
     2
 72
     2
 73
     0
 90
        0
 40
-0.6
 41
-30.0
 62
     5
 63
     7
 74
     1
 91
        4
 64
     7
 65
   257
 75
     1
175
     1
 42
1.0
 92
        8
 66
     7
 43
1.0
 76
     1
 77
     6
 78
     2
 67
     7
 79
     5
170
     0
171
     0
290
     0
174
     0
 93
        1
 44
50.0
173
     0
291
     1
 45
0.0
1001
ACAD
1000
AcDbSavedByObjectVersion
1070
     0
  0
VISUALSTYLE
  5
1813A
102
{ACAD_REACTORS
330
1812A
102
}
330
1812A
100
AcDbVisualStyle
  2
ColorChange
 70
    16
 71
     2
 72
     2
 73
     3
 90
        0
 40
-0.6
 41
-30.0
 62
     5
 63
     8
 74
     1
 91
        4
 64
     7
 65
   257
 75
     1
175
     1
 42
1.0
 92
        8
 66
     8
 43
1.0
 76
     1
 77
     6
 78
     2
 67
     7
 79
     5
170
     0
171
     0
290
     0
174
     0
 93
        1
 44
0.0
173
     0
291
     1
 45
0.0
1001
ACAD
1000
AcDbSavedByObjectVersion
1070
     0
  0
VISUALSTYLE
  5
18133
102
{ACAD_REACTORS
330
1812A
102
}
330
1812A
100
AcDbVisualStyle
  2
Conceptual
 70
     9
 71
     3
 72
     2
 73
     0
 90
        0
 40
-0.6
 41
-30.0
 62
     5
 63
     7
 74
     2
 91
        2
 64
     7
 65
   257
 75
     1
175
     1
 42
40.0
 92
        8
 66
     7
 43
1.0
 76
     1
 77
     6
 78
     2
 67
     7
 79
     3
170
     0
171
     0
290
     0
174
     0
 93
        1
 44
0.0
173
     0
291
     0
 45
0.0
1001
ACAD
1000
AcDbSavedByObjectVersion
1070
     0
  0
VISUALSTYLE
  5
18135
102
{ACAD_REACTORS
330
1812A
102
}
330
1812A
100
AcDbVisualStyle
  2
Dim
 70
    11
 71
     2
 72
     2
 73
     0
 90
        0
 40
-0.6
 41
-30.0
 62
     5
 63
     7
 74
     1
 91
        4
 64
     7
 65
   257
 75
     1
175
     1
 42
1.0
 92
        8
 66
     7
 43
1.0
 76
     1
 77
     6
 78
     2
 67
     7
 79
     5
170
     0
171
     0
290
     0
174
     0
 93
        1
 44
-50.0
173
     0
291
     1
 45
0.0
1001
ACAD
1000
AcDbSavedByObjectVersion
1070
     0
  0
VISUALSTYLE
  5
18139
102
{ACAD_REACTORS
330
1812A
102
}
330
1812A
100
AcDbVisualStyle
  2
Facepattern
 70
    15
 71
     2
 72
     2
 73
     0
 90
        0
 40
-0.6
 41
-30.0
 62
     5
 63
     7
 74
     1
 91
        4
 64
     7
 65
   257
 75
     1
175
     1
 42
1.0
 92
        8
 66
     7
 43
1.0
 76
     1
 77
     6
 78
     2
 67
     7
 79
     5
170
     0
171
     0
290
     0
174
     0
 93
        1
 44
0.0
173
     0
291
     1
 45
0.0
1001
ACAD
1000
AcDbSavedByObjectVersion
1070
     0
  0
VISUALSTYLE
  5
1812B
102
{ACAD_REACTORS
330
1812A
102
}
330
1812A
100
AcDbVisualStyle
  2
Flat
 70
     0
 71
     2
 72
     1
 73
     1
 90
        2
 40
-0.6
 41
30.0
 62
     5
 63
     7
 74
     0
 91
        4
 64
     7
 65
   257
 75
     1
175
     1
 42
1.0
 92
        8
 66
     7
 43
1.0
 76
     1
 77
     6
 78
     2
 67
     7
 79
     5
170
     0
171
     0
290
     0
174
     0
 93
       13
 44
0.0
173
     0
291
     1
 45
0.0
1001
ACAD
1000
AcDbSavedByObjectVersion
1070
     0
  0
VISUALSTYLE
  5
1812C
102
{ACAD_REACTORS
330
1812A
102
}
330
1812A
100
AcDbVisualStyle
  2
FlatWithEdges
 70
     1
 71
     2
 72
     1
 73
     1
 90
        2
 40
-0.6
 41
30.0
 62
     5
 63
     7
 74
     1
 91
        4
 64
     7
 65
   257
 75
     1
175
     1
 42
1.0
 92
        0
 66
   257
 43
1.0
 76
     1
 77
     6
 78
     2
 67
     7
 79
     5
170
     0
171
     0
290
     0
174
     0
 93
       13
 44
0.0
173
     0
291
     1
 45
0.0
1001
ACAD
1000
AcDbSavedByObjectVersion
1070
     0
  0
VISUALSTYLE
  5
1812D
102
{ACAD_REACTORS
330
1812A
102
}
330
1812A
100
AcDbVisualStyle
  2
Gouraud
 70
     2
 71
     2
 72
     2
 73
     1
 90
        2
 40
-0.6
 41
30.0
 62
     5
 63
     7
 74
     0
 91
        4
 64
     7
 65
   257
 75
     1
175
     1
 42
1.0
 92
        0
 66
     7
 43
1.0
 76
     1
 77
     6
 78
     2
 67
     7
 79
     5
170
     0
171
     0
290
     0
174
     0
 93
       13
 44
0.0
173
     0
291
     1
 45
0.0
1001
ACAD
1000
AcDbSavedByObjectVersion
1070
     0
  0
VISUALSTYLE
  5
1812E
102
{ACAD_REACTORS
330
1812A
102
}
330
1812A
100
AcDbVisualStyle
  2
GouraudWithEdges
 70
     3
 71
     2
 72
     2
 73
     1
 90
        2
 40
-0.6
 41
30.0
 62
     5
 63
     7
 74
     1
 91
        4
 64
     7
 65
   257
 75
     1
175
     1
 42
1.0
 92
        0
 66
   257
 43
1.0
 76
     1
 77
     6
 78
     2
 67
     7
 79
     5
170
     0
171
     0
290
     0
174
     0
 93
       13
 44
0.0
173
     0
291
     1
 45
0.0
1001
ACAD
1000
AcDbSavedByObjectVersion
1070
     0
  0
VISUALSTYLE
  5
18138
102
{ACAD_REACTORS
330
1812A
102
}
330
1812A
100
AcDbVisualStyle
  2
Linepattern
 70
    14
 71
     2
 72
     2
 73
     0
 90
        0
 40
-0.6
 41
-30.0
 62
     5
 63
     7
 74
     1
 91
        4
 64
     7
 65
   257
 75
     7
175
     7
 42
1.0
 92
        8
 66
     7
 43
1.0
 76
     1
 77
     6
 78
     2
 67
     7
 79
     5
170
     0
171
     0
290
     0
174
     0
 93
        1
 44
0.0
173
     0
291
     1
 45
0.0
1001
ACAD
1000
AcDbSavedByObjectVersion
1070
     0
  0
VISUALSTYLE
  5
18134
102
{ACAD_REACTORS
330
1812A
102
}
330
1812A
100
AcDbVisualStyle
  2
Realistic
 70
     8
 71
     2
 72
     2
 73
     0
 90
        0
 40
-0.6
 41
-30.0
 62
     5
 63
     7
 74
     1
 91
        0
 64
     7
 65
   257
 75
     1
175
     1
 42
1.0
 92
        8
 66
     8
 43
1.0
 76
     1
 77
     6
 78
     2
 67
     7
 79
     5
170
     0
171
     0
290
     0
174
     0
 93
       13
 44
0.0
173
     0
291
     0
 45
0.0
1001
ACAD
1000
AcDbSavedByObjectVersion
1070
     0
  0
VISUALSTYLE
  5
18137
102
{ACAD_REACTORS
330
1812A
102
}
330
1812A
100
AcDbVisualStyle
  2
Thicken
 70
    13
 71
     2
 72
     2
 73
     0
 90
        0
 40
-0.6
 41
-30.0
 62
     5
 63
     7
 74
     1
 91
        4
 64
     7
 65
   257
 75
     1
175
     1
 42
1.0
 92
       12
 66
     7
 43
1.0
 76
     1
 77
     6
 78
     2
 67
     7
 79
     5
170
     0
171
     0
290
     0
174
     0
 93
        1
 44
0.0
173
     0
291
     1
 45
0.0
1001
ACAD
1000
AcDbSavedByObjectVersion
1070
     0
  0
DICTIONARYVAR
  5
1156E
102
{ACAD_REACTORS
330
102A
102
}
330
102A
100
DictionaryVariables
280
     0
  1
STANDARD
  0
DICTIONARYVAR
  5
102B
102
{ACAD_REACTORS
330
102A
102
}
330
102A
100
DictionaryVariables
280
     0
  1
1
  0
DICTIONARYVAR
  5
1905D
102
{ACAD_REACTORS
330
102A
102
}
330
102A
100
DictionaryVariables
280
     0
  1
0
  0
DICTIONARYVAR
  5
1905C
102
{ACAD_REACTORS
330
102A
102
}
330
102A
100
DictionaryVariables
280
     0
  1
127
  0
XRECORD
  5
18125
102
{ACAD_REACTORS
330
18124
102
}
330
18124
100
AcDbXrecord
280
     1
330
0
330
0
330
0
330
0
330
B1
330
B5
330
B9
330
BD
330
C1
330
C5
330
C9
330
D5
330
E1
330
E5
  0
DICTIONARY
  5
18FBC
330
18FAF
100
AcDbDictionary
280
     1
281
     1
  3
ACAD_XREC_ROUNDTRIP
360
19074
  3
ADSK_XREC_LAYOUTTHUMBNAIL
360
18FBD
  0
DICTIONARY
  5
1906A
330
1021
100
AcDbDictionary
280
     1
281
     1
  3
ACAD_XREC_ROUNDTRIP
360
1906B
  0
DICTIONARY
  5
19072
330
18129
100
AcDbDictionary
280
     1
281
     1
  3
ACAD_XREC_ROUNDTRIP
360
19073
  0
DICTIONARY
  5
19070
330
18128
100
AcDbDictionary
280
     1
281
     1
  3
ACAD_XREC_ROUNDTRIP
360
19071
  0
DICTIONARY
  5
1906E
330
165DF
100
AcDbDictionary
280
     1
281
     1
  3
ACAD_XREC_ROUNDTRIP
360
1906F
  0
DICTIONARY
  5
1906C
330
1154A
100
AcDbDictionary
280
     1
281
     1
  3
ACAD_XREC_ROUNDTRIP
360
1906D
  0
XRECORD
  5
19074
102
{ACAD_REACTORS
330
18FBC
102
}
330
18FBC
100
AcDbXrecord
280
     1
102
SHADEPLOT
 70
     0
102
SHADEPLOTRESLEVEL
 70
     2
102
SHADEPLOTCUSTOMDPI
 70
   300
  0
XRECORD
  5
18FBD
102
{ACAD_REACTORS
330
18FBC
102
}
330
18FBC
100
AcDbXrecord
280
     1
310
28000000B40000008A0000000100080000000000086100000000000000000000000100000000000000000000000000007F7F00000000000000000000000000000000000000000000000000000000000000000000330000006600000099000000CC000000FF00000000330000333300006633000099330000CC330000FF3300
310
0000660000336600006666000099660000CC660000FF66000000990000339900006699000099990000CC990000FF99000000CC000033CC000066CC000099CC0000CCCC0000FFCC000000FF000033FF000066FF000099FF0000CCFF0000FFFF000000003300330033006600330099003300CC003300FF003300003333003333
310
33006633330099333300CC333300FF33330000663300336633006666330099663300CC663300FF66330000993300339933006699330099993300CC993300FF99330000CC330033CC330066CC330099CC3300CCCC3300FFCC330000FF330033FF330066FF330099FF3300CCFF3300FFFF330000006600330066006600660099
310
006600CC006600FF00660000336600333366006633660099336600CC336600FF33660000666600336666006666660099666600CC666600FF66660000996600339966006699660099996600CC996600FF99660000CC660033CC660066CC660099CC6600CCCC6600FFCC660000FF660033FF660066FF660099FF6600CCFF6600
310
FFFF660000009900330099006600990099009900CC009900FF00990000339900333399006633990099339900CC339900FF33990000669900336699006666990099669900CC669900FF66990000999900339999006699990099999900CC999900FF99990000CC990033CC990066CC990099CC9900CCCC9900FFCC990000FF99
310
0033FF990066FF990099FF9900CCFF9900FFFF99000000CC003300CC006600CC009900CC00CC00CC00FF00CC000033CC003333CC006633CC009933CC00CC33CC00FF33CC000066CC003366CC006666CC009966CC00CC66CC00FF66CC000099CC003399CC006699CC009999CC00CC99CC00FF99CC0000CCCC0033CCCC0066CC
310
CC0099CCCC00CCCCCC00FFCCCC0000FFCC0033FFCC0066FFCC0099FFCC00CCFFCC00FFFFCC000000FF003300FF006600FF009900FF00CC00FF00FF00FF000033FF003333FF006633FF009933FF00CC33FF00FF33FF000066FF003366FF006666FF009966FF00CC66FF00FF66FF000099FF003399FF006699FF009999FF00CC
310
99FF00FF99FF0000CCFF0033CCFF0066CCFF0099CCFF00CCCCFF00FFCCFF0000FFFF0033FFFF0066FFFF0099FFFF00CCFFFF00FFFFFF00000000000D0D0D001A1A1A00282828003535350043434300505050005D5D5D006B6B6B00787878008686860093939300A1A1A100AEAEAE00BBBBBB00C9C9C900D6D6D600E4E4E400
310
F1F1F100FFFFFF0000000000000000000000000000000000000000000000000000000000000000000000000000000000F5F5F5F5F5F5F5F5F5F5F5F5F5F5F5F5F5F5F5F5F5F5F5F5F5F5F5F5F5F5F5F5F5F5F5F5F5F5F5F5F5F5F5F5F5F5F5F5F5F5F5F5F5F5F5F5F5F5F5F5F5F5F5F5F5F5F5F5F5F5F5F5F5F5F5F5F5F5F5
310
F5F5F5F5F5F5F5F5F5F5F5F5F5F5F5F5F5F5F5F5F5F5F5F5F5F5F5F5F5F5F5F5F5F5F5F5F5F5F5F5F5F5F5F5F5F5F5F5F5F5F5F5F5F5F5F5F5F5F5F5F5F5F5F5F5F5F5F5F5F5F5F5F5F5F5F5F5F5F5F5F5F5F5F5F5F5F5F5F5F5F5F5F5F5F5F5F5F5F5EFEFF5E2E2E2E2E2E2E2E2E2E2E2E2E2E2E2E2E2E2E2E2E2E2E2E2E2
310
E2E2E2E2E2E2E2E2E2E2E2E2E2E2E2E2E2E2E2E2E2E2E2E2E2E2E2E2E2E2E2E2E2E2E2E2E2E2E2E2E2E2E2E2E2E2E2E2E2E2E2E2E2E2E2E2E2E2E2E2E2E2E2E2E2E2E2E2E2E2E2E2E2E2E2E2E2E2E2E2E2E2E2E2E2E2E2E2E2E2E2E2E2E2E2E2E2E2E2E2E2E2E2E2E2E2E2E2E2E2E2E2E2E2E2E2E2E2E2E2E2E2E2E2E2E2E2
310
E2E2E2E2E2E2E2E2E2E2E2E2E2E2E2E2E2E2E2E2E2E2E2F5F5EFEFF5E2F5F5F5F5F5F5F5F5E2E2E2E2E2E2E2E2E2F5F5F5F5F5F5F5F5F5F5F5F5F5F5F5F5E2E2E2E2E2E2E2E2E2F5F5F5F5F5F5F5F5F5F5F5F5F5F5F5F5E2E2E2E2E2E2E2E2F5F5F5F5F5F5F5F5F5F5F5F5F5F5F5F5E2E2E2E2E2E2E2E2E2F5F5F5F5F5F5F5
310
F5F5F5F5F5F5F5F5F5E2E2E2E2E2E2E2E2F5F5F5F5F5F5F5F5F5F5F5F5F5F5F5F5E2E2E2E2E2E2E2E2E2F5F5F5F5F5F5F5F5F5F5F5F5F5F5F5F5E2E2E2E2E2E2E2E2E2F5F5F5F5F5F5F5F5E2F5F5EFEFF5E2F5E2E2E2E2E2E2E2E2E2E2E2E2E2E2E2E2E2E2E2E2E2E2E2E2E2E2E2E2E2E2E2E2E2E2E2E2E2E2E2E2E2E2E2E2
310
E2E2E2E2E2E2E2E2E2E2E2E2E2E2E2E2E2E2E2E2E2E2E2E2E2E2E2E2E2E2E2E2E2E2E2E2E2E2E2E2E2E2E2E2E2E2E2E2E2E2E2E2E2E2E2E2E2E2E2E2E2E2E2E2E2E2E2E2E2E2E2E2E2E2E2E2E2E2E2E2E2E2E2E2E2E2E2E2E2E2E2E2E2E2E2E2E2E2E2E2E2E2E2E2E2E2E2E2E2E2E2E2E2E2E2E2E2E2E2E2E2E2E2E2E2E2E2
310
F5E2F5F5EFEFF5E2F5E2E2E2E2E2E2E2E2E2E2E2E2E2E2E2E2E2E2E2E2E2E2E2E2E2E2E2E2E2E2E2E2E2E2E2E2E2E2E2E2E2E2E2E2E2E2E2E2E2E2E2E2E2E2E2E2E2E2E2E2E2E2E2E2E2E2E2E2E2E2E2E2E2E2E2E2E2E2E2E2E2E2E2E2E2E2E2E2E2E2E2E2E2E2E2E2E2E2E2E2E2E2E2E2E2E2E2E2E2E2E2E2E2E2E2E2E2E2
310
E2E2E2E2E2E2E2E2E2E2E2E2E2E2E2E2E2E2E2E2E2E2E2E2E2E2E2E2E2E2E2E2E2E2E2E2E2E2E2E2E2E2E2E2E2E2E2E2E2E2E2E2E2F5E2F5F5EFEFF5E2F5E2E2E2E2E2E2E2E2E2E2E2E2E2E2E2E2E2E2E2E2E2E2E2E2E2E2E2E2E2E2E2E2E2E2E2E2E2E2E2E2E2E2E2E2E2E2E2E2E2E2E2E2E2E2E2E2E2E2E2E2E2E2E2E2E2
310
E2E2E2E2E2E2E2E2E2E2E2E2E2E2E2E2E2E2E2E2E2E2E2E2E2E2E2E2E2E2E2E2E2E2E2E2E2E2E2E2E2E2E2E2E2E2E2E2E2E2E2E2E2E2E2E2E2E2E2E2E2E2E2E2E2E2E2E2E2E2E2E2E2E2E2E2E2E2E2E2E2E2E2E2E2E2E2E2E2E2E2E2E2E2E2E2E2E2E2E2E2E2E2E2E2E2F5E2F5F5EFEFF5E2F5E2E2E2E2E2E2E2E2E2E2E2E2
310
E2E2E2E2E2E2E2E2E2E2E2E2E2E2E2E2E2E2E2E2E2E2E2E2E2E2E2E2E2E2E2E2E2E2E2E2E2E2E2E2E2E2E2E2E2E2E2E2E2E2E2E2E2E2E2E2E2E2E2E2E2E2E2E2E2E2E2E2E2E2E2E2E2E2E2E2E2E2E2E2E2E2E2E2E2E2E2E2E2E2E2E2E2E2E2E2E2E2E2E2E2E2E2E2E2E2E2E2E2E2E2E2E2E2E2E2E2E2E2E2E2E2E2E2E2E2E2
310
E2E2E2E2E2E2E2E2E2E2E2E2E2E2E2E2E2E2E2E2E2E2E2E2E2E2E2E2E2E2E2E2F5E2F5F5EFEFF5E2F5E2E2E2E2E2E2E2E2E2E2E2E2E2E2E2E2E2E2E2E2E2E2E2E2E2E2E2E2E2E2E2E2E2E2E2E2E2E2E2E2E2E2E2E2E2E2E2E2E2E2E2E2E2E2E2E2E2E2E2E2E2E2E2E2E2E2E2E2E2E2E2E2E2E2E2E2E2E2E2E2E2E2E2E2E2E2
310
E2E2E2E2E2E2E2E2E2E2E2E2E2E2E2E2E2E2E2E2E2E2E2E2E2E2E2E2E2E2E2E2E2E2E2E2E2E2E2E2E2E2E2E2E2E2E2E2E2E2E2E2E2E2E2E2E2E2E2E2E2E2E2E2E2E2E2E2E2E2E2E2E2E2E2E2E2E2E2E2E2E2E2E2E2F5E2F5F5EFEFF5E2F5E2E2E2E2E2E2E2E2E2E2E2E2E2E2E2E2E2E2E2E2E2E2E2E2E2E2E2E2E2E2E2E2E2
310
E2E2E2E2E2E2E2E2E2E2E2E2E2E2E2E2E2E2E2E2E2E2E2E2E2E2E2E2E2E2E2E2E2E2E2E2E2E2E2E2E2E2E2E2E2E2E2E2E2E2E2E2E2E2E2E2E2E2E2E2E2E2E2E2E2E2E2E2E2E2E2E2E2E2E2E2E2E2E2E2E2E2E2E2E2E2E2E2E2E2E2E2E2E2E2E2E2E2E2E2E2E2E2E2E2E2E2E2E2E2E2E2E2E2E2E2E2E2E2E2E2E2E2E2E2E2E2
310
E2E2E2E2E2E2E2E2E2E2E2F5E2F5F5EFEFF5E2F5E2E2E2E2E2E2E2E2E2E2E2E2E2E2E2E2E2E2E2E2E2E2E2E2E2E2E2E2E2E2E2E2E2E2E2E2E2E2E2E2E2E2E2E2E2E2E2E2E2E2E2E2E2E2E2E2E2E2E2E2E2E2E2E2E2E2E2E2E2E2E2E2E2E2E2E2E2E2E2E2E2E2E2E2E2E2E2E2E2E2E2E2E2E2E2E2E2E2E2E2E2E2E2E2E2E2E2
310
E2E2E2E2E2E2E2E2E2E2E2E2E2E2E2E2E2E2E2E2E2E2E2E2E2E2E2E2E2E2E2E2E2E2E2E2E2E2E2E2E2E2E2E2E2E2E2E2E2E2E2E2E2E2E2E2E2E2E2E2E2E2E2E2F5E2F5F5EFEFF5E2F5E2E2E2E2E2E2E2E2E2E2E2E2E2E2E2E2E2E2E2E2E2E2E2E2E2E2E2E2E2E2E2E2E2E2E2E2E2E2E2E2E2E2E2E2E2E2E2E2E2E2E2E2E2E2
310
E2E2E2E2E2E2E2E2E2E2E2E2E2E2E2E2E2E2E2E2E2E2E2E2E2E2E2E2E2E2E2E2E2E2E2E2E2E2E2E2E2E2E2E2E2E2E2E2E2E2E2E2E2E2E2E2E2E2E2E2E2E2E2E2E2E2E2E2E2E2E2E2E2E2E2E2E2E2E2E2E2E2E2E2E2E2E2E2E2E2E2E2E2E2E2E2E2E2E2E2E2E2E2E2E2E2E2E2E2E2E2E2E2E2E2E2E2F5E2F5F5EFEFF5E2E2E2
310
E2E2E2E2E2E2E2E2E2E2E2E2E2E2E2E2E2E2E2E2E2E2E2E2E2E2E2E2E2E2E2E2E2E2E2E2E2E2E2E2E2E2E2E2E2E2E2E2E2E2E2E2E2E2E2E2E2E2E2E2E2E2E2E2E2E2E2E2E2E2E2E2E2E2E2E2E2E2E2E2E2E2E2E2E2E2E2E2E2E2E2E2E2E2E2E2E2E2E2E2E2E2E2E2E2E2E2E2E2E2E2E2E2E2E2E2E2E2E2E2E2E2E2E2E2E2E2
310
E2E2E2E2E2E2E2E2E2E2E2E2E2E2E2E2E2E2E2E2E2E2E2E2E2E2E2E2E2E2E2E2E2E2E2E2E2E2E2E2E2E2E2E2E2F5F5EFEFF5E2E2E2E2E2E2E2E2E2E2E2E2E2E2E2E2E2E2E2E2E2E2E2E2E2E2E2E2E2E2E2E2E2E2E2E2E2E2E2E2E2E2E2E2E2E2E2E2E2E2E2E2E2E2E2E2E2E2E2E2E2E2E2E2E2E2E2E2E2E2E2E2E2E2E2E2E2
310
E2E2E2E2E2E2E2E2E2E2E2E2E2E2E2E2E2E2E2E2E2E2E2E2E2E2E2E2E2E2E2E2E2E2E2E2E2E2E2E2E2E2E2E2E2E2E2E2E2E2E2E2E2E2E2E2E2E2E2E2E2E2E2E2E2E2E2E2E2E2E2E2E2E2E2E2E2E2E2E2E2E2E2E2E2E2E2E2E2E2E2E2E2E2E2E2E2E2F5F5EFEFF5E2E2E2E2E2E2E2E2E2E2E2E2E2E2E2E2E2E2E2E2E2E2E2E2
310
E2E2E2E2E2E2E2E2E2E2E2E2E2E2E2E2E2E2E2E2E2E2E2E2E2E2E2E2E2E2E2E2E2E2E2E2E2E2E2E2E2E2E2E2E2E2E2E2E2E2E2E2E2E2E2E2E2E2E2E2E2E2E2E2E2E2E2E2E2E2E2E2E2E2E2E2E2E2E2E2E2E2E2E2E2E2E2E2E2E2E2E2E2E2E2E2E2E2E2E2E2E2E2E2E2E2E2E2E2E2E2E2E2E2E2E2E2E2E2E2E2E2E2E2E2E2E2
310
E2E2E2E2E2E2E2E2E2E2E2E2E2E2E2E2E2E2E2E2E2E2E2E2F5F5EFEFF5E2E2E2E2E2E2E2E2E2E2E2E2E2E2E2E2E2E2E2E2E2E2E2E2E2E2E2E2E2E2E2E2E2E2E2E2E2E2E2E2E2E2E2E2E2E2E2E2E2E2E2E2E2E2E2E2E2E2E2E2E2E2E2E2E2E2E2E2E2E2E2E2E2E2E2E2E2E2E2E2E2E2E2E2E2E2E2E2E2E2E2E2E2E2E2E2E2E2
310
E2E2E2E2E2E2E2E2E2E2E2E2E2E2E2E2E2E2E2E2E2E2E2E2E2E2E2E2E2E2E2E2E2E2E2E2E2E2E2E2E2E2E2E2E2E2E2E2E2E2E2E2E2E2E2E2E2E2E2E2E2E2E2E2E2E2E2E2E2E2E2E2E2E2E2E2E2F5F5EFEFF5E2E2E2E2E2E2E2E2E2E2E2E2E2E2E2E2E2E2E2E2E2E2E2E2E2E2E2E2E2E2E2E2E2E2E2E2E2E2E2E2E2E2E2E2E2
310
E2E2E2E2E2E2E2E2E2E2E2E2E2E2E2E2E2E2E2E2E2E2E2E2E2E2E2E2E2E2E2E2E2E2E2E2E2E2E2E2E2E2E2E2E2E2E2E2E2E2E2E2E2E2E2E2E2E2E2E2E2E2E2E2E2E2E2E2E2E2E2E2E2E2E2E2E2E2E2E2E2E2E2E2E2E2E2E2E2E2E2E2E2E2E2E2E2E2E2E2E2E2E2E2E2E2E2E2E2E2E2E2E2E2E2E2E2E2E2E2E2E2E2E2E2E2E2
310
E2E2E2F5F5EFEFF5E2E2E2E2E2E2E2E2E2E2E2E2E2E2E2E2E2E2F5F5F5F5F5F5F5F5F5F5F5F5F5F5F5F5F5F5F5F5F5F5F5F5F5F5F5F5F5F5F5F5F5F5F5F5F5F5F5F5F5F5F5F5F5F5F5F5F5F5F5F5F5F5F5F5F5F5F5F5F5F5F5F5F5F5F5F5F5F5F5F5F5F5F5F5F5F5F5F5F5F5F5F5F5F5F5F5F5F5F5F5F5F5F5F5F5F5F5F5F5
310
F5F5F5F5F5F5F5F5F5F5F5F5F5F5F5F5F5F5F5F5F5F5F5F5F5F5F5F5F5F5F5F5F5F5F5F5F5F5E2E2E2E2E2E2E2E2E2E2E2E2E2E2E2E2E2E2F5F5EFEFF5E2E2E2E2E2E2E2E2E2E2E2E2E2E2E2E2E2E2F5E2E2E2E2E2E2E2E2E2E2E2E2E2E2E2E2E2E2E2E2E2E2E2E2E2E2E2E2E2E2E2E2E2E2E2E2E2E2E2E2E2E2E2E2E2E2E2
310
E2E2E2E2E2E2E2E2E2E2E2E2E2E2E2E2E2E2E2E2E2E2E2E2E2E2E2E2E2E2E2E2E2E2E2E2E2E2E2E2E2E2E2E2E2E2E2E2E2E2E2E2E2E2E2E2E2E2E2E2E2E2E2E2E2E2E2E2E2E2E2E2E2E2E2E2E2E2E2E2E2E2E2E2E2E2E2E2E2E2F5E2E2E2E2E2E2E2E2E2E2E2E2E2E2E2E2E2E2F5F5EFEFF5E2E2E2E2E2E2E2E2E2E2E2E2E2
310
E2E2E2E2E2F5E2E2E2E2E2E2E2E2E2E2E2E2E2E2E2E2E2E2E2E2E2E2E2E2E2E2E2E2E2E2E2E2E2E2E2E2E2E2E2E2E2E2E2E2E2E2E2E2E2E2E2E2E2E2E2E2E2E2E2E2E2E2E2E2E2E2E2E2E2E2E2E2E2E2E2E2E2E2E2E2E2E2E2E2E2E2E2E2E2E2E2E2E2E2E2E2E2E2E2E2E2E2E2E2E2E2E2E2E2E2E2E2E2E2E2E2E2E2E2E2E2
310
E2E2E2E2E2E2E2E2E2E2E2E2E2E2E2E2F5E2E2E2E2E2E2E2E2E2E2E2E2E2E2E2E2E2E2F5F5EFEFF5E2E2E2E2E2E2E2E2E2E2E2E2E2E2E2E2E2E2F5E2E2E2E2E2E2E2E2E2E2E2E2E2E2E2E2E2E2E2E2E2E2E2E2E2E2E2E2E2E2E2E2E2E2E2E2E2E2E2E2E2E2E2E2E2E2E2E2E2E2E2E2E2E2E2E2E2E2E2E2E2E2E2E2E2E2E2E2
310
E2E2E2E2E2E2E2E2E2E2E2E2E2E2E2E2E2E2E2E2E2E2E2E2E2E2E2E2E2E2E2E2E2E2E2E2E2E2E2E2E2E2E2E2E2E2E2E2E2E2E2E2E2E2E2E2E2E2E2E2E2E2E2E2E2E2E2E2E2F5E2E2E2E2E2E2E2E2E2E2E2E2E2E2E2E2E2E2F5F5EFEFF5E2E2E2E2E2E2E2E2E2E2E2E2E2E2E2E2E2E2F5E2E2E2E2E2E2E2E2E2E2E2E2E2E2E2
310
E2E2E2E2E2E2E2E2E2E2E2E2E2E2E2E2E2E2E2E2E2E2E2E2E2E2E2E2E2E2E2E2E2E2E2E2E2E2E2E2E2E2E2E2E2E2E2E2E2E2E2E2E2E2E2E2E2E2E2E2E2E2E2E2E2E2E2E2E2E2E2E2E2E2E2E2E2E2E2E2E2E2E2E2E2E2E2E2E2E2E2E2E2E2E2E2E2E2E2E2E2E2E2E2E2E2E2E2E2E2E2E2E2E2E2E2E2E2E2E2E2E2F5E2E2E2E2
310
E2E2E2E2E2E2E2E2E2E2E2E2E2E2F5F5EFEFF5E2F5E2E2E2E2E2E2E2E2E2E2E2E2E2E2E2E2F5E2E2E2E2E2E2E2E2E2E2E2E2E2E2E2E2E2E2E2E2E2E2E2E2E2E2E2E2E2E2E2E2E2E2E2E2E2E2E2E2E2E2E2E2E2E2E2E2E2E2E2E2E2E2E2E2E2E2E2E2E2E2E2E2E2E2E2E2E2E2E2E2E2E2E2E2E2E2E2E2E2E2E2E2E2E2E2E2E2
310
E2E2E2E2E2E2E2E2E2E2E2E2E2E2E2E2E2E2E2E2E2E2E2E2E2E2E2E2E2E2E2E2E2E2E2E2E2E2E2E2E2E2E2E2E2E2E2E2F5E2E2E2E2E2E2E2E2E2E2E2E2E2E2E2E2F5E2F5F5EFEFF5E2F5E2E2E2E2E2E2E2E2E2E2E2E2E2E2E2E2F5E2E2E2E2E2E2E2E2E2E2E2E2E2F5F5F5F5F5E2E2E2E2E2E2E2F5F5F5F5F5E2E2E2E2E2E2
310
E2E2E2E2E2E2E2E2E2E2E2E2E2E2E2E2E2E2E2E2E2E2E2E2E2E2E2E2E2E2E2E2E2E2E2E2E2E2E2F5F5F5F5F5E2E2E2E2E2E2E2E2E2E2E2E2E2E2E2E2E2E2E2E2E2E2E2E2E2E2E2E2F5F5F5F5F5E2E2E2E2E2E2E2E2E2E2E2E2E2E2E2E2E2E2E2E2E2E2E2E2F5E2E2E2E2E2E2E2E2E2E2E2E2E2E2E2E2F5E2F5F5EFEFF5E2F5
310
E2E2E2E2E2E2E2E2E2E2E2E2E2E2E2E2F5E2E2E2E2E2E2E2E2E2E2E2E2E2F5E2E2E2F5E2E2E2E2E2E2E2F5E2E2E2F5E2E2E2E2E2E2E2E2E2E2E2E2E2E2E2E2E2E2E2E2E2E2E2E2E2E2E2E2E2E2E2E2E2E2E2E2E2E2E2E2E2E2E2E2E2F5E2E2E2F5E2E2E2E2E2E2E2E2E2E2E2E2E2E2E2E2E2E2E2E2E2E2E2E2E2E2E2E2F5E2
310
E2E2F5E2E2E2E2E2E2E2E2E2E2E2E2E2E2E2E2E2E2E2E2E2E2E2E2F5E2E2E2E2E2E2E2E2E2E2E2E2E2E2E2E2F5E2F5F5EFEFF5E2F5E2E2E2E2E2E2E2E2E2E2E2E2E2E2E2E2F5E2E2E2E2E2E2E2E2E2E2E2E2E2F5E2E2E2F5E2E2E2E2E2E2E2F5E2E2E2F5E2E2E2E2E2E2E2E2E2E2E2E2E2E2E2E2E2E2E2E2E2E2E2E2E2E2E2
310
E2E2E2E2E2E2E2E2E2E2E2E2E2E2E2E2E2E2F5E2E2E2F5E2E2E2E2E2E2E2E2E2E2E2E2E2E2E2E2E2E2E2E2E2E2E2E2E2E2E2E2F5E2E2E2F5E2E2E2E2E2E2E2E2E2E2E2E2E2E2E2E2E2E2E2E2E2E2E2E2F5E2E2E2E2E2E2E2E2E2E2E2E2E2E2E2E2F5E2F5F5EFEFF5E2F5E2E2E2E2E2E2E2E2E2E2E2E2E2E2E2E2F5E2E2E2E2
310
E2E2E2E2E2E2E2F5F5F5F5F5F5F5F5F5F5F5F5F5F5F5F5F5F5F5F5F5F5F5F5E2E2E2E2E2E2E2E2E2E2E2E2E2E2E2E2E2E2E2E2E2E2E2E2E2E2E2E2E2E2E2E2E2F5F5F5F5F5F5F5F5F5F5F5F5F5F5F5F5F5F5F5F5F5F5F5F5F5F5F5F5F5F5F5F5F5F5F5F5F5F5F5F5F5F5F5F5F5F5F5F5F5F5F5F5E2E2E2E2E2E2E2E2E2E2E2
310
E2E2E2E2E2E2F5E2E2E2E2E2E2E2E2E2E2E2E2E2E2E2E2F5E2F5F5EFEFF5E2F5E2E2E2E2E2E2E2E2E2E2E2E2E2E2E2E2F5E2E2E2E2E2E2F5F5F5F5F5F5F5F5F5F5F5F5F5F5F5F5F5F5F5F5F5F5F5F5F5F5F5F5F5F5F5E2E2E2E2E2E2E2E2E2E2E2E2E2E2E2E2E2E2E2E2E2E2E2E2E2E2F5F5F5F5F5F5F5F5F5F5F5F5F5F5F5
310
F5F5F5F5F5F5F5F5F5F5F5F5F5F5F5F5F5F5F5F5F5F5F5F5F5F5F5F5F5F5F5F5F5F5F5F5F5F5F5F5F5F5F5F5F5F5F5E2E2E2E2E2E2E2E2E2E2E2E2F5E2E2E2E2E2E2E2E2E2E2E2E2E2E2E2E2F5E2F5F5EFEFF5E2F5E2E2E2E2E2E2E2E2E2E2E2E2E2E2E2E2F5E2E2E2E2E2F5F5F5F5F5F5F5F5F5F5F5F5F5F5F5F5F5F5F5F5
310
F5F5F5F5F5F5F5F5F5F5F5F5F5E2E2E2E2E2E2E2E2E2E2E2E2E2E2E2E2E2E2E2E2E2E2E2E2F5F5F5F5F5F5F5F5F5F5F5F5F5F5F5F5F5F5F5F5F5F5F5F5F5F5F5F5F5F5F5F5F5F5F5F5F5F5F5F5F5F5F5F5F5F5F5F5F5F5F5F5F5F5F5F5F5F5F5F5F5F5F5E2E2E2E2E2E2E2E2E2E2E2E2F5E2E2E2E2E2E2E2E2E2E2E2E2E2E2
310
E2E2F5E2F5F5EFEFF5E2F5E2E2E2E2E2E2E2E2E2E2E2E2E2E2E2E2F5E2E2E2E2E2F5E2E2E2E2E2E2E2E2E2E2E2E2E2E2E2E2E2E2E2E2E2E2E2E2E2E2E2E2E2E2E2F5E2E2E2E2E2E2E2E2E2E2E2E2E2E2E2E2E2E2E2E2E2E2E2E2F5E2E2E2E2E2E2E2E2E2E2E2E2E2E2E2E2E2E2E2E2E2E2E2E2E2E2E2E2E2E2E2E2E2E2E2E2
310
E2E2E2E2E2E2E2E2E2E2E2E2E2E2E2E2E2E2E2E2E2E2E2E2E2F5E2E2E2E2E2E2E2E2E2E2E2E2F5E2E2E2E2E2E2E2E2E2E2E2E2E2E2E2E2F5E2F5F5EFEFF5E2F5E2E2E2E2E2E2E2E2E2E2E2E2E2E2E2E2F5E2E2E2E2E2F5E2E2E2E2E2E2E2E2E2E2E2E2E2E2E2E2E2E2E2E2E2E2E2E2E2E2E2E2E2E2E2F5E2E2E2E2E2E2E2E2
310
E2E2E2E2E2E2E2E2E2E2E2E2E2E2E2F5E2E2E2E2E2E2E2E2E2E2E2E2E2E2E2E2E2E2E2E2E2E2E2E2E2E2E2E2E2E2E2E2E2E2E2E2E2E2E2E2E2E2E2E2E2E2E2E2E2E2E2E2E2E2E2E2E2E2E2E2E2E2E2F5E2E2E2E2E2E2E2E2E2E2E2F5E2E2E2E2E2E2E2E2E2E2E2E2E2E2E2E2F5E2F5F5EFEFF5E2F5E2E2E2E2E2E2E2E2E2E2
310
E2E2E2E2E2E2F5E2E2E2E2E2F5E2E2E2E2E2E2E2E2E2E2E2E2E2E2E2E2E2E2E2E2E2E2E2E2E2E2E2E2E2E2E2F5E2E2E2E2E2E2E2E2E2E2E2E2E2E2E2E2E2E2E2E2E2E2E2F5E2E2E2E2E2E2E2E2E2E2E2E2E2E2E2E2E2E2E2E2E2E2E2E2E2E2E2E2E2E2E2E2E2E2E2E2E2E2E2E2E2E2E2E2E2E2E2E2E2E2E2E2E2E2E2E2E2E2
310
E2E2E2E2E2F5E2E2E2E2E2E2E2E2E2E2E2F5E2E2E2E2E2E2E2E2E2E2E2E2E2E2E2E2F5E2F5F5EFEFF5E2F5E2E2E2E2E2E2E2E2E2E2E2E2E2E2E2E2F5E2E2E2E2E2F5E2E2E2E2E2E2E2E2E2E2E2E2E2E2E2E2E2E2E2E2E2E2E2E2E2E2E2E2E2E2E2F5E2E2E2E2E2E2E2E2E2E2E2E2E2E2E2E2E2E2E2E2E2E2E2F5E2E2E2E2E2
310
E2E2E2E2E2E2E2E2E2E2E2E2E2E2E2E2E2E2E2E2E2E2E2E2E2E2E2E2E2E2E2E2E2E2E2E2E2E2E2E2E2E2E2E2E2E2E2E2E2E2E2E2E2E2E2E2E2E2E2F5E2E2E2E2E2E2E2E2E2E2F5E2E2E2E2E2E2E2E2E2E2E2E2E2E2E2E2F5E2F5F5EFEFF5E2F5E2E2E2E2E2E2E2E2E2E2E2E2E2E2E2E2F5E2E2E2E2E2F5E2E2E2E2E2E2E2E2
310
E2E2E2E2E2E2E2E2E2E2E2E2E2E2E2E2E2E2E2E2E2E2E2F5E2E2E2E2E2E2E2E2E2E2E2E2E2E2E2E2E2E2E2E2E2E2F5E2E2E2E2E2E2E2E2E2E2E2E2E2E2E2E2E2E2E2E2E2E2E2E2E2E2E2E2E2E2E2E2E2E2E2E2E2E2E2E2E2E2E2E2E2E2E2E2E2E2E2E2E2E2E2E2E2E2E2E2E2E2E2E2E2F5E2E2E2E2E2E2E2E2E2E2F5E2E2E2
310
E2E2E2E2E2E2E2E2E2E2E2E2E2F5E2F5F5EFEFF5E2F5E2E2E2E2E2E2E2E2E2E2E2E2E2E2E2E2F5E2E2E2E2E2F5E2E2E2E2E2E2E2E2E2E2E2E2E2E2E2E2E2E2E2E2E2E2E2E2E2E2E2E2E2E2E2F5E2E2E2E2E2E2E2E2E2E2E2E2E2E2E2E2E2E2E2E2E2E2F5E2E2E2E2E2E2E2E2E2E2E2E2E2E2E2E2E2E2E2E2E2E2E2E2E2E2E2
310
E2E2E2E2E2E2E2E2E2E2E2E2E2E2E2E2E2E2E2E2E2E2E2E2E2E2E2E2E2E2E2E2E2E2E2E2E2E2F5E2E2E2E2E2E2E2E2E2E2F5E2E2E2E2E2E2E2E2E2E2E2E2E2E2E2E2F5E2F5F5EFEFF5E2F5E2E2E2E2E2E2E2E2E2E2E2E2E2E2E2E2F5E2E2E2E2E2F5E2E2E2E2E2E2E2E2E2E2E2E2E2E2E2E2E2E2E2E2E2E2E2E2E2E2E2E2E2
310
E2E2F5E2E2E2E2E2E2E2E2E2E2E2E2E2E2E2E2E2E2E2E2E2E2F5E2E2E2E2E2E2E2E2E2E2E2E2E2E2E2E2E2E2E2E2E2E2E2E2E2E2E2E2E2E2E2E2E2E2E2E2E2E2E2E2E2E2E2E2E2E2E2E2E2E2E2E2E2E2E2E2E2E2E2E2E2E2E2E2E2E2F5E2E2E2E2E2E2E2E2E2F5E2E2E2E2E2E2E2E2E2E2E2E2E2E2E2E2F5E2F5F5EFEFF5E2
310
F5E2E2E2E2E2E2E2E2E2E2E2E2E2E2E2E2F5E2E2E2E2E2F5E2E2E2E2E2E2E2E2E2E2E2E2E2E2E2E2E2E2E2E2E2E2E2E2E2E2E2E2E2E2E2F5E2E2E2E2E2E2E2E2E2E2E2E2E2E2E2E2E2E2E2E2E2F5E2E2E2E2E2E2E2E2E2E2E2E2E2E2E2E2E2E2E2E2E2E2E2E2E2E2E2E2E2E2E2E2E2E2E2E2E2E2E2E2E2E2E2E2E2E2E2E2E2
310
E2E2E2E2E2E2E2E2E2E2E2E2E2E2E2E2E2E2F5E2E2E2E2E2E2E2E2E2F5E2E2E2E2E2E2E2E2E2E2E2E2E2E2E2E2F5E2F5F5EFEFF5E2F5E2E2E2E2E2E2E2E2E2E2E2E2E2E2E2E2F5E2E2E2E2E2F5E2E2E2E2E2E2E2E2E2E2E2E2E2E2E2E2E2E2E2E2E2E2E2E2E2E2E2E2E2E2E2F5E2E2E2E2E2E2E2E2E2E2E2E2E2E2E2E2E2E2
310
E2E2E2F5E2E2E2E2E2E2E2E2E2E2E2E2E2E2E2E2E2E2E2E2E2E2E2E2E2E2E2E2E2E2E2E2E2E2E2E2E2E2E2E2E2E2E2E2E2E2E2E2E2E2E2E2E2E2E2E2E2E2E2E2E2E2E2E2E2E2E2E2F5E2E2E2E2E2E2E2E2F5E2E2E2E2E2E2E2E2E2E2E2E2E2E2E2E2F5E2F5F5EFEFF5E2F5E2E2E2E2E2E2E2E2E2E2E2E2E2E2E2E2F5E2E2E2
310
E2F5E2E2E2E2E2E2E2E2E2E2E2E2E2E2E2E2E2E2E2E2E2E2E2E2E2E2E2E2E2E2E2E2F5E2E2E2E2E2E2E2E2E2E2E2E2E2E2E2E2E2E2E2E2F5E2E2E2E2E2E2E2E2E2E2E2E2E2E2E2E2E2E2E2E2E2E2E2E2E2E2E2E2E2E2E2E2E2E2E2E2E2E2E2E2E2E2E2E2E2E2E2E2E2E2E2E2E2E2E2E2E2E2E2E2E2E2E2E2E2E2E2E2E2F5E2
310
E2E2E2E2E2E2E2F5E2E2E2E2E2E2E2E2E2E2E2E2E2E2E2E2F5E2F5F5EFEFF5E2E2E2E2E2E2E2E2E2E2E2E2E2E2E2E2E2E2F5E2E2E2E2F5E2E2E2E2E2E2E2E2E2E2E2E2E2E2E2E2E2E2E2E2E2E2E2E2E2E2E2E2E2E2E2E2E2F5E2E2E2E2E2E2E2E2E2E2E2E2E2E2E2E2E2E2E2F5E2E2E2E2E2E2E2E2E2E2E2E2E2E2E2E2E2E2
310
E2E2E2E2E2E2E2E2E2E2E2E2E2E2E2E2E2E2E2E2E2E2E2E2E2E2E2E2E2E2E2E2E2E2E2E2E2E2E2E2E2E2E2E2E2E2E2E2E2E2E2F5E2E2E2E2E2E2E2E2F5E2E2E2E2E2E2E2E2E2E2E2E2E2E2E2E2E2E2F5F5EFEFF5E2E2E2E2E2E2E2E2E2E2E2E2E2E2E2E2E2E2F5E2E2E2E2F5E2E2E2E2E2E2E2E2E2E2E2E2E2E2E2E2E2E2E2
310
E2E2E2E2E2E2E2E2E2E2E2E2E2E2F5E2E2E2E2E2E2E2E2E2E2E2E2E2E2E2E2E2E2E2F5E2E2E2E2E2E2E2E2E2E2E2E2E2E2E2E2E2E2E2E2E2E2E2E2E2E2E2E2E2E2E2E2E2E2E2E2E2E2E2E2E2E2E2E2E2E2E2E2E2E2E2E2E2E2E2E2E2E2E2E2E2E2E2E2E2E2E2E2E2E2F5E2E2E2E2E2E2E2F5E2E2E2E2E2E2E2E2E2E2E2E2E2
310
E2E2E2E2E2F5F5EFEFF5E2E2E2E2E2E2E2E2E2E2E2E2E2E2E2E2E2E2F5E2E2E2E2F5E2E2E2E2E2E2E2E2E2E2E2E2E2E2E2E2E2E2E2E2E2E2E2E2E2E2E2E2E2E2E2E2E2F5E2E2E2E2E2E2E2E2E2E2E2E2E2E2E2E2E2E2F5E2E2E2E2E2E2E2E2E2E2E2E2E2E2E2E2E2E2E2E2E2E2E2E2E2E2E2E2E2E2E2E2E2E2E2E2E2E2E2E2
310
E2E2E2E2E2E2E2E2E2E2E2E2E2E2E2E2E2E2E2E2E2E2E2E2E2E2E2E2E2E2E2F5E2E2E2E2E2E2E2F5E2E2E2E2E2E2E2E2E2E2E2E2E2E2E2E2E2E2F5F5EFEFF5E2E2E2E2E2E2E2E2E2E2E2E2E2E2E2E2E2E2F5E2E2E2E2F5E2E2E2E2E2E2E2E2E2E2E2E2E2E2E2E2E2E2E2E2E2E2E2E2E2E2E2E2E2E2E2E2E2F5E2E2E2E2E2E2
310
E2E2E2E2E2E2E2E2E2E2E2E2F5E2E2E2E2E2E2E2E2E2E2E2E2E2E2E2E2E2E2E2E2E2E2E2E2E2E2E2E2E2E2E2E2E2E2E2E2E2E2E2E2E2E2E2E2E2E2E2E2E2E2E2E2E2E2E2E2E2E2E2E2E2E2E2E2E2E2E2E2E2E2E2E2F5E2E2E2E2E2E2F5E2E2E2E2E2E2E2E2E2E2E2E2E2E2E2E2E2E2F5F5EFEFF5E2E2E2E2E2E2E2E2E2E2E2
310
E2E2E2E2E2E2E2F5E2E2E2E2F5E2E2E2E2E2E2E2E2E2E2E2E2E2E2E2E2E2E2E2E2E2E2E2E2E2E2E2E2E2E2E2E2E2F5E2E2E2E2E2E2E2E2E2E2E2E2E2E2E2E2E2E2F5E2E2E2E2E2E2E2E2E2E2E2E2E2E2E2E2E2E2E2E2E2E2E2E2E2E2E2E2E2E2E2E2E2E2E2E2E2E2E2E2E2E2E2E2E2E2E2E2E2E2E2E2E2E2E2E2E2E2E2E2E2
310
E2E2E2E2E2E2E2E2E2E2E2F5E2E2E2E2E2E2F5E2E2E2E2E2E2E2E2E2E2E2E2E2E2E2E2E2E2F5F5EFEFF5E2E2E2E2E2E2E2E2E2E2E2E2E2E2E2E2E2E2F5E2E2E2E2F5E2E2E2E2E2E2E2E2E2E2E2E2E2E2E2E2E2E2E2E2E2E2E2E2E2E2E2E2E2E2E2E2E2F5E2E2E2E2E2E2E2E2E2E2E2E2E2E2E2E2E2F5E2E2E2E2E2E2E2E2E2
310
E2E2E2E2E2E2E2E2E2E2E2E2E2E2E2E2E2E2E2E2E2E2E2E2E2E2E2E2E2E2E2E2E2E2E2E2E2E2E2E2E2E2E2E2E2E2E2E2E2E2E2E2E2E2E2E2E2E2E2E2E2E2E2E2F5E2E2E2E2E2E2F5E2E2E2E2E2E2E2E2E2E2E2E2E2E2E2E2E2E2F5F5EFEFF5E2E2E2E2E2E2E2E2E2E2E2E2E2E2E2E2E2E2F5E2E2E2E2F5E2E2E2E2E2E2E2E2
310
E2E2E2E2E2E2E2E2E2E2E2E2E2E2E2E2E2E2E2E2E2E2E2E2E2F5E2E2E2E2E2E2E2E2E2E2E2E2E2E2E2E2E2F5E2E2E2E2E2E2E2E2E2E2E2E2E2E2E2E2E2E2E2E2E2E2E2E2E2E2E2E2E2E2E2E2E2E2E2E2E2E2E2E2E2E2E2E2E2E2E2E2E2E2E2E2E2E2E2E2E2E2E2E2E2E2E2E2E2E2E2E2E2E2E2E2E2E2F5E2E2E2E2E2F5E2E2
310
E2E2E2E2E2E2E2E2E2E2E2E2E2E2E2E2F5F5EFEFF5E2E2E2E2E2E2E2E2E2E2E2E2E2E2E2E2E2E2F5E2E2E2E2F5E2E2E2E2E2E2E2E2E2E2E2E2E2E2E2E2E2E2E2E2E2E2E2E2E2E2E2E2E2E2E2E2E2F5E2E2E2E2E2E2E2E2E2E2E2E2E2E2E2E2E2F5E2E2E2E2E2E2E2E2E2E2E2E2E2E2E2E2E2E2E2E2E2E2E2E2E2E2E2E2E2E2
310
E2E2E2E2E2F5F5F5E2E2E2E2E2E2E2E2E2E2E2E2E2E2E2E2E2E2E2E2E2E2E2E2E2E2E2E2E2E2E2E2E2E2E2E2F5E2E2E2E2E2F5E2E2E2E2E2E2E2E2E2E2E2E2E2E2E2E2E2E2F5F5EFEFF5E2E2E2E2E2E2E2E2E2E2E2E2E2E2E2E2E2E2F5E2E2E2E2F5E2E2E2E2E2E2E2E2E2E2E2E2E2E2E2E2E2E2E2E2E2E2E2E2E2E2E2E2E2
310
E2E2E2E2F5E2E2E2E2E2E2E2E2E2E2E2E2E2E2E2E2F5E2E2E2E2E2E2E2E2E2E2E2E2E2E2E2E2E2E2E2E2E2E2E2E2E2E2E2E2E2E2E2E2E2E2E2E2F5E2E2F5E2E2E2E2E2E2E2E2E2E2E2E2E2E2E2E2E2E2E2E2E2E2E2E2E2E2E2E2E2E2E2E2E2E2E2E2F5E2E2E2E2F5E2E2E2E2E2E2E2E2E2E2E2E2E2E2E2E2E2E2F5F5EFEFF5
310
E2F5E2E2E2E2E2E2E2E2E2E2E2E2E2E2E2E2F5F5F5F5F5F5F5F5F5F5F5F5F5F5F5F5F5F5F5F5F5F5F5F5F5F5F5F5F5F5F5F5F5F5F5F5F5F5F5F5F5F5F5F5E2E2E2E2E2E2E2F5F5F5F5F5F5F5F5F5F5F5F5F5F5F5F5F5F5F5F5F5F5F5F5F5F5F5F5F5F5F5F5F5F5F5F5F5F5F5F5F5F5F5F5F5F5F5F5F5F5F5F5F5F5F5F5F5F5
310
F5F5F5F5F5F5F5F5F5F5F5F5F5F5F5F5F5F5F5F5F5F5F5F5F5F5F5F5F5F5E2E2E2E2E2E2E2E2E2E2E2E2E2E2E2E2F5E2F5F5EFEFF5E2F5E2E2E2E2E2E2E2E2E2E2E2E2E2E2E2E2F5F5E2E2E2E2E2E2E2E2E2E2E2E2E2E2E2E2E2E2E2E2E2E2E2E2E2E2E2E2E2E2E2E2E2E2E2E2E2E2E2E2E2F5E2E2E2E2E2E2E2F5E2E2E2E2
310
E2E2E2E2E2E2E2E2E2E2E2E2E2E2E2E2E2E2E2E2E2E2E2E2E2E2E2E2E2E2E2E2E2E2E2E2E2E2E2E2E2E2E2E2E2E2E2E2E2E2E2E2E2E2E2E2E2E2E2E2E2E2E2E2E2E2E2E2E2E2E2E2E2E2E2E2E2E2E2E2E2F5F5E2E2E2E2E2E2E2E2E2E2E2E2E2E2E2E2F5E2F5F5EFEFF5E2F5E2E2E2E2E2E2E2E2E2E2E2E2E2E2E2E2F5F5E2
310
E2E2E2E2E2E2E2E2E2E2E2E2E2E2E2E2E2E2E2E2E2E2E2E2E2E2E2E2E2E2E2E2E2E2E2E2E2E2E2E2F5E2E2E2E2E2E2E2E2F5E2E2E2E2E2E2E2E2E2E2E2E2E2E2E2E2E2E2E2E2E2E2E2E2E2E2E2E2E2E2E2E2E2E2E2E2E2E2E2E2E2E2E2E2E2E2E2E2E2E2E2E2E2E2E2E2E2E2E2E2E2E2E2E2E2E2E2E2E2E2E2E2E2E2E2E2E2
310
E2E2E2E2E2E2E2F5F5E2E2E2E2E2E2E2E2E2E2E2E2E2E2E2E2F5E2F5F5EFEFF5E2F5E2E2E2E2E2E2E2E2E2E2E2E2E2E2E2E2F5F5E2E2E2E2E2E2E2E2E2E2E2E2E2E2E2E2E2E2E2E2E2E2E2E2E2E2E2E2E2E2E2E2E2E2E2E2E2E2E2E2E2F5E2E2E2E2E2E2E2E2F5E2E2E2E2E2E2E2E2E2E2E2E2E2E2E2E2E2E2E2E2E2E2E2E2
310
E2E2E2E2E2E2E2E2E2E2E2E2E2E2E2E2E2E2E2E2E2E2E2E2E2E2E2E2E2E2E2E2E2E2E2E2E2E2E2E2E2E2E2E2E2E2E2E2E2E2E2E2E2E2E2E2E2E2E2E2F5F5E2E2E2E2E2E2E2E2E2E2E2E2E2E2E2E2F5E2F5F5EFEFF5E2F5E2E2E2E2E2E2E2E2E2E2E2E2E2E2E2E2F5F5F5F5F5F5F5F5F5F5F5F5F5F5F5F5F5F5F5F5F5F5F5F5
310
F5F5F5F5F5F5F5F5F5F5F5F5F5F5F5F5F5F5F5F5E2E2E2E2E2E2E2E2F5F5F5F5F5F5F5F5F5F5F5F5F5F5F5F5F5F5F5F5F5F5F5F5F5F5F5F5F5F5F5F5F5F5F5F5F5F5F5F5F5F5F5F5F5F5F5F5F5F5F5F5F5F5F5F5F5F5F5F5F5F5F5F5F5F5F5F5F5F5F5F5F5F5F5F5F5F5F5F5F5F5F5F5F5F5F5E2E2E2E2E2E2E2E2E2E2E2E2
310
E2E2E2E2F5E2F5F5EFEFF5E2F5E2E2E2E2E2E2E2E2E2E2E2E2E2E2E2E2F5E2E2E2E2E2E2E2E2E2E2E2E2E2E2E2E2E2E2E2E2E2E2E2E2E2E2E2E2E2E2E2E2E2E2E2E2E2E2E2E2E2E2E2E2E2E2E2E2E2E2E2E2E2E2E2E2E2E2E2E2E2E2E2E2E2E2E2E2E2E2E2E2E2E2E2E2E2E2E2E2E2E2E2E2E2E2E2E2E2E2E2E2E2E2E2E2E2
310
E2E2E2E2E2E2E2E2E2E2E2E2E2E2E2E2E2E2E2E2E2E2E2E2E2E2E2E2E2E2E2E2E2E2E2E2E2E2E2E2F5E2E2E2E2E2E2E2E2E2E2E2E2E2E2E2E2F5E2F5F5EFEFF5E2F5E2E2E2E2E2E2E2E2E2E2E2E2E2E2E2E2F5E2E2E2E2E2E2E2E2E2E2E2E2E2E2E2E2E2E2E2E2E2E2E2E2E2E2E2E2E2E2E2E2E2E2E2E2E2E2E2E2E2E2E2E2
310
E2E2E2E2E2E2E2E2E2E2E2E2E2E2E2E2E2E2E2E2E2E2E2E2E2E2E2E2E2E2E2E2E2E2E2E2E2E2E2E2E2E2E2E2E2E2E2E2E2E2E2E2E2E2E2E2E2E2E2E2E2E2E2E2E2E2E2E2E2E2E2E2E2E2E2E2E2E2E2E2E2E2E2E2E2E2E2E2E2E2E2E2E2F5E2E2E2E2E2E2E2E2E2E2E2E2E2E2E2E2F5E2F5F5EFEFF5E2F5E2E2E2E2E2E2E2E2
310
E2E2E2E2E2E2E2E2F5E2E2E2E2E2E2E2E2E2E2E2E2E2E2E2E2E2E2E2E2E2E2E2E2E2E2E2E2E2E2E2E2E2E2E2E2E2E2E2E2E2E2E2E2E2E2E2E2E2E2E2E2E2E2E2E2E2E2E2E2E2E2E2E2E2E2E2E2E2E2E2E2E2E2E2E2E2E2E2E2E2E2E2E2E2E2E2E2E2E2E2E2E2E2E2E2E2E2E2E2E2E2E2E2E2E2E2E2E2E2E2E2E2E2E2E2E2E2
310
E2E2E2E2E2E2E2E2E2E2E2E2E2E2E2E2E2E2E2F5E2E2E2E2E2E2E2E2E2E2E2E2E2E2E2E2F5E2F5F5EFEFF5E2F5E2E2E2E2E2E2E2E2E2E2E2E2E2E2E2E2F5E2E2E2E2E2E2E2E2E2E2E2E2E2E2E2E2E2E2E2E2E2E2E2E2E2E2E2E2E2E2E2E2E2E2E2E2E2E2E2E2E2E2E2E2E2E2E2E2E2E2E2E2E2E2E2E2E2E2E2E2E2E2E2E2E2
310
E2E2E2E2E2E2E2E2E2E2E2E2E2E2E2E2E2E2E2E2E2E2E2E2E2E2E2E2E2E2E2E2E2E2E2E2E2E2E2E2E2E2E2E2E2E2E2E2E2E2E2E2E2E2E2E2E2E2E2E2E2E2E2E2E2E2E2E2E2E2E2E2F5E2E2E2E2E2E2E2E2E2E2E2E2E2E2E2E2F5E2F5F5EFEFF5E2F5E2E2E2E2E2E2E2E2E2E2E2E2E2E2E2E2F5E2E2E2E2E2E2E2E2E2E2E2E2
310
E2E2E2E2E2E2E2E2E2E2E2E2E2E2E2E2E2E2E2E2E2E2E2E2E2E2E2E2E2E2E2E2E2E2E2E2E2E2E2E2E2E2E2E2E2E2E2E2E2E2E2E2E2E2E2E2E2E2E2E2E2E2E2E2E2E2E2E2E2E2E2E2E2E2E2E2E2E2E2E2E2E2E2E2E2E2E2E2E2E2E2E2E2E2E2E2E2E2E2E2E2E2E2E2E2E2E2E2E2E2E2E2E2E2E2E2E2E2E2E2E2E2E2E2E2F5E2
310
E2E2E2E2E2E2E2E2E2E2E2E2E2E2E2F5E2F5F5EFEFF5E2F5E2E2E2E2E2E2E2E2E2E2E2E2E2E2E2E2F5E2E2E2E2E2E2E2E2E2E2E2E2E2E2E2E2E2E2E2E2E2E2E2E2E2E2E2E2E2E2E2E2E2E2E2E2E2E2E2E2E2E2E2E2E2E2E2E2E2E2E2E2E2E2E2E2E2E2E2E2E2E2E2E2E2E2E2E2E2E2E2E2E2E2E2E2E2E2E2E2E2E2E2E2E2E2
310
E2E2E2E2E2E2E2E2E2E2E2E2E2E2E2E2E2E2E2E2E2E2E2E2E2E2E2E2E2E2E2E2E2E2E2E2E2E2E2E2E2E2E2E2E2E2E2E2E2E2E2F5E2E2E2E2E2E2E2E2E2E2E2E2E2E2E2E2F5E2F5F5EFEFF5E2F5E2E2E2E2E2E2E2E2E2E2E2E2E2E2E2E2F5E2E2E2E2E2E2E2E2E2E2E2E2E2E2E2E2E2E2E2E2E2E2E2E2E2E2E2E2E2E2E2E2E2
310
E2E2E2E2E2E2E2E2E2E2E2E2E2E2E2E2E2E2E2E2E2E2E2E2E2E2E2E2E2E2E2E2E2E2E2E2E2E2E2E2E2E2E2E2E2E2E2E2E2E2E2E2E2E2E2E2E2E2E2E2E2E2E2E2E2E2E2E2E2E2E2E2E2E2E2E2E2E2E2E2E2E2E2E2E2E2E2E2E2E2E2E2E2E2E2E2E2E2E2E2E2E2E2E2F5E2E2E2E2E2E2E2E2E2E2E2E2E2E2E2E2F5E2F5F5EFEF
310
F5E2F5E2E2E2E2E2E2E2E2E2E2E2E2E2E2E2E2F5E2E2E2E2E2E2E2E2E2E2E2E2E2E2E2E2E2E2E2E2E2E2E2E2E2E2E2E2E2E2E2E2E2E2E2E2E2E2E2E2E2E2E2E2E2E2E2E2E2E2E2E2E2E2E2E2E2E2E2E2E2E2E2E2E2E2E2E2E2E2E2E2E2E2E2E2E2E2E2E2E2E2E2E2E2E2E2E2E2E2E2E2E2E2E2E2E2E2E2E2E2E2E2E2E2E2E2
310
E2E2E2E2E2E2E2E2E2E2E2E2E2E2E2E2E2E2E2E2E2E2E2E2E2E2E2E2E2E2F5E2E2E2E2E2E2E2E2E2E2E2E2E2E2E2E2F5E2F5F5EFEFF5E2F5E2E2E2E2E2E2E2E2E2E2E2E2E2E2E2E2F5E2E2E2E2E2E2E2E2E2E2E2E2E2E2E2E2E2E2E2E2E2E2E2E2E2E2E2E2E2E2E2E2E2E2E2E2E2E2E2E2E2E2E2E2E2E2E2E2E2E2E2E2E2E2
310
E2E2E2E2E2E2E2E2E2E2E2E2E2E2E2E2E2E2E2E2E2E2E2E2E2E2E2E2E2E2E2E2E2E2E2E2E2E2E2E2E2E2E2E2E2E2E2E2E2E2E2E2E2E2E2E2E2E2E2E2E2E2E2E2E2E2E2E2E2E2E2E2E2E2E2E2E2E2E2E2E2E2E2F5E2E2E2E2E2E2E2E2E2E2E2E2E2E2E2E2F5E2F5F5EFEFF5E2F5E2E2E2E2E2E2E2E2E2E2E2E2E2E2E2E2F5E2
310
E2E2E2E2E2E2E2E2E2E2E2E2E2E2E2E2E2E2E2E2E2E2E2E2E2E2E2E2E2E2E2E2E2E2E2E2E2E2E2E2E2E2E2E2E2E2E2E2E2E2E2E2E2E2E2E2E2E2E2E2E2E2E2E2E2E2E2E2E2E2E2E2E2E2E2E2E2E2E2E2E2E2E2E2E2E2E2E2E2E2E2E2E2E2E2E2E2E2E2E2E2E2E2E2E2E2E2E2E2E2E2E2E2E2E2E2E2E2E2E2E2E2E2E2E2E2E2
310
E2E2E2E2E2E2E2E2E2F5E2E2E2E2E2E2E2E2E2E2E2E2E2E2E2E2F5E2F5F5EFEFF5E2F5E2E2E2E2E2E2E2E2E2E2E2E2E2E2E2E2F5E2E2E2E2E2E2E2E2E2E2E2E2E2E2E2E2E2E2E2E2E2E2E2E2E2E2E2E2E2E2E2E2E2E2E2E2E2E2E2E2E2E2E2E2E2E2E2E2E2E2E2E2E2E2E2E2E2E2E2E2E2E2E2E2E2E2E2E2E2E2E2E2E2E2E2
310
E2E2E2E2E2E2E2E2E2E2E2E2E2E2E2E2E2E2E2E2E2E2E2E2E2E2E2E2E2E2E2E2E2E2E2E2E2E2E2E2E2E2E2E2E2E2E2E2E2E2E2E2E2E2E2E2E2E2E2E2E2E2F5E2E2E2E2E2E2E2E2E2E2E2E2E2E2E2E2F5E2F5F5EFEFF5E2F5E2E2E2E2E2E2E2E2E2E2E2E2E2E2E2E2F5E2E2E2E2E2E2E2E2E2E2E2E2E2E2E2E2E2E2E2E2E2E2
310
E2E2E2E2E2E2E2E2E2E2E2E2E2E2E2E2E2E2E2E2E2E2E2E2E2E2E2E2E2E2E2E2E2E2E2E2E2E2E2E2E2E2E2E2E2E2E2E2E2E2E2E2E2E2E2E2E2E2E2E2E2E2E2E2E2E2E2E2E2E2E2E2E2E2E2E2E2E2E2E2E2E2E2E2E2E2E2E2E2E2E2E2E2E2E2E2E2E2E2E2E2E2E2E2E2E2E2E2E2E2E2E2E2E2E2F5E2E2E2E2E2E2E2E2E2E2E2
310
E2E2E2E2E2F5E2F5F5EFEFF5E2E2E2E2E2E2E2E2E2E2E2E2E2E2E2E2E2E2F5E2E2E2E2E2E2E2E2E2E2E2E2E2E2E2E2E2E2E2E2E2E2E2E2E2E2E2E2E2E2E2E2E2E2E2E2E2E2E2E2E2E2E2E2E2E2E2E2E2E2E2E2E2E2E2E2E2E2E2E2E2E2E2E2E2E2E2E2E2E2E2E2E2E2E2E2E2E2E2E2E2E2E2E2E2E2E2E2E2E2E2E2E2E2E2E2
310
E2E2E2E2E2E2E2E2E2E2E2E2E2E2E2E2E2E2E2E2E2E2E2E2E2E2E2E2E2E2E2E2E2E2E2E2E2E2E2E2E2F5E2E2E2E2E2E2E2E2E2E2E2E2E2E2E2E2E2E2F5F5EFEFF5E2E2E2E2E2E2E2E2E2E2E2E2E2E2E2E2E2E2F5E2E2E2E2E2E2E2E2E2E2E2E2E2E2E2E2E2E2E2E2E2E2E2E2E2E2E2E2E2E2E2E2E2E2E2E2E2E2E2E2E2E2E2
310
E2E2E2E2E2E2E2E2E2E2E2E2E2E2E2E2E2E2E2E2E2E2E2E2E2E2E2E2E2E2E2E2E2E2E2E2E2E2E2E2E2E2E2E2E2E2E2E2E2E2E2E2E2E2E2E2E2E2E2E2E2E2E2E2E2E2E2E2E2E2E2E2E2E2E2E2E2E2E2E2E2E2E2E2E2E2E2E2E2E2E2E2E2E2F5E2E2E2E2E2E2E2E2E2E2E2E2E2E2E2E2E2E2F5F5EFEFF5E2E2E2E2E2E2E2E2E2
310
E2E2E2E2E2E2E2E2E2F5E2E2E2E2E2E2E2E2E2E2E2E2E2E2E2E2E2E2E2E2E2E2E2E2E2E2E2E2E2E2E2E2E2E2E2E2E2E2E2E2E2E2E2E2E2E2E2E2E2E2E2E2E2E2E2E2E2E2E2E2E2E2E2E2E2E2E2E2E2E2E2E2E2E2E2E2E2E2E2E2E2E2E2E2E2E2E2E2E2E2E2E2E2E2E2E2E2E2E2E2E2E2E2E2E2E2E2E2E2E2E2E2E2E2E2E2E2
310
E2E2E2E2E2E2E2E2E2E2E2E2E2E2E2E2E2E2E2E2F5E2E2E2E2E2E2E2E2E2E2E2E2E2E2E2E2E2E2F5F5EFEFF5E2E2E2E2E2E2E2E2E2E2E2E2E2E2E2E2E2E2F5E2E2E2E2E2E2E2E2E2E2E2E2E2E2E2E2E2E2E2E2E2E2E2E2E2E2E2E2E2E2E2E2E2E2E2E2E2E2E2E2E2E2E2E2E2E2E2E2E2E2E2E2E2E2E2E2E2E2E2E2E2E2E2E2
310
E2E2E2E2E2E2E2E2E2E2E2E2E2E2E2E2E2E2E2E2E2E2E2E2E2E2E2E2E2E2E2E2E2E2E2E2E2E2E2E2E2E2E2E2E2E2E2E2E2E2E2E2E2E2E2E2E2E2E2E2E2E2E2E2E2E2E2E2E2E2E2E2E2F5E2E2E2E2E2E2E2E2E2E2E2E2E2E2E2E2E2E2F5F5EFEFF5E2E2E2E2E2E2E2E2E2E2E2E2E2E2E2E2E2E2F5E2E2E2E2E2E2E2E2E2E2E2
310
E2E2E2E2E2E2E2E2E2E2E2E2E2E2E2E2E2E2E2E2E2E2E2E2E2E2E2E2E2E2E2E2E2E2E2E2E2E2E2E2E2E2E2E2E2E2E2E2E2E2E2E2E2E2E2E2E2E2E2E2E2E2E2E2E2E2E2E2E2E2E2E2E2E2E2E2E2E2E2E2E2E2E2E2E2E2E2E2E2E2E2E2E2E2E2E2E2E2E2E2E2E2E2E2E2E2E2E2E2E2E2E2E2E2E2E2E2E2E2E2E2E2E2E2E2E2F5
310
E2E2E2E2E2E2E2E2E2E2E2E2E2E2E2E2E2E2F5F5EFEFF5E2E2E2E2E2E2E2E2E2E2E2E2E2E2E2E2E2E2F5E2E2E2E2E2E2E2E2E2E2E2E2E2E2E2E2E2E2E2E2E2E2E2E2E2E2E2E2E2E2E2E2E2E2E2E2E2E2E2E2E2E2E2E2E2E2E2E2E2E2E2E2E2E2E2E2E2E2E2E2E2E2E2E2E2E2E2E2E2E2E2E2E2E2E2E2E2E2E2E2E2E2E2E2E2
310
E2E2E2E2E2E2E2E2E2E2E2E2E2E2E2E2E2E2E2E2E2E2E2E2E2E2E2E2E2E2E2E2E2E2E2E2E2E2E2E2E2E2E2E2E2E2E2E2E2E2E2E2F5E2E2E2E2E2E2E2E2E2E2E2E2E2E2E2E2E2E2F5F5EFEFF5E2E2E2E2E2E2E2E2E2E2E2E2E2E2E2E2E2E2F5E2E2E2E2E2E2E2E2E2E2E2E2E2E2E2E2E2E2E2E2E2E2E2E2E2E2E2E2E2E2E2E2
310
E2E2E2E2E2E2E2E2E2E2E2E2E2E2E2E2E2E2E2E2E2E2E2E2E2E2E2E2E2E2E2E2E2E2E2E2E2E2E2E2E2E2E2E2E2E2E2E2E2E2E2E2E2E2E2E2E2E2E2E2E2E2E2E2E2E2E2E2E2E2E2E2E2E2E2E2E2E2E2E2E2E2E2E2E2E2E2E2E2E2E2E2E2E2E2E2E2E2E2E2E2E2E2E2E2F5E2E2E2E2E2E2E2E2E2E2E2E2E2E2E2E2E2E2F5F5EF
310
EFF5E2E2E2E2E2E2E2E2E2E2E2E2E2E2E2E2E2E2F5E2E2E2E2E2E2E2E2E2E2E2E2E2E2E2E2E2E2E2E2E2E2E2E2E2E2E2E2E2E2E2E2E2E2E2E2E2E2E2E2E2E2E2E2E2E2E2E2E2E2E2E2E2E2E2E2E2E2E2E2E2E2E2E2E2E2E2E2E2E2E2E2E2E2E2E2E2E2E2E2E2E2E2E2E2E2E2E2E2E2E2E2E2E2E2E2E2E2E2E2E2E2E2E2E2E2
310
E2E2E2E2E2E2E2E2E2E2E2E2E2E2E2E2E2E2E2E2E2E2E2E2E2E2E2E2E2E2E2F5E2E2E2E2E2E2E2E2E2E2E2E2E2E2E2E2E2E2F5F5EFEFF5E2E2E2E2E2E2E2E2E2E2E2E2E2E2E2E2E2E2F5E2E2E2E2E2E2E2E2E2E2E2E2E2E2E2E2E2E2E2E2E2E2E2E2E2E2E2E2E2E2E2E2E2E2E2E2E2E2E2E2E2E2E2E2E2E2E2E2E2E2E2E2E2
310
E2E2E2E2E2E2E2E2E2E2E2E2E2E2E2E2F5F5F5F5F5F5F5F5F5F5F5F5F5F5F5F5F5F5F5F5F5F5F5F5F5F5F5F5F5F5F5F5F5F5F5F5F5F5F5F5F5F5F5F5F5F5F5F5F5F5E2E2E2E2E2E2E2E2E2E2E2E2E2E2E2E2E2E2F5E2E2E2E2E2E2E2E2E2E2E2E2E2E2E2E2E2E2F5F5EFEFF5E2E2E2E2E2E2E2E2E2E2E2E2E2E2E2E2E2E2F5
310
E2E2E2E2E2E2E2E2E2E2E2E2E2E2E2E2E2E2E2E2E2E2E2E2E2E2E2E2E2E2E2E2E2E2E2E2E2E2E2E2E2E2E2E2E2E2E2E2E2E2E2E2E2E2E2E2E2E2E2E2E2E2E2E2E2F5F5F5F5F5F5F5F5F5F5F5F5F5F5F5F5F5F5F5F5F5F5F5F5F5F5F5F5F5F5F5F5F5F5F5F5F5F5F5F5F5F5F5F5F5F5F5F5F5F5F5F5F5F5F5F5F5F5E2E2E2E2
310
E2E2E2E2E2E2E2E2E2E2F5E2E2E2E2E2E2E2E2E2E2E2E2E2E2E2E2E2E2F5F5EFEFF5E2F5E2E2E2E2E2E2E2E2E2E2E2E2E2E2E2E2F5E2E2E2E2E2E2E2E2E2E2E2E2E2E2E2E2E2E2E2E2E2E2E2E2E2E2E2E2E2E2E2E2E2E2E2E2E2E2E2E2E2E2E2E2E2E2E2E2E2E2E2E2E2E2E2E2E2E2E2E2E2E2E2F5F5F5F5E2E2E2E2E2E2E2
310
E2E2E2E2E2E2E2E2E2E2E2E2E2E2E2E2E2E2E2E2E2E2E2E2E2E2E2E2E2E2E2E2E2E2E2E2E2E2E2E2E2E2E2E2E2E2F5F5F5F5F5E2E2E2E2E2E2E2E2E2E2E2E2F5E2E2E2E2E2E2E2E2E2E2E2E2E2E2E2E2F5E2F5F5EFEFF5E2F5E2E2E2E2E2E2E2E2E2E2E2E2E2E2E2E2F5E2E2E2E2E2E2E2E2E2E2E2E2E2E2E2E2E2E2E2E2E2
310
E2E2E2E2E2E2E2E2E2E2E2E2E2E2E2E2E2E2E2E2E2E2E2E2E2E2E2E2E2E2E2E2E2E2E2E2E2E2E2E2F5F5F5E2E2E2E2E2E2E2E2E2E2E2E2E2E2E2E2E2E2E2E2E2E2E2E2E2E2E2E2E2E2E2E2E2E2E2E2E2E2E2E2E2E2E2E2E2E2E2E2E2E2E2E2E2E2E2E2E2E2E2E2F5F5F5E2E2E2E2E2E2E2E2E2E2F5E2E2E2E2E2E2E2E2E2E2
310
E2E2E2E2E2E2F5E2F5F5EFEFF5E2F5E2E2E2E2E2E2E2E2E2E2E2E2E2E2E2E2F5E2E2E2E2E2E2E2E2E2E2E2E2E2E2E2E2E2E2E2E2E2E2E2E2E2E2E2E2E2E2E2E2E2E2E2E2E2E2E2E2E2E2E2E2E2E2E2E2E2E2E2E2E2E2E2E2E2E2E2E2F5F5E2E2E2E2E2E2E2E2F5F5F5F5F5F5F5F5F5F5F5F5F5F5F5F5F5F5F5F5F5F5F5F5F5
310
F5F5F5F5F5F5F5F5F5F5F5F5F5F5F5F5F5F5F5F5F5F5F5E2E2E2E2E2E2E2E2F5F5E2E2E2E2E2E2E2E2E2F5E2E2E2E2E2E2E2E2E2E2E2E2E2E2E2E2F5E2F5F5EFEFF5E2F5E2E2E2E2E2E2E2E2E2E2E2E2E2E2E2E2F5E2E2E2E2E2E2E2E2E2E2E2E2E2E2E2E2E2E2E2E2E2E2E2E2E2E2E2E2E2E2E2E2E2E2E2E2E2E2E2E2E2E2
310
E2E2E2E2E2E2E2E2E2E2E2E2E2E2E2E2F5F5F5E2E2E2E2F5F5F5F5F5F5F5F5F5F5F5F5F5F5F5F5F5F5F5F5F5F5F5F5F5F5F5F5F5F5F5F5F5F5F5F5F5F5F5F5F5F5F5F5F5F5F5F5F5F5F5F5F5F5F5F5F5F5E2E2E2E2F5F5F5E2E2E2E2E2E2E2F5E2E2E2E2E2E2E2E2E2E2E2E2E2E2E2E2F5E2F5F5EFEFF5E2F5E2E2E2E2E2E2
310
E2E2E2E2E2E2E2E2E2E2F5E2E2E2E2E2E2E2E2E2E2E2E2E2E2E2E2E2E2E2E2E2E2E2E2E2E2E2E2E2E2E2E2E2E2E2E2E2E2E2E2E2E2E2E2E2E2E2E2E2E2E2E2E2E2E2E2E2F5F5E2E2E2E2E2F5F5F5E2E2E2E2E2E2E2E2F5F5F5F5F5F5F5F5F5F5F5F5F5F5F5F5F5F5F5F5F5F5F5F5F5F5F5F5F5F5F5F5F5F5F5F5F5F5E2E2E2
310
E2E2E2E2E2F5F5F5E2E2E2E2E2F5F5E2E2E2E2E2E2F5E2E2E2E2E2E2E2E2E2E2E2E2E2E2E2E2F5E2F5F5EFEFF5E2F5E2E2E2E2E2E2E2E2E2E2E2E2E2E2E2E2F5E2E2E2E2E2E2E2E2E2E2E2E2E2E2E2E2E2E2E2E2E2E2E2E2E2E2E2E2E2E2E2E2E2E2E2E2E2E2E2E2E2E2E2E2E2E2E2E2E2E2E2E2E2E2E2E2F5F5E2E2E2E2F5
310
F5E2E2E2E2E2E2E2E2F5F5F5E2E2E2F5E2E2E2E2E2E2E2E2E2E2E2E2E2E2E2E2E2E2E2E2E2E2E2E2E2E2E2E2E2E2F5E2E2F5F5F5F5E2E2E2E2E2E2E2E2F5F5E2E2E2F5F5F5E2E2E2E2E2F5E2E2E2E2E2E2E2E2E2E2E2E2E2E2E2E2F5E2F5F5EFEFF5E2F5E2E2E2E2E2E2E2E2E2E2E2E2E2E2E2E2F5E2E2E2E2E2E2E2E2E2E2
310
E2E2E2E2E2E2E2E2E2E2E2E2E2E2E2E2E2E2E2E2E2E2E2E2E2E2E2E2E2E2E2E2E2E2E2E2E2E2E2E2E2E2E2E2E2F5F5F5E2E2F5F5E2E2E2E2E2E2E2E2E2F5E2E2F5F5F5F5F5F5F5F5F5F5F5F5F5F5F5F5F5F5F5F5F5F5F5F5F5F5F5F5F5F5F5F5F5F5F5F5F5F5F5F5E2E2F5E2E2E2E2E2E2E2E2E2F5F5E2E2F5F5E2E2E2E2E2
310
F5E2E2E2E2E2E2E2E2E2E2E2E2E2E2E2E2F5E2F5F5EFEFF5E2F5E2E2E2E2E2E2E2E2E2E2E2E2E2E2E2E2F5E2E2E2E2E2E2E2E2E2E2E2E2E2E2E2E2E2E2E2E2E2E2E2E2E2E2E2E2E2E2E2E2E2E2E2E2E2E2E2E2E2E2E2E2E2E2E2E2E2E2E2E2E2E2E2F5F5E2E2F5F5E2E2E2E2E2E2E2E2F5F5E2F5F5E2E2E2E2E2E2E2E2E2E2
310
E2E2E2E2E2E2E2E2E2F5F5E2E2E2E2E2E2E2E2E2E2E2E2E2E2E2E2E2E2E2F5F5E2F5F5E2E2E2E2E2E2E2E2F5F5E2E2F5F5E2E2E2E2F5E2E2E2E2E2E2E2E2E2E2E2E2E2E2E2E2F5E2F5F5EFEFF5E2F5E2E2E2E2E2E2E2E2E2E2E2E2E2E2E2E2F5E2E2E2E2E2E2E2E2E2E2E2E2E2E2E2E2E2E2E2E2E2E2E2E2E2E2E2E2E2E2E2
310
E2E2E2E2E2E2E2E2E2E2E2E2E2E2E2E2E2E2E2E2E2E2E2F5F5E2E2F5E2E2E2E2E2E2E2E2E2F5E2F5F5E2E2E2E2E2E2E2E2E2E2E2E2E2E2E2E2E2E2E2E2F5F5F5F5E2E2E2E2E2E2E2E2E2E2E2E2E2E2E2E2E2E2E2E2F5F5F5F5E2E2E2E2E2E2E2E2F5F5E2E2F5F5E2E2E2F5E2E2E2E2E2E2E2E2E2E2E2E2E2E2E2E2F5E2F5F5
310
EFEFF5E2F5E2E2E2E2E2E2E2E2E2E2E2E2E2E2E2E2F5E2E2E2E2E2E2E2E2E2E2E2E2E2E2E2E2E2E2E2E2E2E2E2E2E2E2E2E2E2E2E2E2E2E2E2E2E2E2E2E2E2E2E2E2E2E2E2E2E2E2E2E2E2F5F5E2E2E2F5E2E2E2E2E2E2E2E2F5E2F5E2E2E2E2E2E2E2E2E2E2E2E2E2E2E2E2E2E2E2E2E2E2F5F5F5F5E2E2E2E2E2E2E2E2E2
310
E2E2E2E2E2E2E2E2E2E2E2E2F5F5E2F5E2E2E2E2E2E2E2E2F5E2E2E2F5E2E2E2F5E2E2E2E2E2E2E2E2E2E2E2E2E2E2E2E2F5E2F5F5EFEFF5E2F5E2E2E2E2E2E2E2E2E2E2E2E2E2E2E2E2F5E2E2E2E2E2E2E2E2E2E2E2E2E2E2E2E2E2E2E2E2E2E2E2E2E2E2E2E2E2E2E2E2E2E2E2E2E2E2E2E2E2E2E2E2E2E2E2E2E2E2E2E2
310
E2F5E2E2E2F5E2E2E2E2E2E2E2E2F5E2F5E2E2E2E2E2E2E2E2E2E2E2E2E2E2E2E2E2E2E2E2E2E2E2E2F5F5E2E2E2E2E2E2E2E2E2E2E2E2E2E2E2E2E2E2E2E2E2E2E2E2F5E2F5E2E2E2E2E2E2E2E2F5E2E2E2F5E2E2F5E2E2E2E2E2E2E2E2E2E2E2E2E2E2E2E2F5E2F5F5EFEFF5E2F5E2E2E2E2E2E2E2E2E2E2E2E2E2E2E2E2
310
F5E2E2E2E2E2E2E2E2E2E2E2E2E2E2E2E2E2E2E2E2E2E2E2E2E2E2E2E2E2E2E2E2E2E2E2E2E2E2E2E2E2E2E2E2E2E2E2E2E2E2E2E2F5F5E2E2F5E2E2E2E2E2E2E2E2F5E2F5E2E2E2E2E2E2E2E2E2E2E2E2E2E2E2E2E2E2E2E2E2E2E2E2E2E2E2E2E2E2E2E2E2E2E2E2E2E2E2E2E2E2E2E2E2E2E2E2E2E2E2E2F5F5F5E2E2E2
310
E2E2E2E2E2F5E2E2F5F5E2F5E2E2E2E2E2E2E2E2E2E2E2E2E2E2E2E2F5E2F5F5EFEFF5E2F5E2E2E2E2E2E2E2E2E2E2E2E2E2E2E2E2F5E2E2E2E2E2E2E2E2E2E2E2E2E2E2E2E2E2E2E2E2E2E2E2E2E2E2E2E2E2E2E2E2E2E2E2E2E2E2E2E2E2E2E2E2E2E2E2E2E2E2E2E2F5F5E2E2F5E2E2E2E2E2E2E2E2F5F5E2E2E2E2E2E2
310
E2E2E2E2E2E2E2E2E2E2E2E2E2E2E2E2E2E2E2E2E2E2E2E2E2E2E2E2E2E2E2E2E2E2E2E2E2E2E2E2E2E2E2E2E2E2E2F5E2F5E2E2E2E2E2E2E2E2F5E2E2F5F5E2F5E2E2E2E2E2E2E2E2E2E2E2E2E2E2E2E2F5E2F5F5EFEFF5E2F5E2E2E2E2E2E2E2E2E2E2E2E2E2E2E2E2F5E2E2E2E2E2E2E2E2E2E2E2E2E2E2E2E2E2E2E2E2
310
E2E2E2E2E2E2E2E2E2E2E2E2E2E2E2E2E2E2E2E2E2E2E2E2E2E2E2E2E2E2E2F5F5E2E2F5E2E2E2E2E2E2E2E2F5E2F5E2E2E2E2E2E2E2E2E2E2E2E2E2E2E2E2E2E2E2E2E2E2E2E2E2E2E2E2E2E2E2E2E2E2E2E2E2E2E2E2E2E2E2E2E2E2E2E2E2E2E2E2E2E2F5E2F5E2E2E2E2E2E2E2E2F5E2F5F5E2F5E2E2E2E2E2E2E2E2E2
310
E2E2E2E2E2E2E2F5E2F5F5EFEFF5E2F5E2E2E2E2E2E2E2E2E2E2E2E2E2E2E2E2F5E2E2E2E2E2E2E2E2E2E2E2E2E2E2E2E2E2E2E2E2E2E2E2E2E2E2E2E2E2E2E2E2E2E2E2E2E2E2E2E2E2E2E2E2E2E2E2E2E2E2E2F5F5E2E2F5E2E2E2E2E2E2E2E2F5F5E2E2E2E2E2E2E2E2E2E2E2E2E2E2E2E2E2E2E2E2E2E2E2E2E2E2E2E2
310
E2E2E2E2E2E2E2E2E2E2E2E2E2E2E2E2E2E2E2E2E2E2E2E2E2E2E2E2F5F5E2E2E2E2E2E2E2E2F5E2E2F5F5F5E2E2E2E2E2E2E2E2E2E2E2E2E2E2E2E2F5E2F5F5EFEFF5E2F5E2E2E2E2E2E2E2E2E2E2E2E2E2E2E2E2F5E2E2E2E2E2E2E2E2E2E2E2E2E2E2E2E2E2E2E2E2E2E2E2E2E2E2E2E2E2E2E2E2E2E2E2E2E2E2E2E2E2
310
E2E2E2E2E2E2E2E2E2E2F5F5E2E2F5E2E2E2E2E2E2E2F5E2F5E2E2E2E2E2E2E2E2E2E2E2E2E2E2E2E2E2E2E2E2E2E2E2E2E2E2E2E2E2E2E2E2E2E2E2E2E2E2E2E2E2E2E2E2E2E2E2E2E2E2E2E2E2E2E2E2F5E2F5E2E2E2E2E2E2E2F5E2E2F5F5F5E2E2E2E2E2E2E2E2E2E2E2E2E2E2E2E2F5E2F5F5EFEFF5E2F5E2E2E2E2E2
310
E2E2E2E2E2E2E2E2E2E2E2F5E2E2E2E2E2E2E2E2E2E2E2E2E2E2E2E2E2E2E2E2E2E2E2E2E2E2E2E2E2E2E2E2E2E2E2E2E2E2E2E2E2E2E2E2E2E2E2E2E2E2E2F5F5E2F5F5E2E2E2E2E2E2E2F5E2F5E2E2E2E2E2E2E2E2E2E2E2E2E2E2E2E2E2E2E2E2E2E2E2E2E2E2E2E2E2E2E2E2E2E2E2E2E2E2E2E2E2E2E2E2E2E2E2E2E2
310
E2E2E2E2E2E2E2F5E2F5E2E2E2E2E2E2E2F5F5E2F5F5F5E2E2E2E2E2E2E2E2E2E2E2E2E2E2E2E2F5E2F5F5EFEFF5E2E2E2E2E2E2E2E2E2E2E2E2E2E2E2E2E2E2F5E2E2E2E2E2E2E2E2E2E2E2E2E2E2E2E2E2E2E2E2E2E2E2E2E2E2E2E2E2E2E2E2E2E2E2E2E2E2E2E2E2E2E2E2E2E2E2E2E2E2E2F5E2E2F5E2E2E2E2E2E2E2
310
E2F5F5E2E2E2E2E2E2E2E2E2E2E2E2E2E2E2E2E2E2E2E2E2E2E2E2E2E2E2E2E2E2E2E2E2E2E2E2E2E2E2E2E2E2E2E2E2E2E2E2E2E2E2E2E2E2E2E2E2F5E2F5E2E2E2E2E2E2E2E2F5E2F5F5F5E2E2E2E2E2E2E2E2E2E2E2E2E2E2E2E2E2E2F5F5EFEFF5E2E2E2E2E2E2E2E2E2E2E2E2E2E2E2E2E2E2F5E2E2E2E2E2E2E2E2E2
310
E2E2E2E2E2E2E2E2E2E2E2E2E2E2E2E2E2E2E2E2E2E2E2E2E2E2E2E2E2E2E2E2E2E2E2E2E2E2E2E2E2E2F5E2E2F5E2E2E2E2E2E2E2E2F5F5E2E2E2E2E2E2E2E2E2E2E2E2E2E2E2E2E2E2E2E2E2E2E2E2E2E2E2E2E2E2E2E2E2E2E2E2E2E2E2E2E2E2E2E2E2E2E2E2E2E2E2E2E2E2E2E2E2E2F5F5E2E2E2E2E2E2E2E2F5E2E2
310
F5F5E2E2E2E2E2E2E2E2E2E2E2E2E2E2E2E2E2E2F5F5EFEFF5E2E2E2E2E2E2E2E2E2E2E2E2E2E2E2E2E2E2F5E2E2E2E2E2E2E2E2E2E2E2E2E2E2E2E2E2E2E2E2E2E2E2E2E2E2E2E2E2E2E2E2E2E2E2E2E2E2E2E2E2E2E2E2E2E2E2E2E2E2E2F5E2E2F5E2E2E2E2E2E2E2E2F5F5E2E2E2E2E2E2E2E2E2E2E2E2E2E2E2E2E2E2
310
E2E2E2E2E2E2E2E2E2E2E2E2E2E2E2E2E2E2E2E2E2E2E2E2E2E2E2E2E2E2E2E2E2E2E2E2E2E2E2E2F5F5E2E2E2E2E2E2E2E2F5E2E2F5F5E2E2E2E2E2E2E2E2E2E2E2E2E2E2E2E2E2E2F5F5EFEFF5E2E2E2E2E2E2E2E2E2E2E2E2E2E2E2E2E2E2F5E2E2E2E2E2E2E2E2E2E2E2E2E2E2E2E2E2E2E2E2E2E2E2E2E2E2E2E2E2E2
310
E2E2E2E2E2E2E2E2E2E2E2E2E2E2E2E2E2E2E2E2E2F5E2E2F5E2E2E2E2E2E2E2E2F5F5E2E2E2E2E2E2E2E2E2E2E2E2E2E2E2E2E2E2E2E2E2E2E2E2E2E2E2E2E2E2E2E2E2E2E2E2E2E2E2E2E2E2E2E2E2E2E2E2E2E2E2E2E2E2E2E2E2E2F5F5E2E2E2E2E2E2E2E2F5E2E2F5F5E2E2E2E2E2E2E2E2E2E2E2E2E2E2E2E2E2E2F5
310
F5EFEFF5E2E2E2E2E2E2E2E2E2E2E2E2E2E2E2E2E2E2F5E2E2E2E2E2E2E2E2E2E2E2E2E2E2E2E2E2E2E2E2E2E2E2E2E2E2E2E2E2E2E2E2E2E2E2E2E2E2E2E2E2E2E2E2E2E2E2E2E2E2E2F5E2E2F5E2E2E2E2E2E2E2E2F5F5E2E2E2E2E2E2E2E2E2E2E2E2E2E2E2E2E2E2E2E2E2E2E2E2E2E2E2E2E2E2E2E2E2E2E2E2E2E2E2
310
E2E2E2E2E2E2E2E2E2E2E2E2E2E2E2E2E2E2E2F5F5E2E2E2E2E2E2E2E2F5E2E2F5F5E2E2E2E2E2E2E2E2E2E2E2E2E2E2E2E2E2E2F5F5EFEFF5E2E2E2E2E2E2E2E2E2E2E2E2E2E2E2E2E2E2F5E2E2E2E2E2E2E2E2E2E2E2E2E2E2E2E2E2E2E2E2E2E2E2E2E2E2E2E2E2E2E2E2E2E2E2E2E2E2E2E2E2E2E2E2E2E2E2E2E2E2E2
310
F5E2E2F5E2E2E2E2E2E2E2E2F5F5E2E2E2E2E2E2E2E2E2E2E2E2E2E2E2E2E2E2E2E2E2E2E2E2E2E2E2E2E2E2E2E2E2E2E2E2E2E2E2E2E2E2E2E2E2E2E2E2E2E2E2E2E2E2E2E2E2F5F5F5E2E2E2E2E2E2E2E2F5E2F5F5F5E2E2E2E2E2E2E2E2E2E2E2E2E2E2E2E2E2E2F5F5EFEFF5E2E2E2E2E2E2E2E2E2E2E2E2E2E2E2E2E2
310
E2F5E2E2E2E2E2E2E2E2E2E2E2E2E2E2E2E2E2E2E2E2E2E2E2E2E2E2E2E2E2E2E2E2E2E2E2E2E2E2E2E2E2E2E2E2E2E2E2E2E2E2E2F5F5E2F5E2E2E2E2E2E2E2E2F5E2F5E2E2E2E2E2E2E2E2E2E2E2E2E2E2E2E2E2E2E2E2E2E2E2E2E2E2E2E2E2E2E2E2E2E2E2E2E2E2E2E2E2E2E2E2E2E2E2E2E2E2E2E2E2E2E2E2F5E2F5
310
E2E2E2E2E2E2E2F5E2E2F5F5F5E2E2E2E2E2E2E2E2E2E2E2E2E2E2E2E2E2E2F5F5EFEFF5E2E2E2E2E2E2E2E2E2E2E2E2E2E2E2E2E2E2F5E2E2E2E2E2E2E2E2E2E2E2E2E2E2E2E2E2E2E2E2E2E2E2E2E2E2E2E2E2E2E2E2E2E2E2E2E2E2E2E2E2E2E2E2E2E2E2E2E2E2E2F5F5E2E2F5E2E2E2E2E2E2E2F5F5F5E2E2E2E2E2E2
310
E2E2E2E2E2E2E2E2E2E2E2E2E2E2E2E2E2E2E2E2E2E2E2E2E2E2E2E2E2E2E2E2E2E2E2E2E2E2E2E2E2E2E2E2E2E2E2E2E2E2F5F5F5E2E2E2E2E2E2E2F5E2E2F5F5F5E2E2E2E2E2E2E2E2E2E2E2E2E2E2E2E2E2E2F5F5EFEFF5E2E2E2E2E2E2E2E2E2E2E2E2E2E2E2E2E2E2F5E2E2E2E2E2E2E2E2E2E2E2E2E2E2E2E2E2E2E2
310
E2E2E2E2E2E2E2E2E2E2E2E2E2E2E2E2E2E2E2E2E2E2E2E2E2E2E2E2E2E2E2E2F5F5E2E2F5E2E2E2E2E2E2E2E2F5E2F5E2E2E2E2E2E2E2E2E2E2E2E2E2E2E2E2E2E2E2E2E2E2E2E2E2E2E2E2E2E2E2E2E2E2E2E2E2E2E2E2E2E2E2E2E2E2E2E2E2E2E2E2E2E2F5E2F5E2E2E2E2E2E2E2E2F5E2E2F5F5F5E2E2E2E2E2E2E2E2
310
E2E2E2E2E2E2E2E2E2E2F5F5EFEFF5E2F5E2E2E2E2E2E2E2E2E2E2E2E2E2E2E2E2F5E2E2E2E2E2E2E2E2E2E2E2E2E2E2E2E2E2E2E2E2E2E2E2E2E2E2E2E2E2E2E2E2E2E2E2E2E2E2E2E2E2E2E2E2E2E2E2E2E2E2E2F5F5E2E2F5E2E2E2E2E2E2E2E2F5E2F5E2E2E2E2E2E2E2E2E2E2E2E2E2E2E2E2E2E2E2E2E2E2E2E2E2E2
310
E2E2E2E2E2E2E2E2E2E2E2E2E2E2E2E2E2E2E2E2E2E2E2E2E2E2E2E2F5E2F5E2E2E2E2E2E2E2F5F5E2F5F5E2F5E2E2E2E2E2E2E2E2E2E2E2E2E2E2E2E2F5E2F5F5EFEFF5E2F5E2E2E2E2E2E2E2E2E2E2E2E2E2E2E2E2F5E2E2E2E2E2E2E2E2E2E2E2E2E2E2E2E2E2E2E2E2E2E2E2E2E2E2E2E2E2E2E2E2E2E2E2E2E2E2E2E2
310
E2E2E2E2E2E2E2E2E2E2E2E2F5F5E2E2F5E2E2E2E2E2E2E2E2F5F5E2E2E2E2E2E2E2E2E2E2E2E2E2E2E2E2E2E2E2E2E2E2E2E2E2E2E2E2E2E2E2E2E2E2E2E2E2E2E2E2E2E2E2E2E2E2E2E2E2E2E2E2E2F5F5F5E2E2E2E2E2E2E2E2F5E2E2F5F5E2F5E2E2E2E2E2E2E2E2E2E2E2E2E2E2E2E2F5E2F5F5EFEFF5E2F5E2E2E2E2
310
E2E2E2E2E2E2E2E2E2E2E2E2F5E2E2E2E2E2E2E2E2E2E2E2E2E2E2E2E2E2E2E2E2E2E2E2E2E2E2E2E2E2E2E2E2E2E2E2E2E2E2E2E2E2E2E2E2E2E2E2E2E2E2E2E2F5F5E2E2F5F5E2E2E2E2E2E2E2E2F5F5F5E2E2E2E2E2E2E2E2E2E2E2E2E2E2E2E2E2E2E2E2E2E2E2E2E2E2E2E2E2E2E2E2E2E2E2E2E2E2E2E2E2E2E2E2E2
310
E2E2E2E2E2E2F5F5E2E2E2E2E2E2E2E2F5F5E2E2F5F5E2F5E2E2E2E2E2E2E2E2E2E2E2E2E2E2E2E2F5E2F5F5EFEFF5E2F5E2E2E2E2E2E2E2E2E2E2E2E2E2E2E2E2F5E2E2E2E2E2E2E2E2E2E2E2E2E2E2E2E2E2E2E2E2E2E2E2E2E2E2E2E2E2E2E2E2E2E2E2E2E2E2E2E2E2E2E2E2E2E2E2E2E2E2E2E2E2F5F5E2E2F5E2E2E2
310
E2E2E2E2E2F5E2F5E2E2E2E2E2E2E2E2E2E2E2E2E2E2E2E2E2E2E2E2E2E2E2E2E2E2E2E2E2E2E2E2E2E2E2E2E2E2E2E2E2E2E2E2E2E2E2E2E2F5F5F5F5E2E2E2E2E2E2E2E2F5E2E2F5F5E2E2F5E2E2E2E2E2E2E2E2E2E2E2E2E2E2E2E2F5E2F5F5EFEFF5E2F5E2E2E2E2E2E2E2E2E2E2E2E2E2E2E2E2F5E2E2E2E2E2E2E2E2
310
E2E2E2E2E2E2E2E2E2E2E2E2E2E2E2E2E2E2E2E2E2E2E2E2E2E2E2E2E2E2E2E2E2E2E2E2E2E2E2E2E2E2E2E2E2F5F5E2E2E2F5E2E2E2E2E2E2E2E2F5E2F5F5E2E2E2E2E2E2E2E2E2E2E2E2E2E2E2E2E2E2E2E2E2E2E2E2E2E2E2E2E2E2E2E2E2E2E2E2E2E2E2E2E2E2E2E2E2E2E2F5E2F5E2E2E2E2E2E2E2E2F5E2E2F5F5E2
310
E2E2F5E2E2E2E2E2E2E2E2E2E2E2E2E2E2E2E2F5E2F5F5EFEFF5E2F5E2E2E2E2E2E2E2E2E2E2E2E2E2E2E2E2F5E2E2E2E2E2E2E2E2E2E2E2E2E2E2E2E2E2E2E2E2E2E2E2E2E2E2E2E2E2E2E2E2E2E2E2E2E2E2E2E2E2E2E2E2E2E2E2E2E2E2E2E2E2E2F5F5E2E2F5F5E2E2E2E2E2E2E2E2F5E2F5F5E2E2E2E2E2E2E2E2E2E2
310
E2E2E2E2E2E2E2E2E2E2E2E2E2E2E2E2E2E2E2E2E2E2E2E2E2E2E2E2E2E2E2E2E2E2F5F5F5F5E2E2E2E2E2E2E2E2F5F5E2E2F5F5E2E2E2F5E2E2E2E2E2E2E2E2E2E2E2E2E2E2E2E2F5E2F5F5EFEFF5E2F5E2E2E2E2E2E2E2E2E2E2E2E2E2E2E2E2F5E2E2E2E2E2E2E2E2E2E2E2E2E2E2E2E2E2E2E2E2E2E2E2E2E2E2E2E2E2
310
E2E2E2E2E2E2E2E2E2E2E2E2E2E2E2E2E2E2E2E2E2E2E2E2E2E2F5F5E2E2E2F5E2E2E2E2E2E2E2E2F5F5E2F5F5F5E2E2E2E2E2E2E2E2E2E2E2E2E2E2E2E2E2E2F5F5E2E2E2E2E2E2E2E2E2E2E2E2E2E2E2E2E2E2E2F5F5E2F5F5E2E2E2E2E2E2E2E2F5E2E2E2F5F5E2E2E2E2F5E2E2E2E2E2E2E2E2E2E2E2E2E2E2E2E2F5E2
310
F5F5EFEFF5E2F5E2E2E2E2E2E2E2E2E2E2E2E2E2E2E2E2F5E2E2E2E2E2E2E2E2E2E2E2E2E2E2E2E2E2E2E2E2E2E2E2E2E2E2E2E2E2E2E2E2E2E2E2E2E2E2E2E2E2E2E2E2E2E2E2E2E2E2E2E2E2E2E2F5F5F5E2E2F5F5E2E2E2E2E2E2E2E2E2F5F5E2E2F5F5F5F5F5F5F5F5F5F5F5F5F5F5F5F5F5F5E2E2F5F5F5F5F5F5F5F5
310
F5F5F5F5F5F5F5F5F5F5F5E2F5F5E2E2E2E2E2E2E2E2E2F5E2E2E2F5F5E2E2E2E2E2F5E2E2E2E2E2E2E2E2E2E2E2E2E2E2E2E2F5E2F5F5EFEFF5E2F5E2E2E2E2E2E2E2E2E2E2E2E2E2E2E2E2F5E2E2E2E2E2E2E2E2E2E2E2E2E2E2E2E2E2E2E2E2E2E2E2E2E2E2E2E2E2E2E2E2E2E2E2E2E2E2E2E2E2E2E2E2E2E2E2E2E2E2
310
E2E2E2E2E2E2F5F5E2E2E2E2F5F5E2E2E2E2E2E2E2E2E2F5F5F5F5E2F5E2E2E2E2E2E2E2F5F5E2E2F5F5F5F5F5F5F5F5E2E2F5E2E2E2E2E2E2E2E2F5E2F5F5F5F5E2E2E2E2E2E2E2E2E2F5F5E2E2E2F5F5F5E2E2E2E2E2F5E2E2E2E2E2E2E2E2E2E2E2E2E2E2E2E2F5E2F5F5EFEFF5E2F5E2E2E2E2E2E2E2E2E2E2E2E2E2E2
310
E2E2F5E2E2E2E2E2E2E2E2E2E2E2E2E2E2E2E2E2E2E2E2E2E2E2E2E2E2E2E2E2E2E2E2E2E2E2E2E2E2E2E2E2E2E2E2E2E2E2E2E2E2E2E2E2E2E2E2E2F5F5F5E2E2E2E2F5F5E2E2E2E2E2E2E2E2E2F5F5F5F5F5F5F5F5F5F5F5F5E2F5F5F5F5F5F5F5F5F5F5F5F5E2F5F5F5F5F5F5F5F5F5F5F5F5E2E2E2E2E2E2E2E2F5F5F5
310
E2E2E2E2F5F5F5E2E2E2E2E2E2F5E2E2E2E2E2E2E2E2E2E2E2E2E2E2E2E2F5E2F5F5EFEFF5E2F5E2E2E2E2E2E2E2E2E2E2E2E2E2E2E2E2F5E2E2E2E2E2E2E2E2E2E2E2E2E2E2E2E2E2E2E2E2E2E2E2E2E2E2E2E2E2E2E2E2E2E2E2E2E2E2E2E2E2E2E2E2E2E2E2E2E2E2E2E2E2E2E2E2E2E2E2F5F5E2E2E2E2E2F5F5F5F5F5
310
F5F5F5F5F5F5F5F5F5F5F5F5F5F5F5F5F5F5F5F5F5F5F5F5F5F5F5F5F5F5F5F5F5F5F5F5F5F5F5F5F5F5F5F5F5F5F5F5F5F5E2E2E2E2E2E2F5F5E2E2E2E2E2E2E2E2F5E2E2E2E2E2E2E2E2E2E2E2E2E2E2E2E2F5E2F5F5EFEFF5E2F5E2E2E2E2E2E2E2E2E2E2E2E2E2E2E2E2F5E2E2E2E2E2E2E2E2E2E2E2E2E2E2E2E2E2E2
310
E2E2E2E2E2E2E2E2E2E2E2E2E2E2E2E2E2E2E2E2E2E2E2E2E2E2E2E2E2E2E2E2E2E2E2E2E2E2E2E2E2E2F5F5F5E2E2E2E2E2E2E2E2E2E2E2E2E2E2E2E2E2E2E2E2E2E2E2E2E2E2E2E2E2E2E2E2E2E2E2E2E2E2E2E2E2E2E2E2E2E2E2E2E2E2E2E2E2E2E2E2E2E2E2E2E2E2F5F5F5E2E2E2E2E2E2E2E2E2F5E2E2E2E2E2E2E2
310
E2E2E2E2E2E2E2E2E2F5E2F5F5EFEFF5E2F5E2E2E2E2E2E2E2E2E2E2E2E2E2E2E2E2F5E2E2E2E2E2E2E2E2E2E2E2E2E2E2E2E2E2E2E2E2E2E2E2E2E2E2E2E2E2E2E2E2E2E2E2E2E2E2E2E2E2E2E2E2E2E2E2E2E2E2E2E2E2E2E2E2E2E2E2E2E2F5F5F5F5E2E2E2E2E2E2E2E2E2E2E2E2E2E2E2E2E2E2E2E2E2E2E2E2E2E2E2
310
E2E2E2E2E2E2E2E2E2E2E2E2E2E2E2E2E2E2E2E2E2E2E2E2E2E2E2E2E2E2E2F5F5F5F5E2E2E2E2E2E2E2E2E2E2F5E2E2E2E2E2E2E2E2E2E2E2E2E2E2E2E2F5E2F5F5EFEFF5E2F5E2E2E2E2E2E2E2E2E2E2E2E2E2E2E2E2F5E2E2E2E2E2E2E2E2E2E2E2E2E2E2E2E2E2E2E2E2E2E2E2E2E2E2E2E2E2E2E2E2E2E2E2E2E2E2E2
310
E2E2E2E2E2E2E2E2E2E2E2E2E2E2E2E2E2E2E2E2E2E2E2E2F5F5F5F5F5E2E2E2E2E2E2E2E2E2E2E2E2E2E2E2E2E2E2E2E2E2E2E2E2E2E2E2E2E2E2E2E2E2E2E2E2E2E2E2E2E2E2E2E2E2E2E2E2E2E2E2F5F5F5F5F5F5E2E2E2E2E2E2E2E2E2E2E2E2F5E2E2E2E2E2E2E2E2E2E2E2E2E2E2E2E2F5E2F5F5EFEFF5E2F5E2E2E2
310
E2E2E2E2E2E2E2E2E2E2E2E2E2F5E2E2E2E2E2E2E2E2E2E2E2E2E2E2E2E2E2E2E2E2E2E2E2E2E2E2E2E2E2E2E2E2E2E2E2E2E2E2E2E2E2E2E2E2E2E2E2E2E2E2E2E2E2E2E2E2E2E2E2E2E2E2E2E2E2F5F5F5F5F5F5F5F5F5F5F5F5F5F5F5F5F5F5F5F5F5F5F5F5F5F5F5F5F5F5F5F5F5F5F5F5F5F5F5F5F5F5F5F5F5F5F5F5
310
F5F5F5F5F5F5F5F5F5F5E2E2E2E2E2E2E2E2E2E2E2E2E2E2F5E2E2E2E2E2E2E2E2E2E2E2E2E2E2E2E2F5E2F5F5EFEFF5E2F5E2E2E2E2E2E2E2E2E2E2E2E2E2E2E2E2F5E2E2E2E2E2E2E2E2E2E2E2E2E2E2E2E2E2E2E2E2E2E2E2E2E2E2E2E2E2E2E2E2E2E2E2E2E2E2E2E2E2E2E2E2E2E2E2E2E2E2E2E2E2E2E2E2E2E2E2E2
310
E2E2E2E2E2E2E2E2E2E2E2F5F5F5F5F5F5F5F5F5F5F5F5F5F5F5F5F5F5F5F5F5F5F5F5F5F5F5F5F5F5F5F5F5F5F5F5F5F5F5F5F5F5F5F5F5F5E2E2E2E2E2E2E2E2E2E2E2E2E2E2E2E2E2E2E2E2F5E2E2E2E2E2E2E2E2E2E2E2E2E2E2E2E2F5E2F5F5EFEFF5E2F5E2E2E2E2E2E2E2E2E2E2E2E2E2E2E2E2F5E2E2E2E2E2E2E2
310
E2E2E2E2E2E2E2E2E2E2E2E2E2E2E2E2E2E2E2E2E2E2E2E2E2E2E2E2E2E2E2E2E2E2E2E2E2E2E2E2E2E2E2E2E2E2E2E2E2E2E2E2E2E2E2E2E2E2E2E2E2E2E2E2E2E2E2E2E2E2E2E2E2E2E2E2E2E2E2E2E2E2E2E2E2E2E2E2E2E2E2E2E2E2E2E2E2E2E2E2E2E2E2E2E2E2E2E2E2E2E2E2E2E2E2E2E2E2E2E2E2E2E2E2E2E2E2
310
E2E2E2F5E2E2E2E2E2E2E2E2E2E2E2E2E2E2E2E2F5E2F5F5EFEFF5E2E2E2E2E2E2E2E2E2E2E2E2E2E2E2E2E2E2F5E2E2E2E2E2E2E2E2E2E2E2E2E2E2E2E2E2E2E2E2E2E2E2E2E2E2E2E2E2E2E2E2E2E2E2E2E2E2E2E2E2E2E2E2E2E2E2E2E2E2E2E2E2E2E2E2E2E2E2E2E2E2E2E2E2E2E2E2E2E2E2E2E2E2E2E2E2E2E2E2E2
310
E2E2E2E2E2E2E2E2E2E2E2E2E2E2E2E2E2E2E2E2E2E2E2E2E2E2E2E2E2E2E2E2E2E2E2E2E2E2E2E2E2E2E2E2E2E2E2E2E2E2E2E2E2E2E2E2F5E2E2E2E2E2E2E2E2E2E2E2E2E2E2E2E2E2E2F5F5EFEFF5E2E2E2E2E2E2E2E2E2E2E2E2E2E2E2E2E2E2F5E2E2E2E2E2E2E2E2E2E2E2E2E2E2E2E2E2E2E2E2E2E2E2E2E2E2E2E2
310
E2E2E2E2E2E2E2E2E2E2E2E2E2E2E2E2E2E2E2E2E2E2E2E2E2E2E2E2E2E2E2E2E2E2E2E2E2E2E2E2E2E2E2E2E2E2E2E2E2E2E2E2E2E2E2E2E2E2E2E2E2E2E2E2E2E2E2E2E2E2E2E2E2E2E2E2E2E2E2E2E2E2E2E2E2E2E2E2E2E2E2E2E2E2E2E2E2E2E2E2E2E2E2E2E2E2E2E2E2F5E2E2E2E2E2E2E2E2E2E2E2E2E2E2E2E2E2
310
E2F5F5EFEFF5E2E2E2E2E2E2E2E2E2E2E2E2E2E2E2E2E2E2F5E2E2E2E2E2E2E2E2E2E2E2E2E2E2E2E2E2E2E2E2E2E2E2E2E2E2E2E2E2E2E2E2E2E2E2E2E2E2E2E2E2E2E2E2E2E2E2E2E2E2E2E2E2E2E2E2E2E2E2E2E2E2E2E2E2E2E2E2E2E2E2E2E2E2E2E2E2E2E2E2E2E2E2E2E2E2E2E2E2E2E2E2E2E2E2E2E2E2E2E2E2E2
310
E2E2E2E2E2E2E2E2E2E2E2E2E2E2E2E2E2E2E2E2E2E2E2E2E2E2E2E2E2E2E2E2E2E2E2F5E2E2E2E2E2E2E2E2E2E2E2E2E2E2E2E2E2E2F5F5EFEFF5E2E2E2E2E2E2E2E2E2E2E2E2E2E2E2E2E2E2F5E2E2E2E2E2E2E2E2E2E2E2E2E2E2E2E2E2E2E2E2E2E2E2E2E2E2E2E2E2E2E2E2E2E2E2E2E2E2E2E2E2E2E2E2E2E2E2E2E2
310
E2E2E2E2E2E2E2E2E2E2E2E2E2E2E2E2E2E2E2E2E2E2E2E2E2E2E2E2E2E2E2E2E2E2E2E2E2E2E2E2E2E2E2E2E2E2E2E2E2E2E2E2E2E2E2E2E2E2E2E2E2E2E2E2E2E2E2E2E2E2E2E2E2E2E2E2E2E2E2E2E2E2E2E2E2E2E2E2F5E2E2E2E2E2E2E2E2E2E2E2E2E2E2E2E2E2E2F5F5EFEFF5E2E2E2E2E2E2E2E2E2E2E2E2E2E2E2
310
E2E2E2F5F5F5F5F5F5F5F5F5F5F5F5F5F5F5F5F5F5F5F5F5F5F5F5F5F5F5F5F5F5F5F5F5F5F5F5F5F5F5F5F5F5F5F5F5F5F5F5F5F5F5F5F5F5F5F5F5F5F5F5F5F5F5F5F5F5F5F5F5F5F5F5F5F5F5F5F5F5F5F5F5F5F5F5F5F5F5F5F5F5F5F5F5F5F5F5F5F5F5F5F5F5F5F5F5F5F5F5F5F5F5F5F5F5F5F5F5F5F5F5F5F5F5F5
310
F5F5F5F5F5F5F5F5F5F5F5F5F5F5F5E2E2E2E2E2E2E2E2E2E2E2E2E2E2E2E2E2E2F5F5EFEFF5E2E2E2E2E2E2E2E2E2E2E2E2E2E2E2E2E2E2E2E2E2E2E2E2E2E2E2E2E2E2E2E2E2E2E2E2E2E2E2E2E2E2E2E2E2E2E2E2E2E2E2E2E2E2E2E2E2E2E2E2E2E2E2E2E2E2E2E2E2E2E2E2E2E2E2E2E2E2E2E2E2E2E2E2E2E2E2E2E2
310
E2E2E2E2E2E2E2E2E2E2E2E2E2E2E2E2E2E2E2E2E2E2E2E2E2E2E2E2E2E2E2E2E2E2E2E2E2E2E2E2E2E2E2E2E2E2E2E2E2E2E2E2E2E2E2E2E2E2E2E2E2E2E2E2E2E2E2E2E2E2E2E2E2E2E2E2E2E2E2E2E2E2E2E2E2E2F5F5EFEFF5E2E2E2E2E2E2E2E2E2E2E2E2E2E2E2E2E2E2E2E2E2E2E2E2E2E2E2E2E2E2E2E2E2E2E2E2
310
E2E2E2E2E2E2E2E2E2E2E2E2E2E2E2E2E2E2E2E2E2E2E2E2E2E2E2E2E2E2E2E2E2E2E2E2E2E2E2E2E2E2E2E2E2E2E2E2E2E2E2E2E2E2E2E2E2E2E2E2E2E2E2E2E2E2E2E2E2E2E2E2E2E2E2E2E2E2E2E2E2E2E2E2E2E2E2E2E2E2E2E2E2E2E2E2E2E2E2E2E2E2E2E2E2E2E2E2E2E2E2E2E2E2E2E2E2E2E2E2E2E2E2E2E2E2E2
310
E2E2E2E2E2E2E2E2E2E2E2E2F5F5EFEFF5E2E2E2E2E2E2E2E2E2E2E2E2E2E2E2E2E2E2E2E2E2E2E2E2E2E2E2E2E2E2E2E2E2E2E2E2E2E2E2E2E2E2E2E2E2E2E2E2E2E2E2E2E2E2E2E2E2E2E2E2E2E2E2E2E2E2E2E2E2E2E2E2E2E2E2E2E2E2E2E2E2E2E2E2E2E2E2E2E2E2E2E2E2E2E2E2E2E2E2E2E2E2E2E2E2E2E2E2E2E2
310
E2E2E2E2E2E2E2E2E2E2E2E2E2E2E2E2E2E2E2E2E2E2E2E2E2E2E2E2E2E2E2E2E2E2E2E2E2E2E2E2E2E2E2E2E2E2E2E2E2E2E2E2E2E2E2E2E2E2E2E2E2E2E2E2E2F5F5EFEFF5E2E2E2E2E2E2E2E2E2E2E2E2E2E2E2E2E2E2E2E2E2E2E2E2E2E2E2E2E2E2E2E2E2E2E2E2E2E2E2E2E2E2E2E2E2E2E2E2E2E2E2E2E2E2E2E2E2
310
E2E2E2E2E2E2E2E2E2E2E2E2E2E2E2E2E2E2E2E2E2E2E2E2E2E2E2E2E2E2E2E2E2E2E2E2E2E2E2E2E2E2E2E2E2E2E2E2E2E2E2E2E2E2E2E2E2E2E2E2E2E2E2E2F5F5F5E2E2E2F5F5F5F5F5F5E2F5F5E2F5E2F5F5E2F5F5E2F5E2F5F5E2E2F5F5F5F5F5E2E2E2E2E2E2E2E2E2E2E2E2E2E2E2E2E2E2E2F5F5EFEFF5E2E2E2E2
310
E2E2E2E2E2E2E2E2E2E2E2E2E2E2E2E2E2E2E2E2E2E2E2E2E2E2E2E2E2E2E2E2E2E2E2E2E2E2E2E2E2E2E2E2E2E2E2E2E2E2E2E2E2E2E2E2E2E2E2E2E2E2E2E2E2E2E2E2E2E2E2E2E2E2E2E2E2E2E2E2E2E2E2E2E2E2E2E2E2E2E2E2E2E2E2E2E2E2E2E2E2E2E2E2E2E2E2E2E2E2E2E2E2E2E2E2E2F5F5F5F5F5F5F5F5F5F5
310
F5F5F5F5E2E2F5F5F5F5E2F5F5F5F5F5F5E2E2E2F5E2F5F5F5E2E2E2E2E2E2E2E2E2E2E2E2E2E2E2E2E2E2E2F5F5EFEFF5E2F5E2E2E2E2E2E2E2E2E2E2E2E2E2E2E2E2E2E2E2E2E2E2E2E2E2E2E2E2E2E2E2E2E2E2E2E2E2E2E2E2E2E2E2E2E2E2E2E2E2E2E2E2E2E2E2E2E2E2E2E2E2E2E2E2E2E2E2E2E2E2E2E2E2E2E2E2
310
E2E2E2E2E2E2E2E2E2E2E2E2E2E2E2E2E2E2E2E2E2E2E2E2E2E2E2E2E2E2E2E2E2E2E2E2E2E2E2E2E2E2E2F5F5F5F5E2F5F5F5F5F5F5F5E2F5E2E2E2F5F5F5E2F5E2F5F5E2F5E2E2F5E2F5F5F5F5E2E2E2E2E2E2E2E2E2E2E2E2E2E2E2E2E2F5E2F5F5EFEFF5E2F5E2E2E2E2E2E2E2E2E2E2E2E2E2E2E2E2E2E2E2E2E2E2E2
310
E2E2E2E2E2E2E2E2E2E2E2E2E2E2E2E2E2E2E2E2E2E2E2E2E2E2E2E2E2E2E2E2E2E2E2E2E2E2E2E2E2E2E2E2E2E2E2E2E2E2E2E2E2E2E2E2E2E2E2E2E2E2E2E2E2E2E2E2E2E2E2E2E2E2E2E2E2E2E2E2E2E2E2E2E2E2E2E2E2E2E2E2E2E2E2E2F5F5F5E2E2E2F5F5F5F5F5F5E2F5E2E2E2F5F5F5F5F5F5F5F5E2F5E2E2F5E2
310
F5F5F5F5E2E2E2E2E2E2E2E2E2E2E2E2E2E2E2E2E2F5E2F5F5EFEFF5E2F5E2E2E2E2E2E2E2E2E2E2E2E2E2E2E2E2E2E2E2E2E2E2E2E2E2E2E2E2E2E2E2E2E2E2E2E2E2E2E2E2E2E2E2E2E2E2E2E2E2E2E2E2E2E2E2E2E2E2E2E2E2E2E2E2E2E2E2E2E2E2E2E2E2E2E2E2E2E2E2E2E2E2E2E2E2E2E2E2E2E2E2E2E2E2E2E2E2
310
E2E2E2E2E2E2E2E2E2E2E2E2E2E2E2E2E2E2E2E2E2E2E2E2E2E2E2E2E2E2E2E2E2E2E2E2E2E2E2E2E2E2E2E2E2E2E2E2E2E2E2E2E2E2E2E2E2E2E2E2E2E2E2E2E2E2E2E2E2E2E2E2E2E2F5E2F5F5EFEFF5E2F5E2E2E2E2E2E2E2E2E2E2E2E2E2E2E2E2E2E2E2E2E2E2E2E2E2E2E2E2E2E2E2E2E2E2E2E2E2E2E2E2E2E2E2E2
310
E2E2E2E2E2E2E2E2E2E2E2E2E2E2E2E2E2E2E2E2E2E2E2E2E2E2E2E2E2E2E2E2E2E2E2E2E2E2E2E2E2E2E2E2E2E2E2E2E2E2E2E2E2E2E2E2E2E2E2E2E2E2E2E2E2E2E2E2E2E2E2E2E2E2E2E2E2E2E2E2E2E2E2E2E2E2E2E2E2E2E2E2E2E2E2E2E2E2E2E2E2E2E2E2E2E2E2E2E2E2E2E2E2E2E2E2E2E2E2E2E2E2E2E2E2E2E2
310
F5E2F5F5EFEFF5E2F5E2E2E2E2E2E2E2E2E2E2E2E2E2E2E2E2E2E2E2E2E2E2E2E2E2E2E2E2E2E2E2E2E2E2E2E2E2E2E2E2E2E2E2E2E2E2E2E2E2E2E2E2E2E2E2E2E2E2E2E2E2E2E2E2E2E2E2E2E2E2E2E2E2E2E2E2E2E2E2E2E2E2E2E2E2E2E2E2E2E2E2E2E2E2E2E2E2E2E2E2E2E2E2E2E2E2E2E2E2E2E2E2E2E2E2E2E2E2
310
E2E2E2E2E2E2E2E2E2E2E2E2E2E2E2E2E2E2E2E2E2E2E2E2E2E2E2E2E2E2E2E2E2E2E2E2E2E2E2E2E2E2E2E2E2E2E2E2E2E2E2E2E2F5E2F5F5EFEFF5E2F5E2E2E2E2E2E2E2E2E2E2E2E2E2E2E2E2E2E2E2E2E2E2E2E2E2E2E2E2E2E2E2E2E2E2E2E2E2E2E2E2E2E2E2E2E2E2E2E2E2E2E2E2E2E2E2E2E2E2E2E2E2E2E2E2E2
310
E2E2E2E2E2E2E2E2E2E2E2E2E2E2E2E2E2E2E2E2E2E2E2E2E2E2E2E2E2E2E2E2E2E2E2E2E2E2E2E2E2E2E2E2E2E2E2E2E2E2E2E2E2E2E2E2E2E2E2E2E2E2E2E2E2E2E2E2E2E2E2E2E2E2E2E2E2E2E2E2E2E2E2E2E2E2E2E2E2E2E2E2E2E2E2E2E2E2E2E2E2E2E2E2E2E2F5E2F5F5EFEFF5E2F5E2E2E2E2E2E2E2E2E2E2E2E2
310
E2E2E2E2E2E2E2E2E2E2E2E2E2E2E2E2E2E2E2E2E2E2E2E2E2E2E2E2E2E2E2E2E2E2E2E2E2E2E2E2E2E2E2E2E2E2E2E2E2E2E2E2E2E2E2E2E2E2E2E2E2E2E2E2E2E2E2E2E2E2E2E2E2E2E2E2E2E2E2E2E2E2E2E2E2E2E2E2E2E2E2E2E2E2E2E2E2E2E2E2E2E2E2E2E2E2E2E2E2E2E2E2E2E2E2E2E2E2E2E2E2E2E2E2E2E2E2
310
E2E2E2E2E2E2E2E2E2E2E2E2E2E2E2E2E2E2E2E2E2E2E2E2E2E2E2E2E2E2E2E2F5E2F5F5EFEFF5E2F5E2E2E2E2E2E2E2E2E2E2E2E2E2E2E2E2E2E2E2E2E2E2E2E2E2E2E2E2E2E2E2E2E2E2E2E2E2E2E2E2E2E2E2E2E2E2E2E2E2E2E2E2E2E2E2E2E2E2E2E2E2E2E2E2E2E2E2E2E2E2E2E2E2E2E2E2E2E2E2E2E2E2E2E2E2E2
310
E2E2E2E2E2E2E2E2E2E2E2E2E2E2E2E2E2E2E2E2E2E2E2E2E2E2E2E2E2E2E2E2E2E2E2E2E2E2E2E2E2E2E2E2E2E2E2E2E2E2E2E2E2E2E2E2E2E2E2E2E2E2E2E2E2E2E2E2E2E2E2E2E2E2E2E2E2E2E2E2E2E2E2E2E2F5E2F5F5EFEFF5E2F5F5F5F5F5F5F5F5E2E2E2E2E2E2E2E2E2F5F5F5F5F5F5F5F5F5F5F5F5F5F5F5F5E2
310
E2E2E2E2E2E2E2E2F5F5F5F5F5F5F5F5F5F5F5F5F5F5F5F5E2E2E2E2E2E2E2E2F5F5F5F5F5F5F5F5F5F5F5F5F5F5F5F5E2E2E2E2E2E2E2E2E2F5F5F5F5F5F5F5F5F5F5F5F5F5F5F5F5E2E2E2E2E2E2E2E2F5F5F5F5F5F5F5F5F5F5F5F5F5F5F5F5E2E2E2E2E2E2E2E2E2F5F5F5F5F5F5F5F5F5F5F5F5F5F5F5F5E2E2E2E2E2
310
E2E2E2E2F5F5F5F5F5F5F5F5E2F5EFEFEFF5E2E2E2E2E2E2E2E2E2E2E2E2E2E2E2E2E2E2E2E2E2E2E2E2E2E2E2E2E2E2E2E2E2E2E2E2E2E2E2E2E2E2E2E2E2E2E2E2E2E2E2E2E2E2E2E2E2E2E2E2E2E2E2E2E2E2E2E2E2E2E2E2E2E2E2E2E2E2E2E2E2E2E2E2E2E2E2E2E2E2E2E2E2E2E2E2E2E2E2E2E2E2E2E2E2E2E2E2E2
310
E2E2E2E2E2E2E2E2E2E2E2E2E2E2E2E2E2E2E2E2E2E2E2E2E2E2E2E2E2E2E2E2E2E2E2E2E2E2E2E2E2E2E2E2E2E2E2E2E2E2E2E2E2E2E2E2E2E2E2E2E2E2E2E2E2E2F5EFEFEFF5F5F5F5F5F5F5F5F5F5F5F5F5F5F5F5F5F5F5F5F5F5F5F5F5F5F5F5F5F5F5F5F5F5F5F5F5F5F5F5F5F5F5F5F5F5F5F5F5F5F5F5F5F5F5F5F5
310
F5F5F5F5F5F5F5F5F5F5F5F5F5F5F5F5F5F5F5F5F5F5F5F5F5F5F5F5F5F5F5F5F5F5F5F5F5F5F5F5F5F5F5F5F5F5F5F5F5F5F5F5F5F5F5F5F5F5F5F5F5F5F5F5F5F5F5F5F5F5F5F5F5F5F5F5F5F5F5F5F5F5F5F5F5F5F5F5F5F5F5F5F5F5F5F5F5F5F5F5F5F5F5F5F5F5F5F5F5F5F5F5F5F5F5F5F5F5F5F5EFEFEF
  0
XRECORD
  5
1906B
102
{ACAD_REACTORS
330
1906A
102
}
330
1906A
100
AcDbXrecord
280
     1
102
SHADEPLOT
 70
     0
102
SHADEPLOTRESLEVEL
 70
     2
102
SHADEPLOTCUSTOMDPI
 70
   300
  0
XRECORD
  5
19073
102
{ACAD_REACTORS
330
19072
102
}
330
19072
100
AcDbXrecord
280
     1
102
MATERIAL
148
0.0
149
0.0
149
0.0
 93
        0
 94
       63
282
     0
 72
     1
 77
     1
171
     1
175
     1
179
     1
273
     0
  0
XRECORD
  5
19071
102
{ACAD_REACTORS
330
19070
102
}
330
19070
100
AcDbXrecord
280
     1
102
MATERIAL
148
0.0
149
0.0
149
0.0
 93
        0
 94
       63
282
     0
 72
     1
 77
     1
171
     1
175
     1
179
     1
273
     0
  0
XRECORD
  5
1906F
102
{ACAD_REACTORS
330
1906E
102
}
330
1906E
100
AcDbXrecord
280
     1
102
MATERIAL
148
0.0
149
0.0
149
0.0
 93
        0
 94
       63
282
     0
 72
     1
 77
     1
171
     1
175
     1
179
     1
273
     0
  0
XRECORD
  5
1906D
102
{ACAD_REACTORS
330
1906C
102
}
330
1906C
100
AcDbXrecord
280
     1
102
ACAD_ROUNDTRIP_PRE2007_TABLESTYLE
 90
        4
 91
        0
  1

 92
        4
 93
        0
  2

 94
        4
 95
        0
  3

  0
ENDSEC
  0
EOF
