  0
SECTION
  2
HEADER
  9
$ACADVER
  1
AC1015
  9
$ACADMAINTVER
 70
    20
  9
$DWGCODEPAGE
  3
ANSI_1252
  9
$INSBASE
 10
-20.80256754294402
 20
105.248990860253
 30
0.0
  9
$EXTMIN
 10
0.0
 20
0.0
 30
0.0
  9
$EXTMAX
 10
133.6312066665098
 20
83.39881200387356
 30
0.0
  9
$LIMMIN
 10
0.0
 20
0.0
  9
$LIMMAX
 10
0.0
 20
0.0
  9
$ORTHOMODE
 70
     0
  9
$REGENMODE
 70
     1
  9
$FILLMODE
 70
     1
  9
$QTEXTMODE
 70
     0
  9
$MIRRTEXT
 70
     1
  9
$LTSCALE
 40
1.0
  9
$ATTMODE
 70
     1
  9
$TEXTSIZE
 40
0.0
  9
$TRACEWID
 40
0.05
  9
$TEXTSTYLE
  7
SLDTEXTSTYLE0
  9
$CLAYER
  8
0
  9
$CELTYPE
  6
CONTINUOUS
  9
$CECOLOR
 62
   256
  9
$CELTSCALE
 40
1.0
  9
$DISPSILH
 70
     0
  9
$DIMSCALE
 40
1.0
  9
$DIMASZ
 40
1.0
  9
$DIMEXO
 40
0.5
  9
$DIMDLI
 40
0.38
  9
$DIMRND
 40
0.0
  9
$DIMDLE
 40
0.0
  9
$DIMEXE
 40
0.125
  9
$DIMTP
 40
0.0
  9
$DIMTM
 40
0.0
  9
$DIMTXT
 40
1.0
  9
$DIMCEN
 40
0.09
  9
$DIMTSZ
 40
0.0
  9
$DIMTOL
 70
     0
  9
$DIMLIM
 70
     0
  9
$DIMTIH
 70
     1
  9
$DIMTOH
 70
     1
  9
$DIMSE1
 70
     0
  9
$DIMSE2
 70
     0
  9
$DIMTAD
 70
     0
  9
$DIMZIN
 70
    12
  9
$DIMBLK
  1

  9
$DIMASO
 70
     1
  9
$DIMSHO
 70
     1
  9
$DIMPOST
  1
\X
  9
$DIMAPOST
  1
mm
  9
$DIMALT
 70
     1
  9
$DIMALTD
 70
     0
  9
$DIMALTF
 40
25.4
  9
$DIMLFAC
 40
1.0
  9
$DIMTOFL
 70
     0
  9
$DIMTVP
 40
0.0
  9
$DIMTIX
 70
     0
  9
$DIMSOXD
 70
     0
  9
$DIMSAH
 70
     0
  9
$DIMBLK1
  1

  9
$DIMBLK2
  1

  9
$DIMSTYLE
  2
SLDDIMSTYLE0
  9
$DIMCLRD
 70
     7
  9
$DIMCLRE
 70
     7
  9
$DIMCLRT
 70
     7
  9
$DIMTFAC
 40
1.0
  9
$DIMGAP
 40
0.5
  9
$DIMJUST
 70
     0
  9
$DIMSD1
 70
     0
  9
$DIMSD2
 70
     0
  9
$DIMTOLJ
 70
     1
  9
$DIMTZIN
 70
    12
  9
$DIMALTZ
 70
     0
  9
$DIMALTTZ
 70
     0
  9
$DIMUPT
 70
     1
  9
$DIMDEC
 70
     0
  9
$DIMTDEC
 70
     0
  9
$DIMALTU
 70
     2
  9
$DIMALTTD
 70
     0
  9
$DIMTXSTY
  7
STANDARD
  9
$DIMAUNIT
 70
     0
  9
$DIMADEC
 70
     0
  9
$DIMALTRND
 40
0.0
  9
$DIMAZIN
 70
     0
  9
$DIMDSEP
 70
    46
  9
$DIMATFIT
 70
     2
  9
$DIMFRAC
 70
     0
  9
$DIMLDRBLK
  1

  9
$DIMLUNIT
 70
     2
  9
$DIMLWD
 70
    -2
  9
$DIMLWE
 70
    -2
  9
$DIMTMOVE
 70
     0
  9
$LUNITS
 70
     2
  9
$LUPREC
 70
     3
  9
$SKETCHINC
 40
0.1
  9
$FILLETRAD
 40
0.125
  9
$AUNITS
 70
     0
  9
$AUPREC
 70
     0
  9
$MENU
  1
acad
  9
$ELEVATION
 40
0.0
  9
$PELEVATION
 40
0.0
  9
$THICKNESS
 40
0.0
  9
$LIMCHECK
 70
     0
  9
$CHAMFERA
 40
0.0
  9
$CHAMFERB
 40
0.0
  9
$CHAMFERC
 40
0.0
  9
$CHAMFERD
 40
0.0
  9
$SKPOLY
 70
     0
  9
$TDCREATE
 40
2444971.708333333
  9
$TDUCREATE
 40
2444972.000000000
  9
$TDUPDATE
 40
2454922.418112210
  9
$TDUUPDATE
 40
2454922.709778878
  9
$TDINDWG
 40
1.5015979977
  9
$TDUSRTIMER
 40
1.5015979977
  9
$USRTIMER
 70
     1
  9
$ANGBASE
 50
0.0
  9
$ANGDIR
 70
     0
  9
$PDMODE
 70
     0
  9
$PDSIZE
 40
-1.0
  9
$PLINEWID
 40
0.0
  9
$SPLFRAME
 70
     0
  9
$SPLINETYPE
 70
     6
  9
$SPLINESEGS
 70
     8
  9
$HANDSEED
  5
18F19
  9
$SURFTAB1
 70
     6
  9
$SURFTAB2
 70
     6
  9
$SURFTYPE
 70
     6
  9
$SURFU
 70
     6
  9
$SURFV
 70
     6
  9
$UCSBASE
  2

  9
$UCSNAME
  2

  9
$UCSORG
 10
0.0
 20
0.0
 30
0.0
  9
$UCSXDIR
 10
1.0
 20
0.0
 30
0.0
  9
$UCSYDIR
 10
0.0
 20
1.0
 30
0.0
  9
$UCSORTHOREF
  2

  9
$UCSORTHOVIEW
 70
     0
  9
$UCSORGTOP
 10
0.0
 20
0.0
 30
0.0
  9
$UCSORGBOTTOM
 10
0.0
 20
0.0
 30
0.0
  9
$UCSORGLEFT
 10
0.0
 20
0.0
 30
0.0
  9
$UCSORGRIGHT
 10
0.0
 20
0.0
 30
0.0
  9
$UCSORGFRONT
 10
0.0
 20
0.0
 30
0.0
  9
$UCSORGBACK
 10
0.0
 20
0.0
 30
0.0
  9
$PUCSBASE
  2

  9
$PUCSNAME
  2

  9
$PUCSORG
 10
0.0
 20
0.0
 30
0.0
  9
$PUCSXDIR
 10
1.0
 20
0.0
 30
0.0
  9
$PUCSYDIR
 10
0.0
 20
1.0
 30
0.0
  9
$PUCSORTHOREF
  2

  9
$PUCSORTHOVIEW
 70
     0
  9
$PUCSORGTOP
 10
0.0
 20
0.0
 30
0.0
  9
$PUCSORGBOTTOM
 10
0.0
 20
0.0
 30
0.0
  9
$PUCSORGLEFT
 10
0.0
 20
0.0
 30
0.0
  9
$PUCSORGRIGHT
 10
0.0
 20
0.0
 30
0.0
  9
$PUCSORGFRONT
 10
0.0
 20
0.0
 30
0.0
  9
$PUCSORGBACK
 10
0.0
 20
0.0
 30
0.0
  9
$USERI1
 70
     0
  9
$USERI2
 70
     0
  9
$USERI3
 70
     0
  9
$USERI4
 70
     0
  9
$USERI5
 70
     0
  9
$USERR1
 40
0.0
  9
$USERR2
 40
0.0
  9
$USERR3
 40
0.0
  9
$USERR4
 40
0.0
  9
$USERR5
 40
0.0
  9
$WORLDVIEW
 70
     1
  9
$SHADEDGE
 70
     3
  9
$SHADEDIF
 70
    70
  9
$TILEMODE
 70
     0
  9
$MAXACTVP
 70
    16
  9
$PINSBASE
 10
0.0
 20
0.0
 30
0.0
  9
$PLIMCHECK
 70
     0
  9
$PEXTMIN
 10
1.074768547797084
 20
0.8247909505127708
 30
-0.0000000349181948
  9
$PEXTMAX
 10
9.675232224313326
 20
7.817550455661908
 30
0.0000000814935746
  9
$PLIMMIN
 10
-0.1249995194082185
 20
-0.1249999981226884
  9
$PLIMMAX
 10
10.87500024029589
 20
8.37499976158142
  9
$UNITMODE
 70
     0
  9
$VISRETAIN
 70
     0
  9
$PLINEGEN
 70
     1
  9
$PSLTSCALE
 70
     1
  9
$TREEDEPTH
 70
  3020
  9
$CMLSTYLE
  2
STANDARD
  9
$CMLJUST
 70
     0
  9
$CMLSCALE
 40
1.0
  9
$PROXYGRAPHICS
 70
     1
  9
$MEASUREMENT
 70
     0
  9
$CELWEIGHT
370
    -1
  9
$ENDCAPS
280
     0
  9
$JOINSTYLE
280
     0
  9
$LWDISPLAY
290
     0
  9
$INSUNITS
 70
     0
  9
$HYPERLINKBASE
  1

  9
$STYLESHEET
  1
monochrome.ctb
  9
$XEDIT
290
     1
  9
$CEPSNTYPE
380
     0
  9
$PSTYLEMODE
290
     1
  9
$FINGERPRINTGUID
  2
{A3D86BFA-E8AC-46DA-9D69-DFFDD105C793}
  9
$VERSIONGUID
  2
{E9A38D35-FDEE-472D-A835-DDB6F5FC5DA6}
  9
$EXTNAMES
290
     1
  9
$PSVPSCALE
 40
0.0
  9
$OLESTARTUP
290
     0
  0
ENDSEC
  0
SECTION
  2
CLASSES
  0
CLASS
  1
IMAGE
  2
AcDbRasterImage
  3
ISM
 90
    34943
280
     0
281
     1
  0
CLASS
  1
DICTIONARYVAR
  2
AcDbDictionaryVar
  3
ObjectDBX Classes
 90
        0
280
     0
281
     0
  0
CLASS
  1
RASTERVARIABLES
  2
AcDbRasterVariables
  3
ISM
 90
    32768
280
     0
281
     0
  0
CLASS
  1
IMAGEDEF
  2
AcDbRasterImageDef
  3
ISM
 90
    32768
280
     0
281
     0
  0
CLASS
  1
IMAGEDEF_REACTOR
  2
AcDbRasterImageDefReactor
  3
ISM
 90
    32769
280
     0
281
     0
  0
CLASS
  1
IDBUFFER
  2
AcDbIdBuffer
  3
ObjectDBX Classes
 90
    32768
280
     0
281
     0
  0
CLASS
  1
SPATIAL_FILTER
  2
AcDbSpatialFilter
  3
ObjectDBX Classes
 90
    32768
280
     0
281
     0
  0
CLASS
  1
SORTENTSTABLE
  2
AcDbSortentsTable
  3
ObjectDBX Classes
 90
        0
280
     0
281
     0
  0
CLASS
  1
LAYER_INDEX
  2
AcDbLayerIndex
  3
ObjectDBX Classes
 90
    32768
280
     0
281
     0
  0
CLASS
  1
SPATIAL_INDEX
  2
AcDbSpatialIndex
  3
ObjectDBX Classes
 90
    32768
280
     0
281
     0
  0
CLASS
  1
OBJECT_PTR
  2
CAseDLPNTableRecord
  3
ASE-LPNTableRecord
 90
    32769
280
     0
281
     0
  0
CLASS
  1
LAYOUT
  2
AcDbLayout
  3
ObjectDBX Classes
 90
        0
280
     0
281
     0
  0
CLASS
  1
PLOTSETTINGS
  2
AcDbPlotSettings
  3
ObjectDBX Classes
 90
    32768
280
     0
281
     0
  0
CLASS
  1
ACDBDICTIONARYWDFLT
  2
AcDbDictionaryWithDefault
  3
ObjectDBX Classes
 90
        0
280
     0
281
     0
  0
CLASS
  1
ACDBPLACEHOLDER
  2
AcDbPlaceHolder
  3
ObjectDBX Classes
 90
        0
280
     0
281
     0
  0
CLASS
  1
VBA_PROJECT
  2
AcDbVbaProject
  3
acad
 90
    32768
280
     0
281
     0
  0
CLASS
  1
WIPEOUT
  2
AcDbWipeout
  3
"WipeOut|Product Desc: Object Enabler for WipeOut entity                        |Company: Autodesk, Inc.                        |WEB Address: www.autodesk.com"
 90
    34943
280
     0
281
     1
  0
CLASS
  1
WIPEOUTVARIABLES
  2
AcDbWipeoutVariables
  3
"WipeOut|Product Desc:     WipeOut Dbx Application|Company:          Autodesk, Inc.|WEB Address:      www.autodesk.com"
 90
    32768
280
     0
281
     0
  0
CLASS
  1
RTEXT
  2
RText
  3
RText|AutoCAD Express Tool|expresstools@autodesk.com
 90
    33791
280
     0
281
     1
  0
CLASS
  1
ARCALIGNEDTEXT
  2
AcDbArcAlignedText
  3
ATEXT|AutoCAD Express Tool|expresstools@autodesk.com
 90
    32768
280
     0
281
     1
  0
CLASS
  1
TABLESTYLE
  2
AcDbTableStyle
  3
ObjectDBX Classes
 90
     4095
280
     0
281
     0
  0
CLASS
  1
MATERIAL
  2
AcDbMaterial
  3
ObjectDBX Classes
 90
     1024
280
     0
281
     0
  0
CLASS
  1
VISUALSTYLE
  2
AcDbVisualStyle
  3
ObjectDBX Classes
 90
     4095
280
     0
281
     0
  0
ENDSEC
  0
SECTION
  2
TABLES
  0
TABLE
  2
VPORT
  5
7
102
{ACAD_XDICTIONARY
360
18E83
102
}
330
0
100
AcDbSymbolTable
 70
     1
  0
VPORT
  5
18126
330
7
100
AcDbSymbolTableRecord
100
AcDbViewportTableRecord
  2
*Active
 70
     0
 10
0.0
 20
0.0
 11
1.0
 21
1.0
 12
66.81560364438933
 22
41.69940619611476
 13
0.0
 23
0.0
 14
1.0
 24
1.0
 15
0.0
 25
0.0
 16
0.0
 26
0.0
 36
1.0
 17
0.0
 27
0.0
 37
0.0
 40
84.10674413640737
 41
1.646976090014064
 42
50.0
 43
0.0
 44
0.0
 50
0.0
 51
0.0
 71
     0
 72
  2000
 73
     1
 74
     1
 75
     0
 76
     0
 77
     0
 78
     0
281
     0
 65
     1
110
0.0
120
0.0
130
0.0
111
1.0
121
0.0
131
0.0
112
0.0
122
1.0
132
0.0
 79
     0
146
0.0
  0
ENDTAB
  0
TABLE
  2
LTYPE
  5
4
330
0
100
AcDbSymbolTable
 70
     1
  0
LTYPE
  5
11
330
4
100
AcDbSymbolTableRecord
100
AcDbLinetypeTableRecord
  2
BYBLOCK
 70
     0
  3

 72
    65
 73
     0
 40
0.0
  0
LTYPE
  5
12
330
4
100
AcDbSymbolTableRecord
100
AcDbLinetypeTableRecord
  2
BYLAYER
 70
     0
  3

 72
    65
 73
     0
 40
0.0
  0
LTYPE
  5
13
330
4
100
AcDbSymbolTableRecord
100
AcDbLinetypeTableRecord
  2
CONTINUOUS
 70
     0
  3
Solid line
 72
    65
 73
     0
 40
0.0
  0
ENDTAB
  0
TABLE
  2
LAYER
  5
2
102
{ACAD_XDICTIONARY
360
11555
102
}
330
0
100
AcDbSymbolTable
 70
     3
  0
LAYER
  5
14
330
2
100
AcDbSymbolTableRecord
100
AcDbLayerTableRecord
  2
0
 70
     0
 62
     7
  6
CONTINUOUS
370
    -3
390
101E
  0
LAYER
  5
26
330
2
100
AcDbSymbolTableRecord
100
AcDbLayerTableRecord
  2
DEFPOINTS
 70
     0
 62
     7
  6
CONTINUOUS
290
     0
370
    -3
390
101E
  0
LAYER
  5
165D0
330
2
100
AcDbSymbolTableRecord
100
AcDbLayerTableRecord
  2
Dim
 70
     0
 62
     6
  6
CONTINUOUS
370
    -3
390
101E
1001
AcAecLayerStandard
1000

1000

  0
ENDTAB
  0
TABLE
  2
STYLE
  5
3
330
0
100
AcDbSymbolTable
 70
     2
  0
STYLE
  5
17
330
3
100
AcDbSymbolTableRecord
100
AcDbTextStyleTableRecord
  2
STANDARD
 70
     0
 40
0.0
 41
1.0
 50
0.0
 71
     0
 42
7.227576520067259
  3
simplex.shx
  4

  0
STYLE
  5
5032
330
3
100
AcDbSymbolTableRecord
100
AcDbTextStyleTableRecord
  2
SLDTEXTSTYLE0
 70
     0
 40
0.0
 41
0.75
 50
0.0
 71
     0
 42
0.0
  3
simplex.shx
  4

  0
ENDTAB
  0
TABLE
  2
VIEW
  5
5
330
0
100
AcDbSymbolTable
 70
     2
  0
ENDTAB
  0
TABLE
  2
UCS
  5
6
330
0
100
AcDbSymbolTable
 70
     0
  0
ENDTAB
  0
TABLE
  2
APPID
  5
8
330
0
100
AcDbSymbolTable
 70
    13
  0
APPID
  5
16
330
8
100
AcDbSymbolTableRecord
100
AcDbRegAppTableRecord
  2
ACAD
 70
     0
  0
APPID
  5
1027
330
8
100
AcDbSymbolTableRecord
100
AcDbRegAppTableRecord
  2
DCO15
 70
     0
  0
APPID
  5
1157F
330
8
100
AcDbSymbolTableRecord
100
AcDbRegAppTableRecord
  2
ACAD_DSTYLE_DIMTEXT_FILL
 70
     0
  0
APPID
  5
11580
330
8
100
AcDbSymbolTableRecord
100
AcDbRegAppTableRecord
  2
ACAD_DSTYLE_DIMEXT_LENGTH
 70
     0
  0
APPID
  5
11581
330
8
100
AcDbSymbolTableRecord
100
AcDbRegAppTableRecord
  2
ACAD_DSTYLE_DIMEXT_ENABLED
 70
     0
  0
APPID
  5
11582
330
8
100
AcDbSymbolTableRecord
100
AcDbRegAppTableRecord
  2
ACAD_DSTYLE_DIM_LINETYPE
 70
     0
  0
APPID
  5
11583
330
8
100
AcDbSymbolTableRecord
100
AcDbRegAppTableRecord
  2
ACAD_DSTYLE_DIM_EXT1_LINETYPE
 70
     0
  0
APPID
  5
11584
330
8
100
AcDbSymbolTableRecord
100
AcDbRegAppTableRecord
  2
ACAD_DSTYLE_DIM_EXT2_LINETYPE
 70
     0
  0
APPID
  5
11640
330
8
100
AcDbSymbolTableRecord
100
AcDbRegAppTableRecord
  2
ACAD_DSTYLE_DIMJOGGED_JOGANGLE_SYMBOL
 70
     0
  0
APPID
  5
116A4
330
8
100
AcDbSymbolTableRecord
100
AcDbRegAppTableRecord
  2
ACAD_DSTYLE_DIMARC_LENGTH_SYMBOL
 70
     0
  0
APPID
  5
142B5
330
8
100
AcDbSymbolTableRecord
100
AcDbRegAppTableRecord
  2
ACAD_EXEMPT_FROM_CAD_STANDARDS
 70
     0
  0
APPID
  5
14449
330
8
100
AcDbSymbolTableRecord
100
AcDbRegAppTableRecord
  2
ACAD_PSEXT
 70
     0
  0
APPID
  5
165DE
330
8
100
AcDbSymbolTableRecord
100
AcDbRegAppTableRecord
  2
AcAecLayerStandard
 70
     0
  0
ENDTAB
  0
TABLE
  2
DIMSTYLE
  5
9
330
0
100
AcDbSymbolTable
 70
     2
100
AcDbDimStyleTable
 71
     2
340
2FE
340
18
  0
DIMSTYLE
105
18
330
9
100
AcDbSymbolTableRecord
100
AcDbDimStyleTableRecord
  2
STANDARD
 70
     0
289
     0
340
17
  0
DIMSTYLE
105
2FE
330
9
100
AcDbSymbolTableRecord
100
AcDbDimStyleTableRecord
  2
SLDDIMSTYLE0
 70
     0
  3
\X
  4
mm
 41
1.0
 42
0.5
 44
0.125
 78
    12
140
1.0
147
0.5
170
     1
171
     0
176
     7
177
     7
178
     7
271
     0
272
     0
274
     0
284
    12
288
     1
289
     2
340
17
1001
ACAD_DSTYLE_DIMJOGGED_JOGANGLE_SYMBOL
1070
   384
1040
0.7853981633974483
1001
ACAD_DSTYLE_DIMEXT_LENGTH
1070
   378
1040
0.125
  0
ENDTAB
  0
TABLE
  2
BLOCK_RECORD
  5
1
330
0
100
AcDbSymbolTable
 70
    10
  0
BLOCK_RECORD
  5
A
102
{ACAD_XDICTIONARY
360
181B2
102
}
330
1
100
AcDbSymbolTableRecord
100
AcDbBlockTableRecord
  2
*MODEL_SPACE
340
1021
  0
BLOCK_RECORD
  5
18148
330
1
100
AcDbSymbolTableRecord
100
AcDbBlockTableRecord
  2
*Paper_Space
340
18149
  0
BLOCK_RECORD
  5
AE
330
1
100
AcDbSymbolTableRecord
100
AcDbBlockTableRecord
  2
NOTE34
340
0
102
{BLKREFS
331
B1
331
187FA
102
}
  0
BLOCK_RECORD
  5
B2
330
1
100
AcDbSymbolTableRecord
100
AcDbBlockTableRecord
  2
NOTE35
340
0
102
{BLKREFS
331
B5
331
187FB
102
}
  0
BLOCK_RECORD
  5
B6
330
1
100
AcDbSymbolTableRecord
100
AcDbBlockTableRecord
  2
NOTE36
340
0
102
{BLKREFS
331
B9
331
187FC
102
}
  0
BLOCK_RECORD
  5
BA
330
1
100
AcDbSymbolTableRecord
100
AcDbBlockTableRecord
  2
NOTE37
340
0
102
{BLKREFS
331
BD
331
187FD
102
}
  0
BLOCK_RECORD
  5
BE
330
1
100
AcDbSymbolTableRecord
100
AcDbBlockTableRecord
  2
NOTE38
340
0
102
{BLKREFS
331
C1
331
187FE
102
}
  0
BLOCK_RECORD
  5
C2
330
1
100
AcDbSymbolTableRecord
100
AcDbBlockTableRecord
  2
NOTE39
340
0
102
{BLKREFS
331
C5
331
187FF
102
}
  0
BLOCK_RECORD
  5
C6
330
1
100
AcDbSymbolTableRecord
100
AcDbBlockTableRecord
  2
NOTE40
340
0
102
{BLKREFS
331
C9
331
18800
102
}
  0
BLOCK_RECORD
  5
D2
330
1
100
AcDbSymbolTableRecord
100
AcDbBlockTableRecord
  2
NOTE49
340
0
102
{BLKREFS
331
D5
331
18801
102
}
  0
BLOCK_RECORD
  5
DE
330
1
100
AcDbSymbolTableRecord
100
AcDbBlockTableRecord
  2
NOTE58
340
0
102
{BLKREFS
331
E1
331
18802
102
}
  0
BLOCK_RECORD
  5
E2
330
1
100
AcDbSymbolTableRecord
100
AcDbBlockTableRecord
  2
NOTE59
340
0
102
{BLKREFS
331
E5
331
18803
102
}
  0
ENDTAB
  0
ENDSEC
  0
SECTION
  2
BLOCKS
  0
BLOCK
  5
D
330
A
100
AcDbEntity
  8
0
100
AcDbBlockBegin
  2
*MODEL_SPACE
 70
     0
 10
0.0
 20
0.0
 30
0.0
  3
*MODEL_SPACE
  1

  0
ENDBLK
  5
E
330
A
100
AcDbEntity
  8
0
100
AcDbBlockEnd
  0
BLOCK
  5
1814A
330
18148
100
AcDbEntity
 67
     1
  8
0
100
AcDbBlockBegin
  2
*Paper_Space
 70
     0
 10
0.0
 20
0.0
 30
0.0
  3
*Paper_Space
  1

  0
ENDBLK
  5
1814B
330
18148
100
AcDbEntity
 67
     1
  8
0
100
AcDbBlockEnd
  0
BLOCK
  5
AF
330
AE
100
AcDbEntity
  8
0
 62
     0
100
AcDbBlockBegin
  2
NOTE34
 70
     0
 10
0.0
 20
0.0
 30
0.0
  3
NOTE34
  1

  0
ENDBLK
  5
B0
330
AE
100
AcDbEntity
  8
0
100
AcDbBlockEnd
  0
BLOCK
  5
B3
330
B2
100
AcDbEntity
  8
0
 62
     0
100
AcDbBlockBegin
  2
NOTE35
 70
     0
 10
0.0
 20
0.0
 30
0.0
  3
NOTE35
  1

  0
ENDBLK
  5
B4
330
B2
100
AcDbEntity
  8
0
100
AcDbBlockEnd
  0
BLOCK
  5
B7
330
B6
100
AcDbEntity
  8
0
 62
     0
100
AcDbBlockBegin
  2
NOTE36
 70
     0
 10
0.0
 20
0.0
 30
0.0
  3
NOTE36
  1

  0
ENDBLK
  5
B8
330
B6
100
AcDbEntity
  8
0
100
AcDbBlockEnd
  0
BLOCK
  5
BB
330
BA
100
AcDbEntity
  8
0
 62
     0
100
AcDbBlockBegin
  2
NOTE37
 70
     0
 10
0.0
 20
0.0
 30
0.0
  3
NOTE37
  1

  0
ENDBLK
  5
BC
330
BA
100
AcDbEntity
  8
0
100
AcDbBlockEnd
  0
BLOCK
  5
BF
330
BE
100
AcDbEntity
  8
0
 62
     0
100
AcDbBlockBegin
  2
NOTE38
 70
     0
 10
0.0
 20
0.0
 30
0.0
  3
NOTE38
  1

  0
ENDBLK
  5
C0
330
BE
100
AcDbEntity
  8
0
100
AcDbBlockEnd
  0
BLOCK
  5
C3
330
C2
100
AcDbEntity
  8
0
 62
     0
100
AcDbBlockBegin
  2
NOTE39
 70
     0
 10
0.0
 20
0.0
 30
0.0
  3
NOTE39
  1

  0
ENDBLK
  5
C4
330
C2
100
AcDbEntity
  8
0
100
AcDbBlockEnd
  0
BLOCK
  5
C7
330
C6
100
AcDbEntity
  8
0
 62
     0
100
AcDbBlockBegin
  2
NOTE40
 70
     0
 10
0.0
 20
0.0
 30
0.0
  3
NOTE40
  1

  0
ENDBLK
  5
C8
330
C6
100
AcDbEntity
  8
0
100
AcDbBlockEnd
  0
BLOCK
  5
D3
330
D2
100
AcDbEntity
  8
0
 62
     0
100
AcDbBlockBegin
  2
NOTE49
 70
     0
 10
0.0
 20
0.0
 30
0.0
  3
NOTE49
  1

  0
ENDBLK
  5
D4
330
D2
100
AcDbEntity
  8
0
100
AcDbBlockEnd
  0
BLOCK
  5
DF
330
DE
100
AcDbEntity
  8
0
 62
     0
100
AcDbBlockBegin
  2
NOTE58
 70
     0
 10
0.0
 20
0.0
 30
0.0
  3
NOTE58
  1

  0
ENDBLK
  5
E0
330
DE
100
AcDbEntity
  8
0
100
AcDbBlockEnd
  0
BLOCK
  5
E3
330
E2
100
AcDbEntity
  8
0
 62
     0
100
AcDbBlockBegin
  2
NOTE59
 70
     0
 10
0.0
 20
0.0
 30
0.0
  3
NOTE59
  1

  0
ENDBLK
  5
E4
330
E2
100
AcDbEntity
  8
0
100
AcDbBlockEnd
  0
ENDSEC
  0
SECTION
  2
ENTITIES
  0
INSERT
  5
B1
330
A
100
AcDbEntity
  8
0
100
AcDbBlockReference
  2
NOTE34
 10
0.0
 20
0.0
 30
0.0
  0
INSERT
  5
B5
330
A
100
AcDbEntity
  8
0
100
AcDbBlockReference
  2
NOTE35
 10
0.0
 20
0.0
 30
0.0
  0
INSERT
  5
B9
330
A
100
AcDbEntity
  8
0
100
AcDbBlockReference
  2
NOTE36
 10
0.0
 20
0.0
 30
0.0
  0
INSERT
  5
BD
330
A
100
AcDbEntity
  8
0
100
AcDbBlockReference
  2
NOTE37
 10
0.0
 20
0.0
 30
0.0
  0
INSERT
  5
C1
330
A
100
AcDbEntity
  8
0
100
AcDbBlockReference
  2
NOTE38
 10
0.0
 20
0.0
 30
0.0
  0
INSERT
  5
C5
330
A
100
AcDbEntity
  8
0
100
AcDbBlockReference
  2
NOTE39
 10
0.0
 20
0.0
 30
0.0
  0
INSERT
  5
C9
330
A
100
AcDbEntity
  8
0
100
AcDbBlockReference
  2
NOTE40
 10
0.0
 20
0.0
 30
0.0
  0
INSERT
  5
D5
330
A
100
AcDbEntity
  8
0
100
AcDbBlockReference
  2
NOTE49
 10
0.0
 20
0.0
 30
0.0
  0
INSERT
  5
E1
330
A
100
AcDbEntity
  8
0
100
AcDbBlockReference
  2
NOTE58
 10
0.0
 20
0.0
 30
0.0
  0
INSERT
  5
E5
330
A
100
AcDbEntity
  8
0
100
AcDbBlockReference
  2
NOTE59
 10
0.0
 20
0.0
 30
0.0
  0
LINE
  5
10C86
330
A
100
AcDbEntity
  8
0
  6
Continuous
 62
     7
100
AcDbLine
 10
106.2544575513175
 20
30.34124400184908
 30
0.0
 11
95.81025229077544
 21
30.160129238732
 31
0.0
  0
LINE
  5
10C87
330
A
100
AcDbEntity
  8
0
  6
Continuous
 62
     7
100
AcDbLine
 10
111.2007663124807
 20
29.45925456649843
 30
0.0
 11
97.08588234455669
 21
29.20071256178278
 31
0.0
  0
LINE
  5
10C88
330
A
100
AcDbEntity
  8
0
  6
Continuous
 62
     7
100
AcDbLine
 10
95.82866614558042
 20
29.18736892940274
 30
0.0
 11
111.2007663124807
 21
29.46931943295942
 31
0.0
  0
LINE
  5
10C89
330
A
100
AcDbEntity
  8
0
  6
Continuous
 62
     7
100
AcDbLine
 10
92.70549782191142
 20
31.09798941418103
 30
0.0
 11
112.639083681883
 21
31.0980938609257
 31
0.0
  0
LINE
  5
10C8A
330
A
100
AcDbEntity
  8
0
  6
Continuous
 62
     7
100
AcDbLine
 10
97.08587621897914
 20
29.20049019023839
 30
0.0
 11
111.2007567866835
 21
29.4590321326242
 31
0.0
  0
LWPOLYLINE
  5
10C8B
330
A
100
AcDbEntity
  8
0
  6
Continuous
 62
     7
100
AcDbPolyline
 90
        3
 70
   128
 43
0.0
 10
112.6390836818848
 20
31.46344389031546
 10
102.9258023101968
 20
31.4634159219568
 10
92.7054623997542
 20
31.46334166145837
  0
LWPOLYLINE
  5
10C8C
330
A
100
AcDbEntity
  8
0
  6
Continuous
 62
     7
100
AcDbPolyline
 90
       11
 70
   128
 43
0.0
 10
98.87581901741441
 20
12.64924198465328
 10
98.90318467747125
 20
12.44524939990938
 10
98.95022900034042
 20
12.24907030161185
 10
99.00607366565282
 20
12.08804257902889
 10
99.1533033701528
 20
11.7967137530612
 10
99.40976628077828
 20
11.47176925653522
 10
99.55813811932671
 20
11.33711675591101
 10
99.70697158133248
 20
11.22759699446263
 10
100.0271907132116
 20
11.05758409458283
 10
100.3601068371565
 20
10.95579214954912
 10
100.6867846058719
 20
10.91880717359427
  0
LWPOLYLINE
  5
10C8D
330
A
100
AcDbEntity
  8
0
  6
Continuous
 62
     7
100
AcDbPolyline
 90
       18
 70
   128
 43
0.0
 10
98.87471748678605
 20
12.61815057275535
 10
98.90083918469168
 20
12.40633422393208
 10
98.94744187043329
 20
12.21108725474951
 10
99.00892427158737
 20
12.03635323526933
 10
99.0792577697282
 20
11.88436633080621
 10
99.15259562649271
 20
11.75581985131637
 10
99.22370347879132
 20
11.65022747372009
 10
99.28820269004518
 20
11.56634528792224
 10
99.35214784868207
 20
11.49201498919993
 10
99.46813104810757
 20
11.37506699952362
 10
99.62577742356963
 20
11.24494817253858
 10
99.82982067303556
 20
11.11428292122187
 10
100.0141319658034
 20
11.02545768305847
 10
100.223534535869
 20
10.95275747459939
 10
100.3364697631732
 20
10.92475748170628
 10
100.4539946120842
 20
10.90343467890162
 10
100.5752358111267
 20
10.88950362825508
 10
100.6969741973216
 20
10.88353159243766
  0
LWPOLYLINE
  5
10C8E
330
A
100
AcDbEntity
  8
0
  6
Continuous
 62
     7
100
AcDbPolyline
 90
       29
 70
   128
 43
0.0
 10
102.1415216672087
 20
12.50293752317955
 10
102.1071299425744
 20
12.50101744581118
 10
102.0764682083997
 20
12.49784505897369
 10
102.0277552424811
 20
12.49183781671516
 10
101.8395610367001
 20
12.47020084240708
 10
101.4891841127805
 20
12.43708238499042
 10
101.1671704482323
 20
12.41457884413572
 10
100.8652065994929
 20
12.39936168835655
 10
100.4842056938757
 20
12.38942310861617
 10
100.1360696219174
 20
12.39087097010966
 10
99.82635792709448
 20
12.40272483606904
 10
99.61796012975447
 20
12.4188039293625
 10
99.42963018194973
 20
12.44159708046769
 10
99.26489701431888
 20
12.4709866300856
 10
99.12646693502892
 20
12.50680783951341
 10
99.01592082096636
 20
12.54946606231218
 10
98.93431266505354
 20
12.60030657351197
 10
98.92272252539692
 20
12.61043667913313
 10
98.91234429821725
 20
12.62064488329284
 10
98.903157856166
 20
12.63093909920124
 10
98.89514134465208
 20
12.64132711048629
 10
98.88827775774984
 20
12.65181702661382
 10
98.87986484248381
 20
12.67321760006874
 10
98.87612335335962
 20
12.68589031104162
 10
98.87449331909216
 20
12.69118647557715
 10
98.87349116304996
 20
12.6940030906641
 10
98.87288506488516
 20
12.69504158174229
 10
98.87257072225565
 20
12.69464771914218
 10
98.87244164376307
 20
12.69316672434652
  0
LINE
  5
10C8F
330
A
100
AcDbEntity
  8
0
  6
Continuous
 62
     7
100
AcDbLine
 10
99.08871324151711
 20
29.23717610986796
 30
0.0
 11
101.8187910192391
 21
14.28249069883395
 31
0.0
  0
LINE
  5
10C90
330
A
100
AcDbEntity
  8
0
  6
Continuous
 62
     7
100
AcDbLine
 10
133.0404339746346
 20
30.34124400184464
 30
0.0
 11
92.23773338913474
 21
30.34124400184464
 31
0.0
  0
LWPOLYLINE
  5
110CB
330
A
100
AcDbEntity
  8
0
  6
Continuous
 62
     7
100
AcDbPolyline
 90
        5
 70
   128
 43
0.0
 10
18.40906034288082
 20
79.40920322517254
 10
18.56301796636967
 20
79.4681578271192
 10
18.72078820030629
 20
79.51025148803435
 10
18.88085210444456
 20
79.5355358565819
 10
19.04318620211916
 20
79.54419405075114
  0
LINE
  5
110CC
330
A
100
AcDbEntity
  8
0
  6
Continuous
 62
     7
100
AcDbLine
 10
16.24566685249374
 20
79.23547120648618
 30
0.0
 11
16.24600694981745
 21
79.95986762472933
 31
0.0
  0
LINE
  5
110CD
330
A
100
AcDbEntity
  8
0
  6
Continuous
 62
     7
100
AcDbLine
 10
15.87780159295971
 20
63.85870441441238
 30
0.0
 11
15.87304756823278
 21
80.02167655598805
 31
0.0
  0
LWPOLYLINE
  5
110CE
330
A
100
AcDbEntity
  8
0
  6
Continuous
 62
     7
100
AcDbPolyline
 90
        3
 70
   128
 43
0.0
 10
16.20373048523606
 20
63.85884175290451
 10
16.20140629536968
 20
71.94030405356873
 10
16.19946242748119
 20
80.02177281031586
  0
LINE
  5
110CF
330
A
100
AcDbEntity
  8
0
  6
Continuous
 62
     7
100
AcDbLine
 10
13.6678491799139
 20
82.34020854612959
 30
0.0
 11
13.6678551230093
 21
62.4053765733754
 31
0.0
  0
LINE
  5
110D0
330
A
100
AcDbEntity
  8
0
  6
Continuous
 62
     7
100
AcDbLine
 10
14.11846494046131
 20
62.4053765733754
 30
0.0
 11
14.11850959502499
 21
82.34024610879407
 31
0.0
  0
LWPOLYLINE
  5
110D1
330
A
100
AcDbEntity
  8
0
  6
Continuous
 62
     7
100
AcDbPolyline
 90
        7
 70
   128
 43
0.0
 10
42.26216166401809
 20
79.2928974775206
 10
42.19525316786167
 20
79.39944632306643
 10
42.11133113234928
 20
79.49092314947804
 10
42.06122664631107
 20
79.52803975734585
 10
42.00506459370399
 20
79.55689257902171
 10
41.94290014469197
 20
79.5753710622935
 10
41.8757868146306
 20
79.58167219926483
  0
LWPOLYLINE
  5
110D2
330
A
100
AcDbEntity
  8
0
  6
Continuous
 62
     7
100
AcDbPolyline
 90
        9
 70
   128
 43
0.0
 10
58.23970805991234
 20
78.77907778970447
 10
58.24237324834257
 20
78.80093221744906
 10
58.24506954335447
 20
78.85026608194826
 10
58.24764141204013
 20
78.92822504446982
 10
58.24992275699242
 20
79.03271263880069
 10
58.25176919671958
 20
79.15830105991941
 10
58.25308741147728
 20
79.29712797261093
 10
58.25384746851682
 20
79.44045536204393
 10
58.25408282208673
 20
79.58027533767839
  0
LWPOLYLINE
  5
110D3
330
A
100
AcDbEntity
  8
0
  6
Continuous
 62
     7
100
AcDbPolyline
 90
       10
 70
   128
 43
0.0
 10
57.35753186334045
 20
79.58167219926483
 10
57.31454491530985
 20
79.57862492810656
 10
57.27448609436123
 20
79.57164296784097
 10
57.23360441629302
 20
79.55843499593303
 10
57.17695991821369
 20
79.5301479618914
 10
57.12575907190512
 20
79.49288579869861
 10
57.08151318769683
 20
79.45027330347992
 10
57.03998531441584
 20
79.40003323969941
 10
57.00431076071504
 20
79.34772018637127
 10
56.97262900086844
 20
79.2928974775206
  0
LINE
  5
110D4
330
A
100
AcDbEntity
  8
0
  6
Continuous
 62
     7
100
AcDbLine
 10
82.98878398766238
 20
79.9598648438722
 30
0.0
 11
82.98912439930949
 21
79.23547120648618
 31
0.0
  0
LWPOLYLINE
  5
110D5
330
A
100
AcDbEntity
  8
0
  6
Continuous
 62
     7
100
AcDbPolyline
 90
        5
 70
   128
 43
0.0
 10
80.82573090892243
 20
79.40920322517254
 10
80.67177093776672
 20
79.4681578271192
 10
80.51400070383033
 20
79.51025148803435
 10
80.35393679969207
 20
79.5355358565819
 10
80.19160270201746
 20
79.54419405075114
  0
LINE
  5
110D6
330
A
100
AcDbEntity
  8
0
  6
Continuous
 62
     7
100
AcDbLine
 10
85.11628165677825
 20
82.34024610879407
 30
0.0
 11
85.11632561923898
 21
62.40537656193203
 31
0.0
  0
LINE
  5
110D7
330
A
100
AcDbEntity
  8
0
  6
Continuous
 62
     7
100
AcDbLine
 10
85.56693543726352
 20
62.40537656193215
 30
0.0
 11
85.56694207188934
 21
82.34020854612959
 31
0.0
  0
LINE
  5
110D8
330
A
100
AcDbEntity
  8
0
  6
Continuous
 62
     7
100
AcDbLine
 10
83.36174368357047
 20
80.02167655598805
 30
0.0
 11
83.35698965884352
 21
63.85870500132899
 31
0.0
  0
LINE
  5
110D9
330
A
100
AcDbEntity
  8
0
  6
Continuous
 62
     7
100
AcDbLine
 10
83.03532882432183
 20
80.02177281031583
 30
0.0
 11
83.03105841890056
 21
63.85884175290448
 31
0.0
  0
LINE
  5
110DA
330
A
100
AcDbEntity
  8
0
  6
Continuous
 62
     7
100
AcDbLine
 10
85.61739524913651
 20
82.80800237637356
 30
0.0
 11
85.61739524913651
 21
42.00275077060086
 31
0.0
  0
LINE
  5
110DB
330
A
100
AcDbEntity
  8
0
  6
Continuous
 62
     7
100
AcDbLine
 10
13.61739531113653
 20
42.0027507703736
 30
0.0
 11
13.61739531113653
 21
82.80800237637356
 31
0.0
  0
LINE
  5
110DC
330
A
100
AcDbEntity
  8
0
  6
Continuous
 62
     7
100
AcDbLine
 10
42.02877367800875
 20
81.14226944028041
 30
0.0
 11
49.61739528013663
 21
81.14226968474701
 31
0.0
  0
LINE
  5
110DD
330
A
100
AcDbEntity
  8
0
  6
Continuous
 62
     7
100
AcDbLine
 10
42.02877309109203
 20
80.81592970636085
 30
0.0
 11
49.61739528013641
 21
80.81592926306655
 31
0.0
  0
LINE
  5
110DE
330
A
100
AcDbEntity
  8
0
  6
Continuous
 62
     7
100
AcDbLine
 10
42.24319603994081
 20
80.73266501747752
 30
0.0
 11
56.99159447530951
 21
80.73266471721069
 31
0.0
  0
LINE
  5
110E5
330
A
100
AcDbEntity
  8
0
  6
Continuous
 62
     7
100
AcDbLine
 10
14.20820493863653
 20
83.39881200387356
 30
0.0
 11
85.02658562163651
 21
83.39881200387356
 31
0.0
  0
LINE
  5
110E6
330
A
100
AcDbEntity
  8
0
  6
Continuous
 62
     7
100
AcDbLine
 10
84.02381179511122
 20
30.34124400184464
 30
0.0
 11
13.20985846236135
 21
30.34124400184464
 31
0.0
  0
LWPOLYLINE
  5
110E8
330
A
100
AcDbEntity
  8
0
  6
Continuous
 62
     7
100
AcDbPolyline
 90
        4
 70
   128
 43
0.0
 10
70.96314684074354
 20
10.63143585647313
 10
63.26717569404604
 20
10.38899043141495
 10
58.96071845458414
 20
10.38834487164732
 10
53.32516273062174
 20
10.39045230865091
  0
LINE
  5
110EA
330
A
100
AcDbEntity
  8
0
  6
Continuous
 62
     7
100
AcDbLine
 10
14.67596066533451
 20
82.89769952677033
 30
0.0
 11
49.61739527962413
 21
82.89774237454867
 31
0.0
  0
LINE
  5
110EB
330
A
100
AcDbEntity
  8
0
  6
Continuous
 62
     7
100
AcDbLine
 10
49.61739527962413
 20
83.34835218295394
 30
0.0
 11
14.67599588033249
 21
83.34835994188143
 31
0.0
  0
LINE
  5
110EC
330
A
100
AcDbEntity
  8
0
  6
Continuous
 62
     7
100
AcDbLine
 10
48.61683512924855
 20
31.09809399661674
 30
0.0
 11
83.5560491238832
 21
31.09798941216638
 31
0.0
  0
LWPOLYLINE
  5
110ED
330
A
100
AcDbEntity
  8
0
  6
Continuous
 62
     7
100
AcDbPolyline
 90
        3
 70
   128
 43
0.0
 10
83.55608359513258
 20
31.4633415929749
 10
66.46589677583529
 20
31.46341331949205
 10
48.61683512873629
 20
31.4634438903154
  0
LINE
  5
110EE
330
A
100
AcDbEntity
  8
0
  6
Continuous
 62
     7
100
AcDbLine
 10
24.15002775185644
 20
12.76820708123705
 30
0.0
 11
19.26612749972401
 21
29.11261052641294
 31
0.0
  0
LINE
  5
110EF
330
A
100
AcDbEntity
  8
0
  6
Continuous
 62
     7
100
AcDbLine
 10
19.27004714139343
 20
29.11253761846831
 30
0.0
 11
24.14668265488604
 21
12.89543994965345
 31
0.0
  0
LWPOLYLINE
  5
110F1
330
A
100
AcDbEntity
  8
0
  6
Continuous
 62
     7
100
AcDbPolyline
 90
        7
 70
   128
 43
0.0
 10
42.51136269955691
 20
10.57415777408542
 10
38.93319739713433
 20
10.60545470533262
 10
36.61260160874121
 20
10.6450792207273
 10
35.10844244721671
 20
10.6716235582883
 10
33.59215858548237
 20
10.69898473506012
 10
32.14249456520338
 20
10.72565407954724
 10
28.34679621741248
 20
10.66736974769131
  0
LWPOLYLINE
  5
110F5
330
A
100
AcDbEntity
  8
0
  6
Continuous
 62
     7
100
AcDbPolyline
 90
        4
 70
   128
 43
0.0
 10
24.14653839878065
 20
12.8960019274995
 10
24.14929914199274
 20
12.82778211349247
 10
24.15055320072679
 20
12.78395375993582
 10
24.14999076877575
 20
12.76859252649083
  0
LWPOLYLINE
  5
110F9
330
A
100
AcDbEntity
  8
0
  6
Continuous
 62
     7
100
AcDbPolyline
 90
       15
 70
   128
 43
0.0
 10
24.15284894846559
 20
12.75910460177883
 10
24.22869859323942
 20
12.54784730201939
 10
24.32816584716943
 20
12.33976530365132
 10
24.45134626872255
 20
12.13868969860075
 10
24.53637106251063
 20
12.02304782795934
 10
24.62938259895145
 20
11.91218757167067
 10
24.7299637877868
 20
11.80691532732478
 10
24.84721670693512
 20
11.69974619159436
 10
24.95895322525325
 20
11.61060223442629
 10
25.06667013649667
 20
11.53493801564789
 10
25.15294952498357
 20
11.48079097125483
 10
25.22810553000705
 20
11.4379019286392
 10
25.32912431309728
 20
11.38606639327955
 10
25.45373919708595
 20
11.33063605004375
 10
25.52005191981789
 20
11.30495081746843
  0
LWPOLYLINE
  5
110FC
330
A
100
AcDbEntity
  8
0
  6
Continuous
 62
     7
100
AcDbPolyline
 90
        9
 70
   128
 43
0.0
 10
24.40842924286153
 20
12.20874601788571
 10
24.52309830958734
 20
12.04625202400385
 10
24.66066028092041
 20
11.8874037190665
 10
24.79250112249042
 20
11.75798285024078
 10
24.92018836492003
 20
11.64895519058709
 10
25.05802203039229
 20
11.5476046299643
 10
25.20727761822513
 20
11.4548040976118
 10
25.36602071569291
 20
11.3725720511193
 10
25.52498139149157
 20
11.30581085604004
  0
LWPOLYLINE
  5
110FD
330
A
100
AcDbEntity
  8
0
  6
Continuous
 62
     7
100
AcDbPolyline
 90
        3
 70
   128
 43
0.0
 10
24.35673655495361
 20
12.29086440858683
 10
24.44660818093712
 20
12.14283040830847
 10
24.49511225147558
 20
12.079163766334
  0
LWPOLYLINE
  5
110FE
330
A
100
AcDbEntity
  8
0
  6
Continuous
 62
     7
100
AcDbPolyline
 90
        3
 70
   128
 43
0.0
 10
24.27391040386351
 20
12.45109351132319
 10
24.32514086848755
 20
12.34290792964165
 10
24.35673655495361
 20
12.29086440858683
  0
LINE
  5
11100
330
A
100
AcDbEntity
  8
0
  6
Continuous
 62
     7
100
AcDbLine
 10
24.26951077490162
 20
12.45359438422031
 30
0.0
 11
24.30162656578341
 21
12.39528454730055
 31
0.0
  0
LINE
  5
11113
330
A
100
AcDbEntity
  8
0
  6
Continuous
 62
     7
100
AcDbLine
 10
26.01517575964431
 20
11.18454817775864
 30
0.0
 11
26.1644847117625
 21
11.16737746852277
 31
0.0
  0
LWPOLYLINE
  5
11115
330
A
100
AcDbEntity
  8
0
  6
Continuous
 62
     7
100
AcDbPolyline
 90
        4
 70
   128
 43
0.0
 10
25.5208995049145
 20
11.30713409940804
 10
25.73521220194653
 20
11.23765939704177
 10
25.99708593499031
 20
11.18850278312268
 10
26.25523029324813
 20
11.17294084548948
  0
LINE
  5
11119
330
A
100
AcDbEntity
  8
0
  6
Continuous
 62
     7
100
AcDbLine
 10
28.34679621741248
 20
10.66736974769128
 30
0.0
 11
27.95528658066405
 21
11.06976966925617
 31
0.0
  0
LWPOLYLINE
  5
11122
330
A
100
AcDbEntity
  8
0
  6
Continuous
 62
     7
100
AcDbPolyline
 90
        5
 70
   128
 43
0.0
 10
53.60897507943263
 20
10.41700200150447
 10
50.37252985848363
 20
10.4451505272701
 10
46.07852733358481
 20
10.49683549520912
 10
43.66800472249178
 20
10.53080756292357
 10
41.35472067662203
 20
10.56611918135266
  0
LINE
  5
11125
330
A
100
AcDbEntity
  8
0
  6
Continuous
 62
     7
100
AcDbLine
 10
49.61739527962413
 20
82.89774237454867
 30
0.0
 11
84.5588305864685
 21
82.89769952677033
 31
0.0
  0
LINE
  5
11126
330
A
100
AcDbEntity
  8
0
  6
Continuous
 62
     7
100
AcDbLine
 10
84.5587930238039
 20
83.34835994188143
 30
0.0
 11
49.61739527962413
 21
83.34835218295394
 31
0.0
  0
LINE
  5
11127
330
A
100
AcDbEntity
  8
0
  6
Continuous
 62
     7
100
AcDbLine
 10
57.20601698687779
 20
81.14226944028041
 30
0.0
 11
82.24865159384718
 21
81.13630167195664
 31
0.0
  0
LWPOLYLINE
  5
11128
330
A
100
AcDbEntity
  8
0
  6
Continuous
 62
     7
100
AcDbPolyline
 90
        3
 70
   128
 43
0.0
 10
57.20601698687779
 20
80.81592970636094
 10
69.72728058749044
 20
80.81355856316386
 10
82.24853890585359
 20
80.81063571833173
  0
LINE
  5
11129
330
A
100
AcDbEntity
  8
0
  6
Continuous
 62
     7
100
AcDbLine
 10
57.34430921851663
 20
80.73276831480496
 30
0.0
 11
81.39695808644068
 21
80.74663598100825
 31
0.0
  0
LINE
  5
1112A
330
A
100
AcDbEntity
  8
0
  6
Continuous
 62
     7
100
AcDbLine
 10
58.25408282208673
 20
79.58027533767836
 30
0.0
 11
80.19160504968409
 21
79.54419405075111
 31
0.0
  0
LINE
  5
1112B
330
A
100
AcDbEntity
  8
0
  6
Continuous
 62
     7
100
AcDbLine
 10
40.87159263677517
 20
28.71071154298011
 30
0.0
 11
26.9971622337996
 21
28.9687999246496
 31
0.0
  0
LINE
  5
1112C
330
A
100
AcDbEntity
  8
0
  6
Continuous
 62
     7
100
AcDbLine
 10
39.9753091125865
 20
28.71956302663875
 30
0.0
 11
27.54132404809707
 21
28.95867757197755
 31
0.0
  0
LINE
  5
1112D
330
A
100
AcDbEntity
  8
0
  6
Continuous
 62
     7
100
AcDbLine
 10
13.67762114028414
 20
31.09798941390284
 30
0.0
 11
48.61683512924855
 21
31.09809399661674
 31
0.0
  0
LWPOLYLINE
  5
1112E
330
A
100
AcDbEntity
  8
0
  6
Continuous
 62
     7
100
AcDbPolyline
 90
        3
 70
   128
 43
0.0
 10
48.61683513491539
 20
31.46344389034002
 10
31.31697481270271
 20
31.46341505317301
 10
13.67758654456429
 20
31.46334158628903
  0
LINE
  5
1112F
330
A
100
AcDbEntity
  8
0
  6
Continuous
 62
     7
100
AcDbLine
 10
40.89015967108685
 20
29.68087984386648
 30
0.0
 11
16.83899573497842
 21
30.1092404667113
 31
0.0
  0
LINE
  5
11130
330
A
100
AcDbEntity
  8
0
  6
Continuous
 62
     7
100
AcDbLine
 10
26.9971622337996
 20
28.9687999246496
 30
0.0
 11
16.82048196485129
 21
29.15810376380512
 31
0.0
  0
LWPOLYLINE
  5
11131
330
A
100
AcDbEntity
  8
0
  6
Continuous
 62
     7
100
AcDbPolyline
 90
        9
 70
   128
 43
0.0
 10
13.09639995972998
 20
31.47919602120615
 10
13.09816795939491
 20
31.48068574357822
 10
13.10529737608681
 20
31.48176186010713
 10
13.11745279263005
 20
31.48240759746321
 10
13.13434201336281
 20
31.48262540321761
 10
13.15522690533384
 20
31.48240756725503
 10
13.1791047648951
 20
31.48176175351867
 10
13.20533169287932
 20
31.4806858928271
 10
13.23272411136963
 20
31.47919602120615
  0
LINE
  5
11132
330
A
100
AcDbEntity
  8
0
  6
Continuous
 62
     7
100
AcDbLine
 10
13.11075359284746
 20
31.47516357344012
 30
0.0
 11
13.10046088546642
 21
31.47392424317877
 31
0.0
  0
LINE
  5
11133
330
A
100
AcDbEntity
  8
0
  6
Continuous
 62
     7
100
AcDbLine
 10
13.20985845834116
 20
31.11358486184816
 30
0.0
 11
13.67762113499998
 21
31.09798941384577
 31
0.0
  0
LINE
  5
11134
330
A
100
AcDbEntity
  8
0
  6
Continuous
 62
     7
100
AcDbLine
 10
12.68963514038501
 20
31.19643503053362
 30
0.0
 11
12.67278226859412
 21
31.11389184069617
 31
0.0
  0
LWPOLYLINE
  5
11135
330
A
100
AcDbEntity
  8
0
  6
Continuous
 62
     7
100
AcDbPolyline
 90
        9
 70
   128
 43
0.0
 10
12.68105239851252
 20
31.11504210500331
 10
12.68112667013406
 20
31.11505243519113
 10
12.71202373931078
 20
31.11610071497833
 10
12.7618968052609
 20
31.11672970097359
 10
12.82867621767695
 20
31.11693939317698
 10
12.90995776158274
 20
31.11672976893718
 10
13.00295036998909
 20
31.1161008055964
 10
13.10419438442909
 20
31.11505250315472
 10
13.20985846236112
 20
31.11358486161206
  0
LWPOLYLINE
  5
11136
330
A
100
AcDbEntity
  8
0
  6
Continuous
 62
     7
100
AcDbPolyline
 90
        3
 70
   128
 43
0.0
 10
12.68259145380375
 20
31.18722399406832
 10
12.68344739315171
 20
31.19042668151738
 10
12.6908122222876
 20
31.21445725665646
  0
LINE
  5
11137
330
A
100
AcDbEntity
  8
0
  6
Continuous
 62
     7
100
AcDbLine
 10
13.20985846236135
 20
30.34124400184464
 30
0.0
 11
12.61908577048621
 21
30.34124400184464
 31
0.0
  0
LINE
  5
11138
330
A
100
AcDbEntity
  8
0
  6
Continuous
 62
     7
100
AcDbLine
 10
12.67057516115551
 20
31.11358486161203
 30
0.0
 11
12.68105239851252
 21
31.11504210500334
 31
0.0
  0
LINE
  5
11139
330
A
100
AcDbEntity
  8
0
  6
Continuous
 62
     7
100
AcDbLine
 10
12.67057516111595
 20
31.11358486140864
 30
0.0
 11
12.61908577048621
 21
30.34124400184464
 31
0.0
  0
LINE
  5
1113A
330
A
100
AcDbEntity
  8
0
  6
Continuous
 62
     7
100
AcDbLine
 10
13.20985846236135
 20
30.34124400184464
 30
0.0
 11
13.20985845834116
 21
31.11358486184816
 31
0.0
  0
LWPOLYLINE
  5
1113B
330
A
100
AcDbEntity
  8
0
  6
Continuous
 62
     7
100
AcDbPolyline
 90
        8
 70
   128
 43
0.0
 10
13.67758654742624
 20
31.46321158942894
 10
13.67758659329911
 20
31.46314051174036
 10
13.67758928500439
 20
31.44971615488967
 10
13.6775931991076
 20
31.41971011204217
 10
13.6775983535806
 20
31.36837689613177
 10
13.67760474937631
 20
31.29414089372759
 10
13.67761236125193
 20
31.20088508746133
 10
13.67762114028414
 20
31.09798941390219
  0
LINE
  5
1113C
330
A
100
AcDbEntity
  8
0
  6
Continuous
 62
     7
100
AcDbLine
 10
16.82067326844799
 20
29.15810020059246
 30
0.0
 11
19.26612749972401
 21
29.11261052641294
 31
0.0
  0
LWPOLYLINE
  5
1113D
330
A
100
AcDbEntity
  8
0
  6
Continuous
 62
     7
100
AcDbPolyline
 90
        9
 70
   128
 43
0.0
 10
16.01534403728897
 20
29.17366093340744
 10
16.05505724011777
 20
29.17288426300425
 10
16.07139438669901
 20
29.17256490213768
 10
16.07530989607812
 20
29.17248837376317
 10
16.07719483382993
 20
29.17245153454175
 10
16.07765705277575
 20
29.17244250106345
 10
16.07770433367273
 20
29.17244157702865
 10
16.07804753468349
 20
29.17243486971259
 10
16.15780572187054
 20
29.17087735031876
  0
LWPOLYLINE
  5
1113E
330
A
100
AcDbEntity
  8
0
  6
Continuous
 62
     7
100
AcDbPolyline
 90
        6
 70
   128
 43
0.0
 10
15.32335759215289
 20
29.45032544439866
 10
15.29130899251913
 20
29.4753603273484
 10
15.15887517094938
 20
29.6280440583553
 10
15.05975223204245
 20
29.79993110073454
 10
14.99649281429879
 20
29.98059978922189
 10
14.96780434080551
 20
30.16012923877432
  0
LWPOLYLINE
  5
1113F
330
A
100
AcDbEntity
  8
0
  6
Continuous
 62
     7
100
AcDbPolyline
 90
        9
 70
   128
 43
0.0
 10
16.03484449986695
 20
30.12394470652763
 10
16.03128719258393
 20
29.94343623374053
 10
16.02768944343506
 20
29.76247651001123
 10
16.02425178638964
 20
29.59133538832432
 10
16.02118688786436
 20
29.44072955287041
 10
16.0186806446261
 20
29.31984621888708
 10
16.01685648355328
 20
29.23457204965584
 10
16.0157563462717
 20
29.18659781097554
 10
16.01556374263941
 20
29.1805548982384
  0
LWPOLYLINE
  5
11140
330
A
100
AcDbEntity
  8
0
  6
Continuous
 62
     7
100
AcDbPolyline
 90
        7
 70
   128
 43
0.0
 10
16.03484313995409
 20
30.12394464218974
 10
15.78707369646918
 20
30.10968838119712
 10
15.5193499219888
 20
30.10073530834032
 10
15.29116792770856
 20
30.10055997718084
 10
15.07665487685449
 20
30.1127857913904
 10
15.03875116767654
 20
30.11816207248003
 10
14.99562456855233
 20
30.12817432485841
  0
LWPOLYLINE
  5
11141
330
A
100
AcDbEntity
  8
0
  6
Continuous
 62
     7
100
AcDbPolyline
 90
        9
 70
   128
 43
0.0
 10
14.9681339203014
 20
30.14787300518825
 10
14.99675595068652
 20
29.96817902752506
 10
15.06001068251703
 20
29.78731965930737
 10
15.15920222635259
 20
29.61524307529535
 10
15.29177501215736
 20
29.46240323675167
 10
15.4512505789246
 20
29.33788246724967
 10
15.62822423115085
 20
29.24768280126196
 10
15.81212291635302
 20
29.19381863350216
 10
15.99307719217813
 20
29.17447635138027
  0
LWPOLYLINE
  5
11142
330
A
100
AcDbEntity
  8
0
  6
Continuous
 62
     7
100
AcDbPolyline
 90
        7
 70
   128
 43
0.0
 10
15.99307719231137
 20
29.17447634982401
 10
15.99365566364645
 20
29.17438750271984
 10
15.9951668415556
 20
29.17428779237176
 10
16.00026084556521
 20
29.17407244947302
 10
16.00684438614917
 20
29.17386092789221
 10
16.01073147014358
 20
29.17376048955376
 10
16.01534401980734
 20
29.17366093375509
  0
LINE
  5
11143
330
A
100
AcDbEntity
  8
0
  6
Continuous
 62
     7
100
AcDbLine
 10
14.96813391087039
 20
30.14787315926276
 30
0.0
 11
14.95436686069911
 21
30.34124400184464
 31
0.0
  0
LWPOLYLINE
  5
11144
330
A
100
AcDbEntity
  8
0
  6
Continuous
 62
     7
100
AcDbPolyline
 90
        3
 70
   128
 43
0.0
 10
16.82042650313747
 20
29.1581056858702
 10
16.41759662336994
 20
29.16580628464866
 10
16.01534402395646
 20
29.17366093368858
  0
LWPOLYLINE
  5
11145
330
A
100
AcDbEntity
  8
0
  6
Continuous
 62
     7
100
AcDbPolyline
 90
        9
 70
   128
 43
0.0
 10
16.83899472151165
 20
30.10924048455959
 10
16.83561297396159
 20
29.92881369540609
 10
16.83219516796907
 20
29.74791239573088
 10
16.82893103327092
 20
29.57678378318795
 10
16.82602172441216
 20
29.42612294868346
 10
16.82364321950149
 20
29.30510397266741
 10
16.82191264120729
 20
29.21961432837375
 10
16.82087017199705
 20
29.17136008011008
 10
16.82048197195377
 20
29.15810376367287
  0
LINE
  5
11146
330
A
100
AcDbEntity
  8
0
  6
Continuous
 62
     7
100
AcDbLine
 10
14.95436686067728
 20
30.34124400184464
 30
0.0
 11
14.96812659461511
 21
30.14797592223465
 31
0.0
  0
LWPOLYLINE
  5
11147
330
A
100
AcDbEntity
  8
0
  6
Continuous
 62
     7
100
AcDbPolyline
 90
        3
 70
   128
 43
0.0
 10
14.99562456855233
 20
30.12817432485841
 10
14.99555311505446
 20
30.12819091347117
 10
14.96813390349894
 20
30.1478732708687
  0
LINE
  5
11148
330
A
100
AcDbEntity
  8
0
  6
Continuous
 62
     7
100
AcDbLine
 10
16.01973921797912
 20
30.34124400184464
 30
0.0
 11
16.03484313862782
 21
30.12394465737646
 31
0.0
  0
LINE
  5
11149
330
A
100
AcDbEntity
  8
0
  6
Continuous
 62
     7
100
AcDbLine
 10
16.03484399652893
 20
30.12394474791415
 30
0.0
 11
16.83899472457324
 21
30.10924048696598
 31
0.0
  0
LWPOLYLINE
  5
1114A
330
A
100
AcDbEntity
  8
0
  6
Continuous
 62
     7
100
AcDbPolyline
 90
       11
 70
   128
 43
0.0
 10
16.01535668713473
 20
29.17350765918596
 10
16.05503960406099
 20
29.1727324869353
 10
16.07134784794289
 20
29.1724143121991
 10
16.0752612624658
 20
29.17233799762201
 10
16.07714624250639
 20
29.17230124361518
 10
16.07760640189713
 20
29.17229227173769
 10
16.07766598094281
 20
29.17229111005489
 10
16.0777102659556
 20
29.17229024619783
 10
16.0777896019174
 20
29.17228869799047
 10
16.07841175578983
 20
29.17227655397383
 10
16.15070820616779
 20
29.1708663323374
  0
LWPOLYLINE
  5
1114B
330
A
100
AcDbEntity
  8
0
  6
Continuous
 62
     7
100
AcDbPolyline
 90
       21
 70
   128
 43
0.0
 10
14.99560832931115
 20
30.12817245153807
 10
15.01865336731589
 20
29.98035965613283
 10
15.06045279137152
 20
29.84162855668436
 10
15.11739703109174
 20
29.71612279089598
 10
15.18501178348629
 20
29.60648809837628
 10
15.28368837038806
 20
29.4866549755254
 10
15.38295189077848
 20
29.39574829792142
 10
15.47496834878097
 20
29.3300137410433
 10
15.58837718332165
 20
29.26795652149238
 10
15.63519622032709
 20
29.24802567760631
 10
15.65334497764183
 20
29.24158619947426
 10
15.67418405481817
 20
29.23511600864888
 10
15.70203558163029
 20
29.22840756754138
 10
15.73764113222637
 20
29.21946071136759
 10
15.77275688332224
 20
29.2112040068711
 10
15.84903112917254
 20
29.19653310177668
 10
15.88764798020884
 20
29.19031445151509
 10
15.924357644564
 20
29.18495737727736
 10
15.95824646479127
 20
29.18163703839289
 10
15.98865799671148
 20
29.17883860511668
 10
16.01547850742122
 20
29.17655446200203
  0
LWPOLYLINE
  5
1114C
330
A
100
AcDbEntity
  8
0
  6
Continuous
 62
     7
100
AcDbPolyline
 90
        4
 70
   128
 43
0.0
 10
13.6804398010679
 20
31.46334616282931
 10
13.57054757581659
 20
31.46391833917292
 10
13.45870476362302
 20
31.46667246703308
 10
13.23225784911483
 20
31.47692575495805
  0
LWPOLYLINE
  5
1114D
330
A
100
AcDbEntity
  8
0
  6
Continuous
 62
     7
100
AcDbPolyline
 90
        8
 70
   128
 43
0.0
 10
13.20985845834116
 20
31.11358486184818
 10
13.2143677542233
 20
31.19042668151738
 10
13.21869999156388
 20
31.26322260022735
 10
13.22268506395653
 20
31.3291142676234
 10
13.22616649651536
 20
31.38551443054363
 10
13.2290075899009
 20
31.43020852217504
 10
13.23109678785522
 20
31.46144161758602
 10
13.23226046794252
 20
31.47695608146134
  0
LWPOLYLINE
  5
1114E
330
A
100
AcDbEntity
  8
0
  6
Continuous
 62
     7
100
AcDbPolyline
 90
        7
 70
   128
 43
0.0
 10
12.74714017915971
 20
31.32158221732962
 10
12.75287502896185
 20
31.3291142676234
 10
12.80670433888303
 20
31.38551443054363
 10
12.8706188107833
 20
31.43020852217504
 10
12.94210882658717
 20
31.46144161758602
 10
13.01836731255139
 20
31.47798734130223
 10
13.0963999597327
 20
31.47919602125276
  0
LWPOLYLINE
  5
1114F
330
A
100
AcDbEntity
  8
0
  6
Continuous
 62
     7
100
AcDbPolyline
 90
        8
 70
   128
 43
0.0
 10
13.23225785099453
 20
31.47692575433726
 10
13.117433615261
 20
31.47480770122948
 10
13.04824055122071
 20
31.46418930293513
 10
12.96673981666913
 20
31.44060845605193
 10
12.8766657948986
 20
31.39690385985429
 10
12.78850127803071
 20
31.32689314758855
 10
12.71794059817694
 20
31.22997610488952
 10
12.68097815671376
 20
31.11504527632454
  0
LINE
  5
11150
330
A
100
AcDbEntity
  8
0
  6
Continuous
 62
     7
100
AcDbLine
 10
26.99715924112729
 20
28.96863904743771
 30
0.0
 11
27.4979169934486
 21
28.95910998857062
 31
0.0
  0
LINE
  5
11151
330
A
100
AcDbEntity
  8
0
  6
Continuous
 62
     7
100
AcDbLine
 10
85.11620418378265
 20
82.34020150313005
 30
0.0
 11
85.11628165677825
 21
82.34024610879407
 31
0.0
  0
LINE
  5
11152
330
A
100
AcDbEntity
  8
0
  6
Continuous
 62
     7
100
AcDbLine
 10
85.14005178041271
 20
82.78513595957008
 30
0.0
 11
85.11620418378265
 21
82.34020150313005
 31
0.0
  0
LINE
  5
11153
330
A
100
AcDbEntity
  8
0
  6
Continuous
 62
     7
100
AcDbLine
 10
85.56694207188934
 20
82.34020854612959
 30
0.0
 11
85.56590205561565
 21
82.80800223158975
 31
0.0
  0
LINE
  5
11154
330
A
100
AcDbEntity
  8
0
  6
Continuous
 62
     7
100
AcDbLine
 10
85.56590205561565
 20
82.80800223158975
 30
0.0
 11
85.61739524913651
 21
82.80800237637356
 31
0.0
  0
LWPOLYLINE
  5
11155
330
A
100
AcDbEntity
  8
0
  6
Continuous
 62
     7
100
AcDbPolyline
 90
        3
 70
   128
 43
0.0
 10
82.20115829990868
 20
80.74726046030574
 10
81.79905936700789
 20
80.7469388299909
 10
81.39695808644068
 20
80.74663598100826
  0
LWPOLYLINE
  5
11156
330
A
100
AcDbEntity
  8
0
  6
Continuous
 62
     7
100
AcDbPolyline
 90
        9
 70
   128
 43
0.0
 10
82.55391867297726
 20
81.09508369065784
 10
82.68755489496697
 20
81.05733321282647
 10
82.81595347292432
 20
80.99814384422669
 10
82.93559055938477
 20
80.92061215701395
 10
83.04417952714675
 20
80.8269613913939
 10
83.13886561370736
 20
80.7195720812297
 10
83.21782937750459
 20
80.60038574674322
 10
83.27847429935401
 20
80.47256469475277
 10
83.3174643451141
 20
80.33955060439396
  0
LWPOLYLINE
  5
11157
330
A
100
AcDbEntity
  8
0
  6
Continuous
 62
     7
100
AcDbPolyline
 90
        3
 70
   128
 43
0.0
 10
82.55391397764425
 20
81.09506960465868
 10
82.39873556755856
 20
81.1264391248566
 10
82.24865159384718
 20
81.13630167195665
  0
LWPOLYLINE
  5
11158
330
A
100
AcDbEntity
  8
0
  6
Continuous
 62
     7
100
AcDbPolyline
 90
        3
 70
   128
 43
0.0
 10
83.31745025911505
 20
80.33954590906095
 10
83.35092094085894
 20
80.1806182755241
 10
83.36174368357047
 20
80.02167655598809
  0
LWPOLYLINE
  5
11159
330
A
100
AcDbEntity
  8
0
  6
Continuous
 62
     7
100
AcDbPolyline
 90
        5
 70
   128
 43
0.0
 10
83.36174368357047
 20
80.02167655598809
 10
83.24192113145386
 20
80.02170707565298
 10
83.13632309085324
 20
80.02173759531789
 10
83.06453379597746
 20
80.02176107198321
 10
83.03532882432183
 20
80.02177281031586
  0
LWPOLYLINE
  5
1115A
330
A
100
AcDbEntity
  8
0
  6
Continuous
 62
     7
100
AcDbPolyline
 90
        3
 70
   128
 43
0.0
 10
83.00639148665096
 20
80.23424836977657
 10
83.02842903238479
 20
80.12803524054485
 10
83.03532882432183
 20
80.02177281031586
  0
LWPOLYLINE
  5
1115B
330
A
100
AcDbEntity
  8
0
  6
Continuous
 62
     7
100
AcDbPolyline
 90
        5
 70
   128
 43
0.0
 10
83.0063867913177
 20
80.23426245577573
 10
83.03502832300569
 20
80.24827332963756
 10
83.10354966606951
 20
80.27307173121291
 10
83.20372929231462
 20
80.30537092735746
 10
83.3174643451141
 20
80.33955060439396
  0
LWPOLYLINE
  5
1115C
330
A
100
AcDbEntity
  8
0
  6
Continuous
 62
     7
100
AcDbPolyline
 90
        5
 70
   128
 43
0.0
 10
82.24865159384718
 20
81.13630167195665
 10
82.24861637884897
 20
81.01824221740546
 10
82.24858116385121
 20
80.91383679140315
 10
82.24855533951927
 20
80.84174934287771
 10
82.24853890585359
 20
80.81063571833173
  0
LWPOLYLINE
  5
1115D
330
A
100
AcDbEntity
  8
0
  6
Continuous
 62
     7
100
AcDbPolyline
 90
        5
 70
   128
 43
0.0
 10
82.45252060780217
 20
80.783562427887
 10
82.46633427767529
 20
80.81356091083037
 10
82.49027578096661
 20
80.88248840020403
 10
82.52122976418831
 20
80.98217501647738
 10
82.55393745430955
 20
81.09506256165904
  0
LWPOLYLINE
  5
1115E
330
A
100
AcDbEntity
  8
0
  6
Continuous
 62
     7
100
AcDbPolyline
 90
        3
 70
   128
 43
0.0
 10
82.24853890585359
 20
80.81063571833173
 10
82.34876079009609
 20
80.8043345813604
 10
82.45252060780217
 20
80.783562427887
  0
LWPOLYLINE
  5
1115F
330
A
100
AcDbEntity
  8
0
  6
Continuous
 62
     7
100
AcDbPolyline
 90
        5
 70
   128
 43
0.0
 10
82.45253938913448
 20
80.78355773255394
 10
82.6401437693571
 20
80.70516914705709
 10
82.80159044908259
 20
80.58164667248641
 10
82.92639005424666
 20
80.42123061836836
 10
83.0063867913177
 20
80.23426245577573
  0
LWPOLYLINE
  5
11160
330
A
100
AcDbEntity
  8
0
  6
Continuous
 62
     7
100
AcDbPolyline
 90
       27
 70
   128
 43
0.0
 10
82.20115829990868
 20
80.74726046030574
 10
82.25513584880786
 20
80.74502782943401
 10
82.29220080801201
 20
80.74128799664881
 10
82.32426054217034
 20
80.73664900758203
 10
82.35430128311122
 20
80.73108738556815
 10
82.38400630773822
 20
80.72435897328805
 10
82.41510349861846
 20
80.71604353843239
 10
82.45039362192438
 20
80.70496020473573
 10
82.50593236906707
 20
80.68359174396332
 10
82.55373555498772
 20
80.66121143891567
 10
82.58127603107231
 20
80.64646339776292
 10
82.64615144801201
 20
80.60603658008526
 10
82.69722258574484
 20
80.56744563763553
 10
82.75019063803529
 20
80.51992182403225
 10
82.79970057752462
 20
80.46684108374822
 10
82.83780790066884
 20
80.41845098119475
 10
82.87182793638113
 20
80.36781416177033
 10
82.90883420392175
 20
80.30049717163743
 10
82.91958182130429
 20
80.27764263795038
 10
82.93672448231973
 20
80.23651621564628
 10
82.94970003524076
 20
80.19999826274412
 10
82.95758819478782
 20
80.17444860787852
 10
82.96362404544106
 20
80.15249323047308
 10
82.96854475449164
 20
80.13238781429473
 10
82.97852233725189
 20
80.08187542119655
 10
82.98538221885769
 20
80.02967036052885
 10
82.98878398766238
 20
79.95986484387228
  0
LINE
  5
11161
330
A
100
AcDbEntity
  8
0
  6
Continuous
 62
     7
100
AcDbLine
 10
82.24853890585359
 20
80.81063571833169
 30
0.0
 11
82.20115829990868
 21
80.74726046030571
 31
0.0
  0
LINE
  5
11162
330
A
100
AcDbEntity
  8
0
  6
Continuous
 62
     7
100
AcDbLine
 10
83.03533117198822
 20
80.02177515798235
 30
0.0
 11
82.98879807366166
 21
79.95988597287101
 31
0.0
  0
LWPOLYLINE
  5
11163
330
A
100
AcDbEntity
  8
0
  6
Continuous
 62
     7
100
AcDbPolyline
 90
        3
 70
   128
 43
0.0
 10
84.55878363313786
 20
82.89761970610825
 10
84.77880459283188
 20
82.91256964658279
 10
85.00371808957789
 20
82.92146730273831
  0
LINE
  5
11164
330
A
100
AcDbEntity
  8
0
  6
Continuous
 62
     7
100
AcDbLine
 10
85.0265856256567
 20
83.34731939406935
 30
0.0
 11
84.5587930238039
 21
83.34835994188143
 31
0.0
  0
LINE
  5
11165
330
A
100
AcDbEntity
  8
0
  6
Continuous
 62
     7
100
AcDbLine
 10
85.02658562163651
 20
83.39881200387356
 30
0.0
 11
85.0265856256567
 21
83.34731939406935
 31
0.0
  0
LINE
  5
11166
330
A
100
AcDbEntity
  8
0
  6
Continuous
 62
     7
100
AcDbLine
 10
84.5588305864685
 20
82.89769952677033
 30
0.0
 11
84.55878363313786
 21
82.89761970610824
 31
0.0
  0
LWPOLYLINE
  5
11167
330
A
100
AcDbEntity
  8
0
  6
Continuous
 62
     7
100
AcDbPolyline
 90
        9
 70
   128
 43
0.0
 10
85.00371808957789
 20
82.92146730273831
 10
85.03111066267093
 20
82.91969950983983
 10
85.05734348849728
 20
82.91256964658279
 10
85.0812216047923
 20
82.90041342928114
 10
85.1021111415921
 20
82.88352431625131
 10
85.11899790695542
 20
82.86263712711789
 10
85.13115412425714
 20
82.838759010823
 10
85.13828163984772
 20
82.81252853266314
 10
85.14005178041271
 20
82.78513595957011
  0
LWPOLYLINE
  5
11168
330
A
100
AcDbEntity
  8
0
  6
Continuous
 62
     7
100
AcDbPolyline
 90
        9
 70
   128
 43
0.0
 10
85.56590205561565
 20
82.80800223158982
 10
85.55535164222192
 20
82.91366835451967
 10
85.52445165533027
 20
83.01491147370361
 10
85.4745754798621
 20
83.10790489269479
 10
85.4077914100319
 20
83.18919049869183
 10
85.32650580403492
 20
83.25598161152161
 10
85.23350768971068
 20
83.30586248232279
 10
85.13225517986052
 20
83.33676716454741
 10
85.02658670926416
 20
83.34731992560788
  0
ARC
  5
11169
330
A
100
AcDbEntity
  8
0
  6
Continuous
 62
     7
100
AcDbCircle
 10
85.02658562163651
 20
82.80800237637356
 30
0.0
 40
0.5908096275000001
100
AcDbArc
 50
0.000000000000007
 51
90.0
  0
LINE
  5
1118A
330
A
100
AcDbEntity
  8
0
  6
Continuous
 62
     7
100
AcDbLine
 10
48.61683512255694
 20
31.46457202476472
 30
0.0
 11
48.61683512255694
 21
31.46342919572942
 31
0.0
  0
LINE
  5
1118B
330
A
100
AcDbEntity
  8
0
  6
Continuous
 62
     7
100
AcDbLine
 10
48.61683512924855
 20
31.46342919572942
 30
0.0
 11
48.61683512924855
 21
31.09809399661674
 31
0.0
  0
LINE
  5
1118F
330
A
100
AcDbEntity
  8
0
  6
Continuous
 62
     7
100
AcDbLine
 10
48.61683512255694
 20
31.46346067013519
 30
0.0
 11
48.61683512255694
 21
31.4654875167472
 31
0.0
  0
LINE
  5
11190
330
A
100
AcDbEntity
  8
0
  6
Continuous
 62
     7
100
AcDbLine
 10
49.61739528013663
 20
81.14226968474701
 30
0.0
 11
57.20601698687779
 21
81.14226944028041
 31
0.0
  0
LINE
  5
11191
330
A
100
AcDbEntity
  8
0
  6
Continuous
 62
     7
100
AcDbLine
 10
49.61739528013641
 20
80.81592926306655
 30
0.0
 11
57.20601698687779
 21
80.81592970636085
 31
0.0
  0
LINE
  5
11192
330
A
100
AcDbEntity
  8
0
  6
Continuous
 62
     7
100
AcDbLine
 10
58.25408282208673
 20
79.58027533767836
 30
0.0
 11
57.35900385025593
 21
79.58167219926474
 31
0.0
  0
LINE
  5
11196
330
A
100
AcDbEntity
  8
0
  6
Continuous
 62
     7
100
AcDbLine
 10
97.79986803879319
 20
29.21356836196333
 30
0.0
 11
98.6637444835792
 21
15.90784159660222
 31
0.0
  0
LINE
  5
11197
330
A
100
AcDbEntity
  8
0
  6
Continuous
 62
     7
100
AcDbLine
 10
77.97629948666781
 20
29.11277342080166
 30
0.0
 11
76.34627474743274
 21
23.57926622107277
 31
0.0
  0
LINE
  5
1119C
330
A
100
AcDbEntity
  8
0
  6
Continuous
 62
     7
100
AcDbLine
 10
73.37936770849205
 20
13.26372031306039
 30
0.0
 11
73.07691177901779
 21
12.2227952946987
 31
0.0
  0
LINE
  5
1119D
330
A
100
AcDbEntity
  8
0
  6
Continuous
 62
     7
100
AcDbLine
 10
76.34627474743274
 20
23.57926622107277
 30
0.0
 11
73.0866719186049
 21
12.51376808020484
 31
0.0
  0
LWPOLYLINE
  5
111A5
330
A
100
AcDbEntity
  8
0
  6
Continuous
 62
     7
100
AcDbPolyline
 90
       13
 70
   128
 43
0.0
 10
70.95394981509684
 20
10.89646043620453
 10
71.17848225274679
 20
10.91061723896783
 10
71.40686980997384
 20
10.94836248355275
 10
71.63537374363864
 20
11.01095479527956
 10
71.86041644490547
 20
11.09914308345199
 10
72.07792212668005
 20
11.21283856873882
 10
72.28287788653506
 20
11.35033890665229
 10
72.47143813743332
 20
11.50932979834508
 10
72.64035202384935
 20
11.68671659507313
 10
72.78714564107485
 20
11.87881814781028
 10
72.91023044312282
 20
12.08160442815225
 10
73.00892967606865
 20
12.29094714042551
 10
73.08346668982768
 20
12.50293752825328
  0
LWPOLYLINE
  5
111A7
330
A
100
AcDbEntity
  8
0
  6
Continuous
 62
     7
100
AcDbPolyline
 90
        3
 70
   128
 43
0.0
 10
73.07392700424202
 20
12.21247197952848
 10
73.04835807537642
 20
12.13149273831382
 10
73.02021722300469
 20
12.05273187898498
  0
LWPOLYLINE
  5
111AC
330
A
100
AcDbEntity
  8
0
  6
Continuous
 62
     7
100
AcDbPolyline
 90
       26
 70
   128
 43
0.0
 10
70.96314684074354
 20
10.63143585647313
 10
71.12909410435008
 20
10.64033227305381
 10
71.29362943849219
 20
10.66189669667963
 10
71.43883088872485
 20
10.69135897615913
 10
71.56359552634353
 20
10.72479998539123
 10
71.66748962073302
 20
10.75864278861664
 10
71.76807844658924
 20
10.79686535241924
 10
71.83676498638738
 20
10.82620252353232
 10
71.87429645105772
 20
10.84338767758211
 10
71.89496046656654
 20
10.85319007983255
 10
71.93549049320996
 20
10.87307543899479
 10
71.97503923102317
 20
10.89333964290765
 10
72.0511261878487
 20
10.93480382960743
 10
72.12318022720433
 20
10.97722489018124
 10
72.19119141129159
 20
11.02027309355927
 10
72.25517566659732
 20
11.06363587401884
 10
72.31520237513791
 20
11.10705556847747
 10
72.36567309243378
 20
11.14580108774922
 10
72.41310316163913
 20
11.1842592172608
 10
72.45757950579764
 20
11.22231907987381
 10
72.49919102868375
 20
11.25988572055567
 10
72.53805846906175
 20
11.29691645737719
 10
72.57367830720705
 20
11.33275125572524
 10
72.60687717904421
 20
11.36805962069027
 10
72.63778671398132
 20
11.40289537658683
 10
72.65815063755758
 20
11.42729453519305
  0
LWPOLYLINE
  5
111AD
330
A
100
AcDbEntity
  8
0
  6
Continuous
 62
     7
100
AcDbPolyline
 90
        6
 70
   128
 43
0.0
 10
73.02033428726577
 20
12.05320476062539
 10
72.96362224383756
 20
11.92071690001106
 10
72.8986098655746
 20
11.79136192555543
 10
72.823820102539
 20
11.66460409218771
 10
72.73214351722959
 20
11.53054579512482
 10
72.65367179732038
 20
11.43082060850852
  0
LWPOLYLINE
  5
111AE
330
A
100
AcDbEntity
  8
0
  6
Continuous
 62
     7
100
AcDbPolyline
 90
        6
 70
   128
 43
0.0
 10
73.08666365263139
 20
12.51377083575826
 10
73.08387590888333
 20
12.41280311323518
 10
73.08101784805808
 20
12.32220986625637
 10
73.07864182096114
 20
12.27197546864462
 10
73.0767238198664
 20
12.23681888237527
 10
73.07696117131172
 20
12.22355507450405
  0
LINE
  5
111B4
330
A
100
AcDbEntity
  8
0
  6
Continuous
 62
     7
100
AcDbLine
 10
98.6637444835792
 20
15.90784159660222
 30
0.0
 11
98.87245544895018
 21
12.69320240262493
 31
0.0
  0
LWPOLYLINE
  5
111B5
330
A
100
AcDbEntity
  8
0
  6
Continuous
 62
     7
100
AcDbPolyline
 90
        3
 70
   128
 43
0.0
 10
98.87480929313438
 20
12.65673588838686
 10
98.87479747710472
 20
12.61976322654598
 10
98.87467740773514
 20
12.62389573891371
  0
LWPOLYLINE
  5
111B6
330
A
100
AcDbEntity
  8
0
  6
Continuous
 62
     7
100
AcDbPolyline
 90
        3
 70
   128
 43
0.0
 10
98.87467740773514
 20
12.62389573891371
 10
98.8744482416671
 20
12.63178310949004
 10
98.87403533531051
 20
12.67097886645334
  0
LINE
  5
111B7
330
A
100
AcDbEntity
  8
0
  6
Continuous
 62
     7
100
AcDbLine
 10
70.23650777363878
 20
28.9687999199565
 30
0.0
 11
80.413185285684
 21
29.15810370779809
 31
0.0
  0
LINE
  5
111B8
330
A
100
AcDbEntity
  8
0
  6
Continuous
 62
     7
100
AcDbLine
 10
16.98613731028945
 20
81.13630167195664
 30
0.0
 11
42.02877367800875
 21
81.14226944028041
 31
0.0
  0
LWPOLYLINE
  5
111B9
330
A
100
AcDbEntity
  8
0
  6
Continuous
 62
     7
100
AcDbPolyline
 90
        3
 70
   128
 43
0.0
 10
16.98625234594965
 20
80.81063571833173
 10
29.50750362131294
 20
80.81355856316386
 10
42.02876252659279
 20
80.81592970636094
  0
LINE
  5
111BA
330
A
100
AcDbEntity
  8
0
  6
Continuous
 62
     7
100
AcDbLine
 10
17.83783551302895
 20
80.74663598100825
 30
0.0
 11
41.8904814463699
 21
80.73276831480496
 31
0.0
  0
LINE
  5
111BB
330
A
100
AcDbEntity
  8
0
  6
Continuous
 62
     7
100
AcDbLine
 10
19.04318620211916
 20
79.54419405075111
 30
0.0
 11
40.98070725588331
 21
79.58027533767836
 31
0.0
  0
LINE
  5
111BC
330
A
100
AcDbEntity
  8
0
  6
Continuous
 62
     7
100
AcDbLine
 10
80.39467253611816
 20
30.10924043172895
 30
0.0
 11
56.34351055094817
 21
29.68087984322972
 31
0.0
  0
LINE
  5
111BD
330
A
100
AcDbEntity
  8
0
  6
Continuous
 62
     7
100
AcDbLine
 10
56.36207762069784
 20
28.71071154298011
 30
0.0
 11
70.23650777363878
 21
28.9687999199565
 31
0.0
  0
LINE
  5
111DA
330
A
100
AcDbEntity
  8
0
  6
Continuous
 62
     7
100
AcDbLine
 10
42.04276048828842
 20
80.73274249047301
 30
0.0
 11
42.24319603994081
 21
80.73266501747752
 31
0.0
  0
LWPOLYLINE
  5
111DB
330
A
100
AcDbEntity
  8
0
  6
Continuous
 62
     7
100
AcDbPolyline
 90
        3
 70
   128
 43
0.0
 10
41.8757868146306
 20
79.58167219926483
 10
41.42824703525684
 20
79.58097494230489
 10
40.98070725588331
 20
79.58027533767839
  0
LWPOLYLINE
  5
111E1
330
A
100
AcDbEntity
  8
0
  6
Continuous
 62
     7
100
AcDbPolyline
 90
        9
 70
   128
 43
0.0
 10
84.00094614610294
 20
31.47919602120615
 10
84.02833543206019
 20
31.48068574357822
 10
84.05456861318317
 20
31.48176186010713
 10
84.07844492174286
 20
31.48240759746321
 10
84.09933304654032
 20
31.48262540321761
 10
84.11621848140475
 20
31.48240756725503
 10
84.12837408404129
 20
31.48176175351867
 10
84.13550177945785
 20
31.4806858928271
 10
84.13727029774259
 20
31.47919602120615
  0
LINE
  5
111E2
330
A
100
AcDbEntity
  8
0
  6
Continuous
 62
     7
100
AcDbLine
 10
84.11931725605882
 20
31.46928374629329
 30
0.0
 11
84.1100955274892
 21
31.47035546383813
 31
0.0
  0
LINE
  5
111E3
330
A
100
AcDbEntity
  8
0
  6
Continuous
 62
     7
100
AcDbLine
 10
83.55604913001911
 20
31.09798941384702
 30
0.0
 11
84.02381179511122
 21
31.11358486161373
 31
0.0
  0
LWPOLYLINE
  5
111E4
330
A
100
AcDbEntity
  8
0
  6
Continuous
 62
     7
100
AcDbPolyline
 90
        3
 70
   128
 43
0.0
 10
80.41324375299064
 20
29.15810568581887
 10
80.81607363405259
 20
29.16580628469549
 10
81.21832624380591
 20
29.17366093387491
  0
LWPOLYLINE
  5
111E5
330
A
100
AcDbEntity
  8
0
  6
Continuous
 62
     7
100
AcDbPolyline
 90
        3
 70
   128
 43
0.0
 10
81.19882575696896
 20
30.12394473853536
 10
80.79675231411897
 20
30.11650495731485
 10
80.39467552887845
 20
30.10924048643111
  0
LWPOLYLINE
  5
111E6
330
A
100
AcDbEntity
  8
0
  6
Continuous
 62
     7
100
AcDbPolyline
 90
        9
 70
   128
 43
0.0
 10
80.413185285684
 20
29.15810370779812
 10
80.4127970845907
 20
29.17136002501164
 10
80.41175461454896
 20
29.21961427400058
 10
80.41002403571907
 20
29.30510391891451
 10
80.40764553062468
 20
29.42612289540537
 10
80.40473622195259
 20
29.57678373022239
 10
80.40147208779059
 20
29.74791234292425
 10
80.39805428262638
 20
29.92881364263266
 10
80.39467253611816
 20
30.10924043172898
  0
LWPOLYLINE
  5
111E7
330
A
100
AcDbEntity
  8
0
  6
Continuous
 62
     7
100
AcDbPolyline
 90
        5
 70
   128
 43
0.0
 10
81.19882749845737
 20
30.12394461331795
 10
81.20600154023874
 20
29.7624768036898
 10
81.21251946072289
 20
29.4407302069026
 10
81.21684558393871
 20
29.23457266127244
 10
81.2179418003402
 20
29.18947628850086
  0
LINE
  5
111E8
330
A
100
AcDbEntity
  8
0
  6
Continuous
 62
     7
100
AcDbLine
 10
81.19882711982246
 20
30.12394467146999
 30
0.0
 11
81.21393103948799
 21
30.34124400184464
 31
0.0
  0
LWPOLYLINE
  5
111E9
330
A
100
AcDbEntity
  8
0
  6
Continuous
 62
     7
100
AcDbPolyline
 90
        7
 70
   128
 43
0.0
 10
82.23774216607329
 20
30.12843369695955
 10
82.23678319919304
 20
30.12776299348209
 10
82.13237660914092
 20
30.11016537268953
 10
81.95016029735052
 20
30.10071611547639
 10
81.69910098365539
 20
30.10102582083104
 10
81.43263936690459
 20
30.11035634511145
 10
81.19882711779906
 20
30.12394464219531
  0
LWPOLYLINE
  5
111EA
330
A
100
AcDbEntity
  8
0
  6
Continuous
 62
     7
100
AcDbPolyline
 90
       10
 70
   128
 43
0.0
 10
82.26553633800245
 20
30.14787303792812
 10
82.26555049399326
 20
30.14843425748328
 10
82.26555817339862
 20
30.14873696999533
 10
82.26555823334093
 20
30.14873932806839
 10
82.26555841834921
 20
30.14874660559949
 10
82.26555900507424
 20
30.14876968109652
 10
82.26556069504226
 20
30.14883611279575
 10
82.26557544767183
 20
30.14941366982166
 10
82.26560541870572
 20
30.15057482885996
 10
82.26586591666409
 20
30.16012923873134
  0
LINE
  5
111EB
330
A
100
AcDbEntity
  8
0
  6
Continuous
 62
     7
100
AcDbLine
 10
82.27930339677028
 20
30.34124400184464
 30
0.0
 11
82.26553197415114
 21
30.1478117440339
 31
0.0
  0
LINE
  5
111EC
330
A
100
AcDbEntity
  8
0
  6
Continuous
 62
     7
100
AcDbLine
 10
81.2179418003402
 20
29.18947628850083
 30
0.0
 11
81.21832624480999
 21
29.17366093389478
 31
0.0
  0
LINE
  5
111ED
330
A
100
AcDbEntity
  8
0
  6
Continuous
 62
     7
100
AcDbLine
 10
82.26553633671233
 20
30.14787299907346
 30
0.0
 11
82.23774216607329
 21
30.12843369695952
 31
0.0
  0
LINE
  5
111EE
330
A
100
AcDbEntity
  8
0
  6
Continuous
 62
     7
100
AcDbLine
 10
82.27930339634827
 20
30.34124400184464
 30
0.0
 11
82.26553634848096
 21
30.14787319342304
 31
0.0
  0
LWPOLYLINE
  5
111EF
330
A
100
AcDbEntity
  8
0
  6
Continuous
 62
     7
100
AcDbPolyline
 90
       20
 70
   128
 43
0.0
 10
81.21819333844042
 20
29.17659666255273
 10
81.26671218620732
 20
29.17814550099391
 10
81.30114055413447
 20
29.18063146820188
 10
81.33957633713157
 20
29.18487270741631
 10
81.40748185732604
 20
29.19653639596461
 10
81.49150973336691
 20
29.21864505015711
 10
81.55199407147234
 20
29.23923263901045
 10
81.61650883563016
 20
29.26367631429881
 10
81.6818013050995
 20
29.29172783464768
 10
81.76651404960102
 20
29.33856532685652
 10
81.84242938202578
 20
29.39061166913868
 10
81.93015352872317
 20
29.46596892051289
 10
82.00767737942829
 20
29.55137712687227
 10
82.08558730884943
 20
29.66148742527585
 10
82.13976283849296
 20
29.76136602434852
 10
82.18593060520129
 20
29.87536414819075
 10
82.2047832044584
 20
29.93710192455299
 10
82.22020917701115
 20
30.00154359858598
 10
82.23181309260167
 20
30.06825380069259
 10
82.23913874323717
 20
30.13450523882549
  0
LWPOLYLINE
  5
111F0
330
A
100
AcDbEntity
  8
0
  6
Continuous
 62
     7
100
AcDbPolyline
 90
        7
 70
   128
 43
0.0
 10
83.5560491238832
 20
31.09798941389855
 10
83.5560579037433
 20
31.20280005087844
 10
83.55606551567007
 20
31.29717147517502
 10
83.55607190895922
 20
31.37144788692976
 10
83.55607705915463
 20
31.42200958252127
 10
83.55608096950504
 20
31.45096246133218
 10
83.55608359165058
 20
31.46319508838067
  0
LWPOLYLINE
  5
111F1
330
A
100
AcDbEntity
  8
0
  6
Continuous
 62
     7
100
AcDbPolyline
 90
        9
 70
   128
 43
0.0
 10
84.02381179511122
 20
31.11358486161206
 10
84.12946999558313
 20
31.1150524351884
 10
84.23070837434602
 20
31.11610071497469
 10
84.32369635403734
 20
31.11672970097087
 10
84.40497504044742
 20
31.11693939317698
 10
84.47176284056991
 20
31.11672976894008
 10
84.52164191091583
 20
31.11610080560033
 10
84.55254247873426
 20
31.11505250315762
 10
84.55261908581338
 20
31.11504184876489
  0
ARC
  5
111F2
330
A
100
AcDbEntity
  8
0
  6
Continuous
 62
     7
100
AcDbCircle
 10
84.17115168065379
 20
31.07189545099834
 30
0.0
 40
0.3938484612234132
100
AcDbArc
 50
5.497453181104805
 51
33.06249073778143
  0
LINE
  5
111F3
330
A
100
AcDbEntity
  8
0
  6
Continuous
 62
     7
100
AcDbLine
 10
84.54607812128712
 20
31.18689023296258
 30
0.0
 11
84.56182706553112
 21
31.10935135574005
 31
0.0
  0
LINE
  5
111F4
330
A
100
AcDbEntity
  8
0
  6
Continuous
 62
     7
100
AcDbLine
 10
84.61458448698635
 20
30.34124400184464
 30
0.0
 11
84.02381179511122
 21
30.34124400184464
 31
0.0
  0
LINE
  5
111F5
330
A
100
AcDbEntity
  8
0
  6
Continuous
 62
     7
100
AcDbLine
 10
84.61458448698635
 20
30.34124400184464
 30
0.0
 11
84.56309509635662
 21
31.11358486140864
 31
0.0
  0
LINE
  5
111F6
330
A
100
AcDbEntity
  8
0
  6
Continuous
 62
     7
100
AcDbLine
 10
84.55261908581338
 20
31.11504184876492
 30
0.0
 11
84.56309509631706
 21
31.11358486161203
 31
0.0
  0
LINE
  5
111F7
330
A
100
AcDbEntity
  8
0
  6
Continuous
 62
     7
100
AcDbLine
 10
84.02381179511122
 20
31.11358486140864
 30
0.0
 11
84.02381179511122
 21
30.34124400184464
 31
0.0
  0
LINE
  5
111F8
330
A
100
AcDbEntity
  8
0
  6
Continuous
 62
     7
100
AcDbLine
 10
77.98610982311197
 20
29.11817265785089
 30
0.0
 11
77.70596694611026
 21
28.15403970170871
 31
0.0
  0
LINE
  5
111F9
330
A
100
AcDbEntity
  8
0
  6
Continuous
 62
     7
100
AcDbLine
 10
80.41318845427667
 20
29.15809934194238
 30
0.0
 11
77.98457533279111
 21
29.1128915930426
 31
0.0
  0
LWPOLYLINE
  5
111FA
330
A
100
AcDbEntity
  8
0
  6
Continuous
 62
     7
100
AcDbPolyline
 90
        4
 70
   128
 43
0.0
 10
84.00141242094537
 20
31.47692575565887
 10
83.85018865752385
 20
31.46946622646126
 10
83.70025736186949
 20
31.46462188774561
 10
83.55322998453084
 20
31.4633461629019
  0
LWPOLYLINE
  5
111FB
330
A
100
AcDbEntity
  8
0
  6
Continuous
 62
     7
100
AcDbPolyline
 90
        8
 70
   128
 43
0.0
 10
84.02381181012357
 20
31.11358486248517
 10
84.01961254293906
 20
31.18517708030462
 10
84.01531461935134
 20
31.25747707704196
 10
84.01118213013068
 20
31.32588718102696
 10
84.00750377245321
 20
31.38551443104112
 10
84.00453412897673
 20
31.43218564454262
 10
84.0024383010275
 20
31.46336345128705
 10
84.00147354568275
 20
31.47585132310101
  0
LWPOLYLINE
  5
111FC
330
A
100
AcDbEntity
  8
0
  6
Continuous
 62
     7
100
AcDbPolyline
 90
        9
 70
   128
 43
0.0
 10
84.5630950962875
 20
31.11358486248517
 10
84.5516107160663
 20
31.18517708030462
 10
84.52524369661114
 20
31.25747707704196
 10
84.48328743881006
 20
31.32588718102696
 10
84.42696591874119
 20
31.38551443104112
 10
84.35948235088904
 20
31.43218564454262
 10
84.28544925535517
 20
31.46336345128705
 10
84.20989591492457
 20
31.47857179397866
 10
84.1372702982319
 20
31.47919602209359
  0
ARC
  5
111FD
330
A
100
AcDbEntity
  8
0
  6
Continuous
 62
     7
100
AcDbCircle
 10
84.17115168065379
 20
31.07189545099834
 30
0.0
 40
0.3938484612234071
100
AcDbArc
 50
76.99678009165566
 51
98.41042946810727
  0
LWPOLYLINE
  5
111FE
330
A
100
AcDbEntity
  8
0
  6
Continuous
 62
     7
100
AcDbPolyline
 90
        9
 70
   128
 43
0.0
 10
84.55269449976549
 20
31.11504513024275
 10
84.53492397480317
 20
31.20182872270792
 10
84.49415701188263
 20
31.28182640107221
 10
84.43272933259345
 20
31.34942796413603
 10
84.35518478763674
 20
31.4016464768105
 10
84.26667633312831
 20
31.43829687672761
 10
84.17375881327712
 20
31.46119232886528
 10
84.08338969641773
 20
31.47311521977272
 10
84.00141240647803
 20
31.47692575433726
  0
LWPOLYLINE
  5
111FF
330
A
100
AcDbEntity
  8
0
  6
Continuous
 62
     7
100
AcDbPolyline
 90
        9
 70
   128
 43
0.0
 10
92.12427488650337
 20
31.47919602120621
 10
92.12604288616853
 20
31.48068574357822
 10
92.13317230286042
 20
31.48176186010719
 10
92.14532771940344
 20
31.48240759746321
 10
92.1622169401362
 20
31.48262540321756
 10
92.18310183210746
 20
31.48240756725503
 10
92.20697969166849
 20
31.48176175351867
 10
92.23320661965294
 20
31.4806858928271
 10
92.26059903814302
 20
31.47919602120621
  0
LINE
  5
11200
330
A
100
AcDbEntity
  8
0
  6
Continuous
 62
     7
100
AcDbLine
 10
92.13862851962131
 20
31.47516357344023
 30
0.0
 11
92.1283358122398
 21
31.47392424317877
 31
0.0
  0
LWPOLYLINE
  5
11201
330
A
100
AcDbEntity
  8
0
  6
Continuous
 62
     7
100
AcDbPolyline
 90
        9
 70
   128
 43
0.0
 10
91.70892732526885
 20
31.11504210500297
 10
91.70900159687311
 20
31.1150524351884
 10
91.73989866599482
 20
31.11610071497469
 10
91.7897717319372
 20
31.11672970097087
 10
91.85655114445035
 20
31.11693939317698
 10
91.93783298735366
 20
31.11672976894013
 10
92.03082573981646
 20
31.11610080560033
 10
92.13206966411849
 20
31.11505250315762
 10
92.23773338913474
 20
31.11358486161206
  0
LINE
  5
11202
330
A
100
AcDbEntity
  8
0
  6
Continuous
 62
     7
100
AcDbLine
 10
92.23773338913474
 20
30.34124400184464
 30
0.0
 11
91.64696069725982
 21
30.34124400184464
 31
0.0
  0
LINE
  5
11203
330
A
100
AcDbEntity
  8
0
  6
Continuous
 62
     7
100
AcDbLine
 10
91.70068161944801
 20
31.11389523775915
 30
0.0
 11
91.71783931990626
 21
31.19732181556879
 31
0.0
  0
LWPOLYLINE
  5
11204
330
A
100
AcDbEntity
  8
0
  6
Continuous
 62
     7
100
AcDbPolyline
 90
        3
 70
   128
 43
0.0
 10
91.71046638057692
 20
31.18722399406781
 10
91.7113223199251
 20
31.19042668151738
 10
91.71884122883989
 20
31.21490708266518
  0
LINE
  5
11205
330
A
100
AcDbEntity
  8
0
  6
Continuous
 62
     7
100
AcDbLine
 10
91.69845008792913
 20
31.11358486161203
 30
0.0
 11
91.70892732526885
 21
31.115042105003
 31
0.0
  0
LINE
  5
11206
330
A
100
AcDbEntity
  8
0
  6
Continuous
 62
     7
100
AcDbLine
 10
91.69845008788957
 20
31.11358486140864
 30
0.0
 11
91.64696069725982
 21
30.34124400184464
 31
0.0
  0
LWPOLYLINE
  5
11207
330
A
100
AcDbEntity
  8
0
  6
Continuous
 62
     7
100
AcDbPolyline
 90
        8
 70
   128
 43
0.0
 10
92.70546240292947
 20
31.46322324159397
 10
92.70546244403726
 20
31.4631596702275
 10
92.70546514546003
 20
31.44977856055326
 10
92.70546911217548
 20
31.41982418218791
 10
92.7054743807057
 20
31.36852826253076
 10
92.70548095744311
 20
31.29428957573836
 10
92.70548880039541
 20
31.20097878047776
 10
92.70549782191142
 20
31.09798941418083
  0
LINE
  5
11208
330
A
100
AcDbEntity
  8
0
  6
Continuous
 62
     7
100
AcDbLine
 10
92.23773338913474
 20
30.34124400184464
 30
0.0
 11
92.23773338511477
 21
31.11358486184816
 31
0.0
  0
LINE
  5
11209
330
A
100
AcDbEntity
  8
0
  6
Continuous
 62
     7
100
AcDbLine
 10
92.23773338511477
 20
31.11358486184816
 30
0.0
 11
92.70549783395267
 21
31.09798941416102
 31
0.0
  0
LWPOLYLINE
  5
1120A
330
A
100
AcDbEntity
  8
0
  6
Continuous
 62
     7
100
AcDbPolyline
 90
        4
 70
   128
 43
0.0
 10
95.45983636156121
 20
28.71956302650406
 10
95.84364700396964
 20
28.78299575191707
 10
96.20206706920749
 20
28.99999599659461
 10
96.32550040122829
 20
29.1687828666422
  0
LWPOLYLINE
  5
1120B
330
A
100
AcDbEntity
  8
0
  6
Continuous
 62
     7
100
AcDbPolyline
 90
        5
 70
   128
 43
0.0
 10
96.42347318589919
 20
29.18561481030307
 10
96.17689559604992
 20
29.17824902979615
 10
95.96041658496892
 20
29.17066284605122
 10
95.77991539858112
 20
29.16307306341108
 10
95.64087680811804
 20
29.15578463127557
  0
LINE
  5
1120C
330
A
100
AcDbEntity
  8
0
  6
Continuous
 62
     7
100
AcDbLine
 10
95.82866614416184
 20
29.18736892937284
 30
0.0
 11
96.42347318848806
 21
29.18561481033135
 31
0.0
  0
LWPOLYLINE
  5
1120D
330
A
100
AcDbEntity
  8
0
  6
Continuous
 62
     7
100
AcDbPolyline
 90
        8
 70
   128
 43
0.0
 10
95.68788164065949
 20
29.15737889965683
 10
95.73785453760297
 20
29.16020447955569
 10
95.81252847463725
 20
29.16391934729572
 10
95.91817642999126
 20
29.16852314782776
 10
96.02130616086265
 20
29.172524912613
 10
96.14322391033534
 20
29.17680676183309
 10
96.28209644641561
 20
29.18123127628874
 10
96.30811260100358
 20
29.18198598273071
  0
LINE
  5
1120E
330
A
100
AcDbEntity
  8
0
  6
Continuous
 62
     7
100
AcDbLine
 10
95.45804743416965
 20
28.7024086069365
 30
0.0
 11
95.05697251094943
 21
28.71071154297431
 31
0.0
  0
LINE
  5
1120F
330
A
100
AcDbEntity
  8
0
  6
Continuous
 62
     7
100
AcDbLine
 10
95.07971046201168
 20
29.15810423097264
 30
0.0
 11
95.64086711522191
 21
29.15578455859316
 31
0.0
  0
LWPOLYLINE
  5
11210
330
A
100
AcDbEntity
  8
0
  6
Continuous
 62
     7
100
AcDbPolyline
 90
        9
 70
   128
 43
0.0
 10
95.10309476618454
 20
29.17447634989676
 10
95.1372357643636
 20
29.17506434408315
 10
95.15591278694206
 20
29.17538687830697
 10
95.15627381194486
 20
29.17539311872261
 10
95.15743425818323
 20
29.17541317917667
 10
95.16112836851631
 20
29.17547705422967
 10
95.19626617402286
 20
29.17608578022615
 10
95.26653601683506
 20
29.17730922695481
 10
95.82866614138197
 20
29.18736892935013
  0
LWPOLYLINE
  5
11211
330
A
100
AcDbEntity
  8
0
  6
Continuous
 62
     7
100
AcDbPolyline
 90
        9
 70
   128
 43
0.0
 10
95.8102522907825
 20
30.16012923873208
 10
95.2490587472646
 20
30.15056396022933
 10
95.14014371633379
 20
30.14876263053989
 10
95.13862199147911
 20
30.14873760300535
 10
95.13842439498445
 20
30.14873435352209
 10
95.13753893703301
 20
30.14871979266289
 10
95.13572965866183
 20
30.14869004423756
 10
95.11997818241253
 20
30.14843129671331
 10
95.08590232417532
 20
30.14787303799361
  0
LWPOLYLINE
  5
11212
330
A
100
AcDbEntity
  8
0
  6
Continuous
 62
     7
100
AcDbPolyline
 90
        3
 70
   128
 43
0.0
 10
95.05664404400453
 20
28.70748079921865
 10
95.36573040937538
 20
28.70091552567229
 10
95.45835716475403
 20
28.70534111604903
  0
LINE
  5
11213
330
A
100
AcDbEntity
  8
0
  6
Continuous
 62
     7
100
AcDbLine
 10
94.01945630239628
 20
30.12394467146999
 30
0.0
 11
93.99917427932019
 21
30.34124400184908
 31
0.0
  0
LINE
  5
11214
330
A
100
AcDbEntity
  8
0
  6
Continuous
 62
     7
100
AcDbLine
 10
95.06754921862443
 20
30.34124400184908
 30
0.0
 11
95.08590308859607
 21
30.14787319342304
 31
0.0
  0
LWPOLYLINE
  5
11215
330
A
100
AcDbEntity
  8
0
  6
Continuous
 62
     7
100
AcDbPolyline
 90
        9
 70
   128
 43
0.0
 10
94.03360159455223
 20
29.67771337090793
 10
94.06553159015221
 20
29.48732451644358
 10
94.13183803858714
 20
29.30602119209678
 10
94.23027151236942
 20
29.13995406180786
 10
94.35749268377344
 20
28.99475690594787
 10
94.50918561058392
 20
28.8753554969152
 10
94.68020415321189
 20
28.78580049370138
 10
94.86472179207499
 20
28.72913519232353
 10
95.05650168686271
 20
28.70726769619356
  0
LWPOLYLINE
  5
11216
330
A
100
AcDbEntity
  8
0
  6
Continuous
 62
     7
100
AcDbPolyline
 90
        9
 70
   128
 43
0.0
 10
95.05677433573351
 20
28.7083884591523
 10
94.87630594143775
 20
28.72789569352292
 10
94.69297077842748
 20
28.7817376582864
 10
94.51655448058955
 20
28.87169193330399
 10
94.35753062770755
 20
28.99575213366589
 10
94.22521597667559
 20
29.14797422065615
 10
94.12604016809609
 20
29.31936994212205
 10
94.06256170122242
 20
29.49958755370281
 10
94.03352398397055
 20
29.67876111714989
  0
LINE
  5
11217
330
A
100
AcDbEntity
  8
0
  6
Continuous
 62
     7
100
AcDbLine
 10
95.05697249238323
 20
28.71071154335903
 30
0.0
 11
95.05677512968146
 21
28.70838497456873
 31
0.0
  0
LINE
  5
11218
330
A
100
AcDbEntity
  8
0
  6
Continuous
 62
     7
100
AcDbLine
 10
95.05677442108298
 20
28.70838141650927
 30
0.0
 11
95.05655226113162
 21
28.707266618934
 31
0.0
  0
LWPOLYLINE
  5
11219
330
A
100
AcDbEntity
  8
0
  6
Continuous
 62
     7
100
AcDbPolyline
 90
        9
 70
   128
 43
0.0
 10
94.03350023203506
 20
29.68087984322878
 10
94.06255741046335
 20
29.50171727054291
 10
94.1260609656399
 20
29.32151317805241
 10
94.22526722845532
 20
29.15013493347166
 10
94.35761608305915
 20
28.99793561805703
 10
94.51667499645441
 20
28.87390412117227
 10
94.6931236667349
 20
28.78398395698125
 10
94.87648555636246
 20
28.73017972906601
 10
95.0569725109524
 20
28.71071154298258
  0
LINE
  5
1121A
330
A
100
AcDbEntity
  8
0
  6
Continuous
 62
     7
100
AcDbLine
 10
95.0569725109524
 20
28.71071154298022
 30
0.0
 11
95.07968492588156
 21
29.15810370779809
 31
0.0
  0
LWPOLYLINE
  5
1121B
330
A
100
AcDbEntity
  8
0
  6
Continuous
 62
     7
100
AcDbPolyline
 90
        9
 70
   128
 43
0.0
 10
95.07968492588156
 20
29.15810370779812
 10
94.89674383350303
 20
29.17136002501164
 10
94.70954329054279
 20
29.21961427400063
 10
94.52815013678877
 20
29.30510391891451
 10
94.36350795276599
 20
29.42612289540537
 10
94.22548205848375
 20
29.57678373022239
 10
94.12098663340543
 20
29.74791234292425
 10
94.05289374871541
 20
29.92881364263272
 10
94.02005990194721
 20
30.10924043172898
  0
LWPOLYLINE
  5
1121C
330
A
100
AcDbEntity
  8
0
  6
Continuous
 62
     7
100
AcDbPolyline
 90
        3
 70
   128
 43
0.0
 10
95.07974290469224
 20
29.15810568581893
 10
95.08081203385108
 20
29.1658062846956
 10
95.08093590359022
 20
29.17366093387491
  0
LINE
  5
1121D
330
A
100
AcDbEntity
  8
0
  6
Continuous
 62
     7
100
AcDbLine
 10
94.02005990194721
 20
30.10924043172895
 30
0.0
 11
94.03350023203506
 21
29.68087984322972
 31
0.0
  0
LWPOLYLINE
  5
1121E
330
A
100
AcDbEntity
  8
0
  6
Continuous
 62
     7
100
AcDbPolyline
 90
        3
 70
   128
 43
0.0
 10
94.01945629484407
 20
30.12394473853536
 10
94.01976751811957
 20
30.1165049573149
 10
94.02005989969348
 20
30.10924048643111
  0
LINE
  5
1121F
330
A
100
AcDbEntity
  8
0
  6
Continuous
 62
     7
100
AcDbLine
 10
93.98445117744882
 20
30.34124400184908
 30
0.0
 11
94.033523142916
 21
29.67877246811133
 31
0.0
  0
LINE
  5
11220
330
A
100
AcDbEntity
  8
0
  6
Continuous
 62
     7
100
AcDbLine
 10
94.03350023203506
 20
29.68087984322881
 30
0.0
 11
94.03352445554856
 21
29.67876409562644
 31
0.0
  0
LWPOLYLINE
  5
11221
330
A
100
AcDbEntity
  8
0
  6
Continuous
 62
     7
100
AcDbPolyline
 90
        5
 70
   128
 43
0.0
 10
94.01945630820319
 20
30.12394461331795
 10
94.12077011143969
 20
29.7624768036898
 10
94.36384787971656
 20
29.4407302069026
 10
94.71044636187867
 20
29.23457266127244
 10
95.08093590370322
 20
29.17366093389481
  0
LWPOLYLINE
  5
11222
330
A
100
AcDbEntity
  8
0
  6
Continuous
 62
     7
100
AcDbPolyline
 90
        7
 70
   128
 43
0.0
 10
95.08093590382395
 20
29.17366094306075
 10
95.08149044046717
 20
29.1737613865034
 10
95.08293379494466
 20
29.17386230701826
 10
95.08776930168414
 20
29.17407354640594
 10
95.09446218685297
 20
29.17428708241747
 10
95.09854321488205
 20
29.17438677710644
 10
95.10309476618477
 20
29.17447634989654
  0
LWPOLYLINE
  5
11223
330
A
100
AcDbEntity
  8
0
  6
Continuous
 62
     7
100
AcDbPolyline
 90
        9
 70
   128
 43
0.0
 10
95.08590023102465
 20
30.14787300292451
 10
95.08899910563627
 20
29.96817902934575
 10
95.09213424442123
 20
29.78731966981494
 10
95.09513543488242
 20
29.6152430933993
 10
95.0978219707024
 20
29.4624032581792
 10
95.10003486166624
 20
29.33788248544485
 10
95.10166664091661
 20
29.24768281152436
 10
95.10267776792465
 20
29.19381863558752
 10
95.10309476250426
 20
29.1744763498335
  0
LWPOLYLINE
  5
11224
330
A
100
AcDbEntity
  8
0
  6
Continuous
 62
     7
100
AcDbPolyline
 90
        7
 70
   128
 43
0.0
 10
95.08590033945688
 20
30.14787299907349
 10
94.84661703758161
 20
30.12776299348209
 10
94.5766140285607
 20
30.11016537268953
 10
94.33473269350429
 20
30.10071611547633
 10
94.14783068506336
 20
30.10102582083104
 10
94.04710465214339
 20
30.11035634511145
 10
94.01945630514342
 20
30.12394464219525
  0
LINE
  5
11225
330
A
100
AcDbEntity
  8
0
  6
Continuous
 62
     7
100
AcDbLine
 10
95.45835716475403
 20
28.705341116049
 30
0.0
 11
95.45805213558265
 21
28.7024085120969
 31
0.0
  0
LINE
  5
11226
330
A
100
AcDbEntity
  8
0
  6
Continuous
 62
     7
100
AcDbLine
 10
95.66567808551713
 20
29.15769002644277
 30
0.0
 11
95.50546074208204
 21
29.14141138330911
 31
0.0
  0
LINE
  5
11227
330
A
100
AcDbEntity
  8
0
  6
Continuous
 62
     7
100
AcDbLine
 10
95.45805220920192
 20
28.70240851194763
 30
0.0
 11
95.45983635557332
 21
28.71956302666956
 31
0.0
  0
LINE
  5
11228
330
A
100
AcDbEntity
  8
0
  6
Continuous
 62
     7
100
AcDbLine
 10
95.50546097303367
 20
29.14141138683249
 30
0.0
 11
95.45983636304823
 21
28.71956302661022
 31
0.0
  0
LWPOLYLINE
  5
11229
330
A
100
AcDbEntity
  8
0
  6
Continuous
 62
     7
100
AcDbPolyline
 90
        5
 70
   128
 43
0.0
 10
95.64084315269974
 20
29.15578398741732
 10
95.58177050945756
 20
29.15185120966956
 10
95.53957364275584
 20
29.14814310528996
 10
95.51419675577291
 20
29.14466935889701
 10
95.50546074641966
 20
29.14141138367367
  0
LWPOLYLINE
  5
1122A
330
A
100
AcDbEntity
  8
0
  6
Continuous
 62
     7
100
AcDbPolyline
 90
        5
 70
   128
 43
0.0
 10
95.82866615725379
 20
29.18736892964196
 10
95.82711754794422
 20
29.26075195280535
 10
95.82299477739502
 20
29.47536032433212
 10
95.8169111726645
 20
29.79993109923376
 10
95.8102523066293
 20
30.16012923900954
  0
LWPOLYLINE
  5
1122B
330
A
100
AcDbEntity
  8
0
  6
Continuous
 62
     7
100
AcDbPolyline
 90
        4
 70
   128
 43
0.0
 10
95.66545542725339
 20
29.15704728110708
 10
95.66605872966784
 20
29.15677784617108
 10
95.67781309089946
 20
29.15717390915054
 10
95.70428201369692
 20
29.15849249695933
  0
LWPOLYLINE
  5
11231
330
A
100
AcDbEntity
  8
0
  6
Continuous
 62
     7
100
AcDbPolyline
 90
        9
 70
   128
 43
0.0
 10
97.87042838246613
 20
28.08292001734301
 10
97.86981368618512
 20
28.0925446783547
 10
97.8679802854581
 20
28.12119402714373
 10
97.865008863997
 20
28.1676076516201
 10
97.86097233938676
 20
28.23064776520587
 10
97.85589483075682
 20
28.30993930062809
 10
97.84992046567346
 20
28.40323357704304
 10
97.84302698359603
 20
28.51088049675295
 10
97.83528660642128
 20
28.63175457963464
  0
LWPOLYLINE
  5
11232
330
A
100
AcDbEntity
  8
0
  6
Continuous
 62
     7
100
AcDbPolyline
 90
        8
 70
   128
 43
0.0
 10
97.83529168717269
 20
28.63175535869928
 10
97.84299263549815
 20
28.51152041894997
 10
97.84991726165186
 20
28.40341164485725
 10
97.85590592949644
 20
28.30991662396357
 10
97.86096610322511
 20
28.23091336725659
 10
97.86502241599192
 20
28.16757349308236
 10
97.8679919784704
 20
28.12118751393498
 10
97.86873760952175
 20
28.10953056735733
  0
LWPOLYLINE
  5
11233
330
A
100
AcDbEntity
  8
0
  6
Continuous
 62
     7
100
AcDbPolyline
 90
        5
 70
   128
 43
0.0
 10
97.08588234455669
 20
29.20071256178383
 10
96.91506721476731
 20
29.19739614871835
 10
96.74732322715863
 20
29.1937661867519
 10
96.58265993170061
 20
29.18982169724293
 10
96.4234731858885
 20
29.18561481028272
  0
LINE
  5
11234
330
A
100
AcDbEntity
  8
0
  6
Continuous
 62
     7
100
AcDbLine
 10
96.30811260100358
 20
29.18198598273068
 30
0.0
 11
96.43352315227572
 21
29.18562403579552
 31
0.0
  0
LWPOLYLINE
  5
11235
330
A
100
AcDbEntity
  8
0
  6
Continuous
 62
     7
100
AcDbPolyline
 90
        5
 70
   128
 43
0.0
 10
96.42983867735461
 20
29.18552181536725
 10
96.58352966572421
 20
29.18959639998914
 10
96.74404515439801
 20
29.19345927734836
 10
96.91483676788266
 20
29.19716675464443
 10
96.94561816353326
 20
29.19776405352255
  0
LWPOLYLINE
  5
11237
330
A
100
AcDbEntity
  8
0
  6
Continuous
 62
     7
100
AcDbPolyline
 90
        8
 70
   128
 43
0.0
 10
92.26013277776814
 20
31.47692575433726
 10
92.14530854203463
 20
31.47480770122954
 10
92.07611547799434
 20
31.46418930293524
 10
91.99461474344275
 20
31.44060845605205
 10
91.90454072167222
 20
31.39690385985446
 10
91.8163762048041
 20
31.32689314758867
 10
91.74581552495032
 20
31.22997610488957
 10
91.70885308348715
 20
31.11504527632465
  0
LWPOLYLINE
  5
11238
330
A
100
AcDbEntity
  8
0
  6
Continuous
 62
     7
100
AcDbPolyline
 90
        8
 70
   128
 43
0.0
 10
92.23773338511477
 20
31.11358486184818
 10
92.24224268099646
 20
31.19042668151261
 10
92.24657491833681
 20
31.26322260021848
 10
92.25055999072925
 20
31.32911426761169
 10
92.25404142328784
 20
31.38551443053066
 10
92.25688251667339
 20
31.43020852216287
 10
92.25897171462793
 20
31.46144161757687
 10
92.26013539471592
 20
31.47695608146128
  0
LWPOLYLINE
  5
11239
330
A
100
AcDbEntity
  8
0
  6
Continuous
 62
     7
100
AcDbPolyline
 90
        7
 70
   128
 43
0.0
 10
91.7750151059406
 20
31.32158221733963
 10
91.78074995573524
 20
31.32911426762345
 10
91.83457926565642
 20
31.38551443054363
 10
91.89849373755668
 20
31.43020852217504
 10
91.96998375336056
 20
31.46144161758596
 10
92.04624223932478
 20
31.47798734130223
 10
92.12427488650632
 20
31.47919602125276
  0
LWPOLYLINE
  5
1123A
330
A
100
AcDbEntity
  8
0
  6
Continuous
 62
     7
100
AcDbPolyline
 90
        4
 70
   128
 43
0.0
 10
92.70831472784129
 20
31.46334616282931
 10
92.59842250258998
 20
31.46391833917349
 10
92.48657969038346
 20
31.46667246702796
 10
92.26013277588823
 20
31.47692575495805
  0
LWPOLYLINE
  5
1123B
330
A
100
AcDbEntity
  8
0
  6
Continuous
 62
     7
100
AcDbPolyline
 90
        9
 70
   128
 43
0.0
 10
15.91736212168689
 20
80.33951069406297
 10
15.95664093043069
 20
80.47312578705387
 10
16.01739384494044
 20
80.6011276093673
 10
16.09638108540298
 20
80.72006509120141
 10
16.19130193861679
 20
80.82764691002116
 10
16.29971013605564
 20
80.92106995198767
 10
16.41959137983576
 20
80.99857346720202
 10
16.54776223413932
 20
81.05764075714214
 10
16.68083266849498
 20
81.09511890565583
  0
LWPOLYLINE
  5
1123C
330
A
100
AcDbEntity
  8
0
  6
Continuous
 62
     7
100
AcDbPolyline
 90
        3
 70
   128
 43
0.0
 10
16.680837363828
 20
81.09510481965665
 10
16.83348264172559
 20
81.12617149087194
 10
16.98613731028945
 20
81.13630167195665
  0
LWPOLYLINE
  5
1123D
330
A
100
AcDbEntity
  8
0
  6
Continuous
 62
     7
100
AcDbPolyline
 90
        3
 70
   128
 43
0.0
 10
15.87304756823278
 20
80.02167655598809
 10
15.88337025797295
 20
80.17633378410355
 10
15.91737620768617
 20
80.33950599872984
  0
LWPOLYLINE
  5
1123E
330
A
100
AcDbEntity
  8
0
  6
Continuous
 62
     7
100
AcDbPolyline
 90
        3
 70
   128
 43
0.0
 10
16.19946242748119
 20
80.02177281031586
 10
16.20602415543771
 20
80.12510065738004
 10
16.22843498015027
 20
80.2342178501116
  0
LWPOLYLINE
  5
1123F
330
A
100
AcDbEntity
  8
0
  6
Continuous
 62
     7
100
AcDbPolyline
 90
        3
 70
   128
 43
0.0
 10
16.78223308133647
 20
80.78359764288498
 10
16.88424153980986
 20
80.80414676803783
 10
16.98625234594965
 20
80.81063571833173
  0
LWPOLYLINE
  5
11240
330
A
100
AcDbEntity
  8
0
  6
Continuous
 62
     7
100
AcDbPolyline
 90
        5
 70
   128
 43
0.0
 10
16.22843732781666
 20
80.23422019777816
 10
16.30871108953852
 20
80.42173067133971
 10
16.43379945768606
 20
80.58224532745194
 10
16.59516631674932
 20
80.70548373437238
 10
16.78221664767079
 20
80.78359294755191
  0
LWPOLYLINE
  5
11241
330
A
100
AcDbEntity
  8
0
  6
Continuous
 62
     7
100
AcDbPolyline
 90
       23
 70
   128
 43
0.0
 10
16.24600726414064
 20
79.95986719153885
 10
16.24800278069279
 20
80.01157689456826
 10
16.25143976449544
 20
80.04733420351412
 10
16.25574538491469
 20
80.07839148406336
 10
16.26093842328305
 20
80.10756828372056
 10
16.26723251725479
 20
80.13642814839599
 10
16.27726409634511
 20
80.17450729954182
 10
16.29223986115153
 20
80.22071172455415
 10
16.32360703368294
 20
80.29563045891704
 10
16.34414676816959
 20
80.33537410563386
 10
16.38654327806739
 20
80.40366302971094
 10
16.42795376802178
 20
80.4584458282305
 10
16.47902021042159
 20
80.51440715534907
 10
16.54213252979616
 20
80.57110330209203
 10
16.59886389153689
 20
80.61301619268434
 10
16.66474880508554
 20
80.65265654207374
 10
16.698372085154
 20
80.6697874647563
 10
16.76445420269101
 20
80.69786555647667
 10
16.82038501014472
 20
80.71629004341824
 10
16.86105128980853
 20
80.72685219514481
 10
16.9108288632824
 20
80.73673587124373
 10
16.96301514261768
 20
80.74369670251044
 10
17.03363295189433
 20
80.74726046030574
  0
LINE
  5
11242
330
A
100
AcDbEntity
  8
0
  6
Continuous
 62
     7
100
AcDbLine
 10
16.19946242748119
 20
80.02177281031583
 30
0.0
 11
16.24600694981745
 21
79.95986762472933
 31
0.0
  0
LINE
  5
11243
330
A
100
AcDbEntity
  8
0
  6
Continuous
 62
     7
100
AcDbLine
 10
17.03363295189433
 20
80.74726046030571
 30
0.0
 11
16.98625469361604
 21
80.81063102299868
 31
0.0
  0
LINE
  5
11244
330
A
100
AcDbEntity
  8
0
  6
Continuous
 62
     7
100
AcDbLine
 10
17.03363295189433
 20
80.74726046030571
 30
0.0
 11
17.83783316536255
 21
80.74663598100825
 31
0.0
  0
LWPOLYLINE
  5
11245
330
A
100
AcDbEntity
  8
0
  6
Continuous
 62
     7
100
AcDbPolyline
 90
        9
 70
   128
 43
0.0
 10
14.11850959502499
 20
82.34024610879416
 10
14.07303998963698
 20
82.34024610879416
 10
14.01671946953911
 20
82.3402437611276
 10
13.95019833836045
 20
82.34024141346109
 10
13.87647456626246
 20
82.34023671812806
 10
13.80186572388175
 20
82.34023202279493
 10
13.73584934100745
 20
82.34022497979541
 10
13.68876688871205
 20
82.34021793679577
 10
13.6678491799139
 20
82.34020854612962
  0
LINE
  5
11246
330
A
100
AcDbEntity
  8
0
  6
Continuous
 62
     7
100
AcDbLine
 10
13.6688879209405
 20
82.80800238039388
 30
0.0
 11
13.6678491799139
 21
82.34020854612959
 31
0.0
  0
LWPOLYLINE
  5
11247
330
A
100
AcDbEntity
  8
0
  6
Continuous
 62
     7
100
AcDbPolyline
 90
        9
 70
   128
 43
0.0
 10
13.66888684852074
 20
82.80800223158982
 10
13.68176145178131
 20
82.80349236418222
 10
13.70956017118442
 20
82.7991609194311
 10
13.75119368945934
 20
82.79517458166006
 10
13.80502568303336
 20
82.79169299219338
 10
13.8689432520282
 20
82.78885231568992
 10
13.94043908858793
 20
82.78676289247661
 10
14.01670068820681
 20
82.78550689088209
 10
14.09473947139031
 20
82.78513595957011
  0
LWPOLYLINE
  5
11248
330
A
100
AcDbEntity
  8
0
  6
Continuous
 62
     7
100
AcDbPolyline
 90
        3
 70
   128
 43
0.0
 10
14.11858706802059
 20
82.34020150313009
 10
14.10363712754588
 20
82.56022246282393
 10
14.09473947139031
 20
82.78513595957011
  0
LWPOLYLINE
  5
11249
330
A
100
AcDbEntity
  8
0
  6
Continuous
 62
     7
100
AcDbPolyline
 90
        3
 70
   128
 43
0.0
 10
14.11850959502499
 20
82.34024610879416
 10
14.11854715768936
 20
82.34022263212883
 10
14.11858706802059
 20
82.34020150313009
  0
LINE
  5
1124A
330
A
100
AcDbEntity
  8
0
  6
Continuous
 62
     7
100
AcDbLine
 10
13.61739531113653
 20
82.80800237637356
 30
0.0
 11
13.6688879209405
 21
82.80800238039388
 31
0.0
  0
LWPOLYLINE
  5
1124B
330
A
100
AcDbEntity
  8
0
  6
Continuous
 62
     7
100
AcDbPolyline
 90
        9
 70
   128
 43
0.0
 10
14.20820454253885
 20
83.34731992560788
 10
14.21240451796438
 20
83.33583514093428
 10
14.21670309538399
 20
83.30946615044913
 10
14.22083498847996
 20
83.26750630652625
 10
14.22451378193545
 20
83.21118109109525
 10
14.22748358009812
 20
83.14369506897211
 10
14.22958004631096
 20
83.0696567095587
 10
14.23075387957692
 20
82.99409706223267
 10
14.23107316222513
 20
82.92146730273831
  0
LINE
  5
1124C
330
A
100
AcDbEntity
  8
0
  6
Continuous
 62
     7
100
AcDbLine
 10
14.67599588033249
 20
83.34835994188143
 30
0.0
 11
14.20820454253885
 21
83.34731992560785
 31
0.0
  0
LWPOLYLINE
  5
1124D
330
A
100
AcDbEntity
  8
0
  6
Continuous
 62
     7
100
AcDbPolyline
 90
        9
 70
   128
 43
0.0
 10
14.67599588033272
 20
83.34835994188145
 10
14.67598883733308
 20
83.32680132011992
 10
14.67597944666681
 20
83.27836426423576
 10
14.6759747513338
 20
83.21095571510822
 10
14.67597005600078
 20
83.13554631844025
 10
14.67596536066776
 20
83.06188123800533
 10
14.67596301300114
 20
82.99621465744431
 10
14.67596066533451
 20
82.94133795226347
 10
14.67596066533451
 20
82.89769952677037
  0
LINE
  5
1124E
330
A
100
AcDbEntity
  8
0
  6
Continuous
 62
     7
100
AcDbLine
 10
14.67600761866515
 20
82.89761970610824
 30
0.0
 11
14.67596066533451
 21
82.89769952677033
 31
0.0
  0
LINE
  5
1124F
330
A
100
AcDbEntity
  8
0
  6
Continuous
 62
     7
100
AcDbLine
 10
14.23107316222513
 20
82.92146730273827
 30
0.0
 11
14.67600761866515
 21
82.89761970610824
 31
0.0
  0
LINE
  5
11250
330
A
100
AcDbEntity
  8
0
  6
Continuous
 62
     7
100
AcDbLine
 10
14.20820454253885
 20
83.34731992560785
 30
0.0
 11
14.20820493863653
 21
83.39881200387356
 31
0.0
  0
LWPOLYLINE
  5
11251
330
A
100
AcDbEntity
  8
0
  6
Continuous
 62
     7
100
AcDbPolyline
 90
        9
 70
   128
 43
0.0
 10
14.20820454253885
 20
83.34731992560788
 10
14.10254076727551
 20
83.33676716454741
 10
14.00129530042522
 20
83.30586717765587
 10
13.908301881434
 20
83.2559910021877
 10
13.82701862310341
 20
83.18920928002413
 10
13.76022516260718
 20
83.10792132636052
 10
13.71034429180599
 20
83.01492321203628
 10
13.67944195724794
 20
82.91367304985275
 10
13.66888684852074
 20
82.80800223158982
  0
LWPOLYLINE
  5
11252
330
A
100
AcDbEntity
  8
0
  6
Continuous
 62
     7
100
AcDbPolyline
 90
        9
 70
   128
 43
0.0
 10
14.09473947139031
 20
82.78513595957011
 10
14.0965072642889
 20
82.81252618499664
 10
14.10363712754588
 20
82.8387613584895
 10
14.11579334484759
 20
82.8626394747844
 10
14.13268480554393
 20
82.88352901158445
 10
14.15356964701095
 20
82.90041577694765
 10
14.17745011097236
 20
82.91257199424936
 10
14.20367824146569
 20
82.91969950983983
 10
14.23107316222513
 20
82.92146730273831
  0
ARC
  5
11253
330
A
100
AcDbEntity
  8
0
  6
Continuous
 62
     7
100
AcDbCircle
 10
14.20820493863653
 20
82.80800237637356
 30
0.0
 40
0.5908096275000001
100
AcDbArc
 50
90.0
 51
180.0
  0
LINE
  5
11254
330
A
100
AcDbEntity
  8
0
  6
Continuous
 62
     7
100
AcDbLine
 10
49.61739528013641
 20
43.66848346192353
 30
0.0
 11
42.02878473250075
 21
43.66848414553681
 31
0.0
  0
LINE
  5
11255
330
A
100
AcDbEntity
  8
0
  6
Continuous
 62
     7
100
AcDbLine
 10
49.61739528013641
 20
43.99482388368847
 30
0.0
 11
42.02878446391969
 21
43.9948236139943
 31
0.0
  0
LWPOLYLINE
  5
11256
330
A
100
AcDbEntity
  8
0
  6
Continuous
 62
     7
100
AcDbPolyline
 90
       59
 70
   128
 43
0.0
 10
37.5621526356008
 20
50.46208987075229
 10
37.98768010665572
 20
50.46446394853254
 10
38.44065884246698
 20
50.46664493074061
 10
38.87861368630797
 20
50.46959125223802
 10
39.35096184483973
 20
50.47342499168443
 10
39.81839457657088
 20
50.47605261745016
 10
40.2895354475886
 20
50.47871017596415
 10
40.77226029219104
 20
50.4806786943511
 10
41.17996721351983
 20
50.48166236662794
 10
41.62615884538763
 20
50.48275344464858
 10
41.98281986639858
 20
50.48323530320423
 10
42.35927993310542
 20
50.48339083611191
 10
42.76488275830502
 20
50.48365084018033
 10
43.19965768782867
 20
50.48419139039928
 10
43.69952988877957
 20
50.48500250918599
 10
44.13062895943085
 20
50.48546441257613
 10
44.59187177489229
 20
50.48579484664052
 10
44.75397609470519
 20
50.48590401313427
 10
44.91950125811285
 20
50.48601611421114
 10
45.0884469716575
 20
50.48613114987123
 10
45.26081323533889
 20
50.48624677244792
 10
45.43659975569903
 20
50.48635887352478
 10
45.61580594582096
 20
50.48646158393555
 10
45.76757789176872
 20
50.4865320139315
 10
46.33904658548158
 20
50.4865995093443
 10
46.95240087816318
 20
50.4866000962609
 10
47.60765749693746
 20
50.48673215250332
 10
47.98273288057816
 20
50.48688416391124
 10
48.37027525387771
 20
50.48708195481655
 10
48.77028289276836
 20
50.48730263547057
 10
49.18275361465408
 20
50.48750923012537
 10
49.60768472338646
 20
50.4876524377838
 10
49.98731296607821
 20
50.48768060978218
 10
50.30249717555534
 20
50.48765948078338
 10
50.90287789615922
 20
50.48759433303715
 10
51.53243519632656
 20
50.48755853112251
 10
52.19117149708859
 20
50.48759257228724
 10
52.53148160762226
 20
50.48763952561788
 10
52.8790862115286
 20
50.48770408644751
 10
53.23398530880741
 20
50.48778155944305
 10
53.5961783125424
 20
50.48786548852152
 10
53.94196288797002
 20
50.48794178768381
 10
54.20729410518584
 20
50.48797582884859
 10
54.8528621976418
 20
50.48796585126578
 10
55.52672172601432
 20
50.48788603060373
 10
56.43875026328806
 20
50.48776571269397
 10
57.39796161560116
 20
50.48769410886476
 10
58.40435754370401
 20
50.48769763036458
 10
59.45793569992929
 20
50.48775573511116
 10
60.55869549736121
 20
50.48779799310878
 10
61.70663165374936
 20
50.48770760794733
 10
62.66889321180406
 20
50.48750160020913
 10
63.62136382658809
 20
50.48732259063607
 10
64.65846195067683
 20
50.48718583906057
 10
65.73574508279057
 20
50.48711306139811
 10
66.8532132229293
 20
50.48709780156563
 10
68.01086637109256
 20
50.48711364831476
 10
69.20870217961442
 20
50.48711599598127
 10
70.4467183008278
 20
50.48704204448554
  0
LINE
  5
11257
330
A
100
AcDbEntity
  8
0
  6
Continuous
 62
     7
100
AcDbLine
 10
56.50946927353243
 20
47.91534336123947
 30
0.0
 11
42.72531152583951
 21
47.91533098721345
 31
0.0
  0
LINE
  5
11258
330
A
100
AcDbEntity
  8
0
  6
Continuous
 62
     7
100
AcDbLine
 10
56.99159447530951
 20
44.07808842953636
 30
0.0
 11
42.24319608496353
 21
44.07808842953636
 31
0.0
  0
LWPOLYLINE
  5
1125A
330
A
100
AcDbEntity
  8
0
  6
Continuous
 62
     7
100
AcDbPolyline
 90
       12
 70
   128
 43
0.0
 10
70.87489511356398
 20
48.91648306745882
 10
49.59582763181515
 20
48.91963539669436
 10
47.21287007799173
 20
48.92013016741592
 10
44.83039821602324
 20
48.92072999621482
 10
42.44900305261808
 20
48.92151118225328
 10
40.07152585119593
 20
48.92264099677172
 10
37.70585917317885
 20
48.92386471795138
 10
35.85236705565558
 20
48.92329482190078
 10
33.99002775680719
 20
48.92200184455842
 10
32.12125467782858
 20
48.92092074412054
 10
30.25027009697692
 20
48.92006384583638
 10
28.37830419151487
 20
48.91937656645925
  0
LINE
  5
1125B
330
A
100
AcDbEntity
  8
0
  6
Continuous
 62
     7
100
AcDbLine
 10
85.02658562163651
 20
41.4119411428735
 30
0.0
 11
14.20820493863653
 21
41.4119411428735
 31
0.0
  0
LINE
  5
1125C
330
A
100
AcDbEntity
  8
0
  6
Continuous
 62
     7
100
AcDbLine
 10
14.67599588033249
 20
41.46239356325406
 30
0.0
 11
49.61739528631619
 21
41.4624009547465
 31
0.0
  0
LINE
  5
1125D
330
A
100
AcDbEntity
  8
0
  6
Continuous
 62
     7
100
AcDbLine
 10
49.61739528631619
 20
41.91301077277103
 30
0.0
 11
14.67596066533451
 21
41.91305280453195
 31
0.0
  0
LWPOLYLINE
  5
1125E
330
A
100
AcDbEntity
  8
0
  6
Continuous
 62
     7
100
AcDbPolyline
 90
       22
 70
   128
 43
0.0
 10
70.42331676083904
 20
74.341735670448
 10
68.84471409135767
 20
74.34250453123715
 10
67.30696434102947
 20
74.34337199402065
 10
65.80979048520362
 20
74.34404812198184
 10
64.35280633273578
 20
74.3444730496241
 10
62.93550478765496
 20
74.34480407060508
 10
61.46638906838393
 20
74.34544733123473
 10
59.91079235708093
 20
74.34651669334002
 10
58.51878515813041
 20
74.3474193711215
 10
57.15834527028301
 20
74.34805441491838
 10
55.82838278935151
 20
74.34844295372935
 10
54.52758302207803
 20
74.34878453920973
 10
53.17959515751545
 20
74.3493702820094
 10
51.7720964407672
 20
74.34992433131092
 10
50.11723870111428
 20
74.3505229862765
 10
48.49430995993976
 20
74.35126954423364
 10
46.89674122619385
 20
74.35223326134494
 10
45.30513541870959
 20
74.35306433529721
 10
43.66244556132642
 20
74.35345991710781
 10
41.5313718091661
 20
74.35423816856311
 10
39.38775917005933
 20
74.35426399289494
 10
37.24978034371225
 20
74.35464548870638
  0
LWPOLYLINE
  5
1125F
330
A
100
AcDbEntity
  8
0
  6
Continuous
 62
     7
100
AcDbPolyline
 90
        3
 70
   128
 43
0.0
 10
56.50946139230928
 20
76.89539702824882
 10
49.61739171923773
 20
76.89542050491414
 10
42.72532222957761
 20
76.89540641891497
  0
LWPOLYLINE
  5
11261
330
A
100
AcDbEntity
  8
0
  6
Continuous
 62
     7
100
AcDbPolyline
 90
        7
 70
   128
 43
0.0
 10
28.38069411604442
 20
75.89098076994915
 10
35.46033726450969
 20
75.89099485594832
 10
42.53951087966856
 20
75.89134935359462
 10
49.61988398735503
 20
75.89196209455943
 10
56.702383824143
 20
75.89262178885488
 10
63.78655855593137
 20
75.89322513915354
 10
70.87178445540939
 20
75.89377918845506
  0
LWPOLYLINE
  5
11262
330
A
100
AcDbEntity
  8
0
  6
Continuous
 62
     7
100
AcDbPolyline
 90
        4
 70
   128
 43
0.0
 10
73.82100766865324
 20
72.90259143595526
 10
73.81815290615055
 20
65.90452617797026
 10
73.81683586522604
 20
58.90722713964956
 10
73.81737348086199
 20
51.91040409071823
  0
LWPOLYLINE
  5
11263
330
A
100
AcDbEntity
  8
0
  6
Continuous
 62
     7
100
AcDbPolyline
 90
       11
 70
   128
 43
0.0
 10
71.97506329902967
 20
52.17828898220412
 10
71.97449751139561
 20
54.08569496817185
 10
71.97420640074551
 20
55.99206763238377
 10
71.9739857200916
 20
57.90209631034926
 10
71.97360305044686
 20
59.80478906229601
 10
71.9735114914522
 20
61.71628673757036
 10
71.97322742380174
 20
63.60495042123969
 10
71.97260294450439
 20
65.81851471924463
 10
71.97251608084275
 20
68.05372802417261
 10
71.9730372628128
 20
70.32028032963356
 10
71.9735889644478
 20
72.62676761663377
  0
LINE
  5
11264
330
A
100
AcDbEntity
  8
0
  6
Continuous
 62
     7
100
AcDbLine
 10
85.11632561923898
 20
62.40537656193203
 30
0.0
 11
85.11628165677825
 21
42.47050739634142
 31
0.0
  0
LINE
  5
11265
330
A
100
AcDbEntity
  8
0
  6
Continuous
 62
     7
100
AcDbLine
 10
85.56694207188934
 20
42.47054495900591
 30
0.0
 11
85.56693543726352
 21
62.40537656193215
 31
0.0
  0
LINE
  5
11266
330
A
100
AcDbEntity
  8
0
  6
Continuous
 62
     7
100
AcDbLine
 10
83.35698965884352
 20
60.95204909072311
 30
0.0
 11
83.36174368357047
 21
44.78907577531424
 31
0.0
  0
LINE
  5
11267
330
A
100
AcDbEntity
  8
0
  6
Continuous
 62
     7
100
AcDbLine
 10
80.91536985642916
 20
47.3113154183585
 30
0.0
 11
80.91891854133995
 21
60.97313099961775
 31
0.0
  0
LINE
  5
11268
330
A
100
AcDbEntity
  8
0
  6
Continuous
 62
     7
100
AcDbLine
 10
80.50540460365301
 20
47.31140938013083
 30
0.0
 11
80.50927422088307
 21
60.97325821416473
 31
0.0
  0
LWPOLYLINE
  5
11269
330
A
100
AcDbEntity
  8
0
  6
Continuous
 62
     7
100
AcDbPolyline
 90
        3
 70
   128
 43
0.0
 10
83.03105841890056
 20
60.95191116531444
 10
83.03338260876694
 20
52.87044857119193
 10
83.03532882432183
 20
44.78898069481973
  0
LINE
  5
1126A
330
A
100
AcDbEntity
  8
0
  6
Continuous
 62
     7
100
AcDbLine
 10
80.96121237322632
 20
46.83218496920949
 30
0.0
 11
80.95413183454615
 21
60.94797530237383
 31
0.0
  0
LINE
  5
1126B
330
A
100
AcDbEntity
  8
0
  6
Continuous
 62
     7
100
AcDbLine
 10
82.98912439930949
 20
45.57528229864931
 30
0.0
 11
82.99854793276812
 21
60.94836501501811
 31
0.0
  0
LINE
  5
1126C
330
A
100
AcDbEntity
  8
0
  6
Continuous
 62
     7
100
AcDbLine
 10
81.75581300182557
 20
60.9618370994109
 30
0.0
 11
81.7634445691233
 21
46.84607068682419
 31
0.0
  0
LINE
  5
1126D
330
A
100
AcDbEntity
  8
0
  6
Continuous
 62
     7
100
AcDbLine
 10
79.59071510553645
 20
62.4053767525678
 30
0.0
 11
79.59087239919426
 21
48.55047481215137
 31
0.0
  0
LINE
  5
1126E
330
A
100
AcDbEntity
  8
0
  6
Continuous
 62
     7
100
AcDbLine
 10
79.23668699254085
 20
48.55047539906798
 30
0.0
 11
79.23660717187885
 21
62.40536970956816
 31
0.0
  0
LWPOLYLINE
  5
1126F
330
A
100
AcDbEntity
  8
0
  6
Continuous
 62
     7
100
AcDbPolyline
 90
        3
 70
   128
 43
0.0
 10
78.38213872263168
 20
77.07397463065686
 10
68.55084258557281
 20
77.07443007796403
 10
58.71954586159745
 20
77.07463197728575
  0
LINE
  5
11270
330
A
100
AcDbEntity
  8
0
  6
Continuous
 62
     7
100
AcDbLine
 10
79.72717557036389
 20
78.70348762271351
 30
0.0
 11
58.74377671478874
 21
78.69792600069968
 31
0.0
  0
LINE
  5
11271
330
A
100
AcDbEntity
  8
0
  6
Continuous
 62
     7
100
AcDbLine
 10
79.7273093873564
 20
78.29414379089553
 30
0.0
 11
58.74386944761681
 21
78.28807976824396
 31
0.0
  0
LINE
  5
11272
330
A
100
AcDbEntity
  8
0
  6
Continuous
 62
     7
100
AcDbLine
 10
58.71954762234736
 20
77.44497402501076
 30
0.0
 11
78.382162199297
 21
77.44426502971816
 31
0.0
  0
LINE
  5
11273
330
A
100
AcDbEntity
  8
0
  6
Continuous
 62
     7
100
AcDbLine
 10
80.17727724084034
 20
78.77075765951577
 30
0.0
 11
58.23970805991257
 21
78.77907778970438
 31
0.0
  0
LWPOLYLINE
  5
11274
330
A
100
AcDbEntity
  8
0
  6
Continuous
 62
     7
100
AcDbPolyline
 90
        3
 70
   128
 43
0.0
 10
80.91891918423561
 20
63.83762236895686
 10
80.9170246173444
 20
70.66851909696177
 10
80.91536951243961
 20
77.49941875954985
  0
LWPOLYLINE
  5
11275
330
A
100
AcDbEntity
  8
0
  6
Continuous
 62
     7
100
AcDbPolyline
 90
        3
 70
   128
 43
0.0
 10
80.50927485110173
 20
63.83749559496417
 10
80.50720655688724
 20
70.66840993046802
 10
80.50540354899068
 20
77.49932485288858
  0
LINE
  5
11276
330
A
100
AcDbEntity
  8
0
  6
Continuous
 62
     7
100
AcDbLine
 10
79.59036060789003
 20
76.2600973357446
 30
0.0
 11
79.59071510553645
 21
62.4053767525678
 31
0.0
  0
LINE
  5
11277
330
A
100
AcDbEntity
  8
0
  6
Continuous
 62
     7
100
AcDbLine
 10
80.95413183454615
 20
63.86277761584506
 30
0.0
 11
80.96121237322723
 21
77.97856818038076
 31
0.0
  0
LINE
  5
11278
330
A
100
AcDbEntity
  8
0
  6
Continuous
 62
     7
100
AcDbLine
 10
81.76344450180385
 20
77.96468246277232
 30
0.0
 11
81.75581300182557
 21
63.848915818808
 31
0.0
  0
LINE
  5
11279
330
A
100
AcDbEntity
  8
0
  6
Continuous
 62
     7
100
AcDbLine
 10
82.98912439930949
 20
79.23547120648618
 30
0.0
 11
82.99854793276812
 21
63.86238790320078
 31
0.0
  0
LINE
  5
1127A
330
A
100
AcDbEntity
  8
0
  6
Continuous
 62
     7
100
AcDbLine
 10
79.23660717187885
 20
62.40536970956816
 30
0.0
 11
79.23637475289206
 21
76.26008559741194
 31
0.0
  0
LWPOLYLINE
  5
1127B
330
A
100
AcDbEntity
  8
0
  6
Continuous
 62
     7
100
AcDbPolyline
 90
        3
 70
   128
 43
0.0
 10
79.55466668594067
 20
76.54721225725089
 10
79.58158503039431
 20
76.40366888249698
 10
79.59036060789003
 20
76.26012785540959
  0
LINE
  5
1127C
330
A
100
AcDbEntity
  8
0
  6
Continuous
 62
     7
100
AcDbLine
 10
80.91536951243961
 20
77.49941875954982
 30
0.0
 11
80.91507370645649
 21
77.91688316990121
 31
0.0
  0
LINE
  5
1127D
330
A
100
AcDbEntity
  8
0
  6
Continuous
 62
     7
100
AcDbLine
 10
80.5053847676586
 20
77.4993342435547
 30
0.0
 11
80.51084074467826
 21
77.9115797912059
 31
0.0
  0
LINE
  5
1127E
330
A
100
AcDbEntity
  8
0
  6
Continuous
 62
     7
100
AcDbLine
 10
80.12654088881664
 20
78.70337301645292
 30
0.0
 11
79.72717557036389
 21
78.70348762271351
 31
0.0
  0
LINE
  5
1127F
330
A
100
AcDbEntity
  8
0
  6
Continuous
 62
     7
100
AcDbLine
 10
80.1216256308237
 20
78.29956988539255
 30
0.0
 11
79.7273093873564
 21
78.2941344002295
 31
0.0
  0
LWPOLYLINE
  5
11280
330
A
100
AcDbEntity
  8
0
  6
Continuous
 62
     7
100
AcDbPolyline
 90
       13
 70
   128
 43
0.0
 10
80.91507370645649
 20
77.91688316990129
 10
80.89958145501327
 20
78.06998624277267
 10
80.85359066765523
 20
78.21908654420738
 10
80.78023547920247
 20
78.35430509343954
 10
80.68201850217816
 20
78.47293033562497
 10
80.56391678962928
 20
78.56973401739722
 10
80.42784603744621
 20
78.6428309625314
 10
80.26173219665542
 20
78.6914229644066
 10
80.18580396568404
 20
78.70100848685595
 10
80.15252579259572
 20
78.7028795770818
 10
80.13795147876635
 20
78.70325989905999
 10
80.13155643513369
 20
78.70334441505511
 10
80.12654181942162
 20
78.70337258705345
  0
LWPOLYLINE
  5
11281
330
A
100
AcDbEntity
  8
0
  6
Continuous
 62
     7
100
AcDbPolyline
 90
        9
 70
   128
 43
0.0
 10
80.51084074467826
 20
77.91157979120592
 10
80.50408416039999
 20
77.98765827283549
 10
80.48222738498884
 20
78.06101815662126
 10
80.44642077504567
 20
78.12801351643921
 10
80.39765974118017
 20
78.18721227570515
 10
80.33874270189812
 20
78.23538404527116
 10
80.27121207411097
 20
78.27122117487911
 10
80.19823485996994
 20
78.29281031630554
 10
80.12162580570407
 20
78.29956924825061
  0
LWPOLYLINE
  5
11282
330
A
100
AcDbEntity
  8
0
  6
Continuous
 62
     7
100
AcDbPolyline
 90
        5
 70
   128
 43
0.0
 10
80.89101481983879
 20
78.31130758090958
 10
80.82063882021476
 20
78.43525498312263
 10
80.7290563488093
 20
78.54443086751749
 10
80.61924424678432
 20
78.63526678096596
 10
80.49502921058683
 20
78.70448303332299
  0
LWPOLYLINE
  5
11283
330
A
100
AcDbEntity
  8
0
  6
Continuous
 62
     7
100
AcDbPolyline
 90
       13
 70
   128
 43
0.0
 10
80.96121239680611
 20
77.97856810802435
 10
80.96121474447272
 20
77.97910102832705
 10
80.96121709213912
 20
77.97951656530321
 10
80.96122178747213
 20
77.98026077559379
 10
80.96122648280516
 20
77.98158955485078
 10
80.9612311781384
 20
77.98395835038141
 10
80.96122178747213
 20
77.98818415013866
 10
80.96114900980978
 20
77.9957178120392
 10
80.96084616082725
 20
78.00912298793574
 10
80.95976153888932
 20
78.03292363123515
 10
80.956108569766
 20
78.07500790148427
 10
80.94415425178613
 20
78.14898756923438
 10
80.89101481983879
 20
78.31130758090958
  0
LINE
  5
11284
330
A
100
AcDbEntity
  8
0
  6
Continuous
 62
     7
100
AcDbLine
 10
80.96121237322723
 20
77.97856818038076
 30
0.0
 11
80.91507370645649
 21
77.91688316990121
 31
0.0
  0
LINE
  5
11285
330
A
100
AcDbEntity
  8
0
  6
Continuous
 62
     7
100
AcDbLine
 10
80.12654088881664
 20
78.70337301645292
 30
0.0
 11
80.17727724084034
 21
78.77075765951577
 31
0.0
  0
LWPOLYLINE
  5
11286
330
A
100
AcDbEntity
  8
0
  6
Continuous
 62
     7
100
AcDbPolyline
 90
        3
 70
   128
 43
0.0
 10
80.49502921058683
 20
78.70448303332299
 10
80.33931788019845
 20
78.75445546311894
 10
80.17727724084034
 20
78.77075765951579
  0
LWPOLYLINE
  5
11287
330
A
100
AcDbEntity
  8
0
  6
Continuous
 62
     7
100
AcDbPolyline
 90
        5
 70
   128
 43
0.0
 10
81.61853789671159
 20
78.62713211643328
 10
81.68171829841549
 20
78.46793684891181
 10
81.72711982147394
 20
78.30326212770515
 10
81.75434336257671
 20
78.13550726800875
 10
81.76344526572052
 20
77.96468166048876
  0
LWPOLYLINE
  5
11288
330
A
100
AcDbEntity
  8
0
  6
Continuous
 62
     7
100
AcDbPolyline
 90
        5
 70
   128
 43
0.0
 10
80.82572151825615
 20
79.40918444384036
 10
81.07426193097854
 20
79.27043969947741
 10
81.29333912872652
 20
79.09006378450604
 10
81.47652050520333
 20
78.87364884060506
 10
81.61853789671159
 20
78.62713211643328
  0
LWPOLYLINE
  5
11289
330
A
100
AcDbEntity
  8
0
  6
Continuous
 62
     7
100
AcDbPolyline
 90
       28
 70
   128
 43
0.0
 10
73.81789231516541
 20
72.90061822223529
 10
73.81556108229938
 20
72.95797758477355
 10
73.81007928094778
 20
73.04318379387874
 10
73.79342493457102
 20
73.19187442750362
 10
73.77609680789987
 20
73.30423140004907
 10
73.75445601780961
 20
73.41720698272573
 10
73.72839222397352
 20
73.53062979587659
 10
73.65117981940921
 20
73.7918687368693
 10
73.55473298294964
 20
74.03936913331794
 10
73.37605443088091
 20
74.38805982645354
 10
73.16157865953528
 20
74.70545964621996
 10
72.91175407321998
 20
74.99426253996253
 10
72.62837194149938
 20
75.25216896831338
 10
72.3168037253979
 20
75.47223218600485
 10
71.98255939826572
 20
75.64992237046377
 10
71.89653620120748
 20
75.68712584199326
 10
71.80944716354384
 20
75.72151446135106
 10
71.72123359361148
 20
75.7531117052026
 10
71.63216782072777
 20
75.78177671355584
 10
71.51674244802553
 20
75.8147872526595
 10
71.43215602288456
 20
75.83436679153479
 10
71.37380242357017
 20
75.84606051852964
 10
71.2774917517695
 20
75.86442866147447
 10
71.17276234778592
 20
75.87959693493647
 10
71.08967608155899
 20
75.88786541646143
 10
70.96972206011651
 20
75.89492954505565
 10
70.92845243015381
 20
75.89619258964976
 10
70.89142972894752
 20
75.89686636994438
  0
LWPOLYLINE
  5
1128A
330
A
100
AcDbEntity
  8
0
  6
Continuous
 62
     7
100
AcDbPolyline
 90
        3
 70
   128
 43
0.0
 10
70.87178445540939
 20
75.89377449312198
 10
70.88160709217845
 20
75.89531691003336
 10
70.89142972894752
 20
75.8968616746113
  0
LWPOLYLINE
  5
1128B
330
A
100
AcDbEntity
  8
0
  6
Continuous
 62
     7
100
AcDbPolyline
 90
       25
 70
   128
 43
0.0
 10
71.97711281191186
 20
72.62680987463127
 10
71.97724897657099
 20
72.71574300435574
 10
71.97939943911388
 20
72.82990063713114
 10
71.98332943288824
 20
72.96937550578539
 10
71.9815264249919
 20
73.07711109676304
 10
71.96947115735111
 20
73.18730821609929
 10
71.94713076263451
 20
73.29991521513036
 10
71.89668175653242
 20
73.46439977534797
 10
71.82727064785331
 20
73.61887036397414
 10
71.73901951525635
 20
73.76310395268845
 10
71.63205513273442
 20
73.89687047017062
 10
71.50875333881777
 20
74.0164324313022
 10
71.37224826832607
 20
74.11732692200619
 10
71.31127232549556
 20
74.15404912189663
 10
71.24992545135319
 20
74.18643635553607
 10
71.1882240795644
 20
74.21449331825764
 10
71.12617994846186
 20
74.23822705306091
 10
71.06380244871184
 20
74.25764342911216
 10
70.99992948538124
 20
74.27238090576551
 10
70.91153514512575
 20
74.28801636486733
 10
70.79864994761056
 20
74.30438077442724
 10
70.68290529225987
 20
74.31874262443554
 10
70.58852909768143
 20
74.32882115685655
 10
70.50200115231882
 20
74.3364651590841
 10
70.42331676083904
 20
74.34173449661469
  0
LINE
  5
1128C
330
A
100
AcDbEntity
  8
0
  6
Continuous
 62
     7
100
AcDbLine
 10
73.81788996749901
 20
72.90061822223527
 30
0.0
 11
73.8210593173169
 21
72.90259260978849
 31
0.0
  0
LWPOLYLINE
  5
1128D
330
A
100
AcDbEntity
  8
0
  6
Continuous
 62
     7
100
AcDbPolyline
 90
        9
 70
   128
 43
0.0
 10
78.80345095842881
 20
77.37163527022395
 10
78.94102891252533
 20
77.3149062561495
 10
79.06868328019209
 20
77.24147359470126
 10
79.1855336864794
 20
77.15297126178544
 10
79.28992033114946
 20
77.05119991763186
 10
79.37986647898242
 20
76.93839454077878
 10
79.45532987198067
 20
76.8146959912182
 10
79.51385719861832
 20
76.68402252439162
 10
79.55466199060765
 20
76.54721695258391
  0
LWPOLYLINE
  5
1128E
330
A
100
AcDbEntity
  8
0
  6
Continuous
 62
     7
100
AcDbPolyline
 90
        3
 70
   128
 43
0.0
 10
78.382162199297
 20
77.44426268205168
 10
78.59283005552834
 20
77.42685238705192
 10
78.80345095842881
 20
77.37163057489087
  0
LWPOLYLINE
  5
1128F
330
A
100
AcDbEntity
  8
0
  6
Continuous
 62
     7
100
AcDbPolyline
 90
        3
 70
   128
 43
0.0
 10
78.38214341796493
 20
77.07397228299035
 10
78.5287551928759
 20
77.06447831953571
 10
78.67482465681792
 20
77.03031038083188
  0
LWPOLYLINE
  5
11290
330
A
100
AcDbEntity
  8
0
  6
Continuous
 62
     7
100
AcDbPolyline
 90
        5
 70
   128
 43
0.0
 10
78.67483169981756
 20
77.03030803316531
 10
78.86514293955134
 20
76.94108261895772
 10
79.02387336909964
 20
76.81056644578873
 10
79.14281085093375
 20
76.6462133548969
 10
79.21527392610437
 20
76.45766756039492
  0
LWPOLYLINE
  5
11291
330
A
100
AcDbEntity
  8
0
  6
Continuous
 62
     7
100
AcDbPolyline
 90
        3
 70
   128
 43
0.0
 10
79.21527392610437
 20
76.45766756039492
 10
79.23235789545628
 20
76.35896226873185
 10
79.23637710055868
 20
76.26008559741197
  0
LINE
  5
11292
330
A
100
AcDbEntity
  8
0
  6
Continuous
 62
     7
100
AcDbLine
 10
83.35698965884352
 20
63.85870500132899
 30
0.0
 11
83.35672735946264
 21
62.40537657337324
 31
0.0
  0
LINE
  5
11293
330
A
100
AcDbEntity
  8
0
  6
Continuous
 62
     7
100
AcDbLine
 10
83.03105841890056
 20
63.85884175290448
 30
0.0
 11
83.03082619687733
 21
62.40537657337324
 31
0.0
  0
LINE
  5
11294
330
A
100
AcDbEntity
  8
0
  6
Continuous
 62
     7
100
AcDbLine
 10
80.91913457052418
 20
62.40537657337359
 30
0.0
 11
80.91891918423561
 21
63.83762236895677
 31
0.0
  0
LINE
  5
11295
330
A
100
AcDbEntity
  8
0
  6
Continuous
 62
     7
100
AcDbLine
 10
80.5095099484888
 20
62.40537657337359
 30
0.0
 11
80.50927485110173
 21
63.83749559496414
 31
0.0
  0
LINE
  5
11296
330
A
100
AcDbEntity
  8
0
  6
Continuous
 62
     7
100
AcDbLine
 10
83.35672735946264
 20
62.40537657337324
 30
0.0
 11
83.35698965884352
 21
60.95204909072311
 31
0.0
  0
LINE
  5
11297
330
A
100
AcDbEntity
  8
0
  6
Continuous
 62
     7
100
AcDbLine
 10
83.03082619687733
 20
62.40537657337324
 30
0.0
 11
83.03105841890056
 21
60.95191116531442
 31
0.0
  0
LWPOLYLINE
  5
11298
330
A
100
AcDbEntity
  8
0
  6
Continuous
 62
     7
100
AcDbPolyline
 90
        3
 70
   128
 43
0.0
 10
82.99855497576755
 20
63.85533492602267
 10
82.99907850540421
 20
62.40537675256783
 10
82.99855497576755
 20
60.95541799219635
  0
LINE
  5
11299
330
A
100
AcDbEntity
  8
0
  6
Continuous
 62
     7
100
AcDbLine
 10
80.91891854133995
 20
60.97313099961775
 30
0.0
 11
80.91913457052418
 21
62.40537657337359
 31
0.0
  0
LINE
  5
1129A
330
A
100
AcDbEntity
  8
0
  6
Continuous
 62
     7
100
AcDbLine
 10
80.50927422088307
 20
60.97325821416473
 30
0.0
 11
80.5095099484888
 21
62.40537657337359
 31
0.0
  0
LWPOLYLINE
  5
1129B
330
A
100
AcDbEntity
  8
0
  6
Continuous
 62
     7
100
AcDbPolyline
 90
        3
 70
   128
 43
0.0
 10
80.9541200962135
 20
60.96872163151542
 10
80.95371394990342
 20
62.40537675256783
 10
80.9541200962135
 20
63.84203128670359
  0
LWPOLYLINE
  5
1129C
330
A
100
AcDbEntity
  8
0
  6
Continuous
 62
     7
100
AcDbPolyline
 90
        3
 70
   128
 43
0.0
 10
81.75580126349315
 20
63.82837197590496
 10
81.75536224985149
 20
62.40537675256783
 10
81.75580126349315
 20
60.9823815292307
  0
LWPOLYLINE
  5
1129D
330
A
100
AcDbEntity
  8
0
  6
Continuous
 62
     7
100
AcDbPolyline
 90
        9
 70
   128
 43
0.0
 10
57.4200719389978
 20
76.93054394389642
 10
57.34012861134033
 20
76.92284359767214
 10
57.24692742386105
 20
76.91591798140334
 10
57.14325329598342
 20
76.90992908408069
 10
57.02944898702094
 20
76.90486986270471
 10
56.90744545269627
 20
76.90081309493772
 10
56.77883088941825
 20
76.89784329677499
 10
56.64514477951479
 20
76.8960121168802
 10
56.50946139230928
 20
76.89539702824882
  0
LWPOLYLINE
  5
112A0
330
A
100
AcDbEntity
  8
0
  6
Continuous
 62
     7
100
AcDbPolyline
 90
        3
 70
   128
 43
0.0
 10
58.71954586159745
 20
77.07463197728575
 10
58.06980919375587
 20
77.00259148209093
 10
57.4200719389978
 20
76.93054394389642
  0
LWPOLYLINE
  5
112A1
330
A
100
AcDbEntity
  8
0
  6
Continuous
 62
     7
100
AcDbPolyline
 90
        9
 70
   128
 43
0.0
 10
58.23949090075825
 20
78.75635237767667
 10
58.17854195609289
 20
78.74762844884449
 10
58.11627655741995
 20
78.72497581447911
 10
58.05627196161686
 20
78.68765730728958
 10
58.00241238296099
 20
78.63660964622212
 10
57.95815123892021
 20
78.57451621412249
 10
57.92581095861146
 20
78.50535161042913
 10
57.90620324773772
 20
78.43359753055111
 10
57.89868425875306
 20
78.36337178158536
  0
LINE
  5
112A2
330
A
100
AcDbEntity
  8
0
  6
Continuous
 62
     7
100
AcDbLine
 10
58.4027652388786
 20
78.30493601394221
 30
0.0
 11
58.07777873895509
 21
78.34261019000805
 31
0.0
  0
LINE
  5
112A3
330
A
100
AcDbEntity
  8
0
  6
Continuous
 62
     7
100
AcDbLine
 10
57.65710433901742
 20
77.38771566618654
 30
0.0
 11
57.77919080007198
 21
77.40125289974156
 31
0.0
  0
LWPOLYLINE
  5
112A4
330
A
100
AcDbEntity
  8
0
  6
Continuous
 62
     7
100
AcDbPolyline
 90
        6
 70
   128
 43
0.0
 10
57.63705153676998
 20
78.6311578751402
 10
57.68109782925262
 20
78.66365711233502
 10
57.78172703363861
 20
78.72358834355882
 10
57.89074386362585
 20
78.76426870922185
 10
58.00882327334261
 20
78.77715739848148
 10
58.13542001723681
 20
78.77649770418603
  0
LWPOLYLINE
  5
112A5
330
A
100
AcDbEntity
  8
0
  6
Continuous
 62
     7
100
AcDbPolyline
 90
       14
 70
   128
 43
0.0
 10
58.74377671478874
 20
78.6979260006997
 10
58.74377319328892
 20
78.69522148885508
 10
58.74377906245536
 20
78.68554205974445
 10
58.74378082320527
 20
78.67575229030686
 10
58.74378434470509
 20
78.65897351760409
 10
58.74378669237149
 20
78.64826815821905
 10
58.74378962695459
 20
78.63437232001732
 10
58.74379373537113
 20
78.61670847703206
 10
58.74379843070414
 20
78.5946897126303
 10
58.74380488678707
 20
78.56774789151135
 10
58.74381310361991
 20
78.5290865190656
 10
58.74382542886928
 20
78.47085030307775
 10
58.74384479711807
 20
78.39040516169908
 10
58.74386944761681
 20
78.28807976824399
  0
LINE
  5
112A6
330
A
100
AcDbEntity
  8
0
  6
Continuous
 62
     7
100
AcDbLine
 10
58.74386944761681
 20
78.28807976824396
 30
0.0
 11
58.71954762234736
 21
77.44497402501076
 31
0.0
  0
LINE
  5
112A7
330
A
100
AcDbEntity
  8
0
  6
Continuous
 62
     7
100
AcDbLine
 10
58.37844341360915
 20
77.46769943703862
 30
0.0
 11
58.4027652388786
 21
78.30493601394221
 31
0.0
  0
LWPOLYLINE
  5
112A8
330
A
100
AcDbEntity
  8
0
  6
Continuous
 62
     7
100
AcDbPolyline
 90
        5
 70
   128
 43
0.0
 10
58.74386944761681
 20
78.28807976824399
 10
58.64190794247406
 20
78.29117164506638
 10
58.54690257326502
 20
78.29520258850144
 10
58.46533348653429
 20
78.29989792156507
 10
58.4027652388786
 20
78.30493601394235
  0
LWPOLYLINE
  5
112A9
330
A
100
AcDbEntity
  8
0
  6
Continuous
 62
     7
100
AcDbPolyline
 90
        5
 70
   128
 43
0.0
 10
58.37844341360915
 20
77.46769943703871
 10
58.44099111918286
 20
77.46090529009567
 10
58.52255609749704
 20
77.45457598112594
 10
58.61757085737213
 20
77.4491411331048
 10
58.71954762234736
 20
77.44497402501085
  0
LWPOLYLINE
  5
112AA
330
A
100
AcDbEntity
  8
0
  6
Continuous
 62
     7
100
AcDbPolyline
 90
       12
 70
   128
 43
0.0
 10
58.4027652388786
 20
78.30493601394235
 10
58.40784852383672
 20
78.36082221573182
 10
58.41735657329036
 20
78.40677778809189
 10
58.43191504037076
 20
78.45234834314064
 10
58.45299884657629
 20
78.49932984577506
 10
58.47823508796
 20
78.54146811235435
 10
58.50656790149878
 20
78.5782607422407
 10
58.54147065982715
 20
78.61357903754518
 10
58.57701022270226
 20
78.64134019428369
 10
58.61583475797193
 20
78.66430272063124
 10
58.67860490494923
 20
78.68816675092702
 10
58.74377671478874
 20
78.6979260006997
  0
LWPOLYLINE
  5
112AB
330
A
100
AcDbEntity
  8
0
  6
Continuous
 62
     7
100
AcDbPolyline
 90
        5
 70
   128
 43
0.0
 10
58.71954586159745
 20
77.07463197728575
 10
58.71953999243101
 20
77.10906520230768
 10
58.71953881859781
 20
77.19005500232177
 10
58.71954175318092
 20
77.30708852659862
 10
58.71954762234736
 20
77.44497402501085
  0
LWPOLYLINE
  5
112AC
330
A
100
AcDbEntity
  8
0
  6
Continuous
 62
     7
100
AcDbPolyline
 90
       12
 70
   128
 43
0.0
 10
58.37844341360915
 20
77.46769943703871
 10
58.39248187255271
 20
77.3677663157795
 10
58.42061689518641
 20
77.28931434328629
 10
58.45286913800032
 20
77.23232708589333
 10
58.48211284615377
 20
77.19409533642298
 10
58.5129089488014
 20
77.16249809257149
 10
58.54217085137043
 20
77.13844859661972
 10
58.56864196534957
 20
77.12071432363851
 10
58.59146774012174
 20
77.10807918236432
 10
58.6370676410022
 20
77.08932836977479
 10
58.67764647008766
 20
77.07915123535943
 10
58.71954586159745
 20
77.07463197728575
  0
LINE
  5
112AD
330
A
100
AcDbEntity
  8
0
  6
Continuous
 62
     7
100
AcDbLine
 10
58.74377671478874
 20
78.69792600069968
 30
0.0
 11
58.23949090075825
 21
78.75635237767665
 31
0.0
  0
LWPOLYLINE
  5
112AE
330
A
100
AcDbEntity
  8
0
  6
Continuous
 62
     7
100
AcDbPolyline
 90
        5
 70
   128
 43
0.0
 10
58.13542001723681
 20
78.77649770418603
 10
58.12685866431184
 20
78.7748167749493
 10
58.12693026814122
 20
78.77280012939846
 10
58.1480305080122
 20
78.76795454567681
 10
58.23949090075825
 20
78.75635237767667
  0
LWPOLYLINE
  5
112AF
330
A
100
AcDbEntity
  8
0
  6
Continuous
 62
     7
100
AcDbPolyline
 90
        5
 70
   128
 43
0.0
 10
58.13542001723681
 20
78.77650474718567
 10
58.14438986413825
 20
78.77726304347541
 10
58.15576137390144
 20
78.77787578444022
 10
58.18238626003858
 20
78.77864581906263
 10
58.23970805991234
 20
78.77908013737104
  0
LWPOLYLINE
  5
112B2
330
A
100
AcDbEntity
  8
0
  6
Continuous
 62
     7
100
AcDbPolyline
 90
        5
 70
   128
 43
0.0
 10
57.89868425875306
 20
78.36337178158536
 10
57.82229705897453
 20
78.37197832709094
 10
57.74626200917601
 20
78.37906828001703
 10
57.6712223699867
 20
78.38306870378719
 10
57.65710433901742
 20
78.38295095677484
  0
LWPOLYLINE
  5
112B4
330
A
100
AcDbEntity
  8
0
  6
Continuous
 62
     7
100
AcDbPolyline
 90
        6
 70
   128
 43
0.0
 10
57.16520809269518
 20
77.07425289974155
 10
57.18264714038696
 20
77.05001434603329
 10
57.23388848394325
 20
77.00105610817914
 10
57.2919979259384
 20
76.96399584430813
 10
57.35483145991224
 20
76.94019989634174
 10
57.4200719389978
 20
76.93054394389642
  0
LWPOLYLINE
  5
112B7
330
A
100
AcDbEntity
  8
0
  6
Continuous
 62
     7
100
AcDbPolyline
 90
        6
 70
   128
 43
0.0
 10
56.89058451166511
 20
79.1050090296475
 10
56.86133493434522
 20
79.01730255568591
 10
56.8353439181717
 20
78.92705355887042
 10
56.8122757468302
 20
78.83582088977814
 10
56.79242974780368
 20
78.74728568953085
 10
56.78051994272905
 20
78.68825289974157
  0
LINE
  5
112B8
330
A
100
AcDbEntity
  8
0
  6
Continuous
 62
     7
100
AcDbLine
 10
56.97262900086844
 20
79.29289747752057
 30
0.0
 11
56.89058451166511
 21
79.10500902964748
 31
0.0
  0
LWPOLYLINE
  5
112B9
330
A
100
AcDbEntity
  8
0
  6
Continuous
 62
     7
100
AcDbPolyline
 90
       39
 70
   128
 43
0.0
 10
50.86794227049949
 20
76.37453199317079
 10
50.8500110869877
 20
76.38831279571244
 10
50.79721265360422
 20
76.40170858094293
 10
50.71054370152069
 20
76.41433433155092
 10
50.59289772973716
 20
76.42584024522332
 10
50.44733250054742
 20
76.43586947664712
 10
50.27823169428256
 20
76.44417317317013
 10
50.0904962849213
 20
76.45047665780802
 10
49.88936608075164
 20
76.45464611356849
 10
49.68082093691169
 20
76.45653128979351
 10
49.47048436760815
 20
76.45612044815047
 10
49.26454550961171
 20
76.45339950264011
 10
49.0685451218842
 20
76.448481141256
 10
48.888137036545
 20
76.44146631365893
 10
48.72824414524075
 20
76.43259213416874
 10
48.59349021388812
 20
76.42206284977365
 10
48.48755498968194
 20
76.41020948145459
 10
48.41370943238257
 20
76.3973278351946
 10
48.37381223360171
 20
76.38381231897099
 10
48.36948365006901
 20
76.37001508276355
 10
48.40044607021741
 20
76.35635401121501
 10
48.46636304408685
 20
76.3432094263035
 10
48.56490282525965
 20
76.3309546070075
 10
48.69360505920986
 20
76.3199628323056
 10
48.84850838880584
 20
76.31051582218166
 10
49.02521255332158
 20
76.30292581628433
 10
49.21869472021171
 20
76.2973641942705
 10
49.42321868269118
 20
76.29402346479574
 10
49.63323138864552
 20
76.29295997185685
 10
49.84251469019842
 20
76.29423005945048
 10
50.04545307446733
 20
76.29776799291395
 10
50.2361579151684
 20
76.3035009945846
 10
50.40945260759849
 20
76.31123890347343
 10
50.56035290898194
 20
76.32079625392439
 10
50.68472289117062
 20
76.3318725446214
 10
50.77884040224308
 20
76.3441954462468
 10
50.84022645307072
 20
76.35738228915593
 10
50.86097527660786
 20
76.3659066663329
 10
50.86794227049949
 20
76.37453199317079
  0
LWPOLYLINE
  5
112BA
330
A
100
AcDbEntity
  8
0
  6
Continuous
 62
     7
100
AcDbPolyline
 90
        8
 70
   128
 43
0.0
 10
56.50946872576711
 20
77.07425289974155
 10
56.50946843530892
 20
77.06577423146123
 10
56.50946726147549
 20
77.01944303245617
 10
56.50946550072558
 20
76.97923454776597
 10
56.50946432689238
 20
76.94605967200513
 10
56.50946315305919
 20
76.92067670146329
 10
56.50946197922576
 20
76.90365846677426
 10
56.50946139230928
 20
76.89539702824882
  0
LINE
  5
112BB
330
A
100
AcDbEntity
  8
0
  6
Continuous
 62
     7
100
AcDbLine
 10
84.5588305864685
 20
41.91305280453195
 30
0.0
 11
49.61739528631619
 21
41.91301077277103
 31
0.0
  0
LINE
  5
112BC
330
A
100
AcDbEntity
  8
0
  6
Continuous
 62
     7
100
AcDbLine
 10
49.61739528631619
 20
41.4624009547465
 30
0.0
 11
84.5587930238039
 21
41.46239356325406
 31
0.0
  0
LINE
  5
112BD
330
A
100
AcDbEntity
  8
0
  6
Continuous
 62
     7
100
AcDbLine
 10
82.24865159384718
 20
43.67445065934567
 30
0.0
 11
57.20609035145685
 21
43.66848406485508
 31
0.0
  0
LWPOLYLINE
  5
112BE
330
A
100
AcDbEntity
  8
0
  6
Continuous
 62
     7
100
AcDbPolyline
 90
        3
 70
   128
 43
0.0
 10
58.74377671478874
 20
46.11282633060264
 10
69.23547496874312
 20
46.11031432741358
 10
79.72716617969786
 20
46.10726529550541
  0
LWPOLYLINE
  5
112BF
330
A
100
AcDbEntity
  8
0
  6
Continuous
 62
     7
100
AcDbPolyline
 90
        3
 70
   128
 43
0.0
 10
58.74386944761681
 20
46.52267373689167
 10
69.2355876567367
 20
46.51994750913158
 10
79.72730469202315
 20
46.51660971423999
  0
LINE
  5
112C0
330
A
100
AcDbEntity
  8
0
  6
Continuous
 62
     7
100
AcDbLine
 10
78.38332898956332
 20
47.36629009759542
 30
0.0
 11
58.71954762234736
 21
47.3657753717083
 31
0.0
  0
LWPOLYLINE
  5
112C1
330
A
100
AcDbEntity
  8
0
  6
Continuous
 62
     7
100
AcDbPolyline
 90
        3
 70
   128
 43
0.0
 10
78.38331255589764
 20
47.73659693032257
 10
68.5514271545394
 20
47.73625241025903
 10
58.71954820926385
 20
47.73611741943343
  0
LINE
  5
112C2
330
A
100
AcDbEntity
  8
0
  6
Continuous
 62
     7
100
AcDbLine
 10
82.24853890585359
 20
44.00011778680379
 30
0.0
 11
57.20601698687779
 21
43.99482379877463
 31
0.0
  0
LINE
  5
112C3
330
A
100
AcDbEntity
  8
0
  6
Continuous
 62
     7
100
AcDbLine
 10
58.23970805991257
 20
46.0316757154311
 30
0.0
 11
80.17727724084034
 21
46.03999467178653
 31
0.0
  0
LINE
  5
112C4
330
A
100
AcDbEntity
  8
0
  6
Continuous
 62
     7
100
AcDbLine
 10
81.39695808644068
 20
44.06411752412725
 30
0.0
 11
57.34430921851663
 21
44.07798519033065
 31
0.0
  0
LINE
  5
112C5
330
A
100
AcDbEntity
  8
0
  6
Continuous
 62
     7
100
AcDbLine
 10
80.19160270201746
 20
45.26655828055118
 30
0.0
 11
58.25408282208673
 21
45.23047699362393
 31
0.0
  0
LWPOLYLINE
  5
112C6
330
A
100
AcDbEntity
  8
0
  6
Continuous
 62
     7
100
AcDbPolyline
 90
       13
 70
   128
 43
0.0
 10
80.12654181942162
 20
46.10738033116549
 10
80.27613278316152
 20
46.12200101140891
 10
80.42430340864962
 20
46.16645525102185
 10
80.56059953682007
 20
46.23880622511549
 10
80.68025540461281
 20
46.33607533177772
 10
80.77865080429365
 20
46.45411541808008
 10
80.85304366135323
 20
46.59037222283589
 10
80.90277662916287
 20
46.75754310048254
 10
80.91261569959783
 20
46.83397490592509
 10
80.91455487215307
 20
46.86760992432621
 10
80.91495397546351
 20
46.88233742339687
 10
80.91504083912514
 20
46.88880231010879
 10
80.91507370645649
 20
46.89386916140105
  0
LWPOLYLINE
  5
112C7
330
A
100
AcDbEntity
  8
0
  6
Continuous
 62
     7
100
AcDbPolyline
 90
        9
 70
   128
 43
0.0
 10
80.12161876270466
 20
46.51118308305174
 10
80.19629803508109
 20
46.51758047435092
 10
80.26945367187863
 20
46.53881922654747
 10
80.33708290166032
 20
46.57427133884417
 10
80.39677701856431
 20
46.6226637890642
 10
80.4456366544241
 20
46.68157378534672
 10
80.4819620986707
 20
46.74909267480134
 10
80.50392921440879
 20
46.82229291726289
 10
80.51084074467826
 20
46.89917430084634
  0
LINE
  5
112C8
330
A
100
AcDbEntity
  8
0
  6
Continuous
 62
     7
100
AcDbLine
 10
80.91507370645649
 20
46.89386916140096
 30
0.0
 11
80.96121237322632
 21
46.83218496920949
 31
0.0
  0
LWPOLYLINE
  5
112C9
330
A
100
AcDbEntity
  8
0
  6
Continuous
 62
     7
100
AcDbPolyline
 90
        3
 70
   128
 43
0.0
 10
79.59087239919426
 20
48.550475399068
 10
79.58289737598557
 20
48.41361465709687
 10
79.55515030524612
 20
48.26305821549581
  0
LINE
  5
112CA
330
A
100
AcDbEntity
  8
0
  6
Continuous
 62
     7
100
AcDbLine
 10
80.91507370645649
 20
46.89386916140096
 30
0.0
 11
80.91536985642916
 21
47.3113154183585
 31
0.0
  0
LINE
  5
112CB
330
A
100
AcDbEntity
  8
0
  6
Continuous
 62
     7
100
AcDbLine
 10
80.51084074467826
 20
46.89917430084631
 30
0.0
 11
80.50540460365301
 21
47.31140938013083
 31
0.0
  0
LWPOLYLINE
  5
112CC
330
A
100
AcDbEntity
  8
0
  6
Continuous
 62
     7
100
AcDbPolyline
 90
        3
 70
   128
 43
0.0
 10
70.87489276589758
 20
48.91706998409174
 10
70.88469662133412
 20
48.91507622828962
 10
70.89460846943166
 20
48.9133894298865
  0
LWPOLYLINE
  5
112CD
330
A
100
AcDbEntity
  8
0
  6
Continuous
 62
     7
100
AcDbPolyline
 90
        5
 70
   128
 43
0.0
 10
78.67522141246173
 20
47.7803186979776
 10
78.86472270724221
 20
47.86892784972056
 10
79.02348835178827
 20
47.99926560023314
 10
79.14274981160383
 20
48.16360636587567
 10
79.21548521609202
 20
48.35249139819151
  0
LWPOLYLINE
  5
112CE
330
A
100
AcDbEntity
  8
0
  6
Continuous
 62
     7
100
AcDbPolyline
 90
        3
 70
   128
 43
0.0
 10
79.21548521609202
 20
48.35249139819151
 10
79.23311619174592
 20
48.45623947756488
 10
79.23668699254085
 20
48.550475399068
  0
LWPOLYLINE
  5
112CF
330
A
100
AcDbEntity
  8
0
  6
Continuous
 62
     7
100
AcDbPolyline
 90
        9
 70
   128
 43
0.0
 10
79.5551456099131
 20
48.2630535201628
 10
79.51409900827115
 20
48.12585764879421
 10
79.45521718398708
 20
47.99444701467658
 10
79.37993690897838
 20
47.87145393890878
 10
79.28950948950637
 20
47.75819781008166
 10
79.18529422449319
 20
47.65667531858045
 10
79.06796254656683
 20
47.56804621167188
 10
78.94025653023641
 20
47.49482190562836
 10
78.80375615507796
 20
47.43881362517917
  0
LWPOLYLINE
  5
112D0
330
A
100
AcDbEntity
  8
0
  6
Continuous
 62
     7
100
AcDbPolyline
 90
        3
 70
   128
 43
0.0
 10
78.80375615507796
 20
47.4388189074289
 10
78.59354374615396
 20
47.38378901700687
 10
78.38333133722994
 20
47.36629009759545
  0
LWPOLYLINE
  5
112D1
330
A
100
AcDbEntity
  8
0
  6
Continuous
 62
     7
100
AcDbPolyline
 90
        3
 70
   128
 43
0.0
 10
78.38331020823125
 20
47.73659693032257
 10
78.52935854317457
 20
47.74615545460679
 10
78.67521436946208
 20
47.78031635031104
  0
LWPOLYLINE
  5
112D2
330
A
100
AcDbEntity
  8
0
  6
Continuous
 62
     7
100
AcDbPolyline
 90
       19
 70
   128
 43
0.0
 10
70.4467183008278
 20
50.48704204448554
 10
70.5282198921459
 20
50.49345763020031
 10
70.61493095549804
 20
50.50208941312113
 10
70.70684914321759
 20
50.51296204374651
 10
70.81926011209339
 20
50.52826002578436
 10
70.9299596320675
 20
50.545517135543
 10
71.01625985377632
 20
50.56168903644735
 10
71.07816077722055
 20
50.57671762375062
 10
71.22992802783528
 20
50.63364149414721
 10
71.37796953166412
 20
50.71537550445189
 10
71.51238283127577
 20
50.8153133210441
 10
71.63361398331153
 20
50.93337835130333
 10
71.73843259862337
 20
51.06477284521353
 10
71.8252446116362
 20
51.20635445112182
 10
71.89393029135726
 20
51.35796734266219
 10
71.94436521145985
 20
51.51942810838679
 10
71.98088316436201
 20
51.74553891506414
 10
71.97966472543203
 20
51.95557466208166
 10
71.97729592990163
 20
52.17828927566248
  0
LWPOLYLINE
  5
112D3
330
A
100
AcDbEntity
  8
0
  6
Continuous
 62
     7
100
AcDbPolyline
 90
       24
 70
   128
 43
0.0
 10
73.81498355633266
 20
51.91194650762966
 10
73.81323454476637
 20
51.86203012837214
 10
73.80487450424652
 20
51.74562049647616
 10
73.79462928750172
 20
51.65036774190642
 10
73.78111846661136
 20
51.55356758163392
 10
73.76434204157522
 20
51.45578550983455
 10
73.74448078271598
 20
51.35808854094685
 10
73.72171780802364
 20
51.26154515670126
 10
73.64546325140418
 20
51.00619973907837
 10
73.55011981821462
 20
50.76267159440155
 10
73.37146709047783
 20
50.41480434530197
 10
73.15360128865996
 20
50.09311123036551
 10
72.90430727498119
 20
49.80613775576782
 10
72.62248164617108
 20
49.55115769374893
 10
72.30862210753457
 20
49.33079514857465
 10
71.96928334402855
 20
49.15212246567207
 10
71.70242643702522
 20
49.04880694385727
 10
71.42162908615592
 20
48.97192966869025
 10
71.12986343725015
 20
48.9255832098527
 10
71.06633323323331
 20
48.91983846984934
 10
70.9969244722206
 20
48.91542720443616
 10
70.9482690833488
 20
48.91375801353198
 10
70.91927774934766
 20
48.91346631596539
 10
70.89460846943166
 20
48.9133894298865
  0
LINE
  5
112D4
330
A
100
AcDbEntity
  8
0
  6
Continuous
 62
     7
100
AcDbLine
 10
85.00371808957789
 20
41.88928502856401
 30
0.0
 11
84.55878363313786
 21
41.91313262519407
 31
0.0
  0
LINE
  5
112D5
330
A
100
AcDbEntity
  8
0
  6
Continuous
 62
     7
100
AcDbLine
 10
84.5587930238039
 20
41.46239356325406
 30
0.0
 11
85.02658670926416
 21
41.46343357952775
 31
0.0
  0
LWPOLYLINE
  5
112D6
330
A
100
AcDbEntity
  8
0
  6
Continuous
 62
     7
100
AcDbPolyline
 90
        3
 70
   128
 43
0.0
 10
85.11620418378265
 20
42.47055317583883
 10
85.13115177659074
 20
42.25053221614499
 10
85.14005178041271
 20
42.02561754556555
  0
LWPOLYLINE
  5
112D7
330
A
100
AcDbEntity
  8
0
  6
Continuous
 62
     7
100
AcDbPolyline
 90
        3
 70
   128
 43
0.0
 10
85.11628165677825
 20
42.47050739634144
 10
85.11624174644703
 20
42.4705296991735
 10
85.11620418378265
 20
42.47055317583883
  0
LINE
  5
112D8
330
A
100
AcDbEntity
  8
0
  6
Continuous
 62
     7
100
AcDbLine
 10
85.5659026393323
 20
42.00275076635318
 30
0.0
 11
85.56694207188934
 21
42.47054495900591
 31
0.0
  0
LWPOLYLINE
  5
112D9
330
A
100
AcDbEntity
  8
0
  6
Continuous
 62
     7
100
AcDbPolyline
 90
        9
 70
   128
 43
0.0
 10
85.14005178041271
 20
42.02561754556555
 10
85.13828398751412
 20
41.99822732013902
 10
85.13115412425714
 20
41.97199214664616
 10
85.11899790695542
 20
41.94811403035115
 10
85.10210644625932
 20
41.92722449355122
 10
85.0812216047923
 20
41.910337728188
 10
85.05734114083088
 20
41.8981815108863
 10
85.03111301033754
 20
41.89105399529572
 10
85.00371808957789
 20
41.88928502856405
  0
LWPOLYLINE
  5
112DA
330
A
100
AcDbEntity
  8
0
  6
Continuous
 62
     7
100
AcDbPolyline
 90
        9
 70
   128
 43
0.0
 10
85.02658670926416
 20
41.46343357952779
 10
85.13225048452751
 20
41.47398634058819
 10
85.23349595137801
 20
41.50488515364648
 10
85.32648937036901
 20
41.55476132911466
 10
85.4077726286996
 20
41.62154422511153
 10
85.47456374152943
 20
41.70283100494183
 10
85.52444695999701
 20
41.79583029309938
 10
85.5553492945553
 20
41.89708045528291
 10
85.56590205561565
 20
42.00275127354578
  0
ARC
  5
112DB
330
A
100
AcDbEntity
  8
0
  6
Continuous
 62
     7
100
AcDbCircle
 10
85.02658562163651
 20
42.0027507703736
 30
0.0
 40
0.5908096275000359
100
AcDbArc
 50
270.0
 51
0.000000000000007
  0
LINE
  5
112DC
330
A
100
AcDbEntity
  8
0
  6
Continuous
 62
     7
100
AcDbLine
 10
85.02658670926416
 20
41.46343357952775
 30
0.0
 11
85.02658562163651
 21
41.4119411428735
 31
0.0
  0
LINE
  5
112DD
330
A
100
AcDbEntity
  8
0
  6
Continuous
 62
     7
100
AcDbLine
 10
85.5659026393323
 20
42.00275076635318
 30
0.0
 11
85.61739524913651
 21
42.00275077060086
 31
0.0
  0
LWPOLYLINE
  5
112DE
330
A
100
AcDbEntity
  8
0
  6
Continuous
 62
     7
100
AcDbPolyline
 90
       10
 70
   128
 43
0.0
 10
81.39695808644068
 20
44.06411752412734
 10
82.04423792125657
 20
44.06361981882255
 10
82.12514790060868
 20
44.06355408415973
 10
82.13526164802761
 20
44.06354704116009
 10
82.13763748655788
 20
44.06354469349358
 10
82.13847090817671
 20
44.06354351966027
 10
82.13873149916162
 20
44.06354351966027
 10
82.13881601515685
 20
44.06354351966027
 10
82.16145456352297
 20
44.06352591216128
 10
82.20115829990868
 20
44.06349304482986
  0
LINE
  5
112DF
330
A
100
AcDbEntity
  8
0
  6
Continuous
 62
     7
100
AcDbLine
 10
84.55878363313786
 20
41.91313262519407
 30
0.0
 11
84.5588305864685
 21
41.91305280453195
 31
0.0
  0
LWPOLYLINE
  5
112E0
330
A
100
AcDbEntity
  8
0
  6
Continuous
 62
     7
100
AcDbPolyline
 90
        9
 70
   128
 43
0.0
 10
83.31742913011613
 20
44.47124163723944
 10
83.27815032137255
 20
44.33762771808178
 10
83.21739505919595
 20
44.20962589576837
 10
83.13841016640026
 20
44.09068724010094
 10
83.04348931318646
 20
43.98310542128117
 10
82.93508111574737
 20
43.88968355314799
 10
82.81519987196748
 20
43.81218003793359
 10
82.68702666999729
 20
43.75311157416021
 10
82.55395623564163
 20
43.71563342564653
  0
LWPOLYLINE
  5
112E1
330
A
100
AcDbEntity
  8
0
  6
Continuous
 62
     7
100
AcDbPolyline
 90
        3
 70
   128
 43
0.0
 10
82.24865159384718
 20
43.67445065934569
 10
82.40130861007742
 20
43.68458201426366
 10
82.55395388797523
 20
43.71564868547901
  0
LWPOLYLINE
  5
112E2
330
A
100
AcDbEntity
  8
0
  6
Continuous
 62
     7
100
AcDbPolyline
 90
        3
 70
   128
 43
0.0
 10
82.45255817046654
 20
44.02715468841736
 10
82.35054971199337
 20
44.00660556326451
 10
82.24853890585359
 20
44.00011778680388
  0
LINE
  5
112E3
330
A
100
AcDbEntity
  8
0
  6
Continuous
 62
     7
100
AcDbLine
 10
82.20116534290832
 20
44.06348365416374
 30
0.0
 11
82.24853655818696
 21
44.00012248213693
 31
0.0
  0
LWPOLYLINE
  5
112E4
330
A
100
AcDbEntity
  8
0
  6
Continuous
 62
     7
100
AcDbPolyline
 90
        3
 70
   128
 43
0.0
 10
83.03532882432183
 20
44.78897952098648
 10
83.0287670963653
 20
44.68565284775556
 10
83.00635392398636
 20
44.57653330735744
  0
LINE
  5
112E5
330
A
100
AcDbEntity
  8
0
  6
Continuous
 62
     7
100
AcDbLine
 10
82.98878398766238
 20
44.85088748742998
 30
0.0
 11
83.03532882432183
 21
44.78898069481966
 31
0.0
  0
LINE
  5
112E6
330
A
100
AcDbEntity
  8
0
  6
Continuous
 62
     7
100
AcDbLine
 10
82.98912439930949
 20
45.57528229864931
 30
0.0
 11
82.98878398766238
 21
44.85088748742998
 31
0.0
  0
LWPOLYLINE
  5
112E7
330
A
100
AcDbEntity
  8
0
  6
Continuous
 62
     7
100
AcDbPolyline
 90
        3
 70
   128
 43
0.0
 10
83.36174368357047
 20
44.78907577531427
 10
83.35141864616344
 20
44.63441972103206
 10
83.31741504411684
 20
44.47124633257252
  0
LWPOLYLINE
  5
112E8
330
A
100
AcDbEntity
  8
0
  6
Continuous
 62
     7
100
AcDbPolyline
 90
        5
 70
   128
 43
0.0
 10
83.00634922865333
 20
44.57651569985844
 10
82.92607311926486
 20
44.38900992162999
 10
82.80098475111755
 20
44.22850230851728
 10
82.63962023972068
 20
44.10526742309676
 10
82.45257225646582
 20
44.02715938375044
  0
LWPOLYLINE
  5
112E9
330
A
100
AcDbEntity
  8
0
  6
Continuous
 62
     7
100
AcDbPolyline
 90
       22
 70
   128
 43
0.0
 10
82.98878398766238
 20
44.85088748743007
 10
82.98604895615289
 20
44.7901052270885
 10
82.98140527175291
 20
44.74830619832303
 10
82.97542106976335
 20
44.71133397194697
 10
82.96782167319998
 20
44.67544284600879
 10
82.95791217276928
 20
44.63757615868408
 10
82.94320873728043
 20
44.59187882964258
 10
82.91198477240754
 20
44.5167922371227
 10
82.8911327982721
 20
44.47626329595098
 10
82.84833718506389
 20
44.40721959708392
 10
82.80649941980072
 20
44.35189213992899
 10
82.75482493176923
 20
44.29540376167406
 10
82.69152010373909
 20
44.23873461309617
 10
82.63468779233745
 20
44.19690271699929
 10
82.56844838114238
 20
44.15723889094445
 10
82.53434852476813
 20
44.13997415126963
 10
82.46660660699308
 20
44.11151221607136
 10
82.41256097576433
 20
44.09393523674774
 10
82.3723830107392
 20
44.08358789650882
 10
82.32300923590878
 20
44.07386151406754
 10
82.27118214955272
 20
44.06700280629493
 10
82.20115829990868
 20
44.06349304482986
  0
LINE
  5
112EA
330
A
100
AcDbEntity
  8
0
  6
Continuous
 62
     7
100
AcDbLine
 10
80.12654089188709
 20
46.10738015996605
 30
0.0
 11
79.72716617969786
 21
46.10726529550539
 31
0.0
  0
LINE
  5
112EB
330
A
100
AcDbEntity
  8
0
  6
Continuous
 62
     7
100
AcDbLine
 10
79.7273093873564
 20
46.51661910490611
 30
0.0
 11
80.12161848560845
 21
46.51118333062868
 31
0.0
  0
LWPOLYLINE
  5
112EC
330
A
100
AcDbEntity
  8
0
  6
Continuous
 62
     7
100
AcDbPolyline
 90
        5
 70
   128
 43
0.0
 10
80.49502921058683
 20
46.10627105872922
 10
80.61939214977588
 20
46.17558767383056
 10
80.7292136424669
 20
46.26647875744251
 10
80.82075385587495
 20
46.37566344558686
 10
80.89101481983879
 20
46.49944592422596
  0
LWPOLYLINE
  5
112ED
330
A
100
AcDbEntity
  8
0
  6
Continuous
 62
     7
100
AcDbPolyline
 90
        3
 70
   128
 43
0.0
 10
80.17727724084034
 20
46.03999408486996
 10
80.33931788019845
 20
46.0562974551
 10
80.49502921058683
 20
46.10627105872922
  0
LINE
  5
112EE
330
A
100
AcDbEntity
  8
0
  6
Continuous
 62
     7
100
AcDbLine
 10
80.17727724084034
 20
46.03999467178653
 30
0.0
 11
80.12654089188709
 21
46.10738015996605
 31
0.0
  0
LWPOLYLINE
  5
112EF
330
A
100
AcDbEntity
  8
0
  6
Continuous
 62
     7
100
AcDbPolyline
 90
       10
 70
   128
 43
0.0
 10
80.89101481983879
 20
46.49944592422596
 10
80.94426693977949
 20
46.66230883378673
 10
80.95819329764617
 20
46.75653536462377
 10
80.96074990649936
 20
46.79869945553494
 10
80.96117952947452
 20
46.8174097708767
 10
80.9612311781384
 20
46.82567473090196
 10
80.96122648280516
 20
46.82931772244265
 10
80.96121943980575
 20
46.83092235251715
 10
80.96121709213912
 20
46.83162841322658
 10
80.96121239680611
 20
46.8321848101946
  0
LWPOLYLINE
  5
112F0
330
A
100
AcDbEntity
  8
0
  6
Continuous
 62
     7
100
AcDbPolyline
 90
        5
 70
   128
 43
0.0
 10
81.76344526572052
 20
46.84607067081358
 10
81.75442787857196
 20
46.67602448858215
 10
81.72735693579374
 20
46.5085724778684
 10
81.68202819039766
 20
46.34374339758724
 10
81.61853789671159
 20
46.18362021486908
  0
LWPOLYLINE
  5
112F1
330
A
100
AcDbEntity
  8
0
  6
Continuous
 62
     7
100
AcDbPolyline
 90
        5
 70
   128
 43
0.0
 10
80.82572151825615
 20
45.40157023512856
 10
81.0745553892948
 20
45.54051335731341
 10
81.29365606370834
 20
45.72100078644498
 10
81.4767505765235
 20
45.93743216401176
 10
81.61853789671159
 20
46.18362021486908
  0
LWPOLYLINE
  5
112F2
330
A
100
AcDbEntity
  8
0
  6
Continuous
 62
     7
100
AcDbPolyline
 90
        5
 70
   128
 43
0.0
 10
80.19160270201746
 20
45.26655828055121
 10
80.35393679969207
 20
45.27521647472044
 10
80.51400070383033
 20
45.30050201710125
 10
80.67177093776672
 20
45.34259567801647
 10
80.82573090892243
 20
45.401550279963
  0
LINE
  5
112F3
330
A
100
AcDbEntity
  8
0
  6
Continuous
 62
     7
100
AcDbLine
 10
58.71954762234736
 20
47.3657753717083
 30
0.0
 11
58.74386944761681
 21
46.52267373689165
 31
0.0
  0
LINE
  5
112F4
330
A
100
AcDbEntity
  8
0
  6
Continuous
 62
     7
100
AcDbLine
 10
58.4027652388786
 20
46.50581690427668
 30
0.0
 11
58.37844341360915
 21
47.34304702509724
 31
0.0
  0
LWPOLYLINE
  5
112F8
330
A
100
AcDbEntity
  8
0
  6
Continuous
 62
     7
100
AcDbPolyline
 90
        9
 70
   128
 43
0.0
 10
57.42008132966384
 20
47.88020193132294
 10
57.33968959769867
 20
47.88794218787828
 10
57.24676426103702
 20
47.89483611064892
 10
57.14321573331881
 20
47.90081033505569
 10
57.02902171171217
 20
47.90588775084737
 10
56.90753877244105
 20
47.90992397653215
 10
56.77886962591583
 20
47.91289553544484
 10
56.64518116834597
 20
47.91472847608955
 10
56.5094690222254
 20
47.91534356472086
  0
LINE
  5
112FA
330
A
100
AcDbEntity
  8
0
  6
Continuous
 62
     7
100
AcDbLine
 10
58.71954820926385
 20
47.73611741943341
 30
0.0
 11
57.42008132966384
 21
47.88020193132285
 31
0.0
  0
LINE
  5
112FB
330
A
100
AcDbEntity
  8
0
  6
Continuous
 62
     7
100
AcDbLine
 10
58.37844341360915
 20
47.34304878584715
 30
0.0
 11
58.1140316381926
 21
47.37236692565526
 31
0.0
  0
LINE
  5
112FC
330
A
100
AcDbEntity
  8
0
  6
Continuous
 62
     7
100
AcDbLine
 10
65.25494415091088
 20
47.9350164233407
 30
0.0
 11
62.65380710667068
 21
47.93447469928844
 31
0.0
  0
LINE
  5
112FD
330
A
100
AcDbEntity
  8
0
  6
Continuous
 62
     7
100
AcDbLine
 10
62.65380710667068
 20
47.87015215781685
 30
0.0
 11
65.25494415091088
 21
47.87051311154619
 31
0.0
  0
LWPOLYLINE
  5
112FE
330
A
100
AcDbEntity
  8
0
  6
Continuous
 62
     7
100
AcDbPolyline
 90
       20
 70
   128
 43
0.0
 10
65.25494415091088
 20
47.87051311154622
 10
65.33878636576128
 20
47.87098616635236
 10
65.42026330658064
 20
47.87235133444059
 10
65.4970108731718
 20
47.87458220456247
 10
65.56694198998775
 20
47.87760365138891
 10
65.62802709931202
 20
47.88134407109069
 10
65.67861344390599
 20
47.88568549342463
 10
65.7171914741898
 20
47.89052168648007
 10
65.7427411290555
 20
47.89570298651577
 10
65.75437146905392
 20
47.90109557653934
 10
65.75189233319633
 20
47.90653570681016
 10
65.73515229699137
 20
47.9118731266702
 10
65.70481105473437
 20
47.91695347704504
 10
65.66155999421903
 20
47.9216253334433
 10
65.60677719569935
 20
47.92576426953885
 10
65.54197338258882
 20
47.92923705525604
 10
65.46903373111217
 20
47.93196152226622
 10
65.39009931314694
 20
47.93384493774133
 10
65.30734172023426
 20
47.93485149976683
 10
65.25494415091088
 20
47.93501642334073
  0
LINE
  5
112FF
330
A
100
AcDbEntity
  8
0
  6
Continuous
 62
     7
100
AcDbLine
 10
65.25494415091088
 20
47.87051311154619
 30
0.0
 11
65.25494415091088
 21
47.9350164233407
 31
0.0
  0
LWPOLYLINE
  5
11300
330
A
100
AcDbEntity
  8
0
  6
Continuous
 62
     7
100
AcDbPolyline
 90
       20
 70
   128
 43
0.0
 10
62.65380710667068
 20
47.93447469928847
 10
62.56996371798732
 20
47.93400164448238
 10
62.48848677716797
 20
47.932638237144
 10
62.41173921057679
 20
47.93041088852194
 10
62.34180691992742
 20
47.92739589777844
 10
62.28072181060316
 20
47.9236648687428
 10
62.23013429217599
 20
47.91933635857484
 10
62.19155860955879
 20
47.91451542535177
 10
62.16600778085989
 20
47.90935231973165
 10
62.15437861469467
 20
47.90398027179029
 10
62.15686009821865
 20
47.89856127051828
 10
62.17360013442385
 20
47.893244979657
 10
62.20394137668063
 20
47.88818399753106
 10
62.24719243719619
 20
47.88352916171513
 10
62.30197406188245
 20
47.87940431161874
 10
62.36677787499298
 20
47.87594032965105
 10
62.43971635263619
 20
47.873220557974
 10
62.51865194443507
 20
47.87133596866559
 10
62.60141071118074
 20
47.87032295055715
 10
62.65380710667068
 20
47.87015215781693
  0
LINE
  5
11301
330
A
100
AcDbEntity
  8
0
  6
Continuous
 62
     7
100
AcDbLine
 10
62.65380710667068
 20
47.87015215781685
 30
0.0
 11
62.65380710667068
 21
47.93447469928844
 31
0.0
  0
LWPOLYLINE
  5
11302
330
A
100
AcDbEntity
  8
0
  6
Continuous
 62
     7
100
AcDbPolyline
 90
        5
 70
   128
 43
0.0
 10
58.71954762234736
 20
47.36577537170833
 10
58.61757085737213
 20
47.36160826361438
 10
58.52255668441376
 20
47.3561740025099
 10
58.44099111918286
 20
47.34984351970687
 10
58.37844341360915
 20
47.34304878584723
  0
LWPOLYLINE
  5
11303
330
A
100
AcDbEntity
  8
0
  6
Continuous
 62
     7
100
AcDbPolyline
 90
        5
 70
   128
 43
0.0
 10
58.71954762234736
 20
47.36577537170833
 10
58.71955055693047
 20
47.50366087012062
 10
58.71955173076367
 20
47.62069498131407
 10
58.71955114384718
 20
47.70168536824477
 10
58.71954820926385
 20
47.73611741943343
  0
LWPOLYLINE
  5
11304
330
A
100
AcDbEntity
  8
0
  6
Continuous
 62
     7
100
AcDbPolyline
 90
       14
 70
   128
 43
0.0
 10
58.71954820926385
 20
47.73611741943343
 10
58.67763414483852
 20
47.73159640060979
 10
58.63705472883612
 20
47.72141750544458
 10
58.59146891395494
 20
47.70267256202138
 10
58.56863081393362
 20
47.6900292039144
 10
58.54215617845444
 20
47.67229082251676
 10
58.51289838430194
 20
47.64824250039819
 10
58.48211343307048
 20
47.61665523412946
 10
58.46819998736965
 20
47.59966282377232
 10
58.45286268191739
 20
47.57841409399296
 10
58.43673303901073
 20
47.55246827040017
 10
58.42060985218677
 20
47.52142155435032
 10
58.3924789379696
 20
47.44297016877377
 10
58.37844341360915
 20
47.34304878584723
  0
LWPOLYLINE
  5
11305
330
A
100
AcDbEntity
  8
0
  6
Continuous
 62
     7
100
AcDbPolyline
 90
        6
 70
   128
 43
0.0
 10
57.42008132966384
 20
47.88020193132294
 10
57.35905315125319
 20
47.87161827556602
 10
57.29669208516884
 20
47.84906659086155
 10
57.23659006120488
 20
47.81179503700267
 10
57.18265066188678
 20
47.7607362245192
 10
57.15820853891319
 20
47.72644725305843
  0
LWPOLYLINE
  5
11306
330
A
100
AcDbEntity
  8
0
  6
Continuous
 62
     7
100
AcDbPolyline
 90
        8
 70
   128
 43
0.0
 10
56.5094690222254
 20
47.91534356472086
 10
56.50946960914211
 20
47.90708447386194
 10
56.50947019605883
 20
47.89007034758938
 10
56.50947078297531
 20
47.86468679013094
 10
56.50947136989202
 20
47.83151308820325
 10
56.50947195680851
 20
47.7913022558466
 10
56.50947254372522
 20
47.74497046992488
 10
56.50947296675525
 20
47.72644725305843
  0
LINE
  5
11307
330
A
100
AcDbEntity
  8
0
  6
Continuous
 62
     7
100
AcDbLine
 10
57.20609035145685
 20
43.66848406485508
 30
0.0
 11
49.61739528013641
 21
43.66848346192353
 31
0.0
  0
LINE
  5
11308
330
A
100
AcDbEntity
  8
0
  6
Continuous
 62
     7
100
AcDbLine
 10
57.20601698687779
 20
43.99482379877463
 30
0.0
 11
49.61739528013641
 21
43.99482388368847
 31
0.0
  0
LWPOLYLINE
  5
11309
330
A
100
AcDbEntity
  8
0
  6
Continuous
 62
     7
100
AcDbPolyline
 90
        9
 70
   128
 43
0.0
 10
57.89868425875306
 20
46.4473823104669
 10
57.90620324773772
 20
46.37715597458444
 10
57.92581095861146
 20
46.30540072087322
 10
57.95815123892021
 20
46.23623787792976
 10
58.0024129698777
 20
46.17414268508023
 10
58.05627196161686
 20
46.12309561092937
 10
58.11627655741995
 20
46.08577651682324
 10
58.17854195609289
 20
46.06312388245785
 10
58.23949090075825
 20
46.05439995362567
  0
LINE
  5
1130A
330
A
100
AcDbEntity
  8
0
  6
Continuous
 62
     7
100
AcDbLine
 10
58.12182136580815
 20
46.47324903968052
 30
0.0
 11
58.4027652388786
 21
46.50581690427668
 31
0.0
  0
LWPOLYLINE
  5
1130B
330
A
100
AcDbEntity
  8
0
  6
Continuous
 62
     7
100
AcDbPolyline
 90
        6
 70
   128
 43
0.0
 10
58.13542001723681
 20
46.03425462711633
 10
58.00882738175914
 20
46.03359610665418
 10
57.89075149354221
 20
46.04648420899709
 10
57.78173701122137
 20
46.08716398774354
 10
57.68111015450199
 20
46.14709169746757
 10
57.65772929760367
 20
46.1643429755423
  0
LINE
  5
1130C
330
A
100
AcDbEntity
  8
0
  6
Continuous
 62
     7
100
AcDbLine
 10
57.35900385025593
 20
45.22908013203744
 30
0.0
 11
58.25408282208673
 21
45.23047699362393
 31
0.0
  0
LWPOLYLINE
  5
1130D
330
A
100
AcDbEntity
  8
0
  6
Continuous
 62
     7
100
AcDbPolyline
 90
       18
 70
   128
 43
0.0
 10
58.74386944761681
 20
46.52267373689167
 10
58.74384479711807
 20
46.42034658268667
 10
58.74382542886928
 20
46.33990320205785
 10
58.74382014661955
 20
46.31405187204293
 10
58.74381486436982
 20
46.29164163424698
 10
58.74381075595329
 20
46.27247880618116
 10
58.74380782137041
 20
46.25634270719146
 10
58.74380488678707
 20
46.24300561362431
 10
58.74379725687095
 20
46.21011832701358
 10
58.7437913877045
 20
46.18470424989019
 10
58.74378727928797
 20
46.16563767615216
 10
58.74378434470509
 20
46.15177881369826
 10
58.74378258395518
 20
46.14234412882362
 10
58.74378082320527
 20
46.13500062791215
 10
58.74377964937185
 20
46.1293961609841
 10
58.74377906245536
 20
46.12521203230781
 10
58.74377319328892
 20
46.11553142936393
 10
58.74377671478874
 20
46.11282633060264
  0
LWPOLYLINE
  5
1130E
330
A
100
AcDbEntity
  8
0
  6
Continuous
 62
     7
100
AcDbPolyline
 90
        5
 70
   128
 43
0.0
 10
58.4027652388786
 20
46.50581690427671
 10
58.46533348653429
 20
46.51085558357059
 10
58.54690257326502
 20
46.51555032971751
 10
58.64190794247406
 20
46.51958127315262
 10
58.74386944761681
 20
46.52267373689167
  0
LWPOLYLINE
  5
1130F
330
A
100
AcDbEntity
  8
0
  6
Continuous
 62
     7
100
AcDbPolyline
 90
       13
 70
   128
 43
0.0
 10
58.74377671478874
 20
46.11282633060264
 10
58.70065125443284
 20
46.11764961149222
 10
58.6584654476062
 20
46.12861262727912
 10
58.61583475797193
 20
46.1464501975877
 10
58.57701022270226
 20
46.16941213701866
 10
58.54147065982715
 20
46.19717388067383
 10
58.50656790149878
 20
46.23249276289485
 10
58.47823508796
 20
46.26928539278131
 10
58.45299884657629
 20
46.31142307244394
 10
58.43191504037076
 20
46.35840398816171
 10
58.41735657329036
 20
46.40397395629387
 10
58.40784852383672
 20
46.44993187632045
 10
58.4027652388786
 20
46.50581690427671
  0
LINE
  5
11310
330
A
100
AcDbEntity
  8
0
  6
Continuous
 62
     7
100
AcDbLine
 10
58.23949090075825
 20
46.05439995362565
 30
0.0
 11
58.74377671478874
 21
46.11282633060262
 31
0.0
  0
LWPOLYLINE
  5
11311
330
A
100
AcDbEntity
  8
0
  6
Continuous
 62
     7
100
AcDbPolyline
 90
        4
 70
   128
 43
0.0
 10
58.23970805991234
 20
46.03167688926444
 10
58.18249073119933
 20
46.03210768607303
 10
58.15568331398935
 20
46.03287654686212
 10
58.13542001723681
 20
46.03424054111715
  0
LWPOLYLINE
  5
11312
330
A
100
AcDbEntity
  8
0
  6
Continuous
 62
     7
100
AcDbPolyline
 90
        5
 70
   128
 43
0.0
 10
58.23949090075825
 20
46.05439995362567
 10
58.1480305080122
 20
46.04279837254219
 10
58.12693026814122
 20
46.0379533757372
 10
58.12685866431184
 20
46.03593673018636
 10
58.13542001723681
 20
46.03425462711633
  0
LWPOLYLINE
  5
11313
330
A
100
AcDbEntity
  8
0
  6
Continuous
 62
     7
100
AcDbPolyline
 90
        9
 70
   128
 43
0.0
 10
58.25408282208673
 20
45.23047699362396
 10
58.25384746851682
 20
45.37029814309167
 10
58.25308741147728
 20
45.51362435869143
 10
58.25176919671958
 20
45.65245244521626
 10
58.24992275699242
 20
45.77803969250166
 10
58.24764141204013
 20
45.88252669991592
 10
58.24506954335447
 20
45.96048801010399
 10
58.24237324834257
 20
46.00982070077001
 10
58.23970805991234
 20
46.03167571543113
  0
LINE
  5
11314
330
A
100
AcDbEntity
  8
0
  6
Continuous
 62
     7
100
AcDbLine
 10
57.34430921851663
 20
44.07798519033065
 30
0.0
 11
57.19203017659788
 21
44.07801101466247
 31
0.0
  0
LWPOLYLINE
  5
11315
330
A
100
AcDbEntity
  8
0
  6
Continuous
 62
     7
100
AcDbPolyline
 90
        5
 70
   128
 43
0.0
 10
57.68133519220871
 20
46.42829705206496
 10
57.6980538507787
 20
46.42867727737476
 10
57.76677122399769
 20
46.43336145902233
 10
57.82160567118103
 20
46.43876520046191
 10
57.89868425875306
 20
46.4473823104669
  0
LWPOLYLINE
  5
11317
330
A
100
AcDbEntity
  8
0
  6
Continuous
 62
     7
100
AcDbPolyline
 90
        9
 70
   128
 43
0.0
 10
56.97262900086844
 20
45.51785485378175
 10
57.00511835800217
 20
45.46320821992097
 10
57.04030870548058
 20
45.41040685195426
 10
57.0811539947174
 20
45.36062223548086
 10
57.12649213077952
 20
45.3172479224726
 10
57.23480113930759
 20
45.25184897589619
 10
57.27494975850118
 20
45.23914809995917
 10
57.31706396149866
 20
45.23143366773567
 10
57.35900385025593
 20
45.22908013203752
  0
LINE
  5
11318
330
A
100
AcDbEntity
  8
0
  6
Continuous
 62
     7
100
AcDbLine
 10
56.89058451166511
 20
45.70574447548802
 30
0.0
 11
56.97262900086844
 21
45.51785485378172
 31
0.0
  0
LWPOLYLINE
  5
11319
330
A
100
AcDbEntity
  8
0
  6
Continuous
 62
     7
100
AcDbPolyline
 90
        4
 70
   128
 43
0.0
 10
56.78296565424413
 20
46.11244725305842
 10
56.79245263755229
 20
46.06334045469546
 10
56.83666271984589
 20
45.87877043346501
 10
56.89058451166511
 20
45.70574447548816
  0
LWPOLYLINE
  5
1131C
330
A
100
AcDbEntity
  8
0
  6
Continuous
 62
     7
100
AcDbPolyline
 90
       23
 70
   128
 43
0.0
 10
27.28407795004114
 20
72.63378244423077
 10
27.28387135538651
 20
71.61758207377468
 10
27.28352390073974
 20
70.63550034102528
 10
27.28329617708619
 20
69.68749264031842
 10
27.28324922375555
 20
68.77345919582651
 10
27.28324452842253
 20
67.8932309755593
 10
27.28288064011008
 20
66.96488732972281
 10
27.28191105383235
 20
65.95932423632231
 10
27.28116919120839
 20
65.19486297423796
 10
27.28066679057065
 20
64.45276675736889
 10
27.28043202391746
 20
63.73278790689588
 10
27.28034516025559
 20
63.03459070650493
 10
27.28014560860038
 20
62.35773849022113
 10
27.27941313664246
 20
61.59935827137079
 10
27.278373120369
 20
60.81920403235469
 10
27.2771124234414
 20
59.76102356935192
 10
27.2763259551532
 20
58.73945848741235
 10
27.27577894885144
 20
57.75002371635614
 10
27.27502769556122
 20
56.77184321846599
 10
27.27429991893632
 20
55.72929860660693
 10
27.27292888168177
 20
54.3891907329037
 10
27.27248986804034
 20
53.03395679559063
 10
27.27112822145182
 20
51.68409167817745
  0
LWPOLYLINE
  5
1131D
330
A
100
AcDbEntity
  8
0
  6
Continuous
 62
     7
100
AcDbPolyline
 90
        6
 70
   128
 43
0.0
 10
25.41466865343227
 20
72.90200451932233
 10
25.41760088893056
 20
67.65060081333089
 10
25.42058242542589
 20
62.40120260147424
 10
25.42301695561946
 20
58.90378516705564
 10
25.42496551884096
 20
55.40845268061102
 10
25.42473779518741
 20
51.91487786275288
  0
LINE
  5
1131E
330
A
100
AcDbEntity
  8
0
  6
Continuous
 62
     7
100
AcDbLine
 10
13.6678551230093
 20
62.4053765733754
 30
0.0
 11
13.6678491799139
 21
42.47054495900591
 31
0.0
  0
LINE
  5
1131F
330
A
100
AcDbEntity
  8
0
  6
Continuous
 62
     7
100
AcDbLine
 10
14.11850959502499
 20
42.47050739634142
 30
0.0
 11
14.11846494046131
 21
62.4053765733754
 31
0.0
  0
LINE
  5
11320
330
A
100
AcDbEntity
  8
0
  6
Continuous
 62
     7
100
AcDbLine
 10
15.87304756823278
 20
44.78907577531424
 30
0.0
 11
15.87780159295971
 21
60.95204850380651
 31
0.0
  0
LINE
  5
11321
330
A
100
AcDbEntity
  8
0
  6
Continuous
 62
     7
100
AcDbLine
 10
18.72395050712475
 20
46.89917430084631
 30
0.0
 11
18.72551633938974
 21
60.97325821416473
 31
0.0
  0
LINE
  5
11322
330
A
100
AcDbEntity
  8
0
  6
Continuous
 62
     7
100
AcDbLine
 10
18.31587201893308
 20
60.97313099961775
 30
0.0
 11
18.31971519768012
 21
46.89386916140108
 31
0.0
  0
LINE
  5
11323
330
A
100
AcDbEntity
  8
0
  6
Continuous
 62
     7
100
AcDbLine
 10
16.19946242748119
 20
44.78898069481966
 30
0.0
 11
16.20373283290269
 21
60.95191116531442
 31
0.0
  0
LINE
  5
11324
330
A
100
AcDbEntity
  8
0
  6
Continuous
 62
     7
100
AcDbLine
 10
18.27357885499714
 20
46.83218481019458
 30
0.0
 11
18.28065941725686
 21
60.94797530237383
 31
0.0
  0
LINE
  5
11325
330
A
100
AcDbEntity
  8
0
  6
Continuous
 62
     7
100
AcDbLine
 10
16.2456659450163
 20
45.57528223011195
 30
0.0
 11
16.23624160715303
 21
60.94836525773485
 31
0.0
  0
LINE
  5
11326
330
A
100
AcDbEntity
  8
0
  6
Continuous
 62
     7
100
AcDbLine
 10
17.4713459860825
 20
46.84607067081356
 30
0.0
 11
17.47897590231105
 21
60.9618370994109
 31
0.0
  0
LINE
  5
11327
330
A
100
AcDbEntity
  8
0
  6
Continuous
 62
     7
100
AcDbLine
 10
19.6416791787376
 20
48.54962084845045
 30
0.0
 11
19.64206184838235
 21
62.4053767525678
 31
0.0
  0
LINE
  5
11328
330
A
100
AcDbEntity
  8
0
  6
Continuous
 62
     7
100
AcDbLine
 10
19.99672617900796
 20
48.54962084845045
 30
0.0
 11
19.99694451199548
 21
62.40536031890201
 31
0.0
  0
LWPOLYLINE
  5
11329
330
A
100
AcDbEntity
  8
0
  6
Continuous
 62
     7
100
AcDbPolyline
 90
        3
 70
   128
 43
0.0
 10
40.51524304253916
 20
77.07463432495231
 10
30.68275957313199
 20
77.07453572295796
 10
20.85027434297467
 20
77.07434556196884
  0
LINE
  5
1132A
330
A
100
AcDbEntity
  8
0
  6
Continuous
 62
     7
100
AcDbLine
 10
19.50747665704057
 20
78.29414368169421
 30
0.0
 11
40.49092121726971
 21
78.28807976824396
 31
0.0
  0
LINE
  5
1132B
330
A
100
AcDbEntity
  8
0
  6
Continuous
 62
     7
100
AcDbLine
 10
40.49101395009779
 20
78.69792600069968
 30
0.0
 11
19.50761566485653
 21
78.70348783698728
 31
0.0
  0
LINE
  5
1132C
330
A
100
AcDbEntity
  8
0
  6
Continuous
 62
     7
100
AcDbLine
 10
20.85026729997503
 20
77.44466882836173
 30
0.0
 11
40.51524304253916
 21
77.44497637267738
 31
0.0
  0
LINE
  5
1132D
330
A
100
AcDbEntity
  8
0
  6
Continuous
 62
     7
100
AcDbLine
 10
19.05751401096267
 20
78.77075765951577
 30
0.0
 11
40.99508260497396
 21
78.77907778970438
 31
0.0
  0
LWPOLYLINE
  5
1132E
330
A
100
AcDbEntity
  8
0
  6
Continuous
 62
     7
100
AcDbPolyline
 90
        5
 70
   128
 43
0.0
 10
37.24978034371225
 20
74.35464548870638
 10
35.13849096433205
 20
74.35405974590665
 10
33.02085584231623
 20
74.3539012784158
 10
30.91759430864136
 20
74.35296103796978
 10
28.79207337474531
 20
74.35224382584434
  0
LWPOLYLINE
  5
1132F
330
A
100
AcDbEntity
  8
0
  6
Continuous
 62
     7
100
AcDbPolyline
 90
        9
 70
   128
 43
0.0
 10
42.72532222957761
 20
76.89540641891497
 10
42.58961008345727
 20
76.89602150754629
 10
42.45592162588718
 20
76.89785503510766
 10
42.32725247936196
 20
76.90082483327038
 10
42.20576954009084
 20
76.90486281970507
 10
42.09157610540091
 20
76.90994082241335
 10
41.98802757768271
 20
76.91591563373677
 10
41.89510282793754
 20
76.92280838267416
 10
41.8147110959726
 20
76.93054863922956
  0
LINE
  5
11331
330
A
100
AcDbEntity
  8
0
  6
Continuous
 62
     7
100
AcDbLine
 10
40.85634725127738
 20
77.46770413237175
 30
0.0
 11
41.09217333378707
 21
77.44155525941234
 31
0.0
  0
LWPOLYLINE
  5
11332
330
A
100
AcDbEntity
  8
0
  6
Continuous
 62
     7
100
AcDbPolyline
 90
        6
 70
   128
 43
0.0
 10
42.06957918520039
 20
77.07425289974153
 10
42.05214058991623
 20
77.05001434603329
 10
42.00089807252675
 20
77.00105845584565
 10
41.94278745669817
 20
76.96399819197464
 10
41.87995274889135
 20
76.94020224400825
 10
41.8147110959726
 20
76.93054863922956
  0
LWPOLYLINE
  5
11334
330
A
100
AcDbEntity
  8
0
  6
Continuous
 62
     7
100
AcDbPolyline
 90
        5
 70
   128
 43
0.0
 10
42.45438469842603
 20
78.68825289974157
 10
42.43262397014222
 20
78.79195708829795
 10
42.40650617997585
 20
78.9003934577353
 10
42.37710869966463
 20
79.00527076471044
 10
42.34420615322142
 20
79.1050090296475
  0
LWPOLYLINE
  5
11338
330
A
100
AcDbEntity
  8
0
  6
Continuous
 62
     7
100
AcDbPolyline
 90
        5
 70
   128
 43
0.0
 10
42.72531860384511
 20
77.07425289974153
 10
42.72531870807779
 20
77.06807259699591
 10
42.72531988191121
 20
76.97923689543253
 10
42.72532105574441
 20
76.91969537685295
 10
42.72532222957761
 20
76.89540641891497
  0
LINE
  5
11339
330
A
100
AcDbEntity
  8
0
  6
Continuous
 62
     7
100
AcDbLine
 10
42.34420615322142
 20
79.10500902964748
 30
0.0
 11
42.26216166401809
 21
79.29289747752057
 31
0.0
  0
LWPOLYLINE
  5
1133A
330
A
100
AcDbEntity
  8
0
  6
Continuous
 62
     7
100
AcDbPolyline
 90
        3
 70
   128
 43
0.0
 10
41.8147110959726
 20
76.93054863922956
 10
41.16497677579764
 20
77.00259617742395
 10
40.51524304253916
 20
77.07463432495231
  0
LWPOLYLINE
  5
1133B
330
A
100
AcDbEntity
  8
0
  6
Continuous
 62
     7
100
AcDbPolyline
 90
       18
 70
   128
 43
0.0
 10
40.49092121726971
 20
78.28807976824399
 10
40.49094586776845
 20
78.39040516169908
 10
40.49096464910053
 20
78.47085030307775
 10
40.49097051826698
 20
78.49670045925941
 10
40.49097580051648
 20
78.51911128397197
 10
40.4909793220163
 20
78.53827528587109
 10
40.49098284351612
 20
78.55441079794414
 10
40.49098577809945
 20
78.56774789151135
 10
40.49099340801558
 20
78.60063400428876
 10
40.4909992771818
 20
78.62604984216208
 10
40.49100338559833
 20
78.64511524206685
 10
40.49100632018144
 20
78.65897351760409
 10
40.49100808093135
 20
78.66840878939538
 10
40.49100984168126
 20
78.67575229030686
 10
40.49101101551468
 20
78.68135617031825
 10
40.49101160243117
 20
78.68554205974445
 10
40.49101747159761
 20
78.69522148885508
 10
40.49101395009779
 20
78.6979260006997
  0
LINE
  5
1133C
330
A
100
AcDbEntity
  8
0
  6
Continuous
 62
     7
100
AcDbLine
 10
40.49092121726971
 20
78.28807976824396
 30
0.0
 11
40.51524304253916
 21
77.44497637267738
 31
0.0
  0
LWPOLYLINE
  5
1133D
330
A
100
AcDbEntity
  8
0
  6
Continuous
 62
     7
100
AcDbPolyline
 90
        5
 70
   128
 43
0.0
 10
40.83202542600793
 20
78.30493601394235
 10
40.76945717835224
 20
78.29989792156507
 10
40.68788809162128
 20
78.29520258850144
 10
40.59288213549575
 20
78.29117164506638
 10
40.49092121726971
 20
78.28807976824399
  0
LINE
  5
1133E
330
A
100
AcDbEntity
  8
0
  6
Continuous
 62
     7
100
AcDbLine
 10
40.83202542600793
 20
78.30493601394221
 30
0.0
 11
40.85634725127738
 21
77.46770413237175
 31
0.0
  0
LWPOLYLINE
  5
1133F
330
A
100
AcDbEntity
  8
0
  6
Continuous
 62
     7
100
AcDbPolyline
 90
        5
 70
   128
 43
0.0
 10
40.51524304253916
 20
77.44497637267741
 10
40.61721980751417
 20
77.44914348077137
 10
40.71223398047277
 20
77.45457832879245
 10
40.79379954570367
 20
77.46090998542874
 10
40.85634725127738
 20
77.46770413237178
  0
LWPOLYLINE
  5
11340
330
A
100
AcDbEntity
  8
0
  6
Continuous
 62
     7
100
AcDbPolyline
 90
       13
 70
   128
 43
0.0
 10
40.49101395009779
 20
78.6979260006997
 10
40.53413882353697
 20
78.69310389364338
 10
40.5763252172801
 20
78.68214029093988
 10
40.6189559069146
 20
78.66430272063124
 10
40.65778044218427
 20
78.64134019428369
 10
40.69332000505937
 20
78.61357903754518
 10
40.72822276338752
 20
78.5782607422407
 10
40.75655557692653
 20
78.54146811235435
 10
40.78179181831024
 20
78.49932984577506
 10
40.80287562451576
 20
78.45234834314064
 10
40.81743409159616
 20
78.40677778809189
 10
40.82694214104981
 20
78.36082221573182
 10
40.83202542600793
 20
78.30493601394235
  0
LWPOLYLINE
  5
11341
330
A
100
AcDbEntity
  8
0
  6
Continuous
 62
     7
100
AcDbPolyline
 90
       14
 70
   128
 43
0.0
 10
40.51524304253916
 20
77.07463432495231
 10
40.55409516289069
 20
77.0786230103898
 10
40.59325365372433
 20
77.08792211752225
 10
40.63863404778408
 20
77.10576673083053
 10
40.6621212776015
 20
77.11832205144256
 10
40.68966527518592
 20
77.13630048174312
 10
40.72032345242473
 20
77.16108949265239
 10
40.75267781873276
 20
77.19409768408948
 10
40.76659067751688
 20
77.21109009444669
 10
40.78192798296913
 20
77.23233647655948
 10
40.79805703895909
 20
77.25828288706899
 10
40.81418022578282
 20
77.28933077695202
 10
40.84231172691693
 20
77.36778040177867
 10
40.85634725127738
 20
77.46770413237178
  0
LINE
  5
11342
330
A
100
AcDbEntity
  8
0
  6
Continuous
 62
     7
100
AcDbLine
 10
40.51524304253916
 20
77.44497637267738
 30
0.0
 11
40.51524304253916
 21
77.07463432495228
 31
0.0
  0
LWPOLYLINE
  5
11343
330
A
100
AcDbEntity
  8
0
  6
Continuous
 62
     7
100
AcDbPolyline
 90
        9
 70
   128
 43
0.0
 10
40.94289339105535
 20
78.31778948820389
 10
40.93537029365438
 20
78.38803401850194
 10
40.91575201828118
 20
78.45980687971215
 10
40.88339354355684
 20
78.5289879170713
 10
40.83910716210084
 20
78.59109543517011
 10
40.78521882453014
 20
78.64214309623756
 10
40.72518488289552
 20
78.67944986509442
 10
40.66289483372384
 20
78.702081370461
 10
40.60192710772617
 20
78.71077712729479
  0
LINE
  5
11344
330
A
100
AcDbEntity
  8
0
  6
Continuous
 62
     7
100
AcDbLine
 10
40.94289339105535
 20
78.31778948820385
 30
0.0
 11
40.83202542600793
 21
78.30493601394221
 31
0.0
  0
LINE
  5
11345
330
A
100
AcDbEntity
  8
0
  6
Continuous
 62
     7
100
AcDbLine
 10
40.60192710772617
 20
78.7107771272947
 30
0.0
 11
40.49101395009779
 21
78.69792600069968
 31
0.0
  0
LWPOLYLINE
  5
11349
330
A
100
AcDbEntity
  8
0
  6
Continuous
 62
     7
100
AcDbPolyline
 90
        4
 70
   128
 43
0.0
 10
40.99508319189067
 20
78.77907778970447
 10
41.04290750681002
 20
78.77856365073402
 10
41.05937873519724
 20
78.77790865177164
 10
41.0708999087019
 20
78.77699775715732
  0
LWPOLYLINE
  5
1134A
330
A
100
AcDbEntity
  8
0
  6
Continuous
 62
     7
100
AcDbPolyline
 90
       10
 70
   128
 43
0.0
 10
40.60192710772617
 20
78.71077712729479
 10
40.72546777671255
 20
78.72511432680451
 10
40.8312565652186
 20
78.73752878742462
 10
40.91889495685063
 20
78.74811911114957
 10
40.98798560904834
 20
78.75697920464066
 10
41.03812883158457
 20
78.76420062689246
 10
41.0689278688153
 20
78.76988197989945
 10
41.07998303051362
 20
78.77411482265623
 10
41.07798223171175
 20
78.77571827889747
 10
41.07089638720208
 20
78.77699540949075
  0
LWPOLYLINE
  5
1134B
330
A
100
AcDbEntity
  8
0
  6
Continuous
 62
     7
100
AcDbPolyline
 90
        5
 70
   128
 43
0.0
 10
41.07089638720208
 20
78.77699540949075
 10
41.16529312386274
 20
78.77762927945437
 10
41.25513362670154
 20
78.77392935700024
 10
41.34014087106834
 20
78.75849814488671
 10
41.42020334280232
 20
78.72719670701818
  0
LWPOLYLINE
  5
1134C
330
A
100
AcDbEntity
  8
0
  6
Continuous
 62
     7
100
AcDbPolyline
 90
        3
 70
   128
 43
0.0
 10
41.42020334280232
 20
78.72719670701818
 10
41.53567038658593
 20
78.65714233770924
 10
41.56258593770401
 20
78.63618447174416
  0
LWPOLYLINE
  5
1134E
330
A
100
AcDbEntity
  8
0
  6
Continuous
 62
     7
100
AcDbPolyline
 90
       28
 70
   128
 43
0.0
 10
25.41774174892248
 20
72.90009234493218
 10
25.41875828853085
 20
72.93380014099577
 10
25.42015045478411
 20
72.96242523901802
 10
25.42312494828002
 20
73.00693934412746
 10
25.44081696326362
 20
73.17976398969929
 10
25.4998983392029
 20
73.50014299829459
 10
25.58710710785977
 20
73.79485731636433
 10
25.69876917111173
 20
74.07317905287564
 10
25.88470670809693
 20
74.42332529926094
 10
26.10785710727782
 20
74.74278989174209
 10
26.36180184835621
 20
75.02653825944176
 10
26.64690951497778
 20
75.27645088325178
 10
26.96273639816786
 20
75.49158634889298
 10
27.30168779669611
 20
75.664703278948
 10
27.56835923804351
 20
75.76470213487008
 10
27.84721272102434
 20
75.83821461698042
 10
27.8998661859996
 20
75.84862651804892
 10
27.95242809197998
 20
75.8579420588471
 10
28.00490548196558
 20
75.86618236837373
 10
28.05730774662175
 20
75.87336388029453
 10
28.10964662428182
 20
75.87950302827519
 10
28.18499967695288
 20
75.88691695918263
 10
28.23507070874325
 20
75.89018725866143
 10
28.26937011677273
 20
75.89163811657809
 10
28.29834971244145
 20
75.89253727285975
 10
28.32348617799744
 20
75.89307254082896
 10
28.34549085639992
 20
75.89334721781321
 10
28.3650680476087
 20
75.89345990580674
  0
LINE
  5
1134F
330
A
100
AcDbEntity
  8
0
  6
Continuous
 62
     7
100
AcDbLine
 10
28.3650680476087
 20
75.89343877680789
 30
0.0
 11
28.38069411604442
 21
75.89098311761564
 31
0.0
  0
LWPOLYLINE
  5
11350
330
A
100
AcDbEntity
  8
0
  6
Continuous
 62
     7
100
AcDbPolyline
 90
       19
 70
   128
 43
0.0
 10
28.79207337474531
 20
74.35224265201108
 10
28.67488959981051
 20
74.3430057580417
 10
28.54625390753358
 20
74.32930947149518
 10
28.40059998056745
 20
74.31028750342128
 10
28.28114131676329
 20
74.29146978233561
 10
28.15201730984768
 20
74.25781950410206
 10
27.998921279976
 20
74.19524714802995
 10
27.85598360318727
 20
74.11190263848445
 10
27.72361512112457
 20
74.00799022245386
 10
27.60220789409914
 20
73.88371179925994
 10
27.50009144296519
 20
73.74959547946443
 10
27.41642999843816
 20
73.60584081472265
 10
27.35125173251572
 20
73.45269078852059
 10
27.30454725453205
 20
73.29035199551308
 10
27.28149316918962
 20
73.15725925832547
 10
27.27271054869425
 20
73.02743682061666
 10
27.27672740613025
 20
72.8842890276733
 10
27.2807771308976
 20
72.74557949830839
 10
27.28164576751442
 20
72.63378127039747
  0
LINE
  5
11351
330
A
100
AcDbEntity
  8
0
  6
Continuous
 62
     7
100
AcDbLine
 10
25.41466161043286
 20
72.9020045193223
 30
0.0
 11
25.4177464442555
 21
72.90009234493209
 31
0.0
  0
LWPOLYLINE
  5
11352
330
A
100
AcDbEntity
  8
0
  6
Continuous
 62
     7
100
AcDbPolyline
 90
        3
 70
   128
 43
0.0
 10
18.72551640070151
 20
63.83749559496417
 10
18.72758234724938
 20
70.66840993046802
 10
18.72938535514595
 20
77.49932485288858
  0
LWPOLYLINE
  5
11353
330
A
100
AcDbEntity
  8
0
  6
Continuous
 62
     7
100
AcDbPolyline
 90
        3
 70
   128
 43
0.0
 10
18.3194217393634
 20
77.49941875954985
 10
18.31776663445862
 20
70.66851909696177
 10
18.3158720675674
 20
63.83762236895686
  0
LINE
  5
11354
330
A
100
AcDbEntity
  8
0
  6
Continuous
 62
     7
100
AcDbLine
 10
19.64206184838235
 20
62.4053767525678
 30
0.0
 11
19.67567669606365
 21
76.53883081951028
 31
0.0
  0
LWPOLYLINE
  5
11355
330
A
100
AcDbEntity
  8
0
  6
Continuous
 62
     7
100
AcDbPolyline
 90
        3
 70
   128
 43
0.0
 10
19.99694451199548
 20
62.4053603189021
 10
19.99715814964998
 20
69.33303607818075
 10
20.01873085741067
 20
76.45892356198945
  0
LINE
  5
11356
330
A
100
AcDbEntity
  8
0
  6
Continuous
 62
     7
100
AcDbLine
 10
18.28065941725686
 20
63.86277761584506
 30
0.0
 11
18.27357818704559
 21
77.97856818038065
 31
0.0
  0
LINE
  5
11357
330
A
100
AcDbEntity
  8
0
  6
Continuous
 62
     7
100
AcDbLine
 10
17.47897590231105
 20
63.848915818808
 30
0.0
 11
17.47134598097909
 21
77.96468246276504
 31
0.0
  0
LINE
  5
11358
330
A
100
AcDbEntity
  8
0
  6
Continuous
 62
     7
100
AcDbLine
 10
16.23624158733537
 20
63.86238789426238
 30
0.0
 11
16.24566685249374
 21
79.23547120648618
 31
0.0
  0
LWPOLYLINE
  5
11359
330
A
100
AcDbEntity
  8
0
  6
Continuous
 62
     7
100
AcDbPolyline
 90
        5
 70
   128
 43
0.0
 10
17.61625335509143
 20
78.62713211643328
 10
17.75827074659969
 20
78.87364884060506
 10
17.94145212307649
 20
79.09006378450604
 10
18.1605293208247
 20
79.27043969947741
 10
18.40906738588046
 20
79.40918444384036
  0
LINE
  5
1135A
330
A
100
AcDbEntity
  8
0
  6
Continuous
 62
     7
100
AcDbLine
 10
18.72940413647802
 20
77.4993342435547
 30
0.0
 11
18.72395050712475
 21
77.9115797912059
 31
0.0
  0
LINE
  5
1135B
330
A
100
AcDbEntity
  8
0
  6
Continuous
 62
     7
100
AcDbLine
 10
18.31971519768012
 20
77.91688316990121
 30
0.0
 11
18.3194217393634
 21
77.49941875954982
 31
0.0
  0
LINE
  5
1135C
330
A
100
AcDbEntity
  8
0
  6
Continuous
 62
     7
100
AcDbLine
 10
19.11316492944706
 20
78.29956988539255
 30
0.0
 11
19.50747665704057
 21
78.29414368169421
 31
0.0
  0
LINE
  5
1135D
330
A
100
AcDbEntity
  8
0
  6
Continuous
 62
     7
100
AcDbLine
 10
19.50761566485653
 20
78.70348783698728
 30
0.0
 11
19.10824967145413
 21
78.70337301645292
 31
0.0
  0
LWPOLYLINE
  5
1135E
330
A
100
AcDbEntity
  8
0
  6
Continuous
 62
     7
100
AcDbPolyline
 90
        9
 70
   128
 43
0.0
 10
18.72395050712475
 20
77.91157979120592
 10
18.73070709140325
 20
77.98765827283549
 10
18.7525638668144
 20
78.06101815662126
 10
18.78837047675733
 20
78.12801351643921
 10
18.83712916295644
 20
78.18721227570515
 10
18.89604854990489
 20
78.23538404527116
 10
18.96357917769228
 20
78.27122117487911
 10
19.0365563918333
 20
78.29281031630554
 10
19.11316544609895
 20
78.29956924825061
  0
LWPOLYLINE
  5
1135F
330
A
100
AcDbEntity
  8
0
  6
Continuous
 62
     7
100
AcDbPolyline
 90
       15
 70
   128
 43
0.0
 10
19.1082494323814
 20
78.70337258705345
 10
19.10299770234974
 20
78.7033420673886
 10
19.09886346158737
 20
78.70329276639139
 10
19.09146831201201
 20
78.70315190639954
 10
19.07823686343886
 20
78.70272697875728
 10
19.05452073613469
 20
78.70141698083253
 10
19.01194345591375
 20
78.69726630640426
 10
18.93655988357773
 20
78.68410763549352
 10
18.8069452143568
 20
78.6428309625314
 10
18.67087446217374
 20
78.56973401739722
 10
18.55277274962509
 20
78.47293033562497
 10
18.45455577260054
 20
78.35430509343954
 10
18.38119823648139
 20
78.21908654420738
 10
18.33520744912334
 20
78.06998624277267
 10
18.31971519768012
 20
77.91688316990129
  0
LWPOLYLINE
  5
11360
330
A
100
AcDbEntity
  8
0
  6
Continuous
 62
     7
100
AcDbPolyline
 90
        9
 70
   128
 43
0.0
 10
19.67863849294781
 20
76.54870302549856
 10
19.71981656391563
 20
76.68595700161384
 10
19.77879699019399
 20
76.81728311973623
 10
19.85394814354367
 20
76.93998156335428
 10
19.94481692432328
 20
77.05353115049788
 10
20.04895706400748
 20
77.15478131268142
 10
20.16614788194193
 20
77.24321791093442
 10
20.29400180126391
 20
77.31647919272578
 10
20.43053973908695
 20
77.37243112917818
  0
LWPOLYLINE
  5
11361
330
A
100
AcDbEntity
  8
0
  6
Continuous
 62
     7
100
AcDbPolyline
 90
        5
 70
   128
 43
0.0
 10
20.01873085741067
 20
76.45892356198945
 10
20.09156486389338
 20
76.64765012681439
 10
20.21081458537606
 20
76.81181775205018
 10
20.36953327659148
 20
76.94210854923213
 10
20.55884441038302
 20
77.0306789644774
  0
LWPOLYLINE
  5
11362
330
A
100
AcDbEntity
  8
0
  6
Continuous
 62
     7
100
AcDbPolyline
 90
       13
 70
   128
 43
0.0
 10
18.27357885499714
 20
77.97856810802435
 10
18.27357415966389
 20
77.97910102832705
 10
18.2735718119975
 20
77.97951656530321
 10
18.27356946433087
 20
77.98026077559379
 10
18.27356242133123
 20
77.98158955485078
 10
18.27356007366484
 20
77.98395835038141
 10
18.27356946433087
 20
77.98818415013866
 10
18.27364224199346
 20
77.9957178120392
 10
18.27394509097598
 20
78.00912298793574
 10
18.27502736524707
 20
78.03292363123515
 10
18.27868268203701
 20
78.07500790148427
 10
18.29063700001711
 20
78.14898756923438
 10
18.34377643196444
 20
78.31130758090958
  0
LWPOLYLINE
  5
11363
330
A
100
AcDbEntity
  8
0
  6
Continuous
 62
     7
100
AcDbPolyline
 90
        5
 70
   128
 43
0.0
 10
18.34377643196444
 20
78.31130758090958
 10
18.41415008392164
 20
78.43525498312263
 10
18.50573490299371
 20
78.54443086751749
 10
18.6155446573523
 20
78.63526678096596
 10
18.73976204121641
 20
78.70448303332299
  0
LWPOLYLINE
  5
11364
330
A
100
AcDbEntity
  8
0
  6
Continuous
 62
     7
100
AcDbPolyline
 90
        3
 70
   128
 43
0.0
 10
18.73976204121641
 20
78.70448303332299
 10
18.89547337160457
 20
78.75445546311894
 10
19.05751401096267
 20
78.77075765951579
  0
LINE
  5
11365
330
A
100
AcDbEntity
  8
0
  6
Continuous
 62
     7
100
AcDbLine
 10
19.10824967145413
 20
78.70337301645292
 30
0.0
 11
19.05751401096267
 21
78.77075765951577
 31
0.0
  0
LINE
  5
11366
330
A
100
AcDbEntity
  8
0
  6
Continuous
 62
     7
100
AcDbLine
 10
18.27357818704559
 20
77.97856818038065
 30
0.0
 11
18.31971519768012
 21
77.91688316990121
 31
0.0
  0
LWPOLYLINE
  5
11367
330
A
100
AcDbEntity
  8
0
  6
Continuous
 62
     7
100
AcDbPolyline
 90
        5
 70
   128
 43
0.0
 10
17.4713459860825
 20
77.96468166048876
 10
17.4804455415599
 20
78.13550726800875
 10
17.50766908266269
 20
78.30326212770515
 10
17.55307295338752
 20
78.46793684891181
 10
17.61625335509143
 20
78.62713211643328
  0
LWPOLYLINE
  5
11368
330
A
100
AcDbEntity
  8
0
  6
Continuous
 62
     7
100
AcDbPolyline
 90
        3
 70
   128
 43
0.0
 10
20.43054208675358
 20
77.37242643384516
 10
20.64038825969851
 20
77.42732192035825
 10
20.85026729997503
 20
77.44466882836175
  0
LWPOLYLINE
  5
11369
330
A
100
AcDbEntity
  8
0
  6
Continuous
 62
     7
100
AcDbPolyline
 90
        3
 70
   128
 43
0.0
 10
20.55884441038302
 20
77.0306789644774
 10
20.70442321201995
 20
77.06485159851425
 10
20.85027434297467
 20
77.07434556196884
  0
LINE
  5
1136A
330
A
100
AcDbEntity
  8
0
  6
Continuous
 62
     7
100
AcDbLine
 10
18.725280611784
 20
62.40537656586401
 30
0.0
 11
18.72551640070151
 21
63.83749559496414
 31
0.0
  0
LINE
  5
1136B
330
A
100
AcDbEntity
  8
0
  6
Continuous
 62
     7
100
AcDbLine
 10
18.3158720675674
 20
63.83762236895677
 30
0.0
 11
18.31565598974885
 21
62.40537656586332
 31
0.0
  0
LINE
  5
1136C
330
A
100
AcDbEntity
  8
0
  6
Continuous
 62
     7
100
AcDbLine
 10
15.8780632008104
 20
62.40537657337324
 30
0.0
 11
15.87780159295971
 21
63.85870441441238
 31
0.0
  0
LINE
  5
1136D
330
A
100
AcDbEntity
  8
0
  6
Continuous
 62
     7
100
AcDbLine
 10
16.2039643633957
 20
62.40537657337324
 30
0.0
 11
16.20373283290269
 21
63.85884175290448
 31
0.0
  0
LINE
  5
1136E
330
A
100
AcDbEntity
  8
0
  6
Continuous
 62
     7
100
AcDbLine
 10
18.72551633938974
 20
60.97325821416473
 30
0.0
 11
18.725280611784
 21
62.40537656586401
 31
0.0
  0
LINE
  5
1136F
330
A
100
AcDbEntity
  8
0
  6
Continuous
 62
     7
100
AcDbLine
 10
18.31565598974885
 20
62.40537656586332
 30
0.0
 11
18.31587201893308
 21
60.97313099961775
 31
0.0
  0
LWPOLYLINE
  5
11370
330
A
100
AcDbEntity
  8
0
  6
Continuous
 62
     7
100
AcDbPolyline
 90
        3
 70
   128
 43
0.0
 10
18.28067115558951
 20
60.96872163151542
 10
18.28107730189958
 20
62.40537968715094
 10
18.28067115558951
 20
63.84203128670359
  0
LINE
  5
11371
330
A
100
AcDbEntity
  8
0
  6
Continuous
 62
     7
100
AcDbLine
 10
15.87780159295971
 20
60.95204850380651
 30
0.0
 11
15.8780632008104
 21
62.40537657337324
 31
0.0
  0
LINE
  5
11372
330
A
100
AcDbEntity
  8
0
  6
Continuous
 62
     7
100
AcDbLine
 10
16.20373283290269
 20
60.95191116531442
 30
0.0
 11
16.2039643633957
 21
62.40537657337324
 31
0.0
  0
LWPOLYLINE
  5
11373
330
A
100
AcDbEntity
  8
0
  6
Continuous
 62
     7
100
AcDbPolyline
 90
        3
 70
   128
 43
0.0
 10
16.23623627603547
 20
60.95541799219635
 10
16.2357127463988
 20
62.40537675256783
 10
16.23623627603547
 20
63.85533492602267
  0
LWPOLYLINE
  5
11374
330
A
100
AcDbEntity
  8
0
  6
Continuous
 62
     7
100
AcDbPolyline
 90
        3
 70
   128
 43
0.0
 10
17.4789899883101
 20
60.9823815292307
 10
17.47942900195153
 20
62.40537675256783
 10
17.4789899883101
 20
63.82837197590496
  0
LINE
  5
11375
330
A
100
AcDbEntity
  8
0
  6
Continuous
 62
     7
100
AcDbLine
 10
42.02878473250075
 20
43.66848414553681
 30
0.0
 11
16.98613731028945
 21
43.67445065934567
 31
0.0
  0
LWPOLYLINE
  5
11376
330
A
100
AcDbEntity
  8
0
  6
Continuous
 62
     7
100
AcDbPolyline
 90
        3
 70
   128
 43
0.0
 10
19.50762507210538
 20
46.10726529550541
 10
29.99931628306013
 20
46.11031432741358
 10
40.49101395009779
 20
46.11282633060264
  0
LWPOLYLINE
  5
11377
330
A
100
AcDbEntity
  8
0
  6
Continuous
 62
     7
100
AcDbPolyline
 90
        3
 70
   128
 43
0.0
 10
40.49092121726971
 20
46.52267373689167
 10
29.99920359506655
 20
46.51994750913158
 10
19.50748655977986
 20
46.51660971423999
  0
LINE
  5
11378
330
A
100
AcDbEntity
  8
0
  6
Continuous
 62
     7
100
AcDbLine
 10
40.51524304253916
 20
47.36577361095839
 30
0.0
 11
20.84783981278111
 21
47.36566796596446
 31
0.0
  0
LINE
  5
11379
330
A
100
AcDbEntity
  8
0
  6
Continuous
 62
     7
100
AcDbLine
 10
40.51524304253916
 20
47.7361156586835
 30
0.0
 11
20.84783746511471
 21
47.73602468660533
 31
0.0
  0
LINE
  5
1137A
330
A
100
AcDbEntity
  8
0
  6
Continuous
 62
     7
100
AcDbLine
 10
42.02878446391969
 20
43.9948236139943
 30
0.0
 11
16.98625234594965
 21
44.00011778680379
 31
0.0
  0
LINE
  5
1137B
330
A
100
AcDbEntity
  8
0
  6
Continuous
 62
     7
100
AcDbLine
 10
40.99508260497396
 20
46.0316757154311
 30
0.0
 11
19.05751401096267
 21
46.03999467178653
 31
0.0
  0
LWPOLYLINE
  5
1137C
330
A
100
AcDbEntity
  8
0
  6
Continuous
 62
     7
100
AcDbPolyline
 90
        3
 70
   128
 43
0.0
 10
41.8904814463699
 20
44.07798519033067
 10
29.86415525165785
 20
44.07176152635488
 10
17.83783316536255
 20
44.06411752412734
  0
LINE
  5
1137D
330
A
100
AcDbEntity
  8
0
  6
Continuous
 62
     7
100
AcDbLine
 10
40.98070725588331
 20
45.23047699362393
 30
0.0
 11
19.04318620211916
 21
45.26655828055118
 31
0.0
  0
LINE
  5
11380
330
A
100
AcDbEntity
  8
0
  6
Continuous
 62
     7
100
AcDbLine
 10
40.51524304253916
 20
47.36577361095839
 30
0.0
 11
40.49092121726971
 21
46.52267373689165
 31
0.0
  0
LINE
  5
11381
330
A
100
AcDbEntity
  8
0
  6
Continuous
 62
     7
100
AcDbLine
 10
40.85634666436066
 20
47.34304702509724
 30
0.0
 11
40.83202542600793
 21
46.50581690427668
 31
0.0
  0
LWPOLYLINE
  5
11383
330
A
100
AcDbEntity
  8
0
  6
Continuous
 62
     7
100
AcDbPolyline
 90
       15
 70
   128
 43
0.0
 10
28.8108429686672
 20
50.48571737364497
 10
29.5303675456662
 20
50.48523023283966
 10
30.196148166586
 20
50.48470670320298
 10
30.80816605009431
 20
50.4844326131354
 10
31.48181604922866
 20
50.48389558441627
 10
31.88959750896993
 20
50.48338320619572
 10
32.27174597168323
 20
50.48296590846965
 10
32.62827434953533
 20
50.48260143324061
 10
32.9847158637258
 20
50.48199162685901
 10
33.40192085692525
 20
50.48102086674808
 10
34.11134577250459
 20
50.47911514844091
 10
34.8404828701182
 20
50.47559951780957
 10
35.57744356644889
 20
50.47043289068963
 10
36.26751901447324
 20
50.46552509380493
 10
36.93689626051969
 20
50.46219610266283
  0
LWPOLYLINE
  5
1138B
330
A
100
AcDbEntity
  8
0
  6
Continuous
 62
     7
100
AcDbPolyline
 90
       38
 70
   128
 43
0.0
 10
36.06816104175891
 20
48.02360796758475
 10
36.08510062961909
 20
48.01093467672948
 10
36.13498032658708
 20
47.99861823118701
 10
36.21685637071687
 20
47.98701430243696
 10
36.3279949043324
 20
47.97644276004425
 10
36.46551181909899
 20
47.96723051657344
 10
36.6252634835887
 20
47.95961057792786
 10
36.80263673306581
 20
47.95383707900955
 10
36.99266742664918
 20
47.95003268539474
 10
37.18972351232901
 20
47.94833767015879
 10
37.38847461324485
 20
47.94876318471771
 10
37.58308443039846
 20
47.95132331507059
 10
37.76830475525822
 20
47.9559147638902
 10
37.93879229879758
 20
47.96243775534882
 10
38.08989398595054
 20
47.97067806487544
 10
38.21723376630189
 20
47.98043848848138
 10
38.31734178871784
 20
47.99141148185097
 10
38.38711913337602
 20
48.00332412875
 10
38.42481913637698
 20
48.01580667169961
 10
38.42890994530853
 20
48.02853043738529
 10
38.39965919415567
 20
48.04111510382907
 10
38.33738616556639
 20
48.05320323880128
 10
38.24429649224749
 20
48.06445501757153
 10
38.12271201639851
 20
48.07452768082626
 10
37.97637726613834
 20
48.08316181141359
 10
37.80943587289539
 20
48.0900786239329
 10
37.62664303522934
 20
48.09512199855984
 10
37.43339721233088
 20
48.09811586030455
 10
37.23496187256342
 20
48.09901619041946
 10
37.03719444392459
 20
48.09776957949108
 10
36.84541943410795
 20
48.09444528368207
 10
36.66519494362797
 20
48.08910903765528
 10
36.5014217263697
 20
48.08193985098379
 10
36.35881741822823
 20
48.073104994908
 10
36.24128501481346
 20
48.06288501557841
 10
36.15235071125585
 20
48.05152817873082
 10
36.09434691425463
 20
48.03938780817825
 10
36.06816104175891
 20
48.02360796758475
  0
LWPOLYLINE
  5
1138C
330
A
100
AcDbEntity
  8
0
  6
Continuous
 62
     7
100
AcDbPolyline
 90
        9
 70
   128
 43
0.0
 10
42.72531166507815
 20
47.91533123947155
 10
42.58962827787286
 20
47.91471262934041
 10
42.4559409941362
 20
47.91288027561236
 10
42.32732643085774
 20
47.9099110643663
 10
42.20532230961658
 20
47.90585664426581
 10
42.0915180006541
 20
47.90079977055635
 10
41.98784387277669
 20
47.89481498165017
 10
41.89464444604732
 20
47.88789523454764
 10
41.81470229222305
 20
47.88019840982317
  0
LINE
  5
1138D
330
A
100
AcDbEntity
  8
0
  6
Continuous
 62
     7
100
AcDbLine
 10
41.56333519220871
 20
47.42143701140562
 30
0.0
 11
41.36501257966923
 21
47.39944725305842
 31
0.0
  0
LWPOLYLINE
  5
1138E
330
A
100
AcDbEntity
  8
0
  6
Continuous
 62
     7
100
AcDbPolyline
 90
        6
 70
   128
 43
0.0
 10
41.81470229222305
 20
47.88019840982317
 10
41.87994570589171
 20
47.87054832654419
 10
41.94278217444867
 20
47.84675413932771
 10
42.00089455102693
 20
47.80969504929001
 10
42.05213882916632
 20
47.7607368114358
 10
42.07680961617596
 20
47.72644725305843
  0
LWPOLYLINE
  5
11390
330
A
100
AcDbEntity
  8
0
  6
Continuous
 62
     7
100
AcDbPolyline
 90
        8
 70
   128
 43
0.0
 10
42.72531166507815
 20
47.91533123947155
 10
42.72531166507815
 20
47.90707508319584
 10
42.72531166507815
 20
47.89006213075654
 10
42.72531225199486
 20
47.8646797471313
 10
42.72531225199486
 20
47.83150545828706
 10
42.72531283891157
 20
47.79129462593036
 10
42.72531283891157
 20
47.74496107925872
 10
42.72531305030966
 20
47.72644725305843
  0
LWPOLYLINE
  5
11391
330
A
100
AcDbEntity
  8
0
  6
Continuous
 62
     7
100
AcDbPolyline
 90
        5
 70
   128
 43
0.0
 10
40.85634666436066
 20
47.34304702509732
 10
40.79379954570367
 20
47.34984175895701
 10
40.71223398047277
 20
47.35617224175999
 10
40.61721980751417
 20
47.36160650286447
 10
40.51524304253916
 20
47.36577361095842
  0
LINE
  5
11392
330
A
100
AcDbEntity
  8
0
  6
Continuous
 62
     7
100
AcDbLine
 10
41.81470232503307
 20
47.8801986281478
 30
0.0
 11
40.51524304253916
 21
47.7361156586835
 31
0.0
  0
LWPOLYLINE
  5
11393
330
A
100
AcDbEntity
  8
0
  6
Continuous
 62
     7
100
AcDbPolyline
 90
       12
 70
   128
 43
0.0
 10
40.85634666436066
 20
47.34304702509732
 10
40.84230879233382
 20
47.44297955943991
 10
40.81417494353331
 20
47.52143329268299
 10
40.78192211380269
 20
47.5784217239092
 10
40.75267781873276
 20
47.61665288646296
 10
40.72031406175847
 20
47.64966929473295
 10
40.68965294993654
 20
47.67445947947547
 10
40.66211188693546
 20
47.69243497519281
 10
40.63863463470079
 20
47.7049826658887
 10
40.59324191539189
 20
47.72283314836321
 10
40.55408459839123
 20
47.73212932091254
 10
40.51524304253916
 20
47.73611565868352
  0
LWPOLYLINE
  5
11394
330
A
100
AcDbEntity
  8
0
  6
Continuous
 62
     7
100
AcDbPolyline
 90
        5
 70
   128
 43
0.0
 10
40.51524304253916
 20
47.73611565868352
 10
40.51524539020578
 20
47.70168360749486
 10
40.51524539020578
 20
47.62069322056416
 10
40.51524480328907
 20
47.50365852245411
 10
40.51524304253916
 20
47.36577361095842
  0
LWPOLYLINE
  5
113A0
330
A
100
AcDbEntity
  8
0
  6
Continuous
 62
     7
100
AcDbPolyline
 90
        3
 70
   128
 43
0.0
 10
28.37830419151487
 20
48.91938243562558
 10
28.36886891972381
 20
48.9178992972941
 10
28.3594313002659
 20
48.91641615896268
  0
LWPOLYLINE
  5
113A1
330
A
100
AcDbEntity
  8
0
  6
Continuous
 62
     7
100
AcDbPolyline
 90
        3
 70
   128
 43
0.0
 10
25.42473779518741
 20
51.91487786275288
 10
25.42624030176762
 20
51.91580519103294
 10
25.42775924201374
 20
51.91673281277136
  0
LWPOLYLINE
  5
113A2
330
A
100
AcDbEntity
  8
0
  6
Continuous
 62
     7
100
AcDbPolyline
 90
       27
 70
   128
 43
0.0
 10
28.3594313002659
 20
48.91642144121229
 10
28.29966205803271
 20
48.91761757731027
 10
28.23062892366511
 20
48.92032619757131
 10
28.16749312762522
 20
48.92448274116592
 10
28.09262604192623
 20
48.93152221926155
 10
28.02637019706572
 20
48.93997499260925
 10
27.94922822249737
 20
48.95284959586965
 10
27.90706647925254
 20
48.9602377024452
 10
27.8635548277523
 20
48.96852555221911
 10
27.81869796332922
 20
48.9777912051035
 10
27.63517852287169
 20
49.02413531627454
 10
27.44480389614137
 20
49.08709268965785
 10
27.26392558053226
 20
49.16096201708095
 10
26.9264320829202
 20
49.33975443097662
 10
26.61383558887769
 20
49.5601545388154
 10
26.32601871507859
 20
49.82185831778136
 10
26.07573163845655
 20
50.11252525875026
 10
25.85957728554058
 20
50.43524430396113
 10
25.68048319649552
 20
50.79013929282362
 10
25.56261155526681
 20
51.11105180863834
 10
25.47828572111121
 20
51.45120433205605
 10
25.46279346966776
 20
51.53995052883286
 10
25.45010198439695
 20
51.62707214036967
 10
25.4356098388962
 20
51.76366231377304
 10
25.43149907479892
 20
51.82675996023161
 10
25.42907158760499
 20
51.87602603585983
 10
25.42752447536055
 20
51.91673281277136
  0
LWPOLYLINE
  5
113A3
330
A
100
AcDbEntity
  8
0
  6
Continuous
 62
     7
100
AcDbPolyline
 90
       14
 70
   128
 43
0.0
 10
27.27112822145182
 20
51.68409167817745
 10
27.30460359852873
 20
51.50638740771924
 10
27.36132556960365
 20
51.33491707227799
 10
27.4409889380272
 20
51.17073741525124
 10
27.51607670438034
 20
51.05284464502372
 10
27.60155759046984
 20
50.94492505568169
 10
27.6971217043133
 20
50.8471503203402
 10
27.80248497826051
 20
50.75964369149213
 10
27.91942459587608
 20
50.68232388118392
 10
28.04151734152902
 20
50.62093122754404
 10
28.16846271390295
 20
50.57511944975911
 10
28.30003064167818
 20
50.54449179218526
 10
28.55598028997474
 20
50.50774259412972
 10
28.8108429686672
 20
50.48571737364497
  0
LWPOLYLINE
  5
113A5
330
A
100
AcDbEntity
  8
0
  6
Continuous
 62
     7
100
AcDbPolyline
 90
        7
 70
   128
 43
0.0
 10
41.87578857538051
 20
45.22908013203752
 10
41.9410983106286
 20
45.23503264052888
 10
42.00251678860036
 20
45.25283969117262
 10
42.05711822988042
 20
45.28018531093508
 10
42.10916717072359
 20
45.31798274209703
 10
42.19422312917095
 20
45.40992558031521
 10
42.26216166401809
 20
45.51785485378175
  0
LWPOLYLINE
  5
113A7
330
A
100
AcDbEntity
  8
0
  6
Continuous
 62
     7
100
AcDbPolyline
 90
        4
 70
   128
 43
0.0
 10
42.34420615322142
 20
45.70574447548816
 10
42.39684377144771
 20
45.87407216581826
 10
42.44099985741104
 20
46.05703638314096
 10
42.45174075431879
 20
46.11244725305841
  0
LINE
  5
113A8
330
A
100
AcDbEntity
  8
0
  6
Continuous
 62
     7
100
AcDbLine
 10
42.26216166401809
 20
45.51785485378172
 30
0.0
 11
42.34420615322142
 21
45.70574447548802
 31
0.0
  0
LWPOLYLINE
  5
113A9
330
A
100
AcDbEntity
  8
0
  6
Continuous
 62
     7
100
AcDbPolyline
 90
       14
 70
   128
 43
0.0
 10
40.49101395009779
 20
46.11282633060264
 10
40.49101747159761
 20
46.11553142936393
 10
40.49101160243117
 20
46.12521203230781
 10
40.49100984168126
 20
46.13500062791215
 10
40.49100632018144
 20
46.15177881369826
 10
40.49100397251504
 20
46.16248475999995
 10
40.49100103793171
 20
46.17638059820168
 10
40.4909969295154
 20
46.19404385427029
 10
40.49099223418238
 20
46.21606379250536
 10
40.49098577809945
 20
46.24300561362431
 10
40.49097756126639
 20
46.28166757298666
 10
40.49096464910053
 20
46.33990320205785
 10
40.49094586776845
 20
46.42034658268667
 10
40.49092121726971
 20
46.52267373689167
  0
LWPOLYLINE
  5
113AA
330
A
100
AcDbEntity
  8
0
  6
Continuous
 62
     7
100
AcDbPolyline
 90
        5
 70
   128
 43
0.0
 10
40.49092121726971
 20
46.52267373689167
 10
40.59288213549575
 20
46.51958127315262
 10
40.68788809162128
 20
46.51555032971751
 10
40.76945717835224
 20
46.51085558357059
 10
40.83202542600793
 20
46.50581690427671
  0
LWPOLYLINE
  5
113AB
330
A
100
AcDbEntity
  8
0
  6
Continuous
 62
     7
100
AcDbPolyline
 90
       12
 70
   128
 43
0.0
 10
40.83202542600793
 20
46.50581690427671
 10
40.82694214104981
 20
46.44993187632045
 10
40.81743409159616
 20
46.40397395629387
 10
40.80287562451576
 20
46.35840398816171
 10
40.78179181831024
 20
46.31142307244394
 10
40.75655557692653
 20
46.26928539278131
 10
40.72822276338752
 20
46.23249276289485
 10
40.69332000505937
 20
46.19717388067383
 10
40.65778044218427
 20
46.16941213701866
 10
40.6189559069146
 20
46.1464501975877
 10
40.5561857599373
 20
46.12258616729199
 10
40.49101395009779
 20
46.11282633060264
  0
LWPOLYLINE
  5
113AC
330
A
100
AcDbEntity
  8
0
  6
Continuous
 62
     7
100
AcDbPolyline
 90
        9
 70
   128
 43
0.0
 10
41.33610640613347
 20
46.4473823104669
 10
41.32858741714881
 20
46.37715597458444
 10
41.30897970627507
 20
46.30540072087322
 10
41.27663942596609
 20
46.23623787792976
 10
41.23237769500883
 20
46.17414268508023
 10
41.17851870326967
 20
46.12309561092937
 10
41.11851410746658
 20
46.08577651682324
 10
41.05624870879364
 20
46.06312388245785
 10
40.99529917721156
 20
46.05439995362567
  0
LINE
  5
113AD
330
A
100
AcDbEntity
  8
0
  6
Continuous
 62
     7
100
AcDbLine
 10
40.49101395009779
 20
46.11282633060262
 30
0.0
 11
40.99529917721156
 21
46.05439995362565
 31
0.0
  0
LINE
  5
113AE
330
A
100
AcDbEntity
  8
0
  6
Continuous
 62
     7
100
AcDbLine
 10
40.83202542600793
 20
46.50581690427668
 30
0.0
 11
41.12426814708871
 21
46.47193924300095
 31
0.0
  0
LWPOLYLINE
  5
113B0
330
A
100
AcDbEntity
  8
0
  6
Continuous
 62
     7
100
AcDbPolyline
 90
        6
 70
   128
 43
0.0
 10
41.33611344913288
 20
46.44736235530134
 10
41.39534566264683
 20
46.44069967768408
 10
41.44663043803416
 20
46.43535286715795
 10
41.49479751226727
 20
46.43121627872889
 10
41.54380211653529
 20
46.42836151622626
 10
41.56333519220871
 20
46.42789315299373
  0
LWPOLYLINE
  5
113B1
330
A
100
AcDbEntity
  8
0
  6
Continuous
 62
     7
100
AcDbPolyline
 90
        6
 70
   128
 43
0.0
 10
40.99529389496183
 20
46.05438880220972
 10
41.07375584503779
 20
46.04475221801331
 10
41.10216671848911
 20
46.03981096688047
 10
41.10862456220139
 20
46.03713110553442
 10
41.10673645139331
 20
46.03552941004309
 10
41.09937358223283
 20
46.03425110561651
  0
LWPOLYLINE
  5
113B2
330
A
100
AcDbEntity
  8
0
  6
Continuous
 62
     7
100
AcDbPolyline
 90
        5
 70
   128
 43
0.0
 10
41.09937358223283
 20
46.03425110561651
 10
41.09023939867438
 20
46.03348224482735
 10
41.07797401487892
 20
46.0328524832802
 10
41.05055444362074
 20
46.03208186174114
 10
40.99508084422405
 20
46.0316698462648
  0
LINE
  5
113B3
330
A
100
AcDbEntity
  8
0
  6
Continuous
 62
     7
100
AcDbLine
 10
40.98070725588331
 20
45.23047699362393
 30
0.0
 11
41.8757868146306
 21
45.22908013203744
 31
0.0
  0
LWPOLYLINE
  5
113B4
330
A
100
AcDbEntity
  8
0
  6
Continuous
 62
     7
100
AcDbPolyline
 90
        9
 70
   128
 43
0.0
 10
40.99508260497396
 20
46.03167571543113
 10
40.99241741654395
 20
46.00982070077001
 10
40.98972112153205
 20
45.96048801010399
 10
40.98714925284639
 20
45.88252669991592
 10
40.98486790789411
 20
45.77803969250166
 10
40.98302088125024
 20
45.65245244521626
 10
40.98170325340925
 20
45.51362435869143
 10
40.9809431963697
 20
45.37029814309167
 10
40.98070725588331
 20
45.23047699362396
  0
LWPOLYLINE
  5
113B5
330
A
100
AcDbEntity
  8
0
  6
Continuous
 62
     7
100
AcDbPolyline
 90
        9
 70
   128
 43
0.0
 10
19.11317248909859
 20
46.51118308305174
 10
19.03849321672192
 20
46.51758047435092
 10
18.96533757992438
 20
46.53881922654747
 10
18.89770600247629
 20
46.57427133884417
 10
18.83801423323894
 20
46.6226637890642
 10
18.78915459737891
 20
46.68157378534672
 10
18.75282915313232
 20
46.74909267480134
 10
18.73085968972782
 20
46.82229291726289
 10
18.72395050712475
 20
46.89917430084634
  0
LWPOLYLINE
  5
113B6
330
A
100
AcDbEntity
  8
0
  6
Continuous
 62
     7
100
AcDbPolyline
 90
       15
 70
   128
 43
0.0
 10
18.31971519768012
 20
46.89386916140105
 10
18.31975041267788
 20
46.88856226120598
 10
18.31980440900816
 20
46.88438341477936
 10
18.31995231199971
 20
46.87691196604183
 10
18.32039367330753
 20
46.86353848364345
 10
18.32175297222966
 20
46.83956822143713
 10
18.32603042065057
 20
46.79660709773841
 10
18.33949898354353
 20
46.72084907259048
 10
18.38174524278338
 20
46.59037222283589
 10
18.45613809984297
 20
46.45411541808008
 10
18.55453584719043
 20
46.33607533177772
 10
18.67419171498318
 20
46.23880622511549
 10
18.81048784315339
 20
46.16645525102185
 10
18.95865612097486
 20
46.12200101140891
 10
19.1082494323814
 20
46.10738033116549
  0
LWPOLYLINE
  5
113B7
330
A
100
AcDbEntity
  8
0
  6
Continuous
 62
     7
100
AcDbPolyline
 90
        3
 70
   128
 43
0.0
 10
19.6776712543367
 20
48.26109321860875
 10
19.65048527589852
 20
48.4053549793214
 10
19.6416791787376
 20
48.54962084845047
  0
LWPOLYLINE
  5
113B8
330
A
100
AcDbEntity
  8
0
  6
Continuous
 62
     7
100
AcDbPolyline
 90
        5
 70
   128
 43
0.0
 10
20.55774805011265
 20
47.77952459977316
 10
20.36849795565104
 20
47.86830982650613
 10
20.21011967608274
 20
47.99852080302597
 10
20.09106950625505
 20
48.16265849551346
 10
20.01818150344206
 20
48.35139855942097
  0
LWPOLYLINE
  5
113B9
330
A
100
AcDbEntity
  8
0
  6
Continuous
 62
     7
100
AcDbPolyline
 90
        3
 70
   128
 43
0.0
 10
20.01818150344206
 20
48.35139855942097
 10
20.00086511510358
 20
48.450313380322
 10
19.99672617900796
 20
48.54962026153382
  0
LWPOLYLINE
  5
113BA
330
A
100
AcDbEntity
  8
0
  6
Continuous
 62
     7
100
AcDbPolyline
 90
        9
 70
   128
 43
0.0
 10
20.42964762580482
 20
47.43743202342526
 10
20.29278571000054
 20
47.49352599370283
 10
20.16488953268094
 20
47.56685535782364
 10
20.04777853540872
 20
47.65525028499567
 10
19.94356561806194
 20
47.75663191650497
 10
19.85300203393126
 20
47.86993089024631
 10
19.77761141859537
 20
47.99308536808817
 10
19.71880002430726
 20
48.12413563539312
 10
19.67767594966972
 20
48.26108911019227
  0
LWPOLYLINE
  5
113BB
330
A
100
AcDbEntity
  8
0
  6
Continuous
 62
     7
100
AcDbPolyline
 90
        3
 70
   128
 43
0.0
 10
20.84781633611578
 20
47.36566796596449
 10
20.665698452578
 20
47.37881607237582
 10
20.42964762580482
 20
47.43743730567493
  0
LWPOLYLINE
  5
113BC
330
A
100
AcDbEntity
  8
0
  6
Continuous
 62
     7
100
AcDbPolyline
 90
        3
 70
   128
 43
0.0
 10
20.84783276978169
 20
47.73602292585557
 10
20.72145318504158
 20
47.74309644511586
 10
20.55775744077869
 20
47.77952107827334
  0
LWPOLYLINE
  5
113BD
330
A
100
AcDbEntity
  8
0
  6
Continuous
 62
     7
100
AcDbPolyline
 90
        5
 70
   128
 43
0.0
 10
18.40906738588046
 20
45.40157023512856
 10
18.16024525317425
 20
45.54050748814709
 10
17.94115162176058
 20
45.72098552661256
 10
17.75804067527952
 20
45.93743157709517
 10
17.61625335509143
 20
46.18362021486908
  0
LINE
  5
113BE
330
A
100
AcDbEntity
  8
0
  6
Continuous
 62
     7
100
AcDbLine
 10
19.50748186444684
 20
46.51661910490611
 30
0.0
 11
19.11317207467118
 21
46.51118333062868
 31
0.0
  0
LINE
  5
113BF
330
A
100
AcDbEntity
  8
0
  6
Continuous
 62
     7
100
AcDbLine
 10
19.10824966839891
 20
46.10738015996605
 30
0.0
 11
19.50762507210538
 21
46.10726529550539
 31
0.0
  0
LWPOLYLINE
  5
113C0
330
A
100
AcDbEntity
  8
0
  6
Continuous
 62
     7
100
AcDbPolyline
 90
        3
 70
   128
 43
0.0
 10
19.05751401096267
 20
46.03999408486996
 10
18.89547337160457
 20
46.0562974551
 10
18.73976204121641
 20
46.10627105872922
  0
LWPOLYLINE
  5
113C1
330
A
100
AcDbEntity
  8
0
  6
Continuous
 62
     7
100
AcDbPolyline
 90
        5
 70
   128
 43
0.0
 10
18.73976204121641
 20
46.10627105872922
 10
18.61540144969376
 20
46.1755847392474
 10
18.50558465233575
 20
46.26647112752627
 10
18.41403739592806
 20
46.37566285867026
 10
18.34377643196444
 20
46.49944592422596
  0
LWPOLYLINE
  5
113C2
330
A
100
AcDbEntity
  8
0
  6
Continuous
 62
     7
100
AcDbPolyline
 90
       10
 70
   128
 43
0.0
 10
18.34377643196444
 20
46.49944592422596
 10
18.29052196435714
 20
46.66230883378673
 10
18.27659795415684
 20
46.75653536462377
 10
18.27403899763726
 20
46.79869945553494
 10
18.27361172232849
 20
46.8174097708767
 10
18.27356007366484
 20
46.82567473090196
 10
18.27356476899786
 20
46.82931772244265
 10
18.27356946433087
 20
46.83092235251715
 10
18.27357415966389
 20
46.83162841322658
 10
18.27357885499714
 20
46.8321848101946
  0
LWPOLYLINE
  5
113C3
330
A
100
AcDbEntity
  8
0
  6
Continuous
 62
     7
100
AcDbPolyline
 90
        5
 70
   128
 43
0.0
 10
19.04318620211916
 20
45.26655828055121
 10
18.88085210444456
 20
45.27521647472044
 10
18.72078820030629
 20
45.30050201710125
 10
18.56301796636967
 20
45.34259567801647
 10
18.40906034288082
 20
45.401550279963
  0
LWPOLYLINE
  5
113C4
330
A
100
AcDbEntity
  8
0
  6
Continuous
 62
     7
100
AcDbPolyline
 90
        9
 70
   128
 43
0.0
 10
16.68087962182562
 20
43.71567450981084
 10
16.54724339983568
 20
43.75341794464262
 10
16.41882604054626
 20
43.81260027024282
 10
16.29917721575293
 20
43.89015073878775
 10
16.1906375489882
 20
43.98377450624278
 10
16.09596554842687
 20
44.09114503507467
 10
16.01696422196528
 20
44.21036306305936
 10
15.95631930011563
 20
44.33819233188265
 10
15.91732925435553
 20
44.47120759607471
  0
LWPOLYLINE
  5
113C5
330
A
100
AcDbEntity
  8
0
  6
Continuous
 62
     7
100
AcDbPolyline
 90
        3
 70
   128
 43
0.0
 10
16.98613731028945
 20
43.67445065934569
 10
16.83605803191108
 20
43.68431555411231
 10
16.68088196949202
 20
43.71568859581
  0
LWPOLYLINE
  5
113C6
330
A
100
AcDbEntity
  8
0
  6
Continuous
 62
     7
100
AcDbPolyline
 90
        5
 70
   128
 43
0.0
 10
16.98613731028945
 20
43.67445065934569
 10
16.98617487295405
 20
43.79251246156345
 10
16.98621008795203
 20
43.89691553989919
 10
16.98623591228374
 20
43.9690029884247
 10
16.98625234594965
 20
44.00011778680388
  0
LWPOLYLINE
  5
113C7
330
A
100
AcDbEntity
  8
0
  6
Continuous
 62
     7
100
AcDbPolyline
 90
        3
 70
   128
 43
0.0
 10
16.98625234594965
 20
44.00011778680388
 10
16.8860445477062
 20
44.00641892377521
 10
16.78228003466711
 20
44.02719342491517
  0
LWPOLYLINE
  5
113C8
330
A
100
AcDbEntity
  8
0
  6
Continuous
 62
     7
100
AcDbPolyline
 90
        5
 70
   128
 43
0.0
 10
16.78228003466711
 20
44.02719342491517
 10
16.76846636479399
 20
43.9971949419718
 10
16.74452251383604
 20
43.92826627876482
 10
16.71356853061434
 20
43.82858083632473
 10
16.68086084049332
 20
43.71569563880965
  0
LINE
  5
113C9
330
A
100
AcDbEntity
  8
0
  6
Continuous
 62
     7
100
AcDbLine
 10
16.98625234594965
 20
44.00011778680379
 30
0.0
 11
17.03363295189433
 21
44.06349304482978
 31
0.0
  0
LINE
  5
113CA
330
A
100
AcDbEntity
  8
0
  6
Continuous
 62
     7
100
AcDbLine
 10
17.83783316536255
 20
44.06411752412725
 30
0.0
 11
17.03363295189433
 21
44.06349304482978
 31
0.0
  0
LWPOLYLINE
  5
113CB
330
A
100
AcDbEntity
  8
0
  6
Continuous
 62
     7
100
AcDbPolyline
 90
        3
 70
   128
 43
0.0
 10
16.22839976515229
 20
44.57651335219193
 10
16.20636221941822
 20
44.68272648142366
 10
16.19946242748119
 20
44.78897952098648
  0
LWPOLYLINE
  5
113CC
330
A
100
AcDbEntity
  8
0
  6
Continuous
 62
     7
100
AcDbPolyline
 90
        5
 70
   128
 43
0.0
 10
15.87304756823278
 20
44.78907577531427
 10
15.99287012034938
 20
44.78904525564937
 10
16.09846816094978
 20
44.78901590981772
 10
16.17025510815915
 20
44.7889924331524
 10
16.19946242748119
 20
44.78898069481973
  0
LINE
  5
113CD
330
A
100
AcDbEntity
  8
0
  6
Continuous
 62
     7
100
AcDbLine
 10
16.1994600798148
 20
44.78897717331995
 30
0.0
 11
16.24600726414064
 21
44.85088748742998
 31
0.0
  0
LINE
  5
113CE
330
A
100
AcDbEntity
  8
0
  6
Continuous
 62
     7
100
AcDbLine
 10
16.24600726414064
 20
44.85088748742998
 30
0.0
 11
16.2456659450163
 21
45.57528223011195
 31
0.0
  0
LWPOLYLINE
  5
113CF
330
A
100
AcDbEntity
  8
0
  6
Continuous
 62
     7
100
AcDbPolyline
 90
        5
 70
   128
 43
0.0
 10
17.61625335509143
 20
46.18362021486908
 10
17.55295087472791
 20
46.34310365845735
 10
17.50743431600949
 20
46.5085724778684
 10
17.4803281582333
 20
46.67612778590958
 10
17.4713459860825
 20
46.84607067081358
  0
LWPOLYLINE
  5
113D0
330
A
100
AcDbEntity
  8
0
  6
Continuous
 62
     7
100
AcDbPolyline
 90
        3
 70
   128
 43
0.0
 10
15.91734334035482
 20
44.47121111757454
 10
15.88387265861092
 20
44.63013640344482
 10
15.87304756823278
 20
44.78907577531427
  0
LWPOLYLINE
  5
113D1
330
A
100
AcDbEntity
  8
0
  6
Continuous
 62
     7
100
AcDbPolyline
 90
        5
 70
   128
 43
0.0
 10
16.22839976515229
 20
44.57651217835862
 10
16.1997605811307
 20
44.56250130449686
 10
16.13124393340013
 20
44.537705250588
 10
16.03107135015489
 20
44.5054072282767
 10
15.91734099268819
 20
44.47123107274004
  0
LWPOLYLINE
  5
113D2
330
A
100
AcDbEntity
  8
0
  6
Continuous
 62
     7
100
AcDbPolyline
 90
        5
 70
   128
 43
0.0
 10
16.78228003466711
 20
44.02719342491517
 10
16.59462165811419
 20
44.10558670574508
 10
16.43323836538502
 20
44.22908100831742
 10
16.30841058822261
 20
44.38951114843454
 10
16.22840446048531
 20
44.5764969185262
  0
LWPOLYLINE
  5
113D3
330
A
100
AcDbEntity
  8
0
  6
Continuous
 62
     7
100
AcDbPolyline
 90
       23
 70
   128
 43
0.0
 10
17.03363295189433
 20
44.06349304482986
 10
16.97793456342742
 20
44.06585362352759
 10
16.94117949620545
 20
44.06965097414277
 10
16.90976302267699
 20
44.07424770521205
 10
16.88067543434795
 20
44.07965085973498
 10
16.85242126763774
 20
44.08601538370274
 10
16.81644797337094
 20
44.09561968748429
 10
16.77545067272603
 20
44.108959128718
 10
16.71743983272518
 20
44.13214116188626
 10
16.67227777165294
 20
44.15406015046042
 10
16.59233737857858
 20
44.20221900786052
 10
16.53365510594972
 20
44.24645021915293
 10
16.48068705365927
 20
44.29463490088486
 10
16.42544411249946
 20
44.35542420422613
 10
16.38222122398247
 20
44.41315919340937
 10
16.34139530299444
 20
44.48038931988063
 10
16.32390049199944
 20
44.51451617442015
 10
16.29642105524453
 20
44.57860981840482
 10
16.27724766267943
 20
44.63620512142952
 10
16.2664648302989
 20
44.67748062055838
 10
16.25649429053828
 20
44.72755986918153
 10
16.24953580693818
 20
44.77963228669014
 10
16.24600961180727
 20
44.85062454877848
  0
LINE
  5
113D4
330
A
100
AcDbEntity
  8
0
  6
Continuous
 62
     7
100
AcDbLine
 10
13.6678491799139
 20
42.47054495900591
 30
0.0
 11
13.66888684852074
 21
42.00275127354575
 31
0.0
  0
LINE
  5
113D5
330
A
100
AcDbEntity
  8
0
  6
Continuous
 62
     7
100
AcDbLine
 10
14.11858706802059
 20
42.47055317583874
 30
0.0
 11
14.11850959502499
 21
42.47050739634142
 31
0.0
  0
LINE
  5
113D6
330
A
100
AcDbEntity
  8
0
  6
Continuous
 62
     7
100
AcDbLine
 10
14.09473947139031
 20
42.02561754556552
 30
0.0
 11
14.11858706802059
 21
42.47055317583874
 31
0.0
  0
LINE
  5
113D7
330
A
100
AcDbEntity
  8
0
  6
Continuous
 62
     7
100
AcDbLine
 10
14.20820493461633
 20
41.46343375267758
 30
0.0
 11
14.67599588033249
 21
41.46239356325406
 31
0.0
  0
LWPOLYLINE
  5
113D8
330
A
100
AcDbEntity
  8
0
  6
Continuous
 62
     7
100
AcDbPolyline
 90
        3
 70
   128
 43
0.0
 10
14.67600761866515
 20
41.91313262519409
 10
14.45598665897137
 20
41.89818385855281
 10
14.23107316222513
 20
41.88928502856405
  0
LINE
  5
113D9
330
A
100
AcDbEntity
  8
0
  6
Continuous
 62
     7
100
AcDbLine
 10
14.67596066533451
 20
41.91305280453195
 30
0.0
 11
14.67600761866515
 21
41.91313262519407
 31
0.0
  0
LWPOLYLINE
  5
113DA
330
A
100
AcDbEntity
  8
0
  6
Continuous
 62
     7
100
AcDbPolyline
 90
        9
 70
   128
 43
0.0
 10
13.66888684852074
 20
42.00275127354578
 10
13.67943960958132
 20
41.89708632444925
 10
13.71033959647298
 20
41.79584203143204
 10
13.76021577194115
 20
41.70284743860761
 10
13.82699984177111
 20
41.62156418027703
 10
13.90828544776832
 20
41.554771893614
 10
14.00128356209257
 20
41.50488984897956
 10
14.1025337242761
 20
41.47398751442145
 10
14.20820454253885
 20
41.46343357952779
  0
LWPOLYLINE
  5
113DB
330
A
100
AcDbEntity
  8
0
  6
Continuous
 62
     7
100
AcDbPolyline
 90
        9
 70
   128
 43
0.0
 10
14.23107316222513
 20
41.88928502856405
 10
14.20368058913209
 20
41.89105282146252
 10
14.17744541563934
 20
41.89818268471955
 10
14.15356729934433
 20
41.9103389020212
 10
14.13268011021091
 20
41.92722918888423
 10
14.11579334484759
 20
41.94811637801771
 10
14.10363712754588
 20
41.97199566814592
 10
14.0965072642889
 20
41.9982237986392
 10
14.09473947139031
 20
42.02561754556555
  0
ARC
  5
113DC
330
A
100
AcDbEntity
  8
0
  6
Continuous
 62
     7
100
AcDbCircle
 10
14.20820493863653
 20
42.0027507703736
 30
0.0
 40
0.5908096275000359
100
AcDbArc
 50
180.0
 51
270.0
  0
LINE
  5
113DD
330
A
100
AcDbEntity
  8
0
  6
Continuous
 62
     7
100
AcDbLine
 10
13.66888684852074
 20
42.00275127354575
 30
0.0
 11
13.61739531113653
 21
42.0027507703736
 31
0.0
  0
LINE
  5
113DE
330
A
100
AcDbEntity
  8
0
  6
Continuous
 62
     7
100
AcDbLine
 10
14.20820493863653
 20
41.4119411428735
 30
0.0
 11
14.20820493461633
 21
41.46343375267758
 31
0.0
  0
LINE
  5
113DF
330
A
100
AcDbEntity
  8
0
  6
Continuous
 62
     7
100
AcDbLine
 10
127.0585682684877
 20
22.62840259721508
 30
0.0
 11
127.1773469345155
 21
24.53209947200117
 31
0.0
  0
LINE
  5
113E0
330
A
100
AcDbEntity
  8
0
  6
Continuous
 62
     7
100
AcDbLine
 10
126.4066580338456
 20
12.36241011299398
 30
0.0
 11
127.480706075951
 21
29.21374653691396
 31
0.0
  0
LINE
  5
113E1
330
A
100
AcDbEntity
  8
0
  6
Continuous
 62
     7
100
AcDbLine
 10
126.1943428984696
 20
29.23730882162147
 30
0.0
 11
124.0112029825748
 21
17.10296532905124
 31
0.0
  0
LWPOLYLINE
  5
113E2
330
A
100
AcDbEntity
  8
0
  6
Continuous
 62
     7
100
AcDbPolyline
 90
        3
 70
   128
 43
0.0
 10
126.9181626719128
 20
20.43528654185005
 10
127.0585003916296
 20
22.59567151057471
 10
127.1683732260405
 20
24.31411958313132
  0
LWPOLYLINE
  5
113E3
330
A
100
AcDbEntity
  8
0
  6
Continuous
 62
     7
100
AcDbPolyline
 90
        3
 70
   128
 43
0.0
 10
118.7346136072649
 20
12.24587575838248
 10
119.6350894885158
 20
12.23681888237527
 10
123.1287806933699
 20
12.22355507450405
  0
LINE
  5
113E4
330
A
100
AcDbEntity
  8
0
  6
Continuous
 62
     7
100
AcDbLine
 10
122.7166826494926
 20
10.60289017852517
 30
0.0
 11
122.3045677149482
 21
10.17714315347223
 31
0.0
  0
LWPOLYLINE
  5
113E5
330
A
100
AcDbEntity
  8
0
  6
Continuous
 62
     7
100
AcDbPolyline
 90
       23
 70
   128
 43
0.0
 10
102.4055935977496
 20
10.89643644997673
 10
103.4217843279621
 20
10.87576847969095
 10
104.4038645215812
 20
10.85600297197803
 10
105.3518782361436
 20
10.83713992683809
 10
106.2659259905917
 20
10.81917934427102
 10
107.1461762829026
 20
10.80212122427693
 10
108.0745523004764
 20
10.78442158919532
 10
109.0801675510563
 20
10.76563510564452
 10
109.8446806591548
 20
10.75165177952422
 10
110.5868381396476
 20
10.73835263790172
 10
111.3068885220489
 20
10.72573768077691
 10
112.0051680080303
 20
10.7138069081499
 10
112.6821134939114
 20
10.70256032002081
 10
113.4406109318574
 20
10.69038087841991
 10
114.220911450268
 20
10.67836680098563
 10
115.279330320041
 20
10.66301072329659
 10
116.3011735789237
 20
10.64936221477981
 10
117.2909277743699
 20
10.63742127543517
 10
118.2694719722672
 20
10.62703901938599
 10
119.3124653218167
 20
10.61772983307892
 10
120.6532301781044
 20
10.6087750372175
 10
122.0091998208625
 20
10.60350140967821
 10
123.3598329476083
 20
10.60233452758601
  0
LINE
  5
113E6
330
A
100
AcDbEntity
  8
0
  6
Continuous
 62
     7
100
AcDbLine
 10
101.8187910192391
 20
14.28249069883395
 30
0.0
 11
102.1416831552724
 21
12.51376808020484
 31
0.0
  0
LWPOLYLINE
  5
113E7
330
A
100
AcDbEntity
  8
0
  6
Continuous
 62
     7
100
AcDbPolyline
 90
        9
 70
   128
 43
0.0
 10
105.7635006203934
 20
10.7517169495841
 10
106.7047810288263
 20
10.73212554830607
 10
107.7071063387038
 20
10.71148098136908
 10
108.6581743614845
 20
10.6921206577114
 10
109.5579850971683
 20
10.67404457733292
 10
110.3074185166835
 20
10.65919995264042
 10
111.0171582930709
 20
10.64534984594334
 10
111.6872044263302
 20
10.63249425724169
 10
111.8523978308753
 20
10.62936254465913
  0
LINE
  5
113E8
330
A
100
AcDbEntity
  8
0
  6
Continuous
 62
     7
100
AcDbLine
 10
105.7635006203932
 20
10.80836636919923
 30
0.0
 11
111.8524494183377
 21
10.68624103469426
 31
0.0
  0
LWPOLYLINE
  5
113E9
330
A
100
AcDbEntity
  8
0
  6
Continuous
 62
     7
100
AcDbPolyline
 90
        5
 70
   128
 43
0.0
 10
102.1416886522249
 20
12.51377083575826
 10
107.3928722993562
 20
12.41280311323524
 10
112.642170988207
 20
12.32220986625643
 10
116.1396614869145
 20
12.27197546864468
 10
119.1849140994823
 20
12.25782342953394
  0
LWPOLYLINE
  5
113EA
330
A
100
AcDbEntity
  8
0
  6
Continuous
 62
     7
100
AcDbPolyline
 90
        9
 70
   128
 43
0.0
 10
122.3045677149482
 20
10.17714315347226
 10
111.3150392444986
 20
10.24039077519606
 10
110.3248167947997
 20
10.25964283286637
 10
109.3765828956243
 20
10.27843649324123
 10
108.4007658350183
 20
10.29808467040939
 10
107.460796934625
 20
10.31726366341072
 10
106.5466687316425
 20
10.33612066415585
 10
105.5894730418192
 20
10.35605110826614
 10
105.0157202394409
 20
10.36809805300842
  0
LWPOLYLINE
  5
113EB
330
A
100
AcDbEntity
  8
0
  6
Continuous
 62
     7
100
AcDbPolyline
 90
        3
 70
   128
 43
0.0
 10
103.3902613766124
 20
10.80176470879254
 10
104.5463585477807
 20
10.77726741201789
 10
105.7635006203934
 20
10.7517169495841
  0
LINE
  5
113EC
330
A
100
AcDbEntity
  8
0
  6
Continuous
 62
     7
100
AcDbLine
 10
103.3910534178005
 20
10.85595026550493
 30
0.0
 11
105.7635006203932
 21
10.80836636919923
 31
0.0
  0
LINE
  5
113ED
330
A
100
AcDbEntity
  8
0
  6
Continuous
 62
     7
100
AcDbLine
 10
102.3898489184262
 20
10.81249321293103
 30
0.0
 11
102.3898630130641
 21
10.8134492031561
 31
0.0
  0
LINE
  5
113EE
330
A
100
AcDbEntity
  8
0
  6
Continuous
 62
     7
100
AcDbLine
 10
102.3898630130641
 20
10.81344920315621
 30
0.0
 11
102.3906839723217
 21
10.86960577883542
 31
0.0
  0
LINE
  5
113EF
330
A
100
AcDbEntity
  8
0
  6
Continuous
 62
     7
100
AcDbLine
 10
102.3898630130682
 20
10.81344920315598
 30
0.0
 11
103.3879668395116
 21
10.79959314235759
 31
0.0
  0
LINE
  5
113F0
330
A
100
AcDbEntity
  8
0
  6
Continuous
 62
     7
100
AcDbLine
 10
103.3902612731115
 20
10.80176471030552
 30
0.0
 11
103.3910534178005
 21
10.85595026550493
 31
0.0
  0
LWPOLYLINE
  5
113F1
330
A
100
AcDbEntity
  8
0
  6
Continuous
 62
     7
100
AcDbPolyline
 90
       11
 70
   128
 43
0.0
 10
102.3888265114142
 20
10.84512494042431
 10
102.3888077519868
 20
10.8422042530407
 10
102.3887242052496
 20
10.826764163131
 10
102.3886750018355
 20
10.8138909810547
 10
102.3886601417446
 20
10.80358470681167
 10
102.3886796249769
 20
10.79584534040205
 10
102.3887349646475
 20
10.79060155292634
 10
102.3888320977673
 20
10.78793514955967
 10
102.3890685716344
 20
10.78931432472709
 10
102.3894075118539
 20
10.79750034585086
 10
102.3898489184262
 20
10.81249321293106
  0
LINE
  5
113F2
330
A
100
AcDbEntity
  8
0
  6
Continuous
 62
     7
100
AcDbLine
 10
103.3879668395116
 20
10.79959314235759
 30
0.0
 11
103.3902613081611
 21
10.80176474415748
 31
0.0
  0
LWPOLYLINE
  5
113F3
330
A
100
AcDbEntity
  8
0
  6
Continuous
 62
     7
100
AcDbPolyline
 90
       13
 70
   128
 43
0.0
 10
102.4055941248577
 20
10.89646043620453
 10
102.3726782857461
 20
10.91061723896783
 10
102.3470406190324
 20
10.94836248355275
 10
102.3263652377386
 20
11.01095479527961
 10
102.3068378268565
 20
11.09914308345205
 10
102.2863513828213
 20
11.21283856873882
 10
102.2660558925506
 20
11.35033890665229
 10
102.2458223609542
 20
11.50932979834508
 10
102.2255162985129
 20
11.68671659507313
 10
102.2050001066766
 20
11.87881814781028
 10
102.1841403700905
 20
12.0816044281523
 10
102.1628141796398
 20
12.29094714042551
 10
102.1415218354621
 20
12.50293752825328
  0
LWPOLYLINE
  5
113F4
330
A
100
AcDbEntity
  8
0
  6
Continuous
 62
     7
100
AcDbPolyline
 90
        3
 70
   128
 43
0.0
 10
102.3897825287165
 20
10.84827484563803
 10
102.3899353209895
 20
10.84728027422548
 10
102.3906839723217
 20
10.86960577883545
  0
LINE
  5
113F5
330
A
100
AcDbEntity
  8
0
  6
Continuous
 62
     7
100
AcDbLine
 10
102.3906839723217
 20
10.86960577883542
 30
0.0
 11
103.3910534178005
 21
10.85595026550493
 31
0.0
  0
LINE
  5
113F6
330
A
100
AcDbEntity
  8
0
  6
Continuous
 62
     7
100
AcDbLine
 10
102.2189084994199
 20
10.84898091953539
 30
0.0
 11
102.3897105920835
 21
10.84510487782734
 31
0.0
  0
LINE
  5
113F7
330
A
100
AcDbEntity
  8
0
  6
Continuous
 62
     7
100
AcDbLine
 10
100.6842072945676
 20
10.88380816191079
 30
0.0
 11
101.3100511148323
 21
10.86960577883542
 31
0.0
  0
LWPOLYLINE
  5
113F8
330
A
100
AcDbEntity
  8
0
  6
Continuous
 62
     7
100
AcDbPolyline
 90
        5
 70
   128
 43
0.0
 10
100.6842207510187
 20
10.8838572930571
 10
100.6848212765701
 20
10.88604905164757
 10
100.6850620677301
 20
10.89277577608496
 10
100.6861313558481
 20
10.90370167353094
 10
100.6870189706803
 20
10.91880173457562
  0
LINE
  5
113F9
330
A
100
AcDbEntity
  8
0
  6
Continuous
 62
     7
100
AcDbLine
 10
100.6842072894817
 20
10.88380816202618
 30
0.0
 11
100.6842207510187
 21
10.88385729305707
 31
0.0
  0
LWPOLYLINE
  5
113FA
330
A
100
AcDbEntity
  8
0
  6
Continuous
 62
     7
100
AcDbPolyline
 90
       19
 70
   128
 43
0.0
 10
100.6870193834209
 20
10.91880183165321
 10
100.6962662742367
 20
10.91955165863103
 10
100.7099742328173
 20
10.92031337971585
 10
100.7290092213136
 20
10.92111953710983
 10
100.7478368929639
 20
10.92172731341659
 10
100.7814980353457
 20
10.9221193240435
 10
100.8440835592648
 20
10.92213040845766
 10
100.9274390597606
 20
10.92164333435633
 10
101.0313625534816
 20
10.92065810173952
 10
101.1556495587149
 20
10.91917471060722
 10
101.2897732003336
 20
10.91733325799853
 10
101.4335340432351
 20
10.91514016213986
 10
101.5866884483535
 20
10.91259542303126
 10
101.7490293439796
 20
10.90969904067279
 10
101.8821198396344
 20
10.90718606882282
 10
102.0119390379516
 20
10.90460724403547
 10
102.1550801300561
 20
10.90163444108927
 10
102.2937869454481
 20
10.89875531192493
 10
102.4055837534299
 20
10.89646064732344
  0
LWPOLYLINE
  5
113FB
330
A
100
AcDbEntity
  8
0
  6
Continuous
 62
     7
100
AcDbPolyline
 90
        3
 70
   128
 43
0.0
 10
105.0157202394409
 20
10.36809805300842
 10
104.5891331583314
 20
10.37705499574159
 10
103.5456311959169
 20
10.39913232658207
  0
LINE
  5
113FC
330
A
100
AcDbEntity
  8
0
  6
Continuous
 62
     7
100
AcDbLine
 10
102.7775718424311
 20
10.38607371451826
 30
0.0
 11
105.0157202394409
 21
10.33528302220088
 31
0.0
  0
LWPOLYLINE
  5
113FD
330
A
100
AcDbEntity
  8
0
  6
Continuous
 62
     7
100
AcDbPolyline
 90
        3
 70
   128
 43
0.0
 10
108.5351827156598
 20
10.28661075101107
 10
108.0954944613675
 20
10.29574873642698
 10
105.0157202394409
 20
10.33528302220091
  0
LINE
  5
11401
330
A
100
AcDbEntity
  8
0
  6
Continuous
 62
     7
100
AcDbLine
 10
102.3898489184262
 20
10.81249321293103
 30
0.0
 11
102.7788318244259
 21
10.40978776112706
 31
0.0
  0
LINE
  5
11402
330
A
100
AcDbEntity
  8
0
  6
Continuous
 62
     7
100
AcDbLine
 10
103.3879668395116
 20
10.79959314235759
 30
0.0
 11
103.5456222252348
 21
10.39914427817894
 31
0.0
  0
LINE
  5
11403
330
A
100
AcDbEntity
  8
0
  6
Continuous
 62
     7
100
AcDbLine
 10
102.3889004224879
 20
10.78756213623626
 30
0.0
 11
102.7774883124855
 21
10.38612039202724
 31
0.0
  0
LINE
  5
11407
330
A
100
AcDbEntity
  8
0
  6
Continuous
 62
     7
100
AcDbLine
 10
122.6920529868202
 20
10.60291145736971
 30
0.0
 11
122.2809245517053
 21
10.17727922608435
 31
0.0
  0
LINE
  5
11408
330
A
100
AcDbEntity
  8
0
  6
Continuous
 62
     7
100
AcDbLine
 10
124.0112029825748
 20
17.10296532905124
 30
0.0
 11
123.1331914111313
 21
12.2227952946987
 31
0.0
  0
LWPOLYLINE
  5
11409
330
A
100
AcDbEntity
  8
0
  6
Continuous
 62
     7
100
AcDbPolyline
 90
        3
 70
   128
 43
0.0
 10
126.4019733285133
 20
12.22560359203717
 10
126.6910210690264
 20
16.82353280553073
 10
126.9933077399876
 20
21.59087597721535
  0
LWPOLYLINE
  5
1140A
330
A
100
AcDbEntity
  8
0
  6
Continuous
 62
     7
100
AcDbPolyline
 90
       13
 70
   128
 43
0.0
 10
126.4037706400488
 20
12.31679477772266
 10
126.3886219520427
 20
12.16920170297626
 10
126.3611387968008
 20
12.01956307700553
 10
126.3376530809419
 20
11.92669010817715
 10
126.3047290685856
 20
11.82139182272559
 10
126.2582655660633
 20
11.70070153166224
 10
126.1033390639736
 20
11.41088951933037
 10
125.8584741552927
 20
11.11074189747287
 10
125.6883544976751
 20
10.96129493830884
 10
125.4920045896644
 20
10.82804974546187
 10
125.2610786200134
 20
10.71273621015157
 10
124.9055594348635
 20
10.60512644949685
 10
124.559079653108
 20
10.5701786246332
  0
LWPOLYLINE
  5
1140B
330
A
100
AcDbEntity
  8
0
  6
Continuous
 62
     7
100
AcDbPolyline
 90
        6
 70
   128
 43
0.0
 10
126.3995815547773
 20
12.15622966846391
 10
126.3998821714706
 20
12.16190580514356
 10
126.401167920312
 20
12.19621872143014
 10
126.4022410379043
 20
12.23537082038118
 10
126.4030903475952
 20
12.27575834293068
 10
126.4037706386345
 20
12.31679468135658
  0
LINE
  5
1140C
330
A
100
AcDbEntity
  8
0
  6
Continuous
 62
     7
100
AcDbLine
 10
126.3993152481594
 20
12.15120136233418
 30
0.0
 11
126.3995815547773
 21
12.15622966846388
 31
0.0
  0
LWPOLYLINE
  5
1140D
330
A
100
AcDbEntity
  8
0
  6
Continuous
 62
     7
100
AcDbPolyline
 90
        8
 70
   128
 43
0.0
 10
123.6347019517645
 20
12.00350474770064
 10
123.6108068780934
 20
11.71918225535913
 10
123.5799310035606
 20
11.44968082019616
 10
123.5425950514779
 20
11.20526497935927
 10
123.4998280769959
 20
10.99529489789236
 10
123.4531046470656
 20
10.82711847140555
 10
123.4042185835762
 20
10.70523232621647
 10
123.3640541805268
 20
10.6410215149971
  0
LWPOLYLINE
  5
1140E
330
A
100
AcDbEntity
  8
0
  6
Continuous
 62
     7
100
AcDbPolyline
 90
       10
 70
   128
 43
0.0
 10
123.1484971366283
 20
12.05268235169299
 10
123.1843543683076
 20
12.05009722260038
 10
123.2222330718034
 20
12.04680856763272
 10
123.2764070092366
 20
12.0414438240646
 10
123.3404541348218
 20
12.0342320724084
 10
123.4151333062148
 20
12.02544584315868
 10
123.470514969302
 20
12.01920915841802
 10
123.5261148030229
 20
12.01358941729435
 10
123.5811160497271
 20
12.00841261523831
 10
123.6347019517645
 20
12.00350474770064
  0
LWPOLYLINE
  5
1140F
330
A
100
AcDbEntity
  8
0
  6
Continuous
 62
     7
100
AcDbPolyline
 90
        3
 70
   128
 43
0.0
 10
123.6445647545849
 20
12.15770328327747
 10
123.6398811334681
 20
12.08052670224018
 10
123.6347019517645
 20
12.00350474770064
  0
LWPOLYLINE
  5
11410
330
A
100
AcDbEntity
  8
0
  6
Continuous
 62
     7
100
AcDbPolyline
 90
       10
 70
   128
 43
0.0
 10
123.6445646927632
 20
12.15770328934846
 10
123.5953960366996
 20
12.16261764126457
 10
123.5467542630376
 20
12.1676194028515
 10
123.4985981999698
 20
12.17270130524767
 10
123.4509018718515
 20
12.17785695857699
 10
123.3520311768825
 20
12.19021861622528
 10
123.298478170848
 20
12.19679299819157
 10
123.2273903881434
 20
12.20454540908682
 10
123.1742050992927
 20
12.2094415111633
 10
123.1314724117917
 20
12.21247197952848
  0
LWPOLYLINE
  5
11411
330
A
100
AcDbEntity
  8
0
  6
Continuous
 62
     7
100
AcDbPolyline
 90
        3
 70
   128
 43
0.0
 10
123.3642546149096
 20
10.64121840974721
 10
123.3646246147955
 20
10.61403168739539
 10
123.3598821302337
 20
10.60233629659186
  0
LWPOLYLINE
  5
11412
330
A
100
AcDbEntity
  8
0
  6
Continuous
 62
     7
100
AcDbPolyline
 90
       19
 70
   128
 43
0.0
 10
123.1528279461238
 20
12.05320476062539
 10
123.2038305432086
 20
11.92071690001111
 10
123.2293551415805
 20
11.79136192555555
 10
123.255164436737
 20
11.66460409218771
 10
123.2813103903497
 20
11.53054579512476
 10
123.300773152223
 20
11.40656814210459
 10
123.3125580220078
 20
11.31827784562134
 10
123.321964294855
 20
11.23894996531501
 10
123.332574298852
 20
11.14062352073691
 10
123.3385806002366
 20
11.07731096072692
 10
123.342925366994
 20
11.02404992411848
 10
123.3448649089584
 20
10.99605829814371
 10
123.3477580549481
 20
10.94666185833026
 10
123.3498155803797
 20
10.89642987598009
 10
123.3505654453354
 20
10.84910405609221
 10
123.3508477956268
 20
10.81172779587169
 10
123.356883112765
 20
10.74667275846209
 10
123.361773030399
 20
10.68559881110937
 10
123.3642532928593
 20
10.64120506147154
  0
LWPOLYLINE
  5
11413
330
A
100
AcDbEntity
  8
0
  6
Continuous
 62
     7
100
AcDbPolyline
 90
        3
 70
   128
 43
0.0
 10
123.1314724117919
 20
12.21247197952848
 10
123.1399136320729
 20
12.13149273831382
 10
123.148302143582
 20
12.05273187898504
  0
LWPOLYLINE
  5
11414
330
A
100
AcDbEntity
  8
0
  6
Continuous
 62
     7
100
AcDbPolyline
 90
       24
 70
   128
 43
0.0
 10
126.406645159607
 20
12.36234420828296
 10
126.405506527665
 20
12.35840944158295
 10
126.4031114778729
 20
12.35128484147267
 10
126.3940752796452
 20
12.33145069425703
 10
126.3887927890916
 20
12.32115119047503
 10
126.3805676749714
 20
12.30716155339408
 10
126.3674394574716
 20
12.28674700956176
 10
126.3620154665739
 20
12.28255097193178
 10
126.3565493992275
 20
12.27882461746984
 10
126.3506528139155
 20
12.27489522528472
 10
126.312077470506
 20
12.25111588603661
 10
126.2572018497642
 20
12.22240049532254
 10
126.1908012517487
 20
12.19607715876432
 10
126.0309511458706
 20
12.15423805546848
 10
125.8361063076991
 20
12.12365002996526
 10
125.6049706109857
 20
12.10125377546345
 10
125.341841474745
 20
12.08775450243675
 10
125.0552256360393
 20
12.08372399278616
 10
124.7407292834921
 20
12.08807503587391
 10
124.5394910023637
 20
12.0948796931348
 10
124.3288649321396
 20
12.10503737792285
 10
124.1093821617519
 20
12.11869948598175
 10
123.8812562290379
 20
12.13613344508829
 10
123.6445645802662
 20
12.15770330196531
  0
LWPOLYLINE
  5
11415
330
A
100
AcDbEntity
  8
0
  6
Continuous
 62
     7
100
AcDbPolyline
 90
       14
 70
   128
 43
0.0
 10
123.3598790016888
 20
10.60233454846107
 10
123.5376858563702
 20
10.60172617732288
 10
123.7092569003359
 20
10.60065539525888
 10
123.8735352156141
 20
10.59912220226877
 10
123.991500677035
 20
10.59765830596709
 10
124.0994885561256
 20
10.59597187315094
 10
124.1973275954312
 20
10.59406290382051
 10
124.2848944709878
 20
10.59193139797551
 10
124.3622706182825
 20
10.58953190876266
 10
124.4237117825864
 20
10.58698474983569
 10
124.4695646939358
 20
10.58428992119459
 10
124.500225012837
 20
10.58144742283937
 10
124.5370260623124
 20
10.57585010920107
 10
124.5590966494158
 20
10.57023495771258
  0
LINE
  5
11416
330
A
100
AcDbEntity
  8
0
  6
Continuous
 62
     7
100
AcDbLine
 10
129.4679150729946
 20
30.16012923873188
 30
0.0
 11
119.0237098124519
 21
30.34124400184908
 31
0.0
  0
LINE
  5
11417
330
A
100
AcDbEntity
  8
0
  6
Continuous
 62
     7
100
AcDbLine
 10
128.1922850106905
 20
29.20071256194808
 30
0.0
 11
114.0774010512894
 21
29.45925456648217
 31
0.0
  0
LINE
  5
11418
330
A
100
AcDbEntity
  8
0
  6
Continuous
 62
     7
100
AcDbLine
 10
114.0774010512894
 20
29.46931943299001
 30
0.0
 11
129.4495012224017
 21
29.18736892936499
 31
0.0
  0
LINE
  5
11419
330
A
100
AcDbEntity
  8
0
  6
Continuous
 62
     7
100
AcDbLine
 10
112.639083681883
 20
31.0980938609257
 30
0.0
 11
132.5726695304117
 21
31.0979894124389
 31
0.0
  0
LWPOLYLINE
  5
1141A
330
A
100
AcDbEntity
  8
0
  6
Continuous
 62
     7
100
AcDbPolyline
 90
        3
 70
   128
 43
0.0
 10
132.5727048486863
 20
31.46334167486898
 10
122.9790283151128
 20
31.46341245770546
 10
112.6390836818848
 20
31.46344389031546
  0
LWPOLYLINE
  5
1141B
330
A
100
AcDbEntity
  8
0
  6
Continuous
 62
     7
100
AcDbPolyline
 90
        3
 70
   128
 43
0.0
 10
114.0569293066116
 20
29.45962690875561
 10
112.6390836574699
 20
29.47251263002855
 10
111.2212380662529
 20
29.45962691283265
  0
LWPOLYLINE
  5
1141C
330
A
100
AcDbEntity
  8
0
  6
Continuous
 62
     7
100
AcDbPolyline
 90
        3
 70
   128
 43
0.0
 10
111.2077262977709
 20
29.46944681068444
 10
112.6390834269125
 20
29.48259878729633
 10
114.0704405510087
 20
29.46944682008714
  0
LWPOLYLINE
  5
1141D
330
A
100
AcDbEntity
  8
0
  6
Continuous
 62
     7
100
AcDbPolyline
 90
        9
 70
   128
 43
0.0
 10
111.1910097441164
 20
30.34124400184911
 10
111.1927018400481
 20
30.24926188885994
 10
111.196005559595
 20
30.07112879529624
 10
111.1991714178232
 20
29.90206748433312
 10
111.2020136292938
 20
29.75214174294459
 10
111.2043682092455
 20
29.63005860234668
 10
111.2061229843243
 20
29.54156591415628
 10
111.2072344242497
 20
29.488602855658
 10
111.2077263727371
 20
29.46944681205312
  0
LINE
  5
1141E
330
A
100
AcDbEntity
  8
0
  6
Continuous
 62
     7
100
AcDbLine
 10
111.2007663211679
 20
29.45925456662894
 30
0.0
 11
111.2007663211679
 21
29.4693194332923
 31
0.0
  0
LINE
  5
1141F
330
A
100
AcDbEntity
  8
0
  6
Continuous
 62
     7
100
AcDbLine
 10
111.2007663154618
 20
29.46931943318612
 30
0.0
 11
111.2077262978084
 21
29.4694468106851
 31
0.0
  0
LWPOLYLINE
  5
11420
330
A
100
AcDbEntity
  8
0
  6
Continuous
 62
     7
100
AcDbPolyline
 90
        9
 70
   128
 43
0.0
 10
111.183961706226
 20
30.34124400184911
 10
111.185664124742
 20
30.24914049175223
 10
111.1889839194843
 20
30.07100627400578
 10
111.1921654680236
 20
29.90194367824611
 10
111.1950220541253
 20
29.7520166726093
 10
111.1973888463612
 20
29.62993246396727
 10
111.1991530675138
 20
29.5414390237261
 10
111.2002709199219
 20
29.4884755664373
 10
111.2007663170095
 20
29.46931943321457
  0
LWPOLYLINE
  5
11421
330
A
100
AcDbEntity
  8
0
  6
Continuous
 62
     7
100
AcDbPolyline
 90
        9
 70
   128
 43
0.0
 10
114.0704410618752
 20
29.46944681075971
 10
114.0709330103966
 20
29.4886028543655
 10
114.0720444503861
 20
29.54156591286781
 10
114.0737992255585
 20
29.63005860106583
 10
114.0761538056297
 20
29.75214174167465
 10
114.0789960172374
 20
29.90206748307608
 10
114.0821618756117
 20
30.07112879405239
 10
114.0854655949622
 20
30.24926186908218
 10
114.0871576913316
 20
30.34124400184911
  0
LINE
  5
11422
330
A
100
AcDbEntity
  8
0
  6
Continuous
 62
     7
100
AcDbLine
 10
114.0774010426014
 20
29.46931943310165
 30
0.0
 11
114.0774010426014
 21
29.45925456662553
 31
0.0
  0
LINE
  5
11423
330
A
100
AcDbEntity
  8
0
  6
Continuous
 62
     7
100
AcDbLine
 10
114.0704405577166
 20
29.46944681996468
 30
0.0
 11
114.0774010465563
 21
29.46931943302764
 31
0.0
  0
LWPOLYLINE
  5
11424
330
A
100
AcDbEntity
  8
0
  6
Continuous
 62
     7
100
AcDbPolyline
 90
        9
 70
   128
 43
0.0
 10
114.0774010462273
 20
29.46931943303176
 10
114.0778964432731
 20
29.48847556549097
 10
114.0790142956769
 20
29.54143902373667
 10
114.0807785168128
 20
29.62993246397807
 10
114.0831453090452
 20
29.7520166726201
 10
114.0860018951557
 20
29.90194367825657
 10
114.0891834437145
 20
30.07100627401579
 10
114.0925032384814
 20
30.24914049176201
 10
114.0942056570104
 20
30.34124400184911
  0
LINE
  5
11425
330
A
100
AcDbEntity
  8
0
  6
Continuous
 62
     7
100
AcDbLine
 10
112.6390836933253
 20
31.46457202476472
 30
0.0
 11
112.6390836933253
 21
31.46342919572942
 31
0.0
  0
LINE
  5
11427
330
A
100
AcDbEntity
  8
0
  6
Continuous
 62
     7
100
AcDbLine
 10
112.6390836933253
 20
31.46346067013519
 30
0.0
 11
112.6390836933253
 21
31.4654875167472
 31
0.0
  0
LWPOLYLINE
  5
11428
330
A
100
AcDbEntity
  8
0
  6
Continuous
 62
     7
100
AcDbPolyline
 90
        9
 70
   128
 43
0.0
 10
133.0175683256263
 20
31.47919602120621
 10
133.0449576115836
 20
31.48068574357822
 10
133.0711907927066
 20
31.48176186010719
 10
133.0950671012663
 20
31.48240759746321
 10
133.1159552260637
 20
31.48262540321756
 10
133.1328406609282
 20
31.48240756725503
 10
133.1449962635647
 20
31.48176175351867
 10
133.1521239589813
 20
31.4806858928271
 10
133.153892477266
 20
31.47919602120621
  0
LWPOLYLINE
  5
1142C
330
A
100
AcDbEntity
  8
0
  6
Continuous
 62
     7
100
AcDbPolyline
 90
        5
 70
   128
 43
0.0
 10
131.2581074961772
 20
30.10924131848245
 10
131.1571742553747
 20
29.74789988435274
 10
130.9146368271868
 20
29.42610355152201
 10
130.5685821337269
 20
29.21960017850623
 10
130.1986805322517
 20
29.15810094698756
  0
LWPOLYLINE
  5
1142D
330
A
100
AcDbEntity
  8
0
  6
Continuous
 62
     7
100
AcDbPolyline
 90
        9
 70
   128
 43
0.0
 10
131.2587110654999
 20
30.12394470221139
 10
131.2257082164171
 20
29.94343623225225
 10
131.1573972894412
 20
29.76247651074473
 10
131.0526384298484
 20
29.59133538933398
 10
130.9143195138979
 20
29.44072955359175
 10
130.7493814279371
 20
29.31984621968187
 10
130.5677210082474
 20
29.23457205042954
 10
130.3803096503513
 20
29.18659781175179
 10
130.1972314600282
 20
29.1736609346614
  0
LWPOLYLINE
  5
1142E
330
A
100
AcDbEntity
  8
0
  6
Continuous
 62
     7
100
AcDbPolyline
 90
        8
 70
   128
 43
0.0
 10
131.2587110586257
 20
30.12394464218974
 10
131.2281997028888
 20
30.10976296114902
 10
131.1358742365462
 20
30.10128862639536
 10
130.9457935453486
 20
30.10072548922452
 10
130.6484989570638
 20
30.11311162892198
 10
130.5614647212412
 20
30.11853601990467
 10
130.4272409274524
 20
30.1280824063696
 10
130.1925929460892
 20
30.14784064417282
  0
LWPOLYLINE
  5
1144D
330
A
100
AcDbEntity
  8
0
  6
Continuous
 62
     7
100
AcDbPolyline
 90
        5
 70
   128
 43
0.0
 10
129.6372905571695
 20
29.15578463118473
 10
129.498057053742
 20
29.16308216517942
 10
129.3174551225702
 20
29.17067415445414
 10
129.1009440519601
 20
29.17825960748885
 10
128.8546941777806
 20
29.18561481030551
  0
LWPOLYLINE
  5
1144E
330
A
100
AcDbEntity
  8
0
  6
Continuous
 62
     7
100
AcDbPolyline
 90
        9
 70
   128
 43
0.0
 10
129.4496476184488
 20
29.18736623781141
 10
130.0109698771068
 20
29.17732078111035
 10
130.1202985093487
 20
29.17542069359175
 10
130.1221471860649
 20
29.17538873475317
 10
130.1223775839728
 20
29.17538475219956
 10
130.1232791443633
 20
29.17536916942348
 10
130.1251139401245
 20
29.17533746071902
 10
130.1407496966044
 20
29.17506748243889
 10
130.1750705080408
 20
29.1744763858201
  0
LWPOLYLINE
  5
1144F
330
A
100
AcDbEntity
  8
0
  6
Continuous
 62
     7
100
AcDbPolyline
 90
       10
 70
   128
 43
0.0
 10
130.1922650435663
 20
30.14787303792812
 10
130.1580087918182
 20
30.14843425748328
 10
130.1395838693363
 20
30.14873696999533
 10
130.1394404869566
 20
30.1487393280685
 10
130.1389979943744
 20
30.14874660559954
 10
130.1375950665162
 20
30.14876968109658
 10
130.1335572003815
 20
30.14883611279575
 10
130.0985230775886
 20
30.14941366982171
 10
130.0284549495225
 20
30.15057482886002
 10
129.4679150730257
 20
30.16012923873134
  0
LWPOLYLINE
  5
11450
330
A
100
AcDbEntity
  8
0
  6
Continuous
 62
     7
100
AcDbPolyline
 90
        8
 70
   128
 43
0.0
 10
128.9702540722089
 20
29.18197970555937
 10
128.9965244035777
 20
29.18121752206346
 10
129.1343073513415
 20
29.17682809140675
 10
129.25498850084
 20
29.17259403493009
 10
129.3587633822583
 20
29.16857327666142
 10
129.4658709080142
 20
29.16390853540773
 10
129.5404416680906
 20
29.16019761845499
 10
129.5902857278317
 20
29.15737889937194
  0
LWPOLYLINE
  5
1145F
330
A
100
AcDbEntity
  8
0
  6
Continuous
 62
     7
100
AcDbPolyline
 90
        5
 70
   128
 43
0.0
 10
128.8546941778813
 20
29.18561481029079
 10
128.6952204971055
 20
29.18982946063684
 10
128.529761935252
 20
29.19379083061747
 10
128.3622175578975
 20
29.19741471741
 10
128.1922850406502
 20
29.20071256140594
  0
LINE
  5
11460
330
A
100
AcDbEntity
  8
0
  6
Continuous
 62
     7
100
AcDbLine
 10
128.8546941752706
 20
29.18561481033942
 30
0.0
 11
129.4496481083347
 21
29.18736936259541
 31
0.0
  0
LWPOLYLINE
  5
11461
330
A
100
AcDbEntity
  8
0
  6
Continuous
 62
     7
100
AcDbPolyline
 90
        5
 70
   128
 43
0.0
 10
129.4679150783729
 20
30.16012923863778
 10
129.4612562149198
 20
29.79993109879959
 10
129.4551726125569
 20
29.47536032384133
 10
129.4510498396482
 20
29.26075195235606
 10
129.4495013711448
 20
29.18737206486927
  0
LINE
  5
11465
330
A
100
AcDbEntity
  8
0
  6
Continuous
 62
     7
100
AcDbLine
 10
128.8446442065074
 20
29.18562403593387
 30
0.0
 11
128.9702540722089
 21
29.18197970555934
 31
0.0
  0
LINE
  5
11466
330
A
100
AcDbEntity
  8
0
  6
Continuous
 62
     7
100
AcDbLine
 10
128.1881789196063
 20
29.20056551958305
 30
0.0
 11
128.3120596061251
 21
29.19816396097394
 31
0.0
  0
LWPOLYLINE
  5
11467
330
A
100
AcDbEntity
  8
0
  6
Continuous
 62
     7
100
AcDbPolyline
 90
        5
 70
   128
 43
0.0
 10
128.3120596061251
 20
29.19816396097397
 10
128.3606848220549
 20
29.19722130954691
 10
128.528136917866
 20
29.19359595044026
 10
128.6903960107095
 20
29.18970320872976
 10
128.848374459395
 20
29.18552054546305
  0
LINE
  5
11468
330
A
100
AcDbEntity
  8
0
  6
Continuous
 62
     7
100
AcDbLine
 10
129.7727063913319
 20
29.14141139035928
 30
0.0
 11
129.6080118736342
 21
29.15814495688119
 31
0.0
  0
LINE
  5
11469
330
A
100
AcDbEntity
  8
0
  6
Continuous
 62
     7
100
AcDbLine
 10
129.5907093675366
 20
29.16053516147576
 30
0.0
 11
129.6372923321651
 21
29.15578452503053
 31
0.0
  0
LINE
  5
1146A
330
A
100
AcDbEntity
  8
0
  6
Continuous
 62
     7
100
AcDbLine
 10
130.2106188271298
 20
30.34124400184908
 30
0.0
 11
130.1922592116041
 21
30.1478117440339
 31
0.0
  0
LWPOLYLINE
  5
1146D
330
A
100
AcDbEntity
  8
0
  6
Continuous
 62
     7
100
AcDbPolyline
 90
        5
 70
   128
 43
0.0
 10
129.7727066215773
 20
29.14141138697189
 10
129.7639706130567
 20
29.14466935865872
 10
129.7385937251936
 20
29.14814310526006
 10
129.6963970318361
 20
29.15185119654248
 10
129.6373246740325
 20
29.15578395989556
  0
LINE
  5
11472
330
A
100
AcDbEntity
  8
0
  6
Continuous
 62
     7
100
AcDbLine
 10
129.6373002485354
 20
29.15578455858611
 30
0.0
 11
130.1984569017695
 21
29.15810423098412
 31
0.0
  0
LINE
  5
11473
330
A
100
AcDbEntity
  8
0
  6
Continuous
 62
     7
100
AcDbLine
 10
130.1972314600414
 20
29.17366093367048
 30
0.0
 11
130.1984244588941
 21
29.15810568608776
 31
0.0
  0
LWPOLYLINE
  5
11474
330
A
100
AcDbEntity
  8
0
  6
Continuous
 62
     7
100
AcDbPolyline
 90
        7
 70
   128
 43
0.0
 10
130.1750771527067
 20
29.17447627157438
 10
130.1796225068387
 20
29.17438735983424
 10
130.183670601775
 20
29.17428810881964
 10
130.1903222543999
 20
29.17407719136853
 10
130.1951436798897
 20
29.17386799429747
 10
130.1966123496461
 20
29.17376282002434
 10
130.1972314600616
 20
29.17366093365334
  0
LWPOLYLINE
  5
11475
330
A
100
AcDbEntity
  8
0
  6
Continuous
 62
     7
100
AcDbPolyline
 90
        9
 70
   128
 43
0.0
 10
130.192592168268
 20
30.1477954203547
 10
130.1894920274349
 20
29.96812677407948
 10
130.1863480295651
 20
29.78729530227068
 10
130.1833264448703
 20
29.61522399734011
 10
130.1806060445403
 20
29.46238955518672
 10
130.1783451753883
 20
29.33787369515474
 10
130.1766524967565
 20
29.24767801148571
 10
130.1755702740447
 20
29.1938167235397
 10
130.1750771527067
 20
29.17447627157438
  0
LWPOLYLINE
  5
1147A
330
A
100
AcDbEntity
  8
0
  6
Continuous
 62
     7
100
AcDbPolyline
 90
        9
 70
   128
 43
0.0
 10
133.0404339746346
 20
31.11358486161206
 10
133.1460918231053
 20
31.11505243519926
 10
133.2473301119601
 20
31.11610071498913
 10
133.3403182353315
 20
31.11672970098167
 10
133.4215972199708
 20
31.11693939317698
 10
133.4883848202082
 20
31.11672976892899
 10
133.5382639065662
 20
31.11610080558549
 10
133.5691645878325
 20
31.11505250314647
 10
133.5692412305877
 20
31.11504184386323
  0
LINE
  5
1147B
330
A
100
AcDbEntity
  8
0
  6
Continuous
 62
     7
100
AcDbLine
 10
133.6312066665098
 20
30.34124400184464
 30
0.0
 11
133.0404339746346
 21
30.34124400184464
 31
0.0
  0
LINE
  5
1147C
330
A
100
AcDbEntity
  8
0
  6
Continuous
 62
     7
100
AcDbLine
 10
132.5726695372248
 20
31.09798941416227
 30
0.0
 11
133.0404339746346
 21
31.11358486161373
 31
0.0
  0
LWPOLYLINE
  5
1147D
330
A
100
AcDbEntity
  8
0
  6
Continuous
 62
     7
100
AcDbPolyline
 90
        7
 70
   128
 43
0.0
 10
132.5726695304117
 20
31.09798941417162
 10
132.5726785613162
 20
31.2029117187507
 10
132.5726864109172
 20
31.29734782049391
 10
132.5726929885616
 20
31.37162586861175
 10
132.5726982540518
 20
31.42214211512422
 10
132.5727022182234
 20
31.45103373018006
 10
132.5727048446049
 20
31.46317923054861
  0
LINE
  5
11481
330
A
100
AcDbEntity
  8
0
  6
Continuous
 62
     7
100
AcDbLine
 10
131.2581074803563
 20
30.109240904844
 30
0.0
 11
131.2587110689535
 21
30.1239447391788
 31
0.0
  0
LINE
  5
11482
330
A
100
AcDbEntity
  8
0
  6
Continuous
 62
     7
100
AcDbLine
 10
131.278993084433
 20
30.34124400184908
 30
0.0
 11
131.2587110596962
 21
30.12394465374996
 31
0.0
  0
LINE
  5
11483
330
A
100
AcDbEntity
  8
0
  6
Continuous
 62
     7
100
AcDbLine
 10
133.0404339746346
 20
31.11358486140864
 30
0.0
 11
133.0404339746346
 21
30.34124400184464
 31
0.0
  0
ARC
  5
11484
330
A
100
AcDbEntity
  8
0
  6
Continuous
 62
     7
100
AcDbCircle
 10
133.1877738601772
 20
31.07189545099846
 30
0.0
 40
0.3938484612234041
100
AcDbArc
 50
5.480925217286968
 51
25.13304634431264
  0
LINE
  5
11485
330
A
100
AcDbEntity
  8
0
  6
Continuous
 62
     7
100
AcDbLine
 10
133.562717077433
 20
31.18687112730743
 30
0.0
 11
133.5784507880125
 21
31.10935187569942
 31
0.0
  0
LINE
  5
11486
330
A
100
AcDbEntity
  8
0
  6
Continuous
 62
     7
100
AcDbLine
 10
133.6312066665098
 20
30.34124400184464
 30
0.0
 11
133.57971727588
 21
31.11358486140864
 31
0.0
  0
LINE
  5
11487
330
A
100
AcDbEntity
  8
0
  6
Continuous
 62
     7
100
AcDbLine
 10
133.5692412305877
 20
31.1150418438632
 30
0.0
 11
133.5797172758405
 21
31.11358486161203
 31
0.0
  0
LWPOLYLINE
  5
11488
330
A
100
AcDbEntity
  8
0
  6
Continuous
 62
     7
100
AcDbPolyline
 90
        9
 70
   128
 43
0.0
 10
133.5693166791061
 20
31.11504513025395
 10
133.551546154127
 20
31.20182872272122
 10
133.5107791911698
 20
31.28182640108562
 10
133.4493515118445
 20
31.34942796415479
 10
133.3718069668737
 20
31.4016464768163
 10
133.283298512385
 20
31.43829687672829
 10
133.1903809925989
 20
31.46119232886249
 10
133.1000118758345
 20
31.47311521976937
 10
133.0180345860014
 20
31.47692575433726
  0
LWPOLYLINE
  5
11489
330
A
100
AcDbEntity
  8
0
  6
Continuous
 62
     7
100
AcDbPolyline
 90
        4
 70
   128
 43
0.0
 10
133.0180346004688
 20
31.47692575565887
 10
132.8668108370257
 20
31.46946622645945
 10
132.7168795413931
 20
31.46462188776198
 10
132.5698521640543
 20
31.4633461629019
  0
LWPOLYLINE
  5
1148A
330
A
100
AcDbEntity
  8
0
  6
Continuous
 62
     7
100
AcDbPolyline
 90
        8
 70
   128
 43
0.0
 10
133.040433989647
 20
31.11358486248517
 10
133.0362347224627
 20
31.18517708030462
 10
133.0319367988747
 20
31.25747707704196
 10
133.0278043096543
 20
31.32588718102696
 10
133.0241259519766
 20
31.38551443104123
 10
133.0211563085001
 20
31.43218564454267
 10
133.0190604805509
 20
31.46336345128705
 10
133.0180957252064
 20
31.47585132310124
  0
LWPOLYLINE
  5
1148B
330
A
100
AcDbEntity
  8
0
  6
Continuous
 62
     7
100
AcDbPolyline
 90
        9
 70
   128
 43
0.0
 10
133.5797172758109
 20
31.11358486248517
 10
133.5682328955897
 20
31.18517708030462
 10
133.5418658761346
 20
31.25747707704196
 10
133.4999096183335
 20
31.32588718102696
 10
133.4435880982646
 20
31.38551443104112
 10
133.3761045304125
 20
31.43218564454262
 10
133.3020714348786
 20
31.46336345128705
 10
133.226518094448
 20
31.47857179397866
 10
133.1538924777553
 20
31.47919602209359
  0
LINE
  5
1153C
330
A
100
AcDbEntity
  8
0
  6
Continuous
100
AcDbLine
 10
26.25523029324813
 20
11.17294084548948
 30
0.0
 11
70.95394981509684
 21
10.89646043620453
 31
0.0
  0
LINE
  5
14286
330
A
100
AcDbEntity
  8
0
  6
Continuous
 62
     7
100
AcDbLine
 10
67.11739528013651
 20
6.963387504156226
 30
0.0
 11
63.6173952801365
 21
6.963387504156227
 31
0.0
  0
LINE
  5
1429E
330
A
100
AcDbEntity
  8
0
  6
Continuous
 62
     7
100
AcDbLine
 10
106.139083681883
 20
6.963406810875595
 30
0.0
 11
109.639083681883
 21
6.963406810875594
 31
0.0
  0
MTEXT
  5
17F14
330
A
100
AcDbEntity
  8
Dim
 62
     4
100
AcDbMText
 10
-1148.459821812823
 20
-43.75729900380202
 30
0.0
 40
1.125
 41
0.0
 71
     1
 72
     1
  1
\A1;
 73
     1
 44
1.0
1001
ACAD
1000
MTEXTBEGIN
1070
    73
1070
     1
1070
    44
1040
1.0
1070
    74
1070
     0
1000
MTEXTEND
  0
MTEXT
  5
17F16
330
A
100
AcDbEntity
  8
Dim
 62
     4
100
AcDbMText
 10
-1156.095202825975
 20
-43.50652667122642
 30
0.0
 40
1.125
 41
0.0
 71
     1
 72
     1
  1
\A1;
 73
     1
 44
1.0
1001
ACAD
1000
MTEXTBEGIN
1070
    73
1070
     1
1070
    44
1040
1.0
1070
    74
1070
     0
1000
MTEXTEND
  0
LINE
  5
18153
330
A
100
AcDbEntity
  8
0
  6
Continuous
100
AcDbLine
 10
0.0
 20
0.0
 30
0.0
 11
0.0
 21
0.0
 31
0.0
  0
LINE
  5
18154
330
A
100
AcDbEntity
  8
0
  6
Continuous
100
AcDbLine
 10
0.0
 20
0.0
 30
0.0
 11
0.0
 21
0.0
 31
0.0
  0
CIRCLE
  5
181B5
330
A
100
AcDbEntity
  8
0
  6
Continuous
100
AcDbCircle
 10
37.24239531113653
 20
51.9119411428735
 30
0.0
 40
1.0
  0
LINE
  5
181B6
330
A
100
AcDbEntity
  8
0
  6
Continuous
100
AcDbLine
 10
37.5621526356008
 20
50.46208987075229
 30
0.0
 11
36.93689626051969
 21
50.46219610266283
 31
0.0
  0
CIRCLE
  5
181B8
330
A
100
AcDbEntity
  8
0
  6
Continuous
100
AcDbCircle
 10
37.24239531113653
 20
26.21342098144688
 30
0.0
 40
1.1875
  0
LINE
  5
181BE
330
A
100
AcDbEntity
  8
0
  6
Continuous
100
AcDbLine
 10
63.61739528013651
 20
10.40002336472446
 30
0.0
 11
63.6173952801365
 21
6.963387504156228
 31
0.0
  0
LINE
  5
181BF
330
A
100
AcDbEntity
  8
0
  6
Continuous
100
AcDbLine
 10
35.61739528013652
 20
10.66264191848233
 30
0.0
 11
35.61739528013652
 21
6.963387504156226
 31
0.0
  0
LINE
  5
181C0
330
A
100
AcDbEntity
  8
0
  6
Continuous
100
AcDbLine
 10
67.11739528013652
 20
10.51028352182858
 30
0.0
 11
67.11739528013651
 21
6.963387504156227
 31
0.0
  0
LINE
  5
181C1
330
A
100
AcDbEntity
  8
0
  6
Continuous
100
AcDbLine
 10
32.11739528013652
 20
10.72526867087506
 30
0.0
 11
32.11739528013652
 21
6.963387504156226
 31
0.0
  0
LINE
  5
181C5
330
A
100
AcDbEntity
  8
0
  6
Continuous
 62
     7
100
AcDbLine
 10
115.639083681883
 20
10.21550476415127
 30
0.0
 11
115.639083681883
 21
6.963406810875595
 31
0.0
  0
LINE
  5
181C6
330
A
100
AcDbEntity
  8
0
  6
Continuous
 62
     7
100
AcDbLine
 10
109.639083681883
 20
10.27323382053635
 30
0.0
 11
109.639083681883
 21
6.963406810875595
 31
0.0
  0
LINE
  5
181C7
330
A
100
AcDbEntity
  8
0
  6
Continuous
 62
     7
100
AcDbLine
 10
119.139083681883
 20
10.19536134520217
 30
0.0
 11
119.1390836818829
 21
6.963406810875595
 31
0.0
  0
LINE
  5
181C8
330
A
100
AcDbEntity
  8
0
  6
Continuous
 62
     7
100
AcDbLine
 10
106.139083681883
 20
10.34460727890014
 30
0.0
 11
106.139083681883
 21
6.963406810875595
 31
0.0
  0
INSERT
  5
187FA
330
A
100
AcDbEntity
  8
0
100
AcDbBlockReference
  2
NOTE34
 10
157.4962928729652
 20
-19.72684844109048
 30
0.0
  0
INSERT
  5
187FB
330
A
100
AcDbEntity
  8
0
100
AcDbBlockReference
  2
NOTE35
 10
157.4962928729652
 20
-19.72684844109048
 30
0.0
  0
INSERT
  5
187FC
330
A
100
AcDbEntity
  8
0
100
AcDbBlockReference
  2
NOTE36
 10
157.4962928729652
 20
-19.72684844109048
 30
0.0
  0
INSERT
  5
187FD
330
A
100
AcDbEntity
  8
0
100
AcDbBlockReference
  2
NOTE37
 10
157.4962928729652
 20
-19.72684844109048
 30
0.0
  0
INSERT
  5
187FE
330
A
100
AcDbEntity
  8
0
100
AcDbBlockReference
  2
NOTE38
 10
157.4962928729652
 20
-19.72684844109048
 30
0.0
  0
INSERT
  5
187FF
330
A
100
AcDbEntity
  8
0
100
AcDbBlockReference
  2
NOTE39
 10
157.4962928729652
 20
-19.72684844109048
 30
0.0
  0
INSERT
  5
18800
330
A
100
AcDbEntity
  8
0
100
AcDbBlockReference
  2
NOTE40
 10
157.4962928729652
 20
-19.72684844109048
 30
0.0
  0
INSERT
  5
18801
330
A
100
AcDbEntity
  8
0
100
AcDbBlockReference
  2
NOTE49
 10
157.4962928729652
 20
-19.72684844109048
 30
0.0
  0
INSERT
  5
18802
330
A
100
AcDbEntity
  8
0
100
AcDbBlockReference
  2
NOTE58
 10
157.4962928729652
 20
-19.72684844109048
 30
0.0
  0
INSERT
  5
18803
330
A
100
AcDbEntity
  8
0
100
AcDbBlockReference
  2
NOTE59
 10
157.4962928729652
 20
-19.72684844109048
 30
0.0
  0
MTEXT
  5
18E12
330
A
100
AcDbEntity
  8
Dim
 62
     4
100
AcDbMText
 10
-990.9635289398575
 20
-63.4841474448925
 30
0.0
 40
1.125
 41
0.0
 71
     1
 72
     1
  1
\A1;
 73
     1
 44
1.0
1001
ACAD
1000
MTEXTBEGIN
1070
    73
1070
     1
1070
    44
1040
1.0
1070
    74
1070
     0
1000
MTEXTEND
  0
MTEXT
  5
18E13
330
A
100
AcDbEntity
  8
Dim
 62
     4
100
AcDbMText
 10
-998.5989099530101
 20
-63.23337511231691
 30
0.0
 40
1.125
 41
0.0
 71
     1
 72
     1
  1
\A1;
 73
     1
 44
1.0
1001
ACAD
1000
MTEXTBEGIN
1070
    73
1070
     1
1070
    44
1040
1.0
1070
    74
1070
     0
1000
MTEXTEND
  0
LINE
  5
18E33
330
A
100
AcDbEntity
  8
0
  6
Continuous
100
AcDbLine
 10
40.89015967108685
 20
29.68087984386648
 30
0.0
 11
56.34351055094817
 21
29.68087984322972
 31
0.0
  0
LINE
  5
18E34
330
A
100
AcDbEntity
  8
0
  6
Continuous
100
AcDbLine
 10
40.87159263677517
 20
28.71071154298011
 30
0.0
 11
56.36207762069784
 21
28.71071154298011
 31
0.0
  0
LINE
  5
18E39
330
A
100
AcDbEntity
  8
0
  6
Continuous
100
AcDbLine
 10
57.55633519220871
 20
47.72644725305843
 30
0.0
 11
41.6883351922087
 21
47.72644725305843
 31
0.0
  0
LINE
  5
18E3A
330
A
100
AcDbEntity
  8
0
  6
Continuous
100
AcDbLine
 10
57.55633519220871
 20
46.11244725305842
 30
0.0
 11
41.6883351922087
 21
46.11244725305841
 31
0.0
  0
LINE
  5
18E42
330
A
100
AcDbEntity
  8
0
  6
Continuous
100
AcDbLine
 10
41.56333519220871
 20
46.23744725305841
 30
0.0
 11
41.56333519220871
 21
47.60144725305843
 31
0.0
  0
LINE
  5
18E43
330
A
100
AcDbEntity
  8
0
  6
Continuous
100
AcDbLine
 10
57.68133519220871
 20
46.23744725305842
 30
0.0
 11
57.68133519220871
 21
47.60144725305843
 31
0.0
  0
ARC
  5
18E45
330
A
100
AcDbEntity
  8
0
  6
Continuous
100
AcDbCircle
 10
57.55633519220871
 20
47.60144725305843
 30
0.0
 40
0.125
100
AcDbArc
 50
0.000000000000007
 51
90.0
  0
ARC
  5
18E46
330
A
100
AcDbEntity
  8
0
  6
Continuous
100
AcDbCircle
 10
57.55633519220871
 20
46.23744725305842
 30
0.0
 40
0.125
100
AcDbArc
 50
270.0
 51
0.000000000000007
  0
ARC
  5
18E47
330
A
100
AcDbEntity
  8
0
  6
Continuous
100
AcDbCircle
 10
41.6883351922087
 20
47.60144725305843
 30
0.0
 40
0.125
100
AcDbArc
 50
90.0
 51
180.0
  0
ARC
  5
18E48
330
A
100
AcDbEntity
  8
0
  6
Continuous
100
AcDbCircle
 10
41.6883351922087
 20
46.23744725305841
 30
0.0
 40
0.125
100
AcDbArc
 50
180.0
 51
270.0
  0
LINE
  5
18E49
330
A
100
AcDbEntity
  8
0
  6
Continuous
100
AcDbLine
 10
58.1613351922087
 20
46.56444725305844
 30
0.0
 11
58.1613351922087
 21
47.27444725305843
 31
0.0
  0
LINE
  5
18E4A
330
A
100
AcDbEntity
  8
0
  6
Continuous
100
AcDbLine
 10
41.08333519220869
 20
46.56444725305842
 30
0.0
 11
41.0833351922087
 21
47.27444725305843
 31
0.0
  0
LINE
  5
18E4B
330
A
100
AcDbEntity
  8
0
  6
Continuous
100
AcDbLine
 10
58.0363351922087
 20
47.39944725305843
 30
0.0
 11
57.68133519220871
 21
47.39944725305842
 31
0.0
  0
LINE
  5
18E4C
330
A
100
AcDbEntity
  8
0
  6
Continuous
100
AcDbLine
 10
58.0363351922087
 20
46.43944725305844
 30
0.0
 11
57.68133519220871
 21
46.43944725305843
 31
0.0
  0
LINE
  5
18E4E
330
A
100
AcDbEntity
  8
0
  6
Continuous
100
AcDbLine
 10
41.5633351922087
 20
47.39944725305842
 30
0.0
 11
41.2083351922087
 21
47.39944725305843
 31
0.0
  0
LINE
  5
18E4F
330
A
100
AcDbEntity
  8
0
  6
Continuous
100
AcDbLine
 10
41.5633351922087
 20
46.43944725305842
 30
0.0
 11
41.2083351922087
 21
46.43944725305842
 31
0.0
  0
ARC
  5
18E50
330
A
100
AcDbEntity
  8
0
  6
Continuous
100
AcDbCircle
 10
58.0363351922087
 20
47.27444725305843
 30
0.0
 40
0.125
100
AcDbArc
 50
0.000000000000007
 51
90.0
  0
ARC
  5
18E51
330
A
100
AcDbEntity
  8
0
  6
Continuous
100
AcDbCircle
 10
58.0363351922087
 20
46.56444725305844
 30
0.0
 40
0.125
100
AcDbArc
 50
270.0
 51
0.000000000000007
  0
LINE
  5
18E52
330
A
100
AcDbEntity
  8
0
  6
Continuous
 62
     7
100
AcDbLine
 10
57.86980204196336
 20
47.39944725305842
 30
0.0
 11
57.6813351922087
 21
47.42034457293611
 31
0.0
  0
ARC
  5
18E53
330
A
100
AcDbEntity
  8
0
  6
Continuous
100
AcDbCircle
 10
41.2083351922087
 20
47.27444725305843
 30
0.0
 40
0.125
100
AcDbArc
 50
90.0
 51
180.0
  0
ARC
  5
18E54
330
A
100
AcDbEntity
  8
0
  6
Continuous
100
AcDbCircle
 10
41.2083351922087
 20
46.56444725305842
 30
0.0
 40
0.125
100
AcDbArc
 50
180.0000000000004
 51
270.0
  0
LINE
  5
18E55
330
A
100
AcDbEntity
  8
0
  6
Continuous
 62
     7
100
AcDbLine
 10
41.13227248475832
 20
47.37364132816032
 30
0.0
 11
40.85634666436066
 21
47.34304702509724
 31
0.0
  0
LINE
  5
18E56
330
A
100
AcDbEntity
  8
0
  6
Continuous
100
AcDbLine
 10
58.01210433901742
 20
77.40125289974156
 30
0.0
 11
57.65710433901742
 21
77.40125289974156
 31
0.0
  0
LINE
  5
18E57
330
A
100
AcDbEntity
  8
0
  6
Continuous
100
AcDbLine
 10
41.53910433901741
 20
77.40125289974156
 30
0.0
 11
41.18410433901741
 21
77.40125289974156
 31
0.0
  0
LINE
  5
18E58
330
A
100
AcDbEntity
  8
0
  6
Continuous
100
AcDbLine
 10
58.01210433901742
 20
78.36125289974157
 30
0.0
 11
57.65710433901742
 21
78.36125289974155
 31
0.0
  0
LINE
  5
18E59
330
A
100
AcDbEntity
  8
0
  6
Continuous
100
AcDbLine
 10
41.53910433901741
 20
78.36125289974155
 30
0.0
 11
41.18410433901742
 21
78.36125289974157
 31
0.0
  0
ARC
  5
18E5A
330
A
100
AcDbEntity
  8
0
  6
Continuous
100
AcDbCircle
 10
41.18410433901742
 20
78.23625289974157
 30
0.0
 40
0.125
100
AcDbArc
 50
90.0
 51
180.0
  0
LINE
  5
18E5B
330
A
100
AcDbEntity
  8
0
  6
Continuous
100
AcDbLine
 10
57.53210433901742
 20
77.07425289974155
 30
0.0
 11
41.66410433901742
 21
77.07425289974153
 31
0.0
  0
ARC
  5
18E5C
330
A
100
AcDbEntity
  8
0
  6
Continuous
100
AcDbCircle
 10
57.53210433901742
 20
77.19925289974155
 30
0.0
 40
0.125
100
AcDbArc
 50
270.0
 51
0.000000000000007
  0
LINE
  5
18E5D
330
A
100
AcDbEntity
  8
0
  6
Continuous
100
AcDbLine
 10
57.53210433901742
 20
78.68825289974157
 30
0.0
 11
41.66410433901742
 21
78.68825289974157
 31
0.0
  0
LINE
  5
18E5E
330
A
100
AcDbEntity
  8
0
  6
Continuous
100
AcDbLine
 10
57.65710433901742
 20
77.19925289974155
 30
0.0
 11
57.65710433901742
 21
78.56325289974157
 31
0.0
  0
LINE
  5
18E5F
330
A
100
AcDbEntity
  8
0
  6
Continuous
100
AcDbLine
 10
58.13710433901742
 20
77.52625289974156
 30
0.0
 11
58.13710433901742
 21
78.23625289974157
 31
0.0
  0
ARC
  5
18E60
330
A
100
AcDbEntity
  8
0
  6
Continuous
100
AcDbCircle
 10
58.01210433901742
 20
77.52625289974156
 30
0.0
 40
0.125
100
AcDbArc
 50
270.0
 51
0.000000000000007
  0
ARC
  5
18E61
330
A
100
AcDbEntity
  8
0
  6
Continuous
100
AcDbCircle
 10
58.01210433901742
 20
78.23625289974157
 30
0.0
 40
0.125
100
AcDbArc
 50
0.000000000000007
 51
90.0
  0
ARC
  5
18E62
330
A
100
AcDbEntity
  8
0
  6
Continuous
100
AcDbCircle
 10
57.53210433901742
 20
78.56325289974157
 30
0.0
 40
0.125
100
AcDbArc
 50
0.000000000000007
 51
90.0
  0
LINE
  5
18E63
330
A
100
AcDbEntity
  8
0
  6
Continuous
100
AcDbLine
 10
41.53910433901742
 20
77.19925289974153
 30
0.0
 11
41.53910433901742
 21
78.56325289974157
 31
0.0
  0
LINE
  5
18E64
330
A
100
AcDbEntity
  8
0
  6
Continuous
100
AcDbLine
 10
41.05910433901741
 20
77.52625289974156
 30
0.0
 11
41.05910433901742
 21
78.23625289974157
 31
0.0
  0
ARC
  5
18E65
330
A
100
AcDbEntity
  8
0
  6
Continuous
100
AcDbCircle
 10
41.18410433901741
 20
77.52625289974156
 30
0.0
 40
0.125
100
AcDbArc
 50
180.0000000000004
 51
270.0
  0
ARC
  5
18E66
330
A
100
AcDbEntity
  8
0
  6
Continuous
100
AcDbCircle
 10
41.66410433901742
 20
77.19925289974153
 30
0.0
 40
0.125
100
AcDbArc
 50
180.0
 51
270.0
  0
ARC
  5
18E67
330
A
100
AcDbEntity
  8
0
  6
Continuous
100
AcDbCircle
 10
41.66410433901742
 20
78.56325289974157
 30
0.0
 40
0.125
100
AcDbArc
 50
90.0
 51
180.0
  0
LINE
  5
18E68
330
A
100
AcDbEntity
  8
0
  6
Continuous
 62
     7
100
AcDbLine
 10
57.91696224293388
 20
78.36125289974155
 30
0.0
 11
57.89868425875306
 21
78.36337178158533
 31
0.0
  0
LINE
  5
18E69
330
A
100
AcDbEntity
  8
0
  6
Continuous
 62
     7
100
AcDbLine
 10
58.09936904382143
 20
77.43675501543434
 30
0.0
 11
58.37844341360915
 21
77.46769943703862
 31
0.0
  0
LINE
  5
18E6A
330
A
100
AcDbEntity
  8
0
  6
Continuous
 62
     7
100
AcDbLine
 10
41.45564397406324
 20
77.40125289974156
 30
0.0
 11
41.53910433901742
 21
77.39199864568661
 31
0.0
  0
LWPOLYLINE
  5
18E6B
330
A
100
AcDbEntity
  8
0
  6
Continuous
 62
     7
100
AcDbPolyline
 90
        4
 70
   128
 43
0.0
 10
41.10939511706336
 20
78.3364703241498
 10
41.06971198943688
 20
78.33224641870677
 10
41.01685662514
 20
78.32630212704819
 10
40.94289339105535
 20
78.31778948820389
  0
LINE
  5
18E79
330
A
100
AcDbEntity
  8
0
  6
Continuous
 62
     7
100
AcDbLine
 10
35.61739528013653
 20
6.963387504156227
 30
0.0
 11
32.11739528013652
 21
6.963387504156226
 31
0.0
  0
LINE
  5
18E7A
330
A
100
AcDbEntity
  8
0
  6
Continuous
 62
     7
100
AcDbLine
 10
115.639083681883
 20
6.963406810875594
 30
0.0
 11
119.1390836818829
 21
6.963406810875594
 31
0.0
  0
VIEWPORT
  5
18E6F
102
{ACAD_XDICTIONARY
360
18F15
102
}
330
18148
100
AcDbEntity
 67
     1
  8
0
  6
Continuous
100
AcDbViewport
 10
5.375000386055205
 20
4.321170703087339
 30
0.0
 40
11.61396030124583
 41
7.051687253788035
 68
     1
 69
     1
 12
5.375000386055205
 22
4.321170703087339
 13
0.0
 23
0.0
 14
0.5
 24
0.5
 15
0.5
 25
0.5
 16
0.0
 26
0.0
 36
1.0
 17
0.0
 27
0.0
 37
0.0
 42
50.0
 43
0.0
 44
0.0
 45
7.051687253788035
 50
0.0
 51
0.0
 72
  2000
 90
   557088
  1

281
     0
 71
     1
 74
     0
110
0.0
120
0.0
130
0.0
111
1.0
121
0.0
131
0.0
112
0.0
122
1.0
132
0.0
 79
     0
146
0.0
  0
VIEWPORT
  5
18E71
102
{ACAD_XDICTIONARY
360
18F17
102
}
330
18148
100
AcDbEntity
 67
     1
  8
0
  6
Continuous
100
AcDbViewport
 10
5.375000121086602
 20
4.124999820716737
 30
0.0
 40
8.600000193738562
 41
6.599999713146781
 68
     2
 69
     2
 12
72.92888468223401
 22
45.26527218342796
 13
0.0
 23
0.0
 14
1.0
 24
1.0
 15
0.0
 25
0.0
 16
0.0
 26
0.0
 36
1.0
 17
0.0
 27
0.0
 37
0.0
 42
50.0
 43
0.0
 44
0.0
 45
95.00439266229911
 50
0.0
 51
0.0
 72
  2000
 90
   819232
  1

281
     0
 71
     1
 74
     0
110
0.0
120
0.0
130
0.0
111
1.0
121
0.0
131
0.0
112
0.0
122
1.0
132
0.0
 79
     0
146
0.0
  0
MTEXT
  5
18ED9
330
18148
100
AcDbEntity
 67
     1
  8
0
  6
Continuous
100
AcDbMText
 10
7.464407567777257
 20
7.817096000884287
 30
0.0
 40
0.15
 41
16.9171875
 71
     1
 72
     1
  1
AD-00156, ABY930, V.01
  7
SLDTEXTSTYLE0
 73
     1
 44
1.0
1001
ACAD
1000
MTEXTBEGIN
1070
    73
1070
     1
1070
    44
1040
1.0
1070
    74
1070
     0
1000
MTEXTEND
  0
ENDSEC
  0
SECTION
  2
OBJECTS
  0
DICTIONARY
  5
19
330
0
100
AcDbDictionary
281
     1
  3
ACAD_2007HEADERVARS_RT
350
18F08
  3
ACAD_COLOR
350
11548
  3
ACAD_GROUP
350
1A
  3
ACAD_LAYOUT
350
101F
  3
ACAD_MATERIAL
350
11547
  3
ACAD_MLINESTYLE
350
1B
  3
ACAD_PLOTSETTINGS
350
1020
  3
ACAD_PLOTSTYLENAME
350
101D
  3
ACAD_TABLESTYLE
350
11549
  3
ACAD_VISUALSTYLE
350
1812A
  3
AcDbVariableDictionary
350
102A
  3
ASE_INDEX_DICTIONARY
350
18124
  3
DWGPROPS
350
18F07
  0
DICTIONARY
  5
18E83
330
7
100
AcDbDictionary
280
     1
281
     1
  0
DICTIONARY
  5
11555
330
2
100
AcDbDictionary
280
     1
281
     1
  3
ACAD_LAYERSTATES
360
11556
  0
DICTIONARY
  5
181B2
330
A
100
AcDbDictionary
280
     1
281
     1
  3
ACAD_SORTENTS
360
181B3
  0
DICTIONARY
  5
18F15
330
18E6F
100
AcDbDictionary
280
     1
281
     1
  3
ACAD_XREC_ROUNDTRIP
360
18F16
  0
DICTIONARY
  5
18F17
330
18E71
100
AcDbDictionary
280
     1
281
     1
  3
ACAD_XREC_ROUNDTRIP
360
18F18
  0
DICTIONARY
  5
18F08
102
{ACAD_REACTORS
330
19
102
}
330
19
100
AcDbDictionary
281
     1
  3
DIMFXL
350
18F09
  0
DICTIONARY
  5
11548
102
{ACAD_REACTORS
330
19
102
}
330
19
100
AcDbDictionary
281
     1
  0
DICTIONARY
  5
1A
102
{ACAD_REACTORS
330
19
102
}
330
19
100
AcDbDictionary
281
     1
  0
DICTIONARY
  5
101F
102
{ACAD_REACTORS
330
19
102
}
330
19
100
AcDbDictionary
281
     1
  3
Layout1
350
18149
  3
Model
350
1021
  0
DICTIONARY
  5
11547
102
{ACAD_REACTORS
330
19
102
}
330
19
100
AcDbDictionary
281
     1
  3
ByBlock
350
18129
  3
ByLayer
350
18128
  3
Global
350
165DF
  0
DICTIONARY
  5
1B
102
{ACAD_REACTORS
330
19
102
}
330
19
100
AcDbDictionary
281
     1
  3
STANDARD
350
1C
  0
DICTIONARY
  5
1020
102
{ACAD_REACTORS
330
19
102
}
330
19
100
AcDbDictionary
281
     1
  0
ACDBDICTIONARYWDFLT
  5
101D
102
{ACAD_REACTORS
330
19
102
}
330
19
100
AcDbDictionary
281
     1
  3
Normal
350
101E
100
AcDbDictionaryWithDefault
340
101E
  0
DICTIONARY
  5
11549
102
{ACAD_REACTORS
330
19
102
}
330
19
100
AcDbDictionary
281
     1
  3
Standard
350
1154A
  0
DICTIONARY
  5
1812A
102
{ACAD_REACTORS
330
19
102
}
330
19
100
AcDbDictionary
281
     1
  3
2dWireframe
350
18130
  3
3D Hidden
350
18132
  3
3dWireframe
350
18131
  3
Basic
350
1812F
  3
Brighten
350
18136
  3
ColorChange
350
1813A
  3
Conceptual
350
18133
  3
Dim
350
18135
  3
Facepattern
350
18139
  3
Flat
350
1812B
  3
FlatWithEdges
350
1812C
  3
Gouraud
350
1812D
  3
GouraudWithEdges
350
1812E
  3
Linepattern
350
18138
  3
Realistic
350
18134
  3
Thicken
350
18137
  0
DICTIONARY
  5
102A
102
{ACAD_REACTORS
330
19
102
}
330
19
100
AcDbDictionary
281
     1
  3
CTABLESTYLE
350
1156E
  3
DIMASSOC
350
102B
  3
INDEXCTL
350
18F02
  3
SORTENTS
350
18F01
  0
DICTIONARY
  5
18124
102
{ACAD_REACTORS
330
19
102
}
330
19
100
AcDbDictionary
281
     1
  3
ASEBlockHierarchyIndexRecord
350
18125
1001
DCO15
1040
1579855854.008
  0
XRECORD
  5
18F07
102
{ACAD_REACTORS
330
19
102
}
330
19
100
AcDbXrecord
280
     1
  1
DWGPROPS COOKIE
  2

  3

  4

  6

  7

  8
nnguyen
  9

300
=
301
=
302
=
303
=
304
=
305
=
306
=
307
=
308
=
309
=
 40
1.5015978125
 41
2444971.708333333
 42
2454922.41811221
  1

 90
        0
  0
DICTIONARY
  5
11556
102
{ACAD_REACTORS
330
11555
102
}
330
11555
100
AcDbDictionary
281
     1
  0
SORTENTSTABLE
  5
181B3
102
{ACAD_REACTORS
330
181B2
102
}
330
181B2
100
AcDbSortentsTable
330
A
331
11251
  5
11255
331
11461
  5
11476
331
1140A
  5
11415
331
17F16
  5
181C6
331
11212
  5
11216
331
11288
  5
1128D
331
113C3
  5
113CE
331
1137C
  5
11390
331
11345
  5
1134F
331
11306
  5
1130E
331
112CF
  5
112D6
331
11412
  5
1141D
331
181C5
  5
11438
331
1121A
  5
1121E
331
11290
  5
11295
331
113CB
  5
113D6
331
1130E
  5
11316
331
112D7
  5
112DE
331
11261
  5
11266
331
18E4C
  5
18E49
331
11222
  5
11226
331
11298
  5
1129D
331
113D3
  5
113DE
331
1138C
  5
113A2
331
11355
  5
1135F
331
112DF
  5
112E6
331
1122A
  5
1122E
331
112A0
  5
112A5
331
E5
  5
E5
331
11394
  5
113AC
331
1131E
  5
11326
331
110E8
  5
110EA
331
10C8C
  5
10C8C
331
11137
  5
1113B
331
1113F
  5
11143
331
111E5
  5
111E9
331
11196
  5
1119B
331
11147
  5
1114B
331
11100
  5
11119
331
111ED
  5
111F1
331
11469
  5
11481
331
1141A
  5
11426
331
113DB
  5
113E6
331
11422
  5
1142F
331
113E3
  5
113EE
331
18E54
  5
18E59
331
112A8
  5
112AF
331
11269
  5
1126E
331
113EB
  5
113F6
331
187FD
  5
18E19
331
18E5C
  5
18E62
331
111F3
  5
111F7
331
11232
  5
11236
331
1135D
  5
11367
331
11326
  5
1132E
331
112E7
  5
112EE
331
1123A
  5
1123E
331
11481
  5
1429B
331
113F3
  5
113FE
331
18E64
  5
18E6A
331
111FB
  5
111FF
331
11271
  5
11276
331
113AC
  5
113B8
331
11365
  5
1136F
331
1132E
  5
11336
331
112EF
  5
112F6
331
112B8
  5
112BF
331
11242
  5
11246
331
11203
  5
11207
331
11279
  5
1127E
331
113B4
  5
113BF
331
1136D
  5
11377
331
112C0
  5
112C7
331
1124A
  5
1124E
331
1120B
  5
1120F
331
11281
  5
11286
331
113BC
  5
113C7
331
11375
  5
1137F
331
1133E
  5
11347
331
112FF
  5
11307
331
1114F
  5
11153
331
110D1
  5
110D1
331
111AE
  5
111B7
331
110D9
  5
110D9
331
11157
  5
1115B
331
111B6
  5
111BA
331
1115F
  5
11163
331
11128
  5
1112B
331
11167
  5
1116B
331
11489
  5
181B5
331
113FB
  5
1140C
331
11403
  5
11411
331
181B6
  5
18801
331
112C8
  5
112CF
331
11252
  5
11256
331
1140B
  5
11416
331
181BE
  5
187FE
331
11213
  5
11217
331
11289
  5
1128E
331
113C4
  5
113CF
331
1137D
  5
11391
331
11307
  5
1130F
331
112D0
  5
112D7
331
1125A
  5
1125F
331
11413
  5
1141E
331
181C6
  5
11433
331
18E45
  5
18E56
331
1121B
  5
1121F
331
11291
  5
11296
331
113CC
  5
113D7
331
1134E
  5
11358
331
1130F
  5
11317
331
112D8
  5
112DF
331
11262
  5
11267
331
11223
  5
11227
331
11299
  5
1129E
331
113D4
  5
113DF
331
1138D
  5
113A3
331
11356
  5
11360
331
11317
  5
11321
331
1122B
  5
1122F
331
112A1
  5
112A6
331
1131F
  5
11327
331
11130
  5
11134
331
10C8D
  5
10C8D
331
11138
  5
1113C
331
110F1
  5
110F9
331
1118F
  5
11193
331
110F9
  5
110FE
331
11140
  5
11144
331
111E6
  5
111EA
331
11197
  5
1119F
331
111EE
  5
111F2
331
1146A
  5
11486
331
1141B
  5
11427
331
113DC
  5
113E7
331
11472
  5
11488
331
11423
  5
11430
331
113E4
  5
113EF
331
18E55
  5
113A4
331
112E0
  5
112E7
331
112A9
  5
112B0
331
1147A
  5
14288
331
113EC
  5
113F7
331
187FE
  5
18E1A
331
18E5D
  5
18E63
331
111F4
  5
111F8
331
11233
  5
11237
331
1126A
  5
1126F
331
113A5
  5
113B1
331
1135E
  5
11368
331
11327
  5
1132F
331
112E8
  5
112EF
331
1123B
  5
1123F
331
11482
  5
1429D
331
113F4
  5
113FF
331
18E65
  5
18E6B
331
111FC
  5
11200
331
11272
  5
11277
331
113AD
  5
113B9
331
11366
  5
11370
331
1132F
  5
11337
331
112F0
  5
112F7
331
112B9
  5
112C0
331
11243
  5
11247
331
11204
  5
11208
331
1127A
  5
1127F
331
113B5
  5
113C0
331
1136E
  5
11378
331
112F8
  5
11300
331
112C1
  5
112C8
331
1124B
  5
1124F
331
1120C
  5
11210
331
11282
  5
11287
331
113BD
  5
113C8
331
11376
  5
11380
331
1133F
  5
11348
331
11148
  5
1114C
331
111A7
  5
111AF
331
11150
  5
11154
331
110D2
  5
110D2
331
11119
  5
11123
331
110DA
  5
110DA
331
11158
  5
1115C
331
11129
  5
1112C
331
10C86
  5
10C86
331
11160
  5
11164
331
111B7
  5
111BB
331
1148A
  5
181B6
331
113FC
  5
1140D
331
11300
  5
11308
331
112C9
  5
112D0
331
11253
  5
11257
331
181BF
  5
187FA
331
1140C
  5
11417
331
11214
  5
11218
331
1128A
  5
1128F
331
113C5
  5
113D0
331
11308
  5
11310
331
112D1
  5
112D8
331
1125B
  5
11260
331
11414
  5
11420
331
181C7
  5
11439
331
18E46
  5
18E50
331
1121C
  5
11220
331
11292
  5
11297
331
113CD
  5
113D8
331
1134F
  5
11359
331
11310
  5
11318
331
112D9
  5
112E0
331
11263
  5
11268
331
18E4E
  5
18E4D
331
11224
  5
11228
331
1129A
  5
1129F
331
113D5
  5
113E0
331
1138E
  5
113A5
331
11357
  5
11361
331
11318
  5
11322
331
112A2
  5
112A7
331
110EA
  5
110EB
331
10C8E
  5
10C8E
331
11131
  5
11135
331
11168
  5
1116C
331
11139
  5
1113D
331
111E7
  5
111EB
331
11141
  5
11145
331
11190
  5
11194
331
111EF
  5
111F3
331
1141C
  5
11428
331
113DD
  5
113E8
331
11473
  5
11489
331
11424
  5
11431
331
113E5
  5
113F0
331
18E56
  5
18E5C
331
11320
  5
11328
331
112E1
  5
112E8
331
112AA
  5
112B1
331
1147B
  5
14289
331
1142C
  5
1145C
331
113ED
  5
113F8
331
187FF
  5
18E1B
331
18E5E
  5
18E64
331
111F5
  5
111F9
331
11234
  5
11238
331
1126B
  5
11270
331
1135F
  5
11369
331
11328
  5
11330
331
112E9
  5
112F0
331
112B2
  5
112BA
331
1123C
  5
11240
331
11483
  5
1429F
331
113F5
  5
11400
331
18E66
  5
18E79
331
111FD
  5
11201
331
11273
  5
11278
331
113AE
  5
113BA
331
11367
  5
11371
331
112F1
  5
112F8
331
112BA
  5
112C1
331
11244
  5
11248
331
11205
  5
11209
331
1127B
  5
11280
331
113B6
  5
113C1
331
1136F
  5
11379
331
11338
  5
11341
331
112C2
  5
112C9
331
1124C
  5
11250
331
1120D
  5
11211
331
11283
  5
11288
331
113BE
  5
113C9
331
11377
  5
11381
331
11149
  5
1114D
331
110CB
  5
110CB
331
110D3
  5
110D3
331
11151
  5
11155
331
110DB
  5
110DB
331
11122
  5
11125
331
11159
  5
1115D
331
111B8
  5
111BC
331
11161
  5
11165
331
10C87
  5
10C87
331
1112A
  5
1112D
331
1148B
  5
181B7
331
113FD
  5
1140E
331
181B8
  5
18802
331
11340
  5
11349
331
11301
  5
11309
331
112CA
  5
112D1
331
11254
  5
11258
331
1140D
  5
11418
331
181C0
  5
187FF
331
11215
  5
11219
331
1128B
  5
11290
331
113C6
  5
113D1
331
11309
  5
11311
331
112D2
  5
112D9
331
1125C
  5
11261
331
11415
  5
11421
331
18E47
  5
18E5B
331
1121D
  5
11221
331
11293
  5
11298
331
113CE
  5
113D9
331
11350
  5
1135A
331
11311
  5
11319
331
112DA
  5
112E1
331
11264
  5
11269
331
18E4F
  5
18E4B
331
11225
  5
11229
331
1129B
  5
112A0
331
113D6
  5
113E1
331
11319
  5
11323
331
112A3
  5
112A9
331
B1
  5
B1
331
B9
  5
B9
331
11132
  5
11136
331
10C8F
  5
10C8F
331
110EB
  5
110EC
331
11169
  5
1116D
331
1113A
  5
1113E
331
111E8
  5
111EC
331
11191
  5
11195
331
11142
  5
11146
331
1141D
  5
11429
331
113DE
  5
113E9
331
181C8
  5
11434
331
11474
  5
14286
331
11425
  5
11432
331
113E6
  5
113F1
331
18E57
  5
18E5D
331
11358
  5
11362
331
11321
  5
11329
331
112E2
  5
112E9
331
112AB
  5
112B2
331
1147C
  5
1428A
331
1142D
  5
1146B
331
113EE
  5
113F9
331
18800
  5
18E1C
331
18E5F
  5
18E65
331
111F6
  5
111FA
331
11235
  5
11239
331
1126C
  5
11271
331
113A7
  5
113B2
331
11360
  5
1136A
331
11329
  5
11331
331
112EA
  5
112F1
331
1123D
  5
11241
331
11484
  5
17F16
331
1144D
  5
1146D
331
113F6
  5
11401
331
18E67
  5
18E7A
331
111FE
  5
11202
331
11274
  5
11279
331
11368
  5
11372
331
11331
  5
11339
331
112F2
  5
112F9
331
112BB
  5
112C2
331
11245
  5
11249
331
11206
  5
1120A
331
1127C
  5
11281
331
C1
  5
C1
331
113B7
  5
113C2
331
11370
  5
1137A
331
11339
  5
11342
331
112FA
  5
11301
331
112C3
  5
112CA
331
1124D
  5
11251
331
1120E
  5
11212
331
11284
  5
11289
331
C9
  5
C9
331
113BF
  5
113CA
331
1114A
  5
1114E
331
110CC
  5
110CC
331
11113
  5
1111D
331
11152
  5
11156
331
110D4
  5
110D4
331
1115A
  5
1115E
331
110DC
  5
110DD
331
111B9
  5
111BD
331
1112B
  5
1112E
331
11162
  5
11166
331
1153C
  5
181B8
331
11378
  5
11382
331
11341
  5
1134A
331
11302
  5
1130A
331
112CB
  5
112D2
331
11255
  5
11259
331
11465
  5
11479
331
1140E
  5
11419
331
181C1
  5
187FB
331
11216
  5
1121A
331
1128C
  5
11291
331
113C7
  5
113D2
331
11380
  5
11392
331
11349
  5
11353
331
1130A
  5
11312
331
112D3
  5
112DA
331
1125D
  5
11262
331
11416
  5
11422
331
18E48
  5
18E5A
331
1121E
  5
11222
331
11294
  5
11299
331
113CF
  5
113DA
331
11351
  5
1135B
331
11312
  5
1131A
331
112DB
  5
112E2
331
11265
  5
1126A
331
11226
  5
1122A
331
1129C
  5
112A1
331
E1
  5
E1
331
113D7
  5
113E2
331
11390
  5
113A6
331
112A4
  5
112AB
331
10C88
  5
10C88
331
110EC
  5
110ED
331
10C90
  5
10C90
331
11133
  5
11137
331
1118A
  5
1118E
331
1113B
  5
1113F
331
111E1
  5
111E5
331
11192
  5
1119A
331
11143
  5
11147
331
110FC
  5
11100
331
111E9
  5
111ED
331
1146D
  5
11487
331
1141E
  5
1142A
331
113DF
  5
113EA
331
18E50
  5
18E55
331
11475
  5
14287
331
113E7
  5
113F2
331
18E58
  5
18E5E
331
113A0
  5
113AD
331
11359
  5
11363
331
11322
  5
1132A
331
112E3
  5
112EA
331
1147D
  5
1428B
331
1142E
  5
1146C
331
113EF
  5
113FA
331
18801
  5
18E1D
331
18E60
  5
18E66
331
111F7
  5
111FB
331
1126D
  5
11272
331
112AC
  5
112B3
331
113A8
  5
113B3
331
11361
  5
1136B
331
1132A
  5
11332
331
112EB
  5
112F2
331
112B4
  5
112BB
331
1123E
  5
11242
331
11485
  5
18153
331
1144E
  5
11471
331
113F7
  5
11405
331
18E68
  5
112A8
331
111FF
  5
11203
331
11275
  5
1127A
331
113B0
  5
113BB
331
11369
  5
11373
331
11332
  5
1133B
331
112F3
  5
112FD
331
112BC
  5
112C3
331
11246
  5
1124A
331
11207
  5
1120B
331
1127D
  5
11282
331
113B8
  5
113C3
331
11371
  5
1137B
331
1133A
  5
11343
331
112FB
  5
11302
331
112C4
  5
112CB
331
1124E
  5
11252
331
1120F
  5
11213
331
11285
  5
1128A
331
1114B
  5
1114F
331
110CD
  5
110CD
331
110D5
  5
110D5
331
11153
  5
11157
331
1115B
  5
1115F
331
110DD
  5
110DE
331
111BA
  5
111BE
331
11163
  5
11167
331
110E5
  5
110E6
331
1112C
  5
1112F
331
11407
  5
11412
331
18E39
  5
18E51
331
113C0
  5
113CB
331
11379
  5
11385
331
11342
  5
1134B
331
11303
  5
1130B
331
112CC
  5
112D3
331
11256
  5
1125A
331
11466
  5
1147E
331
1140F
  5
1141A
331
11217
  5
1121B
331
1128D
  5
11292
331
113C8
  5
113D3
331
11381
  5
11393
331
1134A
  5
11354
331
1130B
  5
11313
331
112D4
  5
112DB
331
1125E
  5
11263
331
11417
  5
11423
331
18E49
  5
18E53
331
1121F
  5
11223
331
11295
  5
1129A
331
113D0
  5
113DB
331
11352
  5
1135C
331
11313
  5
1131C
331
112DC
  5
112E3
331
11266
  5
1126B
331
11227
  5
1122B
331
1129D
  5
112A2
331
11391
  5
113A7
331
112A5
  5
112AC
331
10C89
  5
10C89
331
11134
  5
11138
331
110ED
  5
110EE
331
111DA
  5
111DE
331
1118B
  5
1118F
331
110F5
  5
110FD
331
1113C
  5
11140
331
111E2
  5
111E6
331
110FD
  5
11113
331
11144
  5
11148
331
111EA
  5
111EE
331
113D8
  5
113E3
331
1141F
  5
1142C
331
113E0
  5
113EB
331
18E51
  5
18E54
331
11427
  5
1145A
331
113E8
  5
113F3
331
187FA
  5
18803
331
18E59
  5
18E5F
331
111F0
  5
111F4
331
113A1
  5
113AE
331
1135A
  5
11364
331
11323
  5
1132B
331
112E4
  5
112EB
331
112AD
  5
112B4
331
113F0
  5
113FB
331
18802
  5
18E1E
331
18E61
  5
18E67
331
111F8
  5
111FC
331
11237
  5
1123B
331
1126E
  5
11273
331
113A9
  5
113B5
331
11362
  5
1136C
331
1132B
  5
11333
331
112EC
  5
112F3
331
1123F
  5
11243
331
18E12
  5
18E45
331
11486
  5
18154
331
1144F
  5
11472
331
18153
  5
181C7
331
18E69
  5
112AA
331
11200
  5
11204
331
11276
  5
1127B
331
113B1
  5
113BC
331
1136A
  5
11374
331
112F4
  5
112FF
331
11247
  5
1124B
331
11208
  5
1120C
331
1127E
  5
11283
331
112BD
  5
112C4
331
113B9
  5
113C4
331
11372
  5
1137C
331
1133B
  5
11344
331
112FC
  5
11304
331
112C5
  5
112CC
331
1124F
  5
11253
331
11286
  5
1128B
331
1114C
  5
11150
331
110CE
  5
110CE
331
11115
  5
11122
331
11154
  5
11158
331
110D6
  5
110D6
331
11125
  5
11128
331
110DE
  5
110DF
331
1115C
  5
11160
331
111BB
  5
111BF
331
110E6
  5
110E8
331
1112D
  5
11130
331
11164
  5
11168
331
113F8
  5
11406
331
1145F
  5
11474
331
11408
  5
11413
331
17F14
  5
181C4
331
18E3A
  5
18E4F
331
18E79
  5
181BD
331
11210
  5
11214
331
113C1
  5
113CC
331
1137A
  5
1138D
331
11343
  5
1134C
331
11304
  5
1130C
331
112CD
  5
112D4
331
11257
  5
1125B
331
11467
  5
1147F
331
11410
  5
1141B
331
18E42
  5
18E57
331
11218
  5
1121C
331
1128E
  5
11293
331
113C9
  5
113D4
331
1134B
  5
11355
331
1130C
  5
11314
331
112D5
  5
112DC
331
1125F
  5
11264
331
18E4A
  5
18E58
331
11220
  5
11224
331
11296
  5
1129B
331
113D1
  5
113DC
331
11353
  5
1135D
331
11314
  5
1131D
331
112DD
  5
112E4
331
11267
  5
1126C
331
11228
  5
1122C
331
11392
  5
113A8
331
1131C
  5
11324
331
112A6
  5
112AD
331
10C8A
  5
10C8A
331
110EE
  5
110F3
331
11135
  5
11139
331
111DB
  5
111E4
331
1113D
  5
11141
331
111E3
  5
111E7
331
11145
  5
11149
331
110FE
  5
11115
331
111EB
  5
111EF
331
1119C
  5
111A0
331
11418
  5
11424
331
113D9
  5
113E4
331
11420
  5
1142D
331
113E1
  5
113EC
331
18E52
  5
11303
331
11428
  5
1145B
331
113E9
  5
113F4
331
187FB
  5
18E12
331
18E5A
  5
18E60
331
111F1
  5
111F5
331
113A2
  5
113AF
331
1135B
  5
11365
331
11324
  5
1132C
331
112E5
  5
112EC
331
11238
  5
1123C
331
113F1
  5
113FC
331
18803
  5
18E1F
331
18E62
  5
18E68
331
111F9
  5
111FD
331
1126F
  5
11274
331
112AE
  5
112B5
331
113AA
  5
113B6
331
11363
  5
1136D
331
1132C
  5
11334
331
112ED
  5
112F4
331
11240
  5
11244
331
18E13
  5
18E46
331
11487
  5
181AF
331
18154
  5
181C8
331
18E6A
  5
1133A
331
11201
  5
11205
331
11277
  5
1127C
331
113B2
  5
113BD
331
1136B
  5
11375
331
11334
  5
1133D
331
112BE
  5
112C5
331
11248
  5
1124C
331
11209
  5
1120D
331
1127F
  5
11284
331
113BA
  5
113C5
331
11373
  5
1137D
331
1133C
  5
11345
331
112FD
  5
11305
331
11287
  5
1128C
331
112C6
  5
112CD
331
1114D
  5
11151
331
110CF
  5
110CF
331
111AC
  5
111B1
331
110D7
  5
110D7
331
11155
  5
11159
331
111B4
  5
111B8
331
1115D
  5
11161
331
11126
  5
11129
331
111BC
  5
111C1
331
11165
  5
11169
331
1112E
  5
11131
331
11450
  5
11473
331
113F9
  5
11407
331
11401
  5
1140F
331
18E33
  5
18E47
331
11250
  5
11254
331
11460
  5
11475
331
11409
  5
11414
331
18E7A
  5
181C3
331
11211
  5
11215
331
113C2
  5
113CD
331
1137B
  5
1138F
331
11344
  5
1134D
331
11305
  5
1130D
331
11258
  5
1125C
331
14286
  5
181B9
331
11411
  5
1141C
331
18E43
  5
18E52
331
11219
  5
1121D
331
1128F
  5
11294
331
112CE
  5
112D5
331
113CA
  5
113D5
331
11383
  5
11395
331
1134C
  5
11356
331
1130D
  5
11315
331
112D6
  5
112DD
331
18E4B
  5
18E4C
331
11221
  5
11225
331
11297
  5
1129C
331
113D2
  5
113DD
331
1138B
  5
11396
331
11354
  5
1135E
331
11315
  5
1131E
331
112DE
  5
112E5
331
11229
  5
1122D
331
11393
  5
113AA
331
1131D
  5
11325
331
112A7
  5
112AE
331
B5
  5
B5
331
BD
  5
BD
331
10C8B
  5
10C8B
331
11136
  5
1113A
331
110EF
  5
110F5
331
1113E
  5
11142
331
111E4
  5
111E8
331
11146
  5
1114A
331
111EC
  5
111F0
331
1119D
  5
111A2
331
11468
  5
11480
331
11419
  5
11425
331
113DA
  5
113E5
331
11421
  5
1142E
331
113E2
  5
113ED
331
1429E
  5
181C2
331
18E53
  5
18E4E
331
11231
  5
11235
331
113EA
  5
113F5
331
187FC
  5
18E13
331
18E5B
  5
18E61
331
111F2
  5
111F6
331
11268
  5
1126D
331
113A3
  5
113B0
331
1135C
  5
11366
331
11325
  5
1132D
331
112E6
  5
112ED
331
11239
  5
1123D
331
113F2
  5
113FD
331
18E63
  5
18E69
331
111FA
  5
111FE
331
11270
  5
11275
331
112AF
  5
112B6
331
113AB
  5
113B7
331
11364
  5
1136E
331
1132D
  5
11335
331
112EE
  5
112F5
331
112B7
  5
112BE
331
11241
  5
11245
331
18E6B
  5
11351
331
11202
  5
11206
331
11278
  5
1127D
331
113B3
  5
113BE
331
1136C
  5
11376
331
112BF
  5
112C6
331
11249
  5
1124D
331
1120A
  5
1120E
331
11280
  5
11285
331
113BB
  5
113C6
331
11374
  5
1137E
331
1133D
  5
11346
331
112FE
  5
11306
331
112C7
  5
112CE
331
C5
  5
C5
331
D5
  5
D5
331
111A5
  5
111AE
331
1114E
  5
11152
331
110D0
  5
110D0
331
111AD
  5
111B2
331
11156
  5
1115A
331
110D8
  5
110D8
331
111B5
  5
111B9
331
11127
  5
1112A
331
1115E
  5
11162
331
111BD
  5
111C2
331
1112F
  5
11133
331
11166
  5
1116A
331
11488
  5
181B4
331
113FA
  5
1140B
331
11402
  5
11410
331
181B5
  5
18800
331
18E34
  5
18E48
  0
XRECORD
  5
18F16
102
{ACAD_REACTORS
330
18F15
102
}
330
18F15
100
AcDbXrecord
280
     1
102
SHADEPLOT
 70
     0
  0
XRECORD
  5
18F18
102
{ACAD_REACTORS
330
18F17
102
}
330
18F17
100
AcDbXrecord
280
     1
102
SHADEPLOT
 70
     0
  0
XRECORD
  5
18F09
102
{ACAD_REACTORS
330
18F08
102
}
330
18F08
100
AcDbXrecord
280
     1
 40
0.125
  0
LAYOUT
  5
18149
102
{ACAD_XDICTIONARY
360
18E76
102
}
102
{ACAD_REACTORS
330
101F
102
}
330
101F
100
AcDbPlotSettings
  1

  2
Fax
  4
Letter
  6

 40
3.174999952316284
 41
3.174999952316284
 42
3.175003051757812
 43
3.17498779296875
 44
215.8999938964844
 45
279.3999938964844
 46
0.0
 47
0.0
 48
0.0
 49
0.0
140
0.0
141
0.0
142
1.0
143
1.0
 70
   688
 72
     0
 73
     1
 74
     5
  7
monochrome.ctb
 75
    16
147
1.0
148
0.0
149
0.0
100
AcDbLayout
  1
Layout1
 70
     1
 71
     1
 10
-0.1249995194082185
 20
-0.1249999981226884
 11
10.87500024029589
 21
8.37499976158142
 12
0.0
 22
0.0
 32
0.0
 14
1.074768547797084
 24
0.8247909505127708
 34
-0.0000000349181948
 15
9.675232224313326
 25
7.817550455661908
 35
0.0000000814935746
146
0.0
 13
0.0
 23
0.0
 33
0.0
 16
1.0
 26
0.0
 36
0.0
 17
0.0
 27
1.0
 37
0.0
 76
     0
330
18148
331
18E6F
1001
ACAD_PSEXT
1000
Fax
1000
Microsoft Shared Fax Driver
1000
SHRFAX:
1000

1070
     0
  0
LAYOUT
  5
1021
102
{ACAD_XDICTIONARY
360
18F0A
102
}
102
{ACAD_REACTORS
330
101F
102
}
330
101F
100
AcDbPlotSettings
  1

  2
Adobe PDF
  4
Letter
  6

 40
3.174999952316284
 41
3.174999952316284
 42
3.175003051757812
 43
3.17498779296875
 44
215.8999938964844
 45
279.3999938964844
 46
19.57017428683952
 47
0.0
 48
0.0
 49
0.0
140
0.0
141
0.0
142
1.0
143
12.43156835883771
 70
 11956
 72
     0
 73
     1
 74
     1
  7
monochrome.ctb
 75
     0
147
0.080440373341075
148
0.1035758573571911
149
0.0646413638801164
100
AcDbLayout
  1
Model
 70
     1
 71
     0
 10
0.0
 20
0.0
 11
12.0
 21
9.0
 12
0.0
 22
0.0
 32
0.0
 14
0.0
 24
0.0
 34
0.0
 15
0.0
 25
0.0
 35
0.0
146
0.0
 13
0.0
 23
0.0
 33
0.0
 16
1.0
 26
0.0
 36
0.0
 17
0.0
 27
1.0
 37
0.0
 76
     0
330
A
331
18126
1001
ACAD_PSEXT
1000
Adobe PDF
1000
Adobe PDF Converter
1000
My Documents
1000

1070
     0
  0
MATERIAL
  5
18129
102
{ACAD_XDICTIONARY
360
18F12
102
}
102
{ACAD_REACTORS
330
11547
102
}
330
11547
100
AcDbMaterial
  1
ByBlock
  0
MATERIAL
  5
18128
102
{ACAD_XDICTIONARY
360
18F10
102
}
102
{ACAD_REACTORS
330
11547
102
}
330
11547
100
AcDbMaterial
  1
ByLayer
  0
MATERIAL
  5
165DF
102
{ACAD_XDICTIONARY
360
18F0E
102
}
102
{ACAD_REACTORS
330
11547
102
}
330
11547
100
AcDbMaterial
  1
Global
  0
MLINESTYLE
  5
1C
102
{ACAD_REACTORS
330
1B
102
}
330
1B
100
AcDbMlineStyle
  2
STANDARD
 70
     0
  3

 62
     0
 51
90.0
 52
90.0
 71
     2
 49
0.5
 62
   256
  6
BYLAYER
 49
-0.5
 62
   256
  6
BYLAYER
  0
ACDBPLACEHOLDER
  5
101E
102
{ACAD_REACTORS
330
101D
102
}
330
101D
  0
TABLESTYLE
  5
1154A
102
{ACAD_XDICTIONARY
360
18F0C
102
}
102
{ACAD_REACTORS
330
11549
102
}
330
11549
100
AcDbTableStyle
  3
Standard
 70
     0
 71
     0
 40
0.06
 41
0.06
280
     0
281
     0
  7
STANDARD
140
0.18
170
     2
 62
     0
 63
     7
283
     0
274
    -2
284
     1
 64
     0
275
    -2
285
     1
 65
     0
276
    -2
286
     1
 66
     0
277
    -2
287
     1
 67
     0
278
    -2
288
     1
 68
     0
279
    -2
289
     1
 69
     0
  7
STANDARD
140
0.25
170
     5
 62
     0
 63
     7
283
     0
274
    -2
284
     1
 64
     0
275
    -2
285
     1
 65
     0
276
    -2
286
     1
 66
     0
277
    -2
287
     1
 67
     0
278
    -2
288
     1
 68
     0
279
    -2
289
     1
 69
     0
  7
STANDARD
140
0.18
170
     5
 62
     0
 63
     7
283
     0
274
    -2
284
     1
 64
     0
275
    -2
285
     1
 65
     0
276
    -2
286
     1
 66
     0
277
    -2
287
     1
 67
     0
278
    -2
288
     1
 68
     0
279
    -2
289
     1
 69
     0
  0
VISUALSTYLE
  5
18130
102
{ACAD_REACTORS
330
1812A
102
}
330
1812A
100
AcDbVisualStyle
  2
2dWireframe
 70
     4
 71
     0
 72
     2
 73
     0
 90
        0
 40
-0.6
 41
-30.0
 62
     5
 63
     7
 74
     1
 91
        4
 64
     7
 65
   257
 75
     1
175
     1
 42
1.0
 92
        0
 66
   257
 43
1.0
 76
     1
 77
     6
 78
     2
 67
     7
 79
     5
170
     0
171
     0
290
     0
174
     0
 93
        1
 44
0.0
173
     0
291
     0
 45
0.0
1001
ACAD
1000
AcDbSavedByObjectVersion
1070
     0
  0
VISUALSTYLE
  5
18132
102
{ACAD_REACTORS
330
1812A
102
}
330
1812A
100
AcDbVisualStyle
  2
3D Hidden
 70
     6
 71
     1
 72
     2
 73
     2
 90
        0
 40
-0.6
 41
-30.0
 62
     5
 63
     7
 74
     2
 91
        2
 64
     7
 65
   257
 75
     2
175
     1
 42
40.0
 92
        0
 66
   257
 43
1.0
 76
     1
 77
     6
 78
     2
 67
     7
 79
     3
170
     0
171
     0
290
     0
174
     0
 93
        1
 44
0.0
173
     0
291
     0
 45
0.0
1001
ACAD
1000
AcDbSavedByObjectVersion
1070
     0
  0
VISUALSTYLE
  5
18131
102
{ACAD_REACTORS
330
1812A
102
}
330
1812A
100
AcDbVisualStyle
  2
3dWireframe
 70
     5
 71
     0
 72
     2
 73
     0
 90
        0
 40
-0.6
 41
-30.0
 62
     5
 63
     7
 74
     1
 91
        4
 64
     7
 65
   257
 75
     1
175
     1
 42
1.0
 92
        0
 66
   257
 43
1.0
 76
     1
 77
     6
 78
     2
 67
     7
 79
     5
170
     0
171
     0
290
     0
174
     0
 93
        1
 44
0.0
173
     0
291
     0
 45
0.0
1001
ACAD
1000
AcDbSavedByObjectVersion
1070
     0
  0
VISUALSTYLE
  5
1812F
102
{ACAD_REACTORS
330
1812A
102
}
330
1812A
100
AcDbVisualStyle
  2
Basic
 70
     7
 71
     1
 72
     0
 73
     1
 90
        0
 40
-0.6
 41
-30.0
 62
     5
 63
     7
 74
     0
 91
        4
 64
     7
 65
   257
 75
     1
175
     1
 42
1.0
 92
        8
 66
     7
 43
1.0
 76
     1
 77
     6
 78
     2
 67
     7
 79
     5
170
     0
171
     0
290
     0
174
     0
 93
        1
 44
0.0
173
     0
291
     1
 45
0.0
1001
ACAD
1000
AcDbSavedByObjectVersion
1070
     0
  0
VISUALSTYLE
  5
18136
102
{ACAD_REACTORS
330
1812A
102
}
330
1812A
100
AcDbVisualStyle
  2
Brighten
 70
    12
 71
     2
 72
     2
 73
     0
 90
        0
 40
-0.6
 41
-30.0
 62
     5
 63
     7
 74
     1
 91
        4
 64
     7
 65
   257
 75
     1
175
     1
 42
1.0
 92
        8
 66
     7
 43
1.0
 76
     1
 77
     6
 78
     2
 67
     7
 79
     5
170
     0
171
     0
290
     0
174
     0
 93
        1
 44
50.0
173
     0
291
     1
 45
0.0
1001
ACAD
1000
AcDbSavedByObjectVersion
1070
     0
  0
VISUALSTYLE
  5
1813A
102
{ACAD_REACTORS
330
1812A
102
}
330
1812A
100
AcDbVisualStyle
  2
ColorChange
 70
    16
 71
     2
 72
     2
 73
     3
 90
        0
 40
-0.6
 41
-30.0
 62
     5
 63
     8
 74
     1
 91
        4
 64
     7
 65
   257
 75
     1
175
     1
 42
1.0
 92
        8
 66
     8
 43
1.0
 76
     1
 77
     6
 78
     2
 67
     7
 79
     5
170
     0
171
     0
290
     0
174
     0
 93
        1
 44
0.0
173
     0
291
     1
 45
0.0
1001
ACAD
1000
AcDbSavedByObjectVersion
1070
     0
  0
VISUALSTYLE
  5
18133
102
{ACAD_REACTORS
330
1812A
102
}
330
1812A
100
AcDbVisualStyle
  2
Conceptual
 70
     9
 71
     3
 72
     2
 73
     0
 90
        0
 40
-0.6
 41
-30.0
 62
     5
 63
     7
 74
     2
 91
        2
 64
     7
 65
   257
 75
     1
175
     1
 42
40.0
 92
        8
 66
     7
 43
1.0
 76
     1
 77
     6
 78
     2
 67
     7
 79
     3
170
     0
171
     0
290
     0
174
     0
 93
        1
 44
0.0
173
     0
291
     0
 45
0.0
1001
ACAD
1000
AcDbSavedByObjectVersion
1070
     0
  0
VISUALSTYLE
  5
18135
102
{ACAD_REACTORS
330
1812A
102
}
330
1812A
100
AcDbVisualStyle
  2
Dim
 70
    11
 71
     2
 72
     2
 73
     0
 90
        0
 40
-0.6
 41
-30.0
 62
     5
 63
     7
 74
     1
 91
        4
 64
     7
 65
   257
 75
     1
175
     1
 42
1.0
 92
        8
 66
     7
 43
1.0
 76
     1
 77
     6
 78
     2
 67
     7
 79
     5
170
     0
171
     0
290
     0
174
     0
 93
        1
 44
-50.0
173
     0
291
     1
 45
0.0
1001
ACAD
1000
AcDbSavedByObjectVersion
1070
     0
  0
VISUALSTYLE
  5
18139
102
{ACAD_REACTORS
330
1812A
102
}
330
1812A
100
AcDbVisualStyle
  2
Facepattern
 70
    15
 71
     2
 72
     2
 73
     0
 90
        0
 40
-0.6
 41
-30.0
 62
     5
 63
     7
 74
     1
 91
        4
 64
     7
 65
   257
 75
     1
175
     1
 42
1.0
 92
        8
 66
     7
 43
1.0
 76
     1
 77
     6
 78
     2
 67
     7
 79
     5
170
     0
171
     0
290
     0
174
     0
 93
        1
 44
0.0
173
     0
291
     1
 45
0.0
1001
ACAD
1000
AcDbSavedByObjectVersion
1070
     0
  0
VISUALSTYLE
  5
1812B
102
{ACAD_REACTORS
330
1812A
102
}
330
1812A
100
AcDbVisualStyle
  2
Flat
 70
     0
 71
     2
 72
     1
 73
     1
 90
        2
 40
-0.6
 41
30.0
 62
     5
 63
     7
 74
     0
 91
        4
 64
     7
 65
   257
 75
     1
175
     1
 42
1.0
 92
        8
 66
     7
 43
1.0
 76
     1
 77
     6
 78
     2
 67
     7
 79
     5
170
     0
171
     0
290
     0
174
     0
 93
       13
 44
0.0
173
     0
291
     1
 45
0.0
1001
ACAD
1000
AcDbSavedByObjectVersion
1070
     0
  0
VISUALSTYLE
  5
1812C
102
{ACAD_REACTORS
330
1812A
102
}
330
1812A
100
AcDbVisualStyle
  2
FlatWithEdges
 70
     1
 71
     2
 72
     1
 73
     1
 90
        2
 40
-0.6
 41
30.0
 62
     5
 63
     7
 74
     1
 91
        4
 64
     7
 65
   257
 75
     1
175
     1
 42
1.0
 92
        0
 66
   257
 43
1.0
 76
     1
 77
     6
 78
     2
 67
     7
 79
     5
170
     0
171
     0
290
     0
174
     0
 93
       13
 44
0.0
173
     0
291
     1
 45
0.0
1001
ACAD
1000
AcDbSavedByObjectVersion
1070
     0
  0
VISUALSTYLE
  5
1812D
102
{ACAD_REACTORS
330
1812A
102
}
330
1812A
100
AcDbVisualStyle
  2
Gouraud
 70
     2
 71
     2
 72
     2
 73
     1
 90
        2
 40
-0.6
 41
30.0
 62
     5
 63
     7
 74
     0
 91
        4
 64
     7
 65
   257
 75
     1
175
     1
 42
1.0
 92
        0
 66
     7
 43
1.0
 76
     1
 77
     6
 78
     2
 67
     7
 79
     5
170
     0
171
     0
290
     0
174
     0
 93
       13
 44
0.0
173
     0
291
     1
 45
0.0
1001
ACAD
1000
AcDbSavedByObjectVersion
1070
     0
  0
VISUALSTYLE
  5
1812E
102
{ACAD_REACTORS
330
1812A
102
}
330
1812A
100
AcDbVisualStyle
  2
GouraudWithEdges
 70
     3
 71
     2
 72
     2
 73
     1
 90
        2
 40
-0.6
 41
30.0
 62
     5
 63
     7
 74
     1
 91
        4
 64
     7
 65
   257
 75
     1
175
     1
 42
1.0
 92
        0
 66
   257
 43
1.0
 76
     1
 77
     6
 78
     2
 67
     7
 79
     5
170
     0
171
     0
290
     0
174
     0
 93
       13
 44
0.0
173
     0
291
     1
 45
0.0
1001
ACAD
1000
AcDbSavedByObjectVersion
1070
     0
  0
VISUALSTYLE
  5
18138
102
{ACAD_REACTORS
330
1812A
102
}
330
1812A
100
AcDbVisualStyle
  2
Linepattern
 70
    14
 71
     2
 72
     2
 73
     0
 90
        0
 40
-0.6
 41
-30.0
 62
     5
 63
     7
 74
     1
 91
        4
 64
     7
 65
   257
 75
     7
175
     7
 42
1.0
 92
        8
 66
     7
 43
1.0
 76
     1
 77
     6
 78
     2
 67
     7
 79
     5
170
     0
171
     0
290
     0
174
     0
 93
        1
 44
0.0
173
     0
291
     1
 45
0.0
1001
ACAD
1000
AcDbSavedByObjectVersion
1070
     0
  0
VISUALSTYLE
  5
18134
102
{ACAD_REACTORS
330
1812A
102
}
330
1812A
100
AcDbVisualStyle
  2
Realistic
 70
     8
 71
     2
 72
     2
 73
     0
 90
        0
 40
-0.6
 41
-30.0
 62
     5
 63
     7
 74
     1
 91
        0
 64
     7
 65
   257
 75
     1
175
     1
 42
1.0
 92
        8
 66
     8
 43
1.0
 76
     1
 77
     6
 78
     2
 67
     7
 79
     5
170
     0
171
     0
290
     0
174
     0
 93
       13
 44
0.0
173
     0
291
     0
 45
0.0
1001
ACAD
1000
AcDbSavedByObjectVersion
1070
     0
  0
VISUALSTYLE
  5
18137
102
{ACAD_REACTORS
330
1812A
102
}
330
1812A
100
AcDbVisualStyle
  2
Thicken
 70
    13
 71
     2
 72
     2
 73
     0
 90
        0
 40
-0.6
 41
-30.0
 62
     5
 63
     7
 74
     1
 91
        4
 64
     7
 65
   257
 75
     1
175
     1
 42
1.0
 92
       12
 66
     7
 43
1.0
 76
     1
 77
     6
 78
     2
 67
     7
 79
     5
170
     0
171
     0
290
     0
174
     0
 93
        1
 44
0.0
173
     0
291
     1
 45
0.0
1001
ACAD
1000
AcDbSavedByObjectVersion
1070
     0
  0
DICTIONARYVAR
  5
1156E
102
{ACAD_REACTORS
330
102A
102
}
330
102A
100
DictionaryVariables
280
     0
  1
STANDARD
  0
DICTIONARYVAR
  5
102B
102
{ACAD_REACTORS
330
102A
102
}
330
102A
100
DictionaryVariables
280
     0
  1
1
  0
DICTIONARYVAR
  5
18F02
102
{ACAD_REACTORS
330
102A
102
}
330
102A
100
DictionaryVariables
280
     0
  1
0
  0
DICTIONARYVAR
  5
18F01
102
{ACAD_REACTORS
330
102A
102
}
330
102A
100
DictionaryVariables
280
     0
  1
127
  0
XRECORD
  5
18125
102
{ACAD_REACTORS
330
18124
102
}
330
18124
100
AcDbXrecord
280
     1
330
0
330
0
330
0
330
0
330
B1
330
B5
330
B9
330
BD
330
C1
330
C5
330
C9
330
D5
330
E1
330
E5
  0
DICTIONARY
  5
18E76
330
18149
100
AcDbDictionary
280
     1
281
     1
  3
ACAD_XREC_ROUNDTRIP
360
18F14
  3
ADSK_XREC_LAYOUTTHUMBNAIL
360
18E77
  0
DICTIONARY
  5
18F0A
330
1021
100
AcDbDictionary
280
     1
281
     1
  3
ACAD_XREC_ROUNDTRIP
360
18F0B
  0
DICTIONARY
  5
18F12
330
18129
100
AcDbDictionary
280
     1
281
     1
  3
ACAD_XREC_ROUNDTRIP
360
18F13
  0
DICTIONARY
  5
18F10
330
18128
100
AcDbDictionary
280
     1
281
     1
  3
ACAD_XREC_ROUNDTRIP
360
18F11
  0
DICTIONARY
  5
18F0E
330
165DF
100
AcDbDictionary
280
     1
281
     1
  3
ACAD_XREC_ROUNDTRIP
360
18F0F
  0
DICTIONARY
  5
18F0C
330
1154A
100
AcDbDictionary
280
     1
281
     1
  3
ACAD_XREC_ROUNDTRIP
360
18F0D
  0
XRECORD
  5
18F14
102
{ACAD_REACTORS
330
18E76
102
}
330
18E76
100
AcDbXrecord
280
     1
102
SHADEPLOT
 70
     0
102
SHADEPLOTRESLEVEL
 70
     2
102
SHADEPLOTCUSTOMDPI
 70
   300
  0
XRECORD
  5
18E77
102
{ACAD_REACTORS
330
18E76
102
}
330
18E76
100
AcDbXrecord
280
     1
310
28000000B40000008B0000000100080000000000BC61000000000000000000000001000000000000FFFFFF0000000000FFFFFF000000000000000000000000000000000000000000000000000000000000000000330000006600000099000000CC000000FF00000000330000333300006633000099330000CC330000FF3300
310
0000660000336600006666000099660000CC660000FF66000000990000339900006699000099990000CC990000FF99000000CC000033CC000066CC000099CC0000CCCC0000FFCC000000FF000033FF000066FF000099FF0000CCFF0000FFFF000000003300330033006600330099003300CC003300FF003300003333003333
310
33006633330099333300CC333300FF33330000663300336633006666330099663300CC663300FF66330000993300339933006699330099993300CC993300FF99330000CC330033CC330066CC330099CC3300CCCC3300FFCC330000FF330033FF330066FF330099FF3300CCFF3300FFFF330000006600330066006600660099
310
006600CC006600FF00660000336600333366006633660099336600CC336600FF33660000666600336666006666660099666600CC666600FF66660000996600339966006699660099996600CC996600FF99660000CC660033CC660066CC660099CC6600CCCC6600FFCC660000FF660033FF660066FF660099FF6600CCFF6600
310
FFFF660000009900330099006600990099009900CC009900FF00990000339900333399006633990099339900CC339900FF33990000669900336699006666990099669900CC669900FF66990000999900339999006699990099999900CC999900FF99990000CC990033CC990066CC990099CC9900CCCC9900FFCC990000FF99
310
0033FF990066FF990099FF9900CCFF9900FFFF99000000CC003300CC006600CC009900CC00CC00CC00FF00CC000033CC003333CC006633CC009933CC00CC33CC00FF33CC000066CC003366CC006666CC009966CC00CC66CC00FF66CC000099CC003399CC006699CC009999CC00CC99CC00FF99CC0000CCCC0033CCCC0066CC
310
CC0099CCCC00CCCCCC00FFCCCC0000FFCC0033FFCC0066FFCC0099FFCC00CCFFCC00FFFFCC000000FF003300FF006600FF009900FF00CC00FF00FF00FF000033FF003333FF006633FF009933FF00CC33FF00FF33FF000066FF003366FF006666FF009966FF00CC66FF00FF66FF000099FF003399FF006699FF009999FF00CC
310
99FF00FF99FF0000CCFF0033CCFF0066CCFF0099CCFF00CCCCFF00FFCCFF0000FFFF0033FFFF0066FFFF0099FFFF00CCFFFF00FFFFFF00000000000D0D0D001A1A1A00282828003535350043434300505050005D5D5D006B6B6B00787878008686860093939300A1A1A100AEAEAE00BBBBBB00C9C9C900D6D6D600E4E4E400
310
F1F1F100FFFFFF0000000000000000000000000000000000000000000000000000000000000000000000000000000000E2E2E2E2E2E2E2E2E2E2E2E2E2E2E2E2E2E2E2E2E2E2E2E2E2E2E2E2E2E2E2E2E2E2E2E2E2E2E2E2E2E2E2E2E2E2E2E2E2E2E2E2E2E2E2E2E2E2E2E2E2E2E2E2E2E2E2E2E2E2E2E2E2E2E2E2E2E2E2
310
E2E2E2E2E2E2E2E2E2E2E2E2E2E2E2E2E2E2E2E2E2E2E2E2E2E2E2E2E2E2E2E2E2E2E2E2E2E2E2E2E2E2E2E2E2E2E2E2E2E2E2E2E2E2E2E2E2E2E2E2E2E2E2E2E2E2E2E2E2E2E2E2E2E2E2E2E2E2E2E2E2E2E2E2E2E2E2E2E2E2E2E2E2E2E2E2E2E2E2E2E2E2F5F5F5F5F5F5F5F5F5F5F5F5F5F5F5F5F5F5F5F5F5F5F5F5F5
310
F5F5F5F5F5F5F5F5F5F5F5F5F5F5F5F5F5F5F5F5F5F5F5F5F5F5F5F5F5F5F5F5F5F5F5F5F5F5F5F5F5F5F5F5F5F5F5F5F5F5F5F5F5F5F5F5F5F5F5F5F5F5F5F5F5F5F5F5F5F5F5F5F5F5F5F5F5F5F5F5F5F5F5F5F5F5F5F5F5F5F5F5F5F5F5F5F5F5F5F5F5F5F5F5F5F5F5F5F5F5F5F5F5F5F5F5F5F5F5F5F5F5F5F5F5F5F5
310
F5F5F5F5F5F5F5F5F5F5F5F5F5F5F5F5F5F5F5F5F5F5F5F5F5E2E2E2F5E2E2E2E2E2E2E2E2F5F5F5F5F5F5F5F5F5E2E2E2E2E2E2E2E2E2E2E2E2E2E2E2E2F5F5F5F5F5F5F5F5F5E2E2E2E2E2E2E2E2E2E2E2E2E2E2E2E2F5F5F5F5F5F5F5F5F5E2E2E2E2E2E2E2E2E2E2E2E2E2E2E2E2F5F5F5F5F5F5F5F5F5E2E2E2E2E2E2
310
E2E2E2E2E2E2E2E2E2E2F5F5F5F5F5F5F5F5F5E2E2E2E2E2E2E2E2E2E2E2E2E2E2E2E2F5F5F5F5F5F5F5F5F5E2E2E2E2E2E2E2E2E2E2E2E2E2E2E2E2F5F5F5F5F5F5F5F5F5E2E2E2E2E2E2E2E2F5E2E2E2F5E2F5F5F5F5F5F5F5F5F5F5F5F5F5F5F5F5F5F5F5F5F5F5F5F5F5F5F5F5F5F5F5F5F5F5F5F5F5F5F5F5F5F5F5F5
310
F5F5F5F5F5F5F5F5F5F5F5F5F5F5F5F5F5F5F5F5F5F5F5F5F5F5F5F5F5F5F5F5F5F5F5F5F5F5F5F5F5F5F5F5F5F5F5F5F5F5F5F5F5F5F5F5F5F5F5F5F5F5F5F5F5F5F5F5F5F5F5F5F5F5F5F5F5F5F5F5F5F5F5F5F5F5F5F5F5F5F5F5F5F5F5F5F5F5F5F5F5F5F5F5F5F5F5F5F5F5F5F5F5F5F5F5F5F5F5F5F5F5F5F5F5F5F5
310
F5F5E2F5E2E2E2F5E2F5F5F5F5F5F5F5F5F5F5F5F5F5F5F5F5F5F5F5F5F5F5F5F5F5F5F5F5F5F5F5F5F5F5F5F5F5F5F5F5F5F5F5F5F5F5F5F5F5F5F5F5F5F5F5F5F5F5F5F5F5F5F5F5F5F5F5F5F5F5F5F5F5F5F5F5F5F5F5F5F5F5F5F5F5F5F5F5F5F5F5F5F5F5F5F5F5F5F5F5F5F5F5F5F5F5F5F5F5F5F5F5F5F5F5F5F5F5
310
F5F5F5F5F5F5F5F5F5F5F5F5F5F5F5F5F5F5F5F5F5F5F5F5F5F5F5F5F5F5F5F5F5F5F5F5F5F5F5F5F5F5F5F5F5F5F5F5F5F5F5F5F5F5F5E2F5E2E2E2F5E2F5F5F5F5F5F5F5F5F5F5F5F5F5F5F5F5F5F5F5F5F5F5F5F5F5F5F5F5F5F5F5F5F5F5F5F5F5F5F5F5F5F5F5F5F5F5F5F5F5F5F5F5F5F5F5F5F5F5F5F5F5F5F5F5F5
310
F5F5F5F5F5F5F5F5F5F5F5F5F5F5F5F5F5F5F5F5F5F5F5F5F5F5F5F5F5F5F5F5F5F5F5F5F5F5F5F5F5F5F5F5F5F5F5F5F5F5F5F5F5F5F5F5F5F5F5F5F5F5F5F5F5F5F5F5F5F5F5F5F5F5F5F5F5F5F5F5F5F5F5F5F5F5F5F5F5F5F5F5F5F5F5F5F5F5F5F5F5F5F5F5F5F5F5F5E2F5E2E2E2F5E2F5F5F5F5F5F5F5F5F5F5F5F5
310
F5F5F5F5F5F5F5F5F5F5F5F5F5F5F5F5F5F5F5F5F5F5F5F5F5F5F5F5F5F5F5F5F5F5F5F5F5F5F5F5F5F5F5F5F5F5F5F5F5F5F5F5F5F5F5F5F5F5F5F5F5F5F5F5F5F5F5F5F5F5F5F5F5F5F5F5F5F5F5F5F5F5F5F5F5F5F5F5F5F5F5F5F5F5F5F5F5F5F5F5F5F5F5F5F5F5F5F5F5F5F5F5F5F5F5F5F5F5F5F5F5F5F5F5F5F5F5
310
F5F5F5F5F5F5F5F5F5F5F5F5F5F5F5F5F5F5F5F5F5F5F5F5F5F5F5F5F5F5F5F5F5F5E2F5E2E2E2F5E2F5F5F5F5F5F5F5F5F5F5F5F5F5F5F5F5F5F5F5F5F5F5F5F5F5F5F5F5F5F5F5F5F5F5F5F5F5F5F5F5F5F5F5F5F5F5F5F5F5F5F5F5F5F5F5F5F5F5F5F5F5F5F5F5F5F5F5F5F5F5F5F5F5F5F5F5F5F5F5F5F5F5F5F5F5F5
310
F5F5F5F5F5F5F5F5F5F5F5F5F5F5F5F5F5F5F5F5F5F5F5F5F5F5F5F5F5F5F5F5F5F5F5F5F5F5F5F5F5F5F5F5F5F5F5F5F5F5F5F5F5F5F5F5F5F5F5F5F5F5F5F5F5F5F5F5F5F5F5F5F5F5F5F5F5F5F5F5F5F5F5F5F5F5F5E2F5E2E2E2F5E2F5F5F5F5F5F5F5F5F5F5F5F5F5F5F5F5F5F5F5F5F5F5F5F5F5F5F5F5F5F5F5F5F5
310
F5F5F5F5F5F5F5F5F5F5F5F5F5F5F5F5F5F5F5F5F5F5F5F5F5F5F5F5F5F5F5F5F5F5F5F5F5F5F5F5F5F5F5F5F5F5F5F5F5F5F5F5F5F5F5F5F5F5F5F5F5F5F5F5F5F5F5F5F5F5F5F5F5F5F5F5F5F5F5F5F5F5F5F5F5F5F5F5F5F5F5F5F5F5F5F5F5F5F5F5F5F5F5F5F5F5F5F5F5F5F5F5F5F5F5F5F5F5F5F5F5F5F5F5F5F5F5
310
F5F5F5F5F5F5F5F5F5F5F5F5F5E2F5E2E2E2F5E2F5F5F5F5F5F5F5F5F5F5F5F5F5F5F5F5F5F5F5F5F5F5F5F5F5F5F5F5F5F5F5F5F5F5F5F5F5F5F5F5F5F5F5F5F5F5F5F5F5F5F5F5F5F5F5F5F5F5F5F5F5F5F5F5F5F5F5F5F5F5F5F5F5F5F5F5F5F5F5F5F5F5F5F5F5F5F5F5F5F5F5F5F5F5F5F5F5F5F5F5F5F5F5F5F5F5F5
310
F5F5F5F5F5F5F5F5F5F5F5F5F5F5F5F5F5F5F5F5F5F5F5F5F5F5F5F5F5F5F5F5F5F5F5F5F5F5F5F5F5F5F5F5F5F5F5F5F5F5F5F5F5F5F5F5F5F5F5F5F5F5F5F5F5F5E2F5E2E2E2F5E2F5F5F5F5F5F5F5F5F5F5F5F5F5F5F5F5F5F5F5F5F5F5F5F5F5F5F5F5F5F5F5F5F5F5F5F5F5F5F5F5F5F5F5F5F5F5F5F5F5F5F5F5F5F5
310
F5F5F5F5F5F5F5F5F5F5F5F5F5F5F5F5F5F5F5F5F5F5F5F5F5F5F5F5F5F5F5F5F5F5F5F5F5F5F5F5F5F5F5F5F5F5F5F5F5F5F5F5F5F5F5F5F5F5F5F5F5F5F5F5F5F5F5F5F5F5F5F5F5F5F5F5F5F5F5F5F5F5F5F5F5F5F5F5F5F5F5F5F5F5F5F5F5F5F5F5F5F5F5F5F5F5F5F5F5F5F5F5F5F5F5F5F5F5F5E2F5E2E2E2F5F5F5
310
F5F5F5F5F5F5F5F5F5F5F5F5F5F5F5F5F5F5F5F5F5F5F5F5F5F5F5F5F5F5F5F5F5F5F5F5F5F5F5F5F5F5F5F5F5F5F5F5F5F5F5F5F5F5F5F5F5F5F5F5F5F5F5F5F5F5F5F5F5F5F5F5F5F5F5F5F5F5F5F5F5F5F5F5F5F5F5F5F5F5F5F5F5F5F5F5F5F5F5F5F5F5F5F5F5F5F5F5F5F5F5F5F5F5F5F5F5F5F5F5F5F5F5F5F5F5F5
310
F5F5F5F5F5F5F5F5F5F5F5F5F5F5F5F5F5F5F5F5F5F5F5F5F5F5F5F5F5F5F5F5F5F5F5F5F5F5F5F5F5F5F5F5F5F5F5E2E2E2F5F5F5F5F5F5F5F5F5F5F5F5F5F5F5F5F5F5F5F5F5F5F5F5F5F5F5F5F5F5F5F5F5F5F5F5F5F5F5F5F5F5F5F5F5F5F5F5F5F5F5F5F5F5F5F5F5F5F5F5F5F5F5F5F5F5F5F5F5F5F5F5F5F5F5F5F5
310
F5F5F5F5F5F5F5F5F5F5F5F5F5F5F5F5F5F5F5F5F5F5F5F5F5F5F5F5F5F5F5F5F5F5F5F5F5F5F5F5F5F5F5F5F5F5F5F5F5F5F5F5F5F5F5F5F5F5F5F5F5F5F5F5F5F5F5F5F5F5F5F5F5F5F5F5F5F5F5F5F5F5F5F5F5F5F5F5F5F5F5F5F5F5F5F5F5F5F5F5E2E2E2F5F5F5F5F5F5F5F5F5F5F5F5F5F5F5F5F5F5F5F5F5F5F5F5
310
F5F5F5F5F5F5F5F5F5F5F5F5F5F5F5F5F5F5F5F5F5F5F5F5F5F5F5F5F5F5F5F5F5F5F5F5F5F5F5F5F5F5F5F5F5F5F5F5F5F5F5F5F5F5F5F5F5F5F5F5F5F5F5F5F5F5F5F5F5F5F5F5F5F5F5F5F5F5F5F5F5F5F5F5F5F5F5F5F5F5F5F5F5F5F5F5F5F5F5F5F5F5F5F5F5F5F5F5F5F5F5F5F5F5F5F5F5F5F5F5F5F5F5F5F5F5F5
310
F5F5F5F5F5F5F5F5F5F5F5F5F5F5F5F5F5F5F5F5F5F5F5F5F5F5E2E2E2F5F5F5F5F5F5F5F5F5F5F5F5F5F5F5F5F5F5F5F5F5F5F5F5F5F5F5F5F5F5F5F5F5F5F5F5F5F5F5F5F5F5F5F5F5F5F5F5F5F5F5F5F5F5F5F5F5F5F5F5F5F5F5F5F5F5F5F5F5F5F5F5F5F5F5F5F5F5F5F5F5F5F5F5F5F5F5F5F5F5F5F5F5F5F5F5F5F5
310
F5F5F5F5F5F5F5F5F5F5F5F5F5F5F5F5F5F5F5F5F5F5F5F5F5F5F5F5F5F5F5F5F5F5F5F5F5F5F5F5F5F5F5F5F5F5F5F5F5F5F5F5F5F5F5F5F5F5F5F5F5F5F5F5F5F5F5F5F5F5F5F5F5F5F5F5F5F5F5E2E2E2F5F5F5F5F5F5F5F5F5F5F5F5F5F5F5F5F5F5F5F5F5F5F5F5F5F5F5F5F5F5F5F5F5F5F5F5F5F5F5F5F5F5F5F5F5
310
F5F5F5F5F5F5F5F5F5F5F5F5F5F5F5F5F5F5F5F5F5F5F5F5F5F5F5F5F5F5F5F5F5F5F5F5F5F5F5F5F5F5F5F5F5F5F5F5F5F5F5F5F5F5F5F5F5F5F5F5F5F5F5F5F5F5F5F5F5F5F5F5F5F5F5F5F5F5F5F5F5F5F5F5F5F5F5F5F5F5F5F5F5F5F5F5F5F5F5F5F5F5F5F5F5F5F5F5F5F5F5F5F5F5F5F5F5F5F5F5F5F5F5F5F5F5F5
310
F5F5F5F5F5E2E2E2F5F5F5F5F5F5F5F5F5F5F5F5F5F5F5F5F5F5F5E2E2E2E2E2E2E2E2E2E2E2E2E2E2E2E2E2E2E2E2E2E2E2E2E2E2E2E2E2E2E2E2E2E2E2E2E2E2E2E2E2E2E2E2E2E2E2E2E2E2E2E2E2E2E2E2E2E2E2E2E2E2E2E2E2E2E2E2E2E2E2E2E2E2E2E2E2E2E2E2E2E2E2E2E2E2E2E2E2E2E2E2E2E2E2E2E2E2E2E2
310
E2E2E2E2E2E2E2E2E2E2E2E2E2E2E2E2E2E2E2E2E2E2E2E2E2E2E2E2E2E2E2E2E2E2E2E2E2E2E2F5F5F5F5F5F5F5F5F5F5F5F5F5F5F5F5F5F5F5E2E2E2F5F5F5F5F5F5F5F5F5F5F5F5F5F5F5F5F5F5F5E2F5F5F5F5F5F5F5F5F5F5F5F5F5F5F5F5F5F5F5F5F5F5F5F5F5F5F5F5F5F5F5F5F5F5F5F5F5F5F5F5F5F5F5F5F5F5
310
F5F5F5F5F5F5F5F5F5F5F5F5F5F5F5F5F5F5F5F5F5F5F5F5F5F5F5F5F5F5F5F5F5F5F5F5F5F5F5F5F5F5F5F5F5F5F5F5F5F5F5F5F5F5F5F5F5F5F5F5F5F5F5F5F5F5F5F5F5F5F5F5F5F5F5F5F5F5F5F5F5F5F5F5F5F5F5F5F5F5F5E2F5F5F5F5F5F5F5F5F5F5F5F5F5F5F5F5F5F5F5E2E2E2F5F5F5F5F5F5F5F5F5F5F5F5F5
310
F5F5F5F5F5F5E2F5F5F5F5F5F5F5F5F5F5F5F5F5F5F5F5F5F5F5F5F5F5F5F5F5F5F5F5F5F5F5F5F5F5F5F5F5F5F5F5F5F5F5F5F5F5F5F5F5F5F5F5F5F5F5F5F5F5F5F5F5F5F5F5F5F5F5F5F5F5F5F5F5F5F5F5F5F5F5F5F5F5F5F5F5F5F5F5F5F5F5F5F5F5F5F5F5F5F5F5F5F5F5F5F5F5F5F5F5F5F5F5F5F5F5F5F5F5F5F5
310
F5F5F5F5F5F5F5F5F5F5F5F5F5F5F5F5F5E2F5F5F5F5F5F5F5F5F5F5F5F5F5F5F5F5F5F5F5E2E2E2F5F5F5F5F5F5F5F5F5F5F5F5F5F5F5F5F5F5F5E2F5F5F5F5F5F5F5F5F5F5F5F5F5F5F5F5F5F5F5F5F5F5F5F5F5F5F5F5F5F5F5F5F5F5F5F5F5F5F5F5F5F5F5F5F5F5F5F5F5F5F5F5F5F5F5F5F5F5F5F5F5F5F5F5F5F5F5
310
F5F5F5F5F5F5F5F5F5F5F5F5F5F5F5F5F5F5F5F5F5F5F5F5F5F5F5F5F5F5F5F5F5F5F5F5F5F5F5F5F5F5F5F5F5F5F5F5F5F5F5F5F5F5F5F5F5F5F5F5F5F5F5F5F5F5F5F5F5F5E2F5F5F5F5F5F5F5F5F5F5F5F5F5F5F5F5F5F5F5E2E2E2F5F5F5F5F5F5F5F5F5F5F5F5F5F5F5F5F5F5F5E2F5F5F5F5F5F5F5F5F5F5F5F5F5F5
310
F5F5F5F5F5F5F5F5F5F5F5F5F5F5F5F5F5F5F5F5F5F5F5F5F5F5F5F5F5F5F5F5F5F5F5F5F5F5F5F5F5F5F5F5F5F5F5F5F5F5F5F5F5F5F5F5F5F5F5F5F5F5F5F5F5F5F5F5F5F5F5F5F5F5F5F5F5F5F5F5F5F5F5F5F5F5F5F5F5F5F5F5F5F5F5F5F5F5F5F5F5F5F5F5F5F5F5F5F5F5F5F5F5F5F5F5F5F5F5F5F5F5F5E2F5F5F5
310
F5F5F5F5F5F5F5F5F5F5F5F5F5F5F5F5E2E2E2F5E2F5F5F5F5F5F5F5F5F5F5F5F5F5F5F5F5F5E2F5F5F5F5F5F5F5F5F5F5F5F5F5F5F5F5F5F5F5F5F5F5F5F5F5F5F5F5F5F5F5F5F5F5F5F5F5F5F5F5F5F5F5F5F5F5F5F5F5F5F5F5F5F5F5F5F5F5F5F5F5F5F5F5F5F5F5F5F5F5F5F5F5F5F5F5F5F5F5F5F5F5F5F5F5F5F5F5
310
F5F5F5F5F5F5F5F5F5F5F5F5F5F5F5F5F5F5F5F5F5F5F5F5F5F5F5F5F5F5F5F5F5F5F5F5F5F5F5F5F5F5F5F5F5F5F5F5F5E2F5F5F5F5F5F5F5F5F5F5F5F5F5F5F5F5F5E2F5E2E2E2F5E2F5F5F5F5F5F5F5F5F5F5F5F5F5F5F5F5F5E2F5F5F5F5F5F5F5F5F5F5F5F5F5F5F5F5F5F5F5F5F5F5F5F5F5F5F5F5F5F5F5F5F5F5F5
310
F5F5F5F5F5F5F5F5F5F5F5F5F5F5F5F5F5F5F5F5F5F5F5F5F5F5F5F5F5F5F5F5F5F5F5F5F5F5F5F5F5F5F5F5F5F5F5F5F5F5F5F5F5F5F5F5F5F5F5F5F5F5F5F5F5F5F5F5F5F5F5F5F5F5F5F5F5F5F5F5F5F5F5F5F5F5F5F5F5F5F5F5F5F5F5F5F5F5F5F5F5F5E2F5F5F5F5F5F5F5F5F5F5F5F5F5F5F5F5F5E2F5E2E2E2F5E2
310
F5F5F5F5F5F5F5F5F5F5F5F5F5F5F5F5F5E2F5F5F5F5F5F5F5F5F5F5F5F5F5F5F5F5F5F5F5F5F5F5F5F5F5F5F5F5F5F5F5F5F5F5F5F5F5F5F5F5F5F5F5F5F5F5F5F5F5F5F5F5F5F5F5F5F5F5F5F5F5F5F5F5F5F5F5F5F5F5F5F5F5F5F5F5F5F5F5F5F5F5F5F5F5F5F5F5F5F5F5F5F5F5F5F5F5F5F5F5F5F5F5F5F5F5F5F5F5
310
F5F5F5F5F5F5F5F5F5F5F5F5F5F5F5F5F5F5F5F5F5F5F5F5F5F5F5F5E2F5F5F5F5F5F5F5F5F5F5F5F5F5F5F5F5F5E2F5E2E2E2F5E2F5F5F5F5F5F5F5F5F5F5F5F5F5F5F5F5F5E2F5F5F5F5F5F5F5F5F5F5F5F5F5F5F5F5F5F5F5F5F5F5F5F5F5F5F5F5F5F5F5F5F5F5F5F5F5F5F5F5F5F5F5F5F5F5F5F5F5F5F5F5F5F5F5F5
310
F5F5F5F5F5F5F5F5F5F5F5F5F5F5F5F5F5F5F5F5F5F5F5F5F5F5F5F5F5F5F5F5F5F5F5F5F5F5F5F5F5F5F5F5F5F5F5F5F5F5F5F5F5F5F5F5F5F5F5F5F5F5F5F5F5F5F5F5F5F5F5F5F5F5F5F5F5F5F5F5F5E2F5F5F5F5F5F5F5F5F5F5F5F5F5F5F5F5F5E2F5E2E2E2F5E2F5F5F5F5F5F5F5F5F5F5F5F5F5F5F5F5F5E2F5F5F5
310
F5F5F5F5F5F5F5F5F5F5F5F5F5F5F5F5F5F5F5F5F5F5F5F5F5F5F5F5F5F5F5F5F5F5F5F5F5F5F5F5F5F5F5F5F5F5F5F5F5F5F5F5F5F5F5F5F5F5F5F5F5F5F5F5F5F5F5F5F5F5F5F5F5F5F5F5F5F5F5F5F5F5F5F5F5F5F5F5F5F5F5F5F5F5F5F5F5F5F5F5F5F5F5F5F5F5F5F5F5F5F5F5F5F5F5F5F5F5F5F5F5F5F5F5F5F5F5
310
F5F5F5F5F5F5F5E2F5F5F5F5F5F5F5F5F5F5F5F5F5F5F5F5F5E2F5E2E2E2F5E2F5F5F5F5F5F5F5F5F5F5F5F5F5F5F5F5F5E2F5F5F5F5F5F5F5F5F5F5F5F5F5F5F5F5F5F5F5F5F5F5E2E2E2E2E2F5F5F5F5F5F5F5F5F5F5F5F5F5F5F5F5F5F5F5F5F5F5F5F5F5F5F5F5F5F5F5E2E2E2E2E2F5F5F5F5F5F5F5F5F5F5F5F5F5F5
310
F5F5F5F5F5F5F5F5F5F5F5F5F5F5F5F5F5F5F5F5F5F5F5F5F5F5F5F5E2E2E2E2E2F5F5F5F5F5F5E2E2E2E2E2F5F5F5F5F5F5F5F5F5F5F5F5F5F5F5F5E2F5F5F5F5F5F5F5F5F5F5F5F5F5F5F5F5F5E2F5E2E2E2F5E2F5F5F5F5F5F5F5F5F5F5F5F5F5F5F5F5F5E2F5F5F5F5F5F5F5F5F5F5F5F5F5F5F5F5F5F5F5F5F5F5E2F5
310
F5F5E2F5F5F5F5F5F5F5F5F5F5F5F5F5F5F5F5F5F5F5F5F5F5F5F5F5F5F5F5F5F5F5E2F5F5F5E2F5F5F5F5F5F5F5F5F5F5F5F5F5F5F5F5F5F5F5F5F5F5F5F5F5F5F5F5F5F5F5F5F5F5F5F5F5F5F5F5F5F5E2F5F5F5E2F5F5F5F5F5F5E2F5F5F5E2F5F5F5F5F5F5F5F5F5F5F5F5F5F5F5F5E2F5F5F5F5F5F5F5F5F5F5F5F5F5
310
F5F5F5F5E2F5E2E2E2F5E2F5F5F5F5F5F5F5F5F5F5F5F5F5F5F5F5F5E2F5F5F5F5F5F5F5F5F5F5F5F5F5F5F5F5F5F5F5F5F5F5E2F5F5F5E2F5F5F5F5F5F5F5F5F5F5F5F5F5F5F5F5F5F5F5F5F5F5F5F5F5F5F5F5F5F5F5E2F5F5F5E2F5F5F5F5F5F5F5F5F5F5F5F5F5F5F5F5F5F5F5F5F5F5F5F5F5F5F5F5F5F5F5F5F5F5F5
310
F5F5F5F5F5F5F5E2F5F5F5E2F5F5F5F5F5F5E2F5F5F5E2F5F5F5F5F5F5F5F5F5F5F5F5F5F5F5F5E2F5F5F5F5F5F5F5F5F5F5F5F5F5F5F5F5F5E2F5E2E2E2F5E2F5F5F5F5F5F5F5F5F5F5F5F5F5F5F5F5F5E2F5F5F5F5F5F5F5F5F5F5F5F5F5F5F5F5F5F5F5F5F5F5E2F5F5F5E2F5F5F5F5F5F5F5F5F5F5F5F5F5F5F5F5F5F5
310
F5F5F5F5F5F5F5F5F5F5F5F5F5E2F5F5F5E2F5F5F5F5F5F5F5F5F5F5F5F5F5F5F5F5F5F5F5F5F5F5F5F5F5F5F5F5F5F5F5F5F5F5F5F5F5F5F5F5F5F5E2F5F5F5E2F5F5F5F5F5F5E2F5F5F5E2F5F5F5F5F5F5F5F5F5F5F5F5F5F5F5F5E2F5F5F5F5F5F5F5F5F5F5F5F5F5F5F5F5F5E2F5E2E2E2F5E2F5F5F5F5F5F5F5F5F5F5
310
F5F5F5F5F5F5F5E2F5F5F5F5F5F5F5F5F5F5F5F5F5F5F5F5F5F5E2E2E2E2E2E2E2E2E2E2E2E2E2E2E2E2E2E2E2E2E2E2E2E2E2E2E2E2E2E2E2E2E2E2E2E2E2E2E2E2E2E2E2E2E2E2E2E2E2E2F5F5F5F5F5F5F5F5F5F5F5F5F5F5F5F5F5F5F5F5F5F5F5F5F5F5F5F5F5F5F5F5E2E2E2E2E2E2E2E2E2E2E2E2E2E2E2E2E2E2E2
310
E2E2E2E2E2E2E2E2E2F5F5F5F5F5F5F5F5F5E2F5F5F5F5F5F5F5F5F5F5F5F5F5F5F5F5F5E2F5E2E2E2F5E2F5F5F5F5F5F5F5F5F5F5F5F5F5F5F5F5F5E2F5F5F5F5F5F5F5F5F5F5F5F5F5F5E2E2E2E2E2E2E2E2E2E2E2E2E2E2E2E2E2E2E2E2E2E2E2E2E2E2E2E2E2E2E2E2E2E2E2E2E2E2E2E2E2E2E2E2E2E2E2E2E2E2E2E2
310
E2E2E2F5F5F5F5F5F5F5F5F5F5F5F5F5F5F5F5F5F5F5F5F5F5F5F5F5F5F5F5E2E2E2E2E2E2F5F5F5F5F5F5F5F5F5F5F5F5F5F5F5F5F5F5F5F5F5E2E2F5E2E2F5F5F5F5F5F5F5F5E2F5F5F5F5F5F5F5F5F5F5F5F5F5F5F5F5F5E2F5E2E2E2F5E2F5F5F5F5F5F5F5F5F5F5F5F5F5F5F5F5F5E2F5F5F5F5F5F5F5F5F5F5F5F5F5
310
F5E2F5F5F5F5F5F5F5F5F5F5F5F5F5F5F5F5F5F5F5F5F5F5F5F5F5F5F5F5F5F5F5F5F5F5F5F5F5F5F5F5F5F5F5F5F5F5F5F5F5F5F5F5F5E2F5F5F5F5F5F5F5F5F5F5F5F5F5F5F5F5F5F5F5F5F5F5F5F5F5F5F5F5E2E2E2E2E2E2E2E2E2E2E2E2E2E2E2E2E2E2E2E2E2E2E2E2E2E2E2E2E2E2E2E2F5F5F5F5F5F5F5F5E2F5F5
310
F5F5F5F5F5F5F5F5F5F5F5F5F5F5F5E2F5E2E2E2F5E2F5F5F5F5F5F5F5F5F5F5F5F5F5F5F5F5F5E2F5F5F5F5F5F5F5F5F5F5F5F5F5E2F5F5F5F5F5F5F5F5F5F5F5F5F5F5F5F5F5F5F5F5F5F5F5F5F5F5F5F5F5F5F5F5F5F5F5F5F5F5F5F5F5F5F5F5F5F5F5F5F5F5F5F5F5F5E2E2F5F5F5F5F5F5F5F5F5F5F5F5F5F5F5F5F5
310
F5F5F5F5F5F5F5F5F5F5E2F5F5F5E2F5F5F5F5F5F5F5F5F5F5F5F5F5F5F5F5F5F5F5F5F5F5E2F5F5F5E2F5F5F5F5F5F5F5F5E2F5F5F5F5F5F5F5F5F5F5F5F5F5F5F5F5F5E2F5E2E2E2F5E2F5F5F5F5F5F5F5F5F5F5F5F5F5F5F5F5F5E2F5F5F5F5F5F5F5F5F5F5F5F5F5E2F5F5F5F5F5F5F5F5F5F5F5F5F5F5F5F5F5F5F5F5
310
F5F5F5F5F5F5F5F5F5F5F5F5F5F5F5F5F5F5F5F5F5F5F5F5F5F5F5F5F5F5F5F5F5F5F5E2F5F5F5F5F5F5F5F5F5F5F5F5F5F5F5F5F5F5F5F5F5F5F5F5F5F5F5E2F5F5E2F5F5F5F5F5F5F5F5F5F5F5F5F5F5F5F5F5F5F5F5F5F5F5E2F5F5F5E2F5F5F5F5F5F5F5F5E2F5F5F5F5F5F5F5F5F5F5F5F5F5F5F5F5F5E2F5E2E2E2F5
310
E2F5F5F5F5F5F5F5F5F5F5F5F5F5F5F5F5F5E2F5F5F5F5F5F5F5F5F5F5F5F5E2F5F5F5F5F5F5F5F5F5F5F5F5F5F5F5F5F5F5F5F5F5F5F5F5F5F5F5F5F5F5F5F5F5F5F5F5F5F5F5F5F5F5F5F5F5F5F5F5F5F5F5F5F5F5F5F5E2F5F5F5F5F5F5F5F5F5F5F5F5F5F5F5F5F5F5F5F5F5F5F5F5F5F5F5E2F5F5E2F5F5F5F5F5F5F5
310
F5F5F5F5F5F5F5F5F5F5F5F5F5F5F5F5F5E2F5F5E2F5F5F5F5F5F5F5F5E2F5F5F5F5F5F5F5F5F5F5F5F5F5F5F5F5F5E2F5E2E2E2F5E2F5F5F5F5F5F5F5F5F5F5F5F5F5F5F5F5F5E2F5F5F5F5F5F5F5F5F5F5F5F5E2F5F5F5F5F5F5F5F5F5F5F5F5F5F5F5F5F5F5F5F5F5F5F5F5F5F5F5F5F5F5F5F5F5F5F5F5F5F5F5F5F5F5
310
F5F5F5F5F5F5F5F5F5F5F5F5F5F5E2F5F5F5F5F5F5F5F5F5F5F5F5F5F5F5F5F5F5F5F5F5F5F5F5F5F5F5E2F5F5E2F5F5F5F5F5F5F5F5F5F5F5F5F5F5F5F5F5F5F5F5F5F5F5F5E2F5F5E2F5F5F5F5F5F5F5F5E2F5F5F5F5F5F5F5F5F5F5F5F5F5F5F5F5F5E2F5E2E2E2F5E2F5F5F5F5F5F5F5F5F5F5F5F5F5F5F5F5F5E2F5F5
310
F5F5F5F5F5F5F5F5F5F5E2F5F5F5F5F5F5F5F5F5F5F5F5F5F5F5F5F5F5F5F5F5F5F5F5F5F5F5F5F5F5F5F5F5F5F5F5F5F5F5F5F5F5F5F5F5F5F5F5F5F5F5F5F5F5F5F5F5E2F5F5F5F5F5F5F5F5F5F5F5F5F5F5F5F5F5F5F5F5F5F5F5F5F5F5E2F5E2F5F5F5F5F5F5F5F5F5F5F5F5F5F5F5F5F5F5F5F5F5F5F5F5F5E2F5F5E2
310
F5F5F5F5F5F5F5F5E2F5F5F5F5F5F5F5F5F5F5F5F5F5F5F5F5F5E2F5E2E2E2F5F5F5F5F5F5F5F5F5F5F5F5F5F5F5F5F5F5F5E2F5F5F5F5F5F5F5F5F5F5F5F5E2F5F5F5F5F5F5F5F5F5F5F5F5F5F5F5F5F5F5F5F5F5F5F5F5F5F5F5F5F5F5F5F5F5F5F5F5F5F5F5F5F5F5F5F5F5F5F5F5F5F5F5F5F5F5F5F5F5E2F5F5F5F5F5
310
F5F5F5F5F5F5F5F5F5F5F5F5F5F5F5F5F5F5F5F5F5E2F5E2F5F5F5F5F5F5F5F5F5F5F5F5F5F5F5F5F5F5F5F5F5F5F5F5F5E2F5F5E2F5F5F5F5F5F5F5F5E2F5F5F5F5F5F5F5F5F5F5F5F5F5F5F5F5F5F5F5E2E2E2F5F5F5F5F5F5F5F5F5F5F5F5F5F5F5F5F5F5F5E2F5F5F5F5F5F5F5F5F5F5F5E2F5F5F5F5F5F5F5F5F5F5F5
310
F5F5F5F5F5F5F5F5F5F5F5F5F5F5F5F5F5F5F5F5F5F5F5F5F5F5F5F5F5F5F5F5F5F5F5F5F5F5F5F5F5F5F5F5F5F5F5E2F5F5F5F5F5F5F5F5F5F5F5F5F5F5F5F5F5F5F5F5F5F5F5F5F5F5E2F5E2F5F5F5F5F5F5F5F5F5F5F5F5F5F5F5F5F5F5F5F5F5F5F5F5F5E2F5F5E2F5F5F5F5F5F5F5F5E2F5F5F5F5F5F5F5F5F5F5F5F5
310
F5F5F5F5F5F5F5E2E2E2F5F5F5F5F5F5F5F5F5F5F5F5F5F5F5F5F5F5F5E2F5F5F5F5F5F5F5F5F5F5F5E2F5F5F5F5F5F5F5F5F5F5F5F5F5F5F5F5F5F5F5F5F5F5F5F5F5F5F5F5F5F5F5F5F5F5F5F5F5F5F5F5F5F5F5F5F5F5F5F5F5F5F5F5F5F5F5F5F5F5E2F5F5F5F5F5F5F5F5F5F5F5F5F5F5F5F5F5F5F5F5F5F5F5F5F5F5
310
E2F5E2F5F5F5F5F5F5F5F5F5F5F5F5F5F5F5F5F5F5F5F5F5F5F5F5F5F5E2F5E2F5F5F5F5F5F5F5F5E2F5F5F5F5F5F5F5F5F5F5F5F5F5F5F5F5F5F5F5E2E2E2F5F5F5F5F5F5F5F5F5F5F5F5F5F5F5F5F5F5F5E2F5F5F5F5F5F5F5F5F5F5F5E2F5F5F5F5F5F5F5F5F5F5F5F5F5F5F5F5F5F5F5F5F5F5F5F5F5F5F5F5F5F5F5F5
310
F5F5F5F5F5F5F5F5F5F5F5F5F5F5F5F5F5F5F5F5F5F5F5F5F5F5F5E2F5F5F5F5F5F5F5F5F5F5F5F5F5F5F5F5F5F5F5F5F5F5F5F5F5E2F5E2F5F5F5F5F5F5F5F5F5F5F5F5F5F5F5F5F5F5F5F5F5F5F5F5F5F5E2F5E2F5F5F5F5F5F5F5F5E2F5F5F5F5F5F5F5F5F5F5F5F5F5F5F5F5F5F5F5E2E2E2F5F5F5F5F5F5F5F5F5F5F5
310
F5F5F5F5F5F5F5F5E2F5F5F5F5F5F5F5F5F5F5E2E2F5F5F5F5F5F5F5F5F5F5F5F5F5F5F5F5F5F5F5F5F5F5F5F5F5F5F5F5F5F5F5F5F5F5F5F5F5F5F5F5F5F5F5F5F5F5F5F5F5F5F5F5F5F5F5F5F5F5F5E2F5F5F5F5F5F5F5F5F5F5F5F5F5F5F5F5F5F5F5F5F5F5F5F5F5E2F5E2F5F5F5F5F5F5F5F5F5F5F5F5F5F5F5F5F5F5
310
F5F5F5F5F5F5F5F5E2F5E2E2F5F5F5F5F5F5F5E2F5F5F5F5F5F5F5F5F5F5F5F5F5F5F5F5F5F5F5E2E2E2F5F5F5F5F5F5F5F5F5F5F5F5F5F5F5F5F5F5F5E2F5F5F5F5F5F5F5F5F5F5E2F5F5F5F5F5F5F5F5F5F5F5F5F5F5F5F5F5F5F5F5F5F5F5F5F5F5F5F5F5F5F5F5F5F5F5F5F5F5F5F5F5F5F5F5F5F5F5F5F5F5F5F5F5F5
310
F5F5F5F5F5F5E2F5F5F5F5F5F5F5F5F5F5F5F5F5F5F5F5F5F5F5F5F5F5F5F5F5E2E2F5F5F5F5F5F5F5F5F5F5F5F5F5F5F5F5F5F5F5F5F5F5F5F5F5F5F5E2F5E2E2F5F5F5F5F5F5F5E2F5F5F5F5F5F5F5F5F5F5F5F5F5F5F5F5F5F5F5E2E2E2F5F5F5F5F5F5F5F5F5F5F5F5F5F5F5F5F5F5F5E2F5F5F5F5F5F5F5F5F5F5E2F5
310
F5F5F5F5F5F5F5F5F5F5F5F5F5F5F5F5F5F5F5F5F5F5F5F5F5F5F5F5F5F5F5F5F5F5F5F5F5F5F5F5F5F5F5F5F5F5F5F5F5F5F5F5F5F5F5F5F5F5F5F5E2F5F5F5F5F5F5F5F5F5F5F5F5F5F5F5F5F5F5F5F5F5F5F5E2F5E2F5F5F5F5F5F5F5F5F5F5F5F5F5F5F5F5F5F5F5F5F5F5F5F5F5F5F5E2F5E2E2F5F5F5F5F5F5F5E2F5
310
F5F5F5F5F5F5F5F5F5F5F5F5F5F5F5F5F5F5E2E2E2F5F5F5F5F5F5F5F5F5F5F5F5F5F5F5F5F5F5F5E2F5F5F5F5F5F5F5F5F5F5E2F5F5F5F5F5F5F5F5F5F5F5F5F5F5F5F5F5F5F5F5F5F5F5F5F5F5F5F5F5F5F5F5F5F5F5F5F5F5F5F5F5F5F5F5F5F5F5F5F5F5F5F5F5F5F5F5F5F5F5F5F5E2F5F5F5F5F5F5F5F5F5F5F5F5F5
310
F5F5F5F5F5F5F5F5F5F5E2F5E2F5F5F5F5F5F5F5F5F5F5F5F5F5F5F5F5F5F5F5F5F5F5F5F5F5F5F5F5E2F5E2F5F5F5F5F5F5F5E2F5F5F5F5F5F5F5F5F5F5F5F5F5F5F5F5F5F5F5E2E2E2F5F5F5F5F5F5F5F5F5F5F5F5F5F5F5F5F5F5F5E2F5F5F5F5F5F5F5F5F5E2F5F5F5F5F5F5F5F5F5F5F5F5F5F5F5F5F5F5E2E2F5F5F5
310
F5F5F5F5F5F5F5F5F5F5F5F5F5F5F5F5F5F5F5F5F5F5F5F5F5F5F5F5F5F5F5F5F5F5F5F5F5F5F5E2F5F5F5F5F5F5F5F5F5F5F5F5F5F5F5F5F5F5F5F5F5F5F5E2F5E2F5F5F5F5F5F5F5F5F5F5F5F5F5F5F5F5F5F5F5F5F5F5F5F5F5F5F5F5E2F5E2F5F5F5F5F5F5F5E2F5F5F5F5F5F5F5F5F5F5F5F5F5F5F5F5F5F5F5E2E2E2
310
F5F5F5F5F5F5F5F5F5F5F5F5F5F5F5F5F5F5F5E2F5F5F5F5F5F5F5F5F5E2F5F5F5F5F5F5F5F5F5F5F5F5F5F5F5F5F5E2F5E2F5F5F5F5F5F5F5F5F5F5F5F5F5F5F5F5F5F5F5F5F5F5F5F5F5F5F5F5F5F5F5F5F5F5F5F5F5F5F5F5F5F5F5E2F5F5F5F5F5F5F5F5F5F5F5F5F5F5F5F5F5F5F5F5F5F5E2F5E2F5F5F5F5F5F5F5F5
310
F5F5F5F5F5F5F5F5F5F5F5F5F5F5F5F5F5F5F5F5E2F5E2F5F5F5F5F5F5F5E2F5F5F5F5F5F5F5F5F5F5F5F5F5F5F5F5F5F5F5E2E2E2F5E2F5F5F5F5F5F5F5F5F5F5F5F5F5F5F5F5F5E2F5F5F5F5F5F5F5F5F5E2F5F5F5F5F5F5F5F5F5F5F5F5F5F5F5F5F5E2F5E2F5F5F5F5F5F5F5F5F5F5F5F5F5F5F5F5F5F5F5F5F5F5F5F5
310
F5F5F5F5F5F5F5F5F5F5F5F5F5F5F5F5F5F5F5E2F5F5F5F5F5F5F5F5F5F5F5F5F5F5F5F5F5F5F5F5F5F5E2F5E2F5F5F5F5F5F5F5F5F5F5F5F5F5F5F5F5F5F5F5F5F5F5F5F5F5F5F5F5E2F5E2F5F5F5F5F5F5F5E2F5F5F5F5F5F5F5F5F5F5F5F5F5F5F5F5F5E2F5E2E2E2F5E2F5F5F5F5F5F5F5F5F5F5F5F5F5F5F5F5F5E2F5
310
F5F5F5F5F5F5F5F5E2F5F5F5F5F5F5F5F5F5F5F5F5F5F5F5F5F5E2E2E2F5F5F5F5F5F5F5F5F5F5F5F5F5F5F5F5F5F5F5F5F5F5F5F5F5F5F5F5F5F5F5F5F5F5F5F5F5F5F5F5F5F5F5E2F5F5F5F5F5F5F5F5F5F5F5F5F5F5F5F5F5F5F5F5F5F5E2E2F5F5F5F5F5F5F5F5F5F5F5F5F5F5F5F5F5F5F5F5F5F5F5F5F5F5F5F5F5F5
310
E2E2F5F5F5F5F5F5F5E2F5F5F5F5F5F5F5F5F5F5F5F5F5F5F5F5F5E2F5E2E2E2F5E2F5F5F5F5F5F5F5F5F5F5F5F5F5F5F5F5F5E2F5F5F5F5F5F5F5F5E2F5F5F5F5F5F5F5F5F5F5F5F5F5F5F5F5E2E2E2E2E2E2E2E2E2E2E2E2E2E2E2E2E2E2E2E2E2E2E2E2E2E2E2E2E2E2E2E2F5F5F5F5F5F5F5F5F5F5F5F5F5F5F5F5E2E2
310
F5F5F5F5F5F5F5F5F5F5F5F5F5F5F5F5F5F5E2F5F5E2E2F5F5F5F5F5F5F5F5F5F5F5F5F5F5F5F5F5F5F5F5F5F5F5F5F5F5F5F5F5F5E2E2F5F5F5F5F5F5F5E2F5F5F5F5F5F5F5F5F5F5F5F5F5F5F5F5F5E2F5E2E2E2F5E2F5F5F5F5F5F5F5F5F5F5F5F5F5F5F5F5F5E2F5F5F5E2E2E2E2E2E2E2E2E2E2E2E2E2E2E2E2E2E2E2
310
E2E2E2F5F5F5F5F5F5F5F5F5F5F5F5F5F5F5F5F5F5F5F5F5F5F5F5F5F5F5F5F5F5F5F5E2E2E2E2E2E2E2E2E2E2E2E2E2E2E2E2E2E2E2E2E2E2F5F5F5F5F5F5F5F5F5F5F5F5F5E2E2E2E2E2E2E2E2E2E2E2E2E2E2E2E2E2E2E2E2E2E2E2E2E2E2E2E2E2E2E2E2E2E2E2E2E2E2E2E2E2E2F5F5F5E2F5F5F5F5F5F5F5F5F5F5F5
310
F5F5F5F5F5F5E2F5E2E2E2F5E2F5F5F5F5F5F5F5F5F5F5F5F5F5F5F5F5F5E2F5E2E2E2E2E2E2E2E2E2E2E2E2E2E2E2E2E2E2E2E2E2E2E2E2E2E2E2E2E2E2E2E2E2E2E2E2E2E2E2E2E2E2E2E2E2E2E2E2E2E2E2E2E2E2E2E2E2E2E2E2E2E2E2E2E2E2E2E2E2E2E2E2E2E2E2E2E2E2E2E2E2F5F5F5F5F5F5F5E2E2E2E2E2E2E2
310
E2E2E2E2E2E2E2E2E2E2E2E2E2E2E2E2E2E2E2E2E2E2E2E2E2E2E2E2E2E2E2E2E2E2E2E2E2E2E2E2E2E2F5F5F5F5F5F5F5F5F5F5F5F5F5F5F5F5F5E2F5E2E2E2F5E2F5F5F5F5F5F5F5F5F5F5F5F5F5F5F5F5F5E2F5E2E2E2E2E2E2E2E2E2E2E2E2E2E2E2E2E2E2E2E2E2E2E2E2E2E2E2E2E2E2E2E2E2E2E2E2E2E2E2E2E2E2
310
E2E2E2E2E2E2E2E2E2E2E2E2E2E2E2E2E2E2E2E2E2E2E2E2E2E2E2E2E2E2E2E2E2E2E2E2E2E2E2F5F5F5F5F5F5F5E2E2E2E2E2E2E2E2E2E2E2E2E2E2E2E2E2E2E2E2E2E2E2E2E2E2E2E2E2E2E2E2E2E2E2E2E2E2E2E2E2E2E2E2E2E2E2E2E2F5F5F5F5F5F5F5F5F5F5F5F5F5F5F5F5F5E2F5E2E2E2F5E2F5F5F5F5F5F5F5F5
310
F5F5F5F5F5F5F5F5F5E2F5E2E2E2E2E2E2E2E2E2E2E2E2E2E2E2E2E2E2E2E2E2E2E2E2E2E2E2E2E2E2E2E2E2E2E2E2E2E2E2E2E2E2E2E2E2E2E2E2E2E2E2E2E2E2E2E2E2E2E2E2E2E2E2E2E2E2E2E2E2E2E2E2E2E2E2E2E2E2E2E2E2F5F5F5F5F5F5F5E2E2E2E2E2E2E2E2E2E2E2E2E2E2E2E2E2E2E2E2E2E2E2E2E2E2E2E2
310
E2E2E2E2E2E2E2E2E2E2E2E2E2E2E2E2E2E2E2E2E2F5F5F5F5F5F5F5F5F5F5F5F5F5F5F5F5F5E2F5E2E2E2F5E2F5F5F5F5F5F5F5F5F5F5F5F5F5F5F5F5F5E2F5F5F5F5F5F5F5F5F5F5F5F5F5F5F5F5F5F5F5F5F5F5F5F5F5F5F5F5F5F5F5F5F5F5F5F5F5F5F5F5F5F5F5F5F5F5F5F5F5F5F5F5F5F5F5F5F5F5F5F5F5F5F5F5
310
F5F5F5F5F5F5F5F5F5F5F5F5F5F5F5F5F5F5F5F5F5F5F5F5F5F5F5F5F5F5F5F5F5F5F5F5F5F5F5F5F5F5F5F5F5F5F5F5F5F5F5F5F5F5F5F5F5F5F5F5F5F5F5F5F5F5F5F5F5F5F5F5F5E2F5F5F5F5F5F5F5F5F5F5F5F5F5F5F5F5F5E2F5E2E2E2F5E2F5F5F5F5F5F5F5F5F5F5F5F5F5F5F5F5F5E2F5F5F5F5F5F5F5F5F5F5F5
310
F5F5F5F5F5F5F5F5F5F5F5F5F5F5F5F5F5F5F5F5F5F5F5F5F5F5F5F5F5F5F5F5F5F5F5F5F5F5F5F5F5F5F5F5F5F5F5F5F5F5F5F5F5F5F5F5F5F5F5F5F5F5F5F5F5F5F5F5F5F5F5F5F5F5F5F5F5F5F5F5F5F5F5F5F5F5F5F5F5F5F5F5F5F5F5F5F5F5F5F5F5F5F5F5F5F5F5F5F5F5F5F5F5F5F5F5F5F5F5F5F5F5F5F5F5F5E2
310
F5F5F5F5F5F5F5F5F5F5F5F5F5F5F5F5F5E2F5E2E2E2F5E2F5F5F5F5F5F5F5F5F5F5F5F5F5F5F5F5F5E2F5F5F5F5F5F5F5F5F5F5F5F5F5F5F5F5F5F5F5F5F5F5F5F5F5F5F5F5F5F5F5F5F5F5F5F5F5F5F5F5F5F5F5F5F5F5F5F5F5F5F5F5F5F5F5F5F5F5F5F5F5F5F5F5F5F5F5F5F5F5F5F5F5F5F5F5F5F5F5F5F5F5F5F5F5
310
F5F5F5F5F5F5F5F5F5F5F5F5F5F5F5F5F5F5F5F5F5F5F5F5F5F5F5F5F5F5F5F5F5F5F5F5F5F5F5F5F5F5F5F5F5F5F5F5F5F5F5F5E2F5F5F5F5F5F5F5F5F5F5F5F5F5F5F5F5F5E2F5E2E2E2F5E2F5F5F5F5F5F5F5F5F5F5F5F5F5F5F5F5F5E2F5F5F5F5F5F5F5F5F5F5F5F5F5F5F5F5F5F5F5F5F5F5F5F5F5F5F5F5F5F5F5F5
310
F5F5F5F5F5F5F5F5F5F5F5F5F5F5F5F5F5F5F5F5F5F5F5F5F5F5F5F5F5F5F5F5F5F5F5F5F5F5F5F5F5F5F5F5F5F5F5F5F5F5F5F5F5F5F5F5F5F5F5F5F5F5F5F5F5F5F5F5F5F5F5F5F5F5F5F5F5F5F5F5F5F5F5F5F5F5F5F5F5F5F5F5F5F5F5F5F5F5F5F5F5F5F5F5F5E2F5F5F5F5F5F5F5F5F5F5F5F5F5F5F5F5F5E2F5E2E2
310
E2F5E2F5F5F5F5F5F5F5F5F5F5F5F5F5F5F5F5F5E2F5F5F5F5F5F5F5F5F5F5F5F5F5F5F5F5F5F5F5F5F5F5F5F5F5F5F5F5F5F5F5F5F5F5F5F5F5F5F5F5F5F5F5F5F5F5F5F5F5F5F5F5F5F5F5F5F5F5F5F5F5F5F5F5F5F5F5F5F5F5F5F5F5F5F5F5F5F5F5F5F5F5F5F5F5F5F5F5F5F5F5F5F5F5F5F5F5F5F5F5F5F5F5F5F5F5
310
F5F5F5F5F5F5F5F5F5F5F5F5F5F5F5F5F5F5F5F5F5F5F5F5F5F5F5F5F5F5F5E2F5F5F5F5F5F5F5F5F5F5F5F5F5F5F5F5F5E2F5E2E2E2F5E2F5F5F5F5F5F5F5F5F5F5F5F5F5F5F5F5F5E2F5F5F5F5F5F5F5F5F5F5F5F5F5F5F5F5F5F5F5F5F5F5F5F5F5F5F5F5F5F5F5F5F5F5F5F5F5F5F5F5F5F5F5F5F5F5F5F5F5F5F5F5F5
310
F5F5F5F5F5F5F5F5F5F5F5F5F5F5F5F5F5F5F5F5F5F5F5F5F5F5F5F5F5F5F5F5F5F5F5F5F5F5F5F5F5F5F5F5F5F5F5F5F5F5F5F5F5F5F5F5F5F5F5F5F5F5F5F5F5F5F5F5F5F5F5F5F5F5F5F5F5F5F5F5F5F5F5F5E2F5F5F5F5F5F5F5F5F5F5F5F5F5F5F5F5F5E2F5E2E2E2F5E2F5F5F5F5F5F5F5F5F5F5F5F5F5F5F5F5F5E2
310
F5F5F5F5F5F5F5F5F5F5F5F5F5F5F5F5F5F5F5F5F5F5F5F5F5F5F5F5F5F5F5F5F5F5F5F5F5F5F5F5F5F5F5F5F5F5F5F5F5F5F5F5F5F5F5F5F5F5F5F5F5F5F5F5F5F5F5F5F5F5F5F5F5F5F5F5F5F5F5F5F5F5F5F5F5F5F5F5F5F5F5F5F5F5F5F5F5F5F5F5F5F5F5F5F5F5F5F5F5F5F5F5F5F5F5F5F5F5F5F5F5F5F5F5F5F5F5
310
F5F5F5F5F5F5F5F5F5F5E2F5F5F5F5F5F5F5F5F5F5F5F5F5F5F5F5F5E2F5E2E2E2F5E2F5F5F5F5F5F5F5F5F5F5F5F5F5F5F5F5F5E2F5F5F5F5F5F5F5F5F5F5F5F5F5F5F5F5F5F5F5F5F5F5F5F5F5F5F5F5F5F5F5F5F5F5F5F5F5F5F5F5F5F5F5F5F5F5F5F5F5F5F5F5F5F5F5F5F5F5F5F5F5F5F5F5F5F5F5F5F5F5F5F5F5F5
310
F5F5F5F5F5F5F5F5F5F5F5F5F5F5F5F5F5F5F5F5F5F5F5F5F5F5F5F5F5F5F5F5F5F5F5F5F5F5F5F5F5F5F5F5F5F5F5F5F5F5F5F5F5F5F5F5F5F5F5F5F5F5F5E2F5F5F5F5F5F5F5F5F5F5F5F5F5F5F5F5F5E2F5E2E2E2F5E2F5F5F5F5F5F5F5F5F5F5F5F5F5F5F5F5F5E2F5F5F5F5F5F5F5F5F5F5F5F5F5F5F5F5F5F5F5F5F5
310
F5F5F5F5F5F5F5F5F5F5F5F5F5F5F5F5F5F5F5F5F5F5F5F5F5F5F5F5F5F5F5F5F5F5F5F5F5F5F5F5F5F5F5F5F5F5F5F5F5F5F5F5F5F5F5F5F5F5F5F5F5F5F5F5F5F5F5F5F5F5F5F5F5F5F5F5F5F5F5F5F5F5F5F5F5F5F5F5F5F5F5F5F5F5F5F5F5F5F5F5F5F5F5F5F5F5F5F5F5F5F5F5F5F5F5F5E2F5F5F5F5F5F5F5F5F5F5
310
F5F5F5F5F5F5F5E2F5E2E2E2F5E2F5F5F5F5F5F5F5F5F5F5F5F5F5F5F5F5F5E2F5F5F5F5F5F5F5F5F5F5F5F5F5F5F5F5F5F5F5F5F5F5F5F5F5F5F5F5F5F5F5F5F5F5F5F5F5F5F5F5F5F5F5F5F5F5F5F5F5F5F5F5F5F5F5F5F5F5F5F5F5F5F5F5F5F5F5F5F5F5F5F5F5F5F5F5F5F5F5F5F5F5F5F5F5F5F5F5F5F5F5F5F5F5F5
310
F5F5F5F5F5F5F5F5F5F5F5F5F5F5F5F5F5F5F5F5F5F5F5F5F5F5F5F5F5F5F5F5F5F5F5F5F5F5F5F5F5F5E2F5F5F5F5F5F5F5F5F5F5F5F5F5F5F5F5F5E2F5E2E2E2F5F5F5F5F5F5F5F5F5F5F5F5F5F5F5F5F5F5F5E2F5F5E2E2E2E2E2E2E2E2E2E2E2E2E2E2E2E2E2E2E2E2E2E2E2E2E2E2E2E2E2E2E2E2E2E2E2E2E2E2E2E2
310
E2E2E2E2E2E2E2E2E2E2E2E2E2E2E2E2E2E2E2E2E2E2E2E2E2E2E2E2E2E2E2E2E2E2E2E2E2E2E2E2E2F5F5F5F5F5F5F5F5F5F5F5F5F5F5F5F5F5F5F5F5F5F5F5F5F5F5F5F5F5F5F5F5F5F5F5F5F5F5F5F5F5F5F5F5F5F5F5F5F5F5F5F5F5F5E2F5F5F5F5F5F5F5F5F5F5F5F5F5F5F5F5F5F5F5E2E2E2F5F5F5F5F5F5F5F5F5
310
F5F5F5F5F5F5F5F5F5F5E2F5F5E2F5F5F5F5F5F5F5F5F5F5F5F5F5F5F5F5F5F5F5F5F5F5F5F5F5F5F5F5F5F5F5F5F5F5F5F5F5F5F5F5F5F5F5F5F5F5F5F5F5F5F5F5F5F5F5F5F5F5F5F5F5F5F5F5F5F5F5F5F5F5F5F5F5F5F5F5F5F5F5E2F5F5F5F5F5F5F5F5F5F5F5F5F5F5F5F5F5F5F5F5F5F5F5F5F5F5F5F5F5F5F5F5F5
310
F5F5F5F5F5F5F5F5F5F5F5F5F5F5F5F5F5F5F5F5F5E2F5F5F5F5F5F5F5F5F5F5F5F5F5F5F5F5F5F5F5E2E2E2F5F5F5F5F5F5F5F5F5F5F5F5F5F5F5F5F5F5F5E2F5F5E2F5F5E2E2E2E2E2E2E2E2E2E2E2E2E2E2E2E2E2E2E2E2E2E2E2E2E2E2E2E2E2E2E2E2E2E2E2E2E2E2E2E2E2E2E2E2E2E2E2E2E2E2E2E2E2E2E2E2E2E2
310
E2E2E2E2E2E2E2E2E2E2E2E2E2E2E2E2E2F5F5E2F5F5F5F5F5F5F5F5F5F5F5F5F5F5F5F5F5F5F5F5F5F5F5F5F5F5F5F5F5F5F5F5F5F5F5F5F5F5F5F5F5F5F5F5F5F5F5F5F5F5F5F5F5F5E2F5F5F5F5F5F5F5F5F5F5F5F5F5F5F5F5F5F5F5E2E2E2F5F5F5F5F5F5F5F5F5F5F5F5F5F5F5F5F5F5F5E2F5F5E2F5E2E2E2E2E2E2
310
E2E2E2E2E2E2E2E2E2E2E2E2E2E2E2E2E2E2E2E2E2E2E2E2E2E2E2E2E2E2E2E2E2E2E2E2E2E2E2E2E2E2E2E2E2E2E2E2E2E2E2E2E2E2E2E2E2E2E2E2E2E2E2E2E2E2E2E2E2E2E2F5E2F5F5F5F5F5F5F5F5F5F5F5F5F5F5F5F5F5F5F5F5F5F5F5F5F5F5F5F5F5F5F5F5F5F5F5F5F5F5F5F5F5F5F5F5F5F5F5F5F5F5F5F5F5F5
310
E2F5F5F5F5F5F5F5F5F5F5F5F5F5F5F5F5F5F5F5E2E2E2F5F5F5F5F5F5F5F5F5F5F5F5F5F5F5F5F5F5F5E2F5F5E2F5E2E2F5E2E2E2E2E2E2E2E2E2E2E2E2E2E2E2E2E2E2E2E2E2E2E2E2E2E2E2E2F5F5F5F5F5F5F5F5F5F5F5F5F5F5F5E2E2E2E2E2E2E2E2E2E2E2E2E2E2E2E2E2E2E2E2E2E2E2E2E2E2E2E2F5E2E2F5E2F5
310
F5F5F5F5F5F5F5F5F5F5F5F5F5F5F5F5F5F5F5F5F5F5F5F5F5F5F5F5F5F5F5F5F5F5F5F5F5F5F5F5F5F5F5F5F5F5F5F5F5F5F5F5F5E2F5F5F5F5F5F5F5F5F5F5F5F5F5F5F5F5F5F5F5E2E2E2F5F5F5F5F5F5F5F5F5F5F5F5F5F5F5F5F5F5F5E2F5F5E2F5E2E2E2E2E2E2E2E2E2E2E2E2E2E2E2E2E2E2E2E2E2E2E2E2E2E2E2
310
E2E2E2E2E2E2E2E2E2E2E2E2E2E2E2E2E2E2E2E2E2E2E2E2E2E2E2E2E2E2E2E2E2E2E2E2E2E2E2E2E2E2E2E2E2E2E2E2E2E2F5E2F5F5F5F5F5F5F5F5F5F5F5F5F5F5F5F5F5F5F5F5F5F5F5F5F5F5F5F5F5F5F5F5F5F5F5F5F5F5F5F5F5F5F5F5F5F5F5F5F5F5F5F5F5F5E2F5F5F5F5F5F5F5F5F5F5F5F5F5F5F5F5F5F5F5E2
310
E2E2F5F5F5F5F5F5F5F5F5F5F5F5F5F5F5F5F5F5F5E2F5F5E2F5E2E2E2E2E2E2E2E2E2E2E2E2E2E2E2E2E2E2E2E2E2E2E2E2E2E2E2E2E2E2F5F5F5F5F5F5F5F5F5F5F5F5F5F5F5F5F5E2E2E2E2E2E2E2E2E2E2E2E2E2E2E2E2E2E2E2E2E2E2E2E2E2E2E2E2E2E2F5E2F5F5F5F5F5F5F5F5F5F5F5F5F5F5F5F5F5F5F5F5F5F5
310
F5F5F5F5F5F5F5F5F5F5F5F5F5F5F5F5F5F5F5F5F5F5F5F5F5F5F5F5F5F5F5F5E2F5F5F5F5F5F5F5F5F5F5F5F5F5F5F5F5F5F5F5E2E2E2F5F5F5F5F5F5F5F5F5F5F5F5F5F5F5F5F5F5F5E2F5F5E2F5E2E2E2E2E2E2E2E2E2E2E2E2E2E2E2E2E2E2E2E2E2E2E2E2E2E2E2E2E2E2E2E2E2E2E2E2E2E2E2E2E2E2E2E2E2E2E2E2
310
E2E2E2E2E2E2E2E2E2E2E2E2E2E2E2E2E2E2E2E2E2E2E2E2E2E2E2E2E2F5E2F5F5F5F5F5F5F5F5F5F5F5F5F5F5F5F5F5F5F5F5F5F5F5F5F5F5F5F5F5F5F5F5F5F5F5F5F5F5F5F5F5F5F5F5F5F5F5F5F5F5F5F5F5F5E2F5F5F5F5F5F5F5F5F5F5F5F5F5F5F5F5F5F5F5E2E2E2F5F5F5F5F5F5F5F5F5F5F5F5F5F5F5F5F5F5F5
310
E2F5F5E2F5E2E2E2E2E2E2F5F5F5F5F5F5F5E2E2E2E2E2E2E2E2E2E2E2E2E2E2E2E2E2E2E2E2E2E2E2E2E2E2E2E2E2E2E2E2E2E2E2E2E2E2E2E2E2E2E2E2E2E2E2E2E2E2E2F5F5F5F5F5F5F5E2E2E2E2E2E2F5E2F5F5F5F5F5F5F5F5F5F5F5F5F5F5F5F5F5F5F5F5F5F5F5F5F5F5F5F5F5F5F5F5F5F5F5F5F5F5F5F5F5F5F5
310
F5F5F5F5F5F5F5F5F5F5F5E2F5F5F5F5F5F5F5F5F5F5F5F5F5F5F5F5F5F5F5E2E2E2F5E2F5F5F5F5F5F5F5F5F5F5F5F5F5F5F5F5F5E2F5F5E2F5E2E2E2E2E2E2F5F5F5F5F5F5E2E2F5F5F5F5F5F5F5F5F5F5F5F5F5F5F5F5F5F5F5F5F5F5F5F5F5F5F5F5F5F5F5F5F5F5F5F5F5F5F5F5F5F5F5F5F5F5F5F5F5E2E2F5F5F5F5
310
F5F5E2E2E2E2E2E2F5E2F5F5F5F5F5F5F5F5F5F5F5F5F5F5F5F5F5F5F5F5F5F5F5F5F5F5F5F5F5F5F5F5F5F5F5F5F5F5F5F5F5F5F5F5F5F5F5F5F5F5F5F5F5F5E2F5F5F5F5F5F5F5F5F5F5F5F5F5F5F5F5F5E2F5E2E2E2F5E2F5F5F5F5F5F5F5F5F5F5F5F5F5F5F5F5F5E2F5F5E2F5E2E2E2E2E2E2F5F5F5F5F5E2F5E2E2E2
310
E2E2E2E2E2E2E2E2E2E2E2E2E2E2E2E2E2E2E2E2E2E2E2E2E2E2E2E2E2E2E2E2E2E2E2E2E2E2E2E2E2E2E2E2E2E2E2E2E2E2F5F5F5F5F5E2E2E2E2E2E2F5E2F5F5F5F5F5F5F5F5F5F5F5F5F5F5F5F5F5F5F5F5F5F5F5F5F5F5F5F5F5F5F5F5F5F5F5F5F5F5F5F5F5F5F5F5F5F5F5F5F5F5F5F5F5F5E2F5F5F5F5F5F5F5F5F5
310
F5F5F5F5F5F5F5F5E2F5E2E2E2F5E2F5F5F5F5F5F5F5F5F5F5F5F5F5F5F5F5F5E2F5F5E2F5E2E2E2E2E2E2F5F5F5F5F5E2F5E2F5F5F5F5F5F5F5F5F5E2F5E2F5F5F5F5F5F5F5F5F5F5F5F5F5F5F5F5F5F5F5F5F5F5F5F5F5F5F5F5F5F5F5F5F5F5F5F5F5E2F5E2F5F5F5F5F5E2E2E2E2E2E2F5E2F5F5F5F5F5F5F5F5F5F5F5
310
F5F5F5F5F5F5F5F5F5F5F5F5F5F5F5F5F5F5F5F5F5F5F5F5F5F5F5F5F5F5F5F5F5F5F5F5F5F5F5F5F5F5F5E2F5F5F5F5F5F5F5F5F5F5F5F5F5F5F5F5F5E2F5E2E2E2F5E2F5F5F5F5F5F5F5F5F5F5F5F5F5F5F5F5F5E2F5F5E2F5E2E2E2E2E2E2F5F5F5F5F5E2F5E2F5F5F5F5F5F5F5F5F5E2E2E2F5F5F5F5F5F5F5F5F5F5F5
310
F5F5F5F5F5F5F5F5F5F5F5F5F5F5F5F5F5F5F5F5F5F5F5F5F5F5E2F5E2F5F5F5F5F5E2E2E2E2E2E2F5E2F5F5F5F5F5F5F5F5F5F5F5F5F5F5F5F5F5F5F5F5F5F5F5F5F5F5F5F5F5F5F5F5F5F5F5F5F5F5F5F5F5F5F5F5F5F5F5F5F5F5F5F5F5F5E2F5F5F5F5F5F5F5F5F5F5F5F5F5F5F5F5F5E2F5E2E2E2F5E2F5F5F5F5F5F5
310
F5F5F5F5F5F5F5F5F5F5F5E2F5F5E2F5E2E2E2E2E2E2F5F5F5F5F5E2F5E2F5F5F5F5F5F5F5F5F5F5E2F5F5F5F5F5F5F5F5F5F5F5F5F5F5F5F5F5F5F5F5F5F5F5F5F5F5F5F5F5F5F5F5F5F5F5F5F5F5E2F5E2F5F5F5F5F5E2E2E2E2E2E2F5E2F5F5F5F5F5F5F5F5F5F5F5F5F5F5F5F5F5F5F5F5F5F5F5F5F5F5F5F5F5F5F5F5
310
F5F5F5F5F5F5F5F5F5F5F5F5F5F5F5F5F5F5F5F5F5F5E2F5F5F5F5F5F5F5F5F5F5F5F5F5F5F5F5F5E2F5E2E2E2F5E2F5F5F5F5F5F5F5F5F5F5F5F5F5F5F5F5F5E2F5F5E2F5E2E2E2E2E2E2F5F5F5F5F5E2F5E2F5F5F5F5F5F5F5F5F5F5F5F5F5F5F5F5F5F5F5F5F5F5F5F5F5F5F5F5F5F5F5F5F5F5F5F5F5F5F5F5F5F5F5F5
310
F5F5F5F5F5E2F5E2F5F5F5F5F5E2E2E2E2E2E2F5E2F5F5F5F5F5F5F5F5F5F5F5F5F5F5F5F5F5F5F5F5F5F5F5F5F5F5F5F5F5F5F5F5F5F5F5F5F5F5F5F5F5F5F5F5F5F5F5F5F5F5F5F5F5F5E2F5F5F5F5F5F5F5F5F5F5F5F5F5F5F5F5F5E2F5E2E2E2F5E2F5F5F5F5F5F5F5F5F5F5F5F5F5F5F5F5F5E2F5F5E2F5E2E2E2E2E2
310
E2F5F5F5F5F5E2F5E2F5F5F5F5F5F5F5F5F5F5F5F5F5F5F5F5F5F5F5F5F5F5F5F5F5F5F5F5F5F5F5F5F5F5F5F5F5F5F5F5F5F5F5F5F5F5F5F5F5E2F5E2F5F5F5F5F5E2E2E2E2E2E2F5E2F5F5F5F5F5F5F5F5F5F5F5F5F5F5F5F5F5F5F5F5F5F5F5F5F5F5F5F5F5F5F5F5F5F5F5F5F5F5F5F5F5F5F5F5F5F5F5F5F5F5F5F5F5
310
F5E2F5F5F5F5F5F5F5F5F5F5F5F5F5F5F5F5F5E2F5E2E2E2F5E2F5F5F5F5F5F5F5F5F5F5F5F5F5F5F5F5F5E2F5F5E2F5E2E2E2E2E2E2F5F5F5F5F5E2F5E2F5F5F5F5F5F5F5F5F5F5F5F5F5F5F5F5F5F5F5F5F5F5F5F5F5F5F5F5F5F5F5F5F5F5F5F5F5F5F5F5F5F5F5F5F5F5F5F5F5E2F5E2F5F5F5F5F5E2E2E2E2E2E2F5E2
310
F5F5F5F5F5F5F5F5F5F5F5F5F5F5F5F5F5F5F5F5F5F5F5F5F5F5F5F5F5F5F5F5F5F5F5F5F5F5F5F5F5F5F5F5F5F5F5F5F5F5F5F5F5F5E2F5F5F5F5F5F5F5F5F5F5F5F5F5F5F5F5F5E2F5E2E2E2F5E2F5F5F5F5F5F5F5F5F5F5F5F5F5F5F5F5F5E2F5F5E2F5E2E2E2E2E2E2F5F5F5F5F5E2F5E2F5F5F5F5F5F5F5F5F5F5F5F5
310
F5F5F5F5F5F5F5F5F5F5F5F5F5F5F5F5F5F5F5F5F5F5F5F5F5F5F5F5F5F5F5F5F5F5F5F5F5E2F5E2F5F5F5F5F5E2E2E2E2E2E2F5E2F5F5F5F5F5F5F5F5F5F5F5F5F5F5F5F5F5F5F5F5F5F5F5F5F5F5F5F5F5F5F5F5F5F5F5F5F5F5F5F5F5F5F5F5F5F5F5F5F5F5F5F5F5F5E2F5F5F5F5F5F5F5F5F5F5F5F5F5F5F5F5F5E2F5
310
E2E2E2F5E2F5F5F5F5F5F5F5F5F5F5F5F5F5F5F5F5F5E2F5F5E2F5E2E2E2E2E2E2F5F5F5F5F5E2F5E2F5F5F5F5F5F5F5F5F5F5F5F5F5F5F5F5F5F5F5F5F5F5F5F5F5F5F5F5F5F5F5F5F5F5F5F5F5F5F5F5F5F5F5F5F5F5F5F5F5E2F5E2F5F5F5F5F5E2E2E2E2E2E2F5E2F5F5F5F5F5F5F5F5F5F5F5F5F5F5F5F5F5F5F5F5F5
310
F5F5F5F5F5F5F5F5F5F5F5F5F5F5F5F5F5F5F5F5F5F5F5F5F5F5F5F5F5F5F5F5F5E2F5F5F5F5F5F5F5F5F5F5F5F5F5F5F5F5F5E2F5E2E2E2F5E2F5F5F5F5F5F5F5F5F5F5F5F5F5F5F5F5F5E2F5F5E2F5E2E2E2E2E2E2F5F5F5F5F5E2F5E2F5F5F5F5F5F5F5F5F5F5F5F5F5F5F5F5F5F5F5F5F5F5F5F5F5F5F5F5F5F5F5F5F5
310
F5F5F5F5F5F5F5F5F5F5F5F5F5F5F5F5E2F5E2F5F5F5F5F5E2E2E2E2E2E2F5E2F5F5F5F5F5F5F5F5F5F5F5F5F5F5F5F5F5F5F5F5F5F5F5F5F5F5F5F5F5F5F5F5F5F5F5F5F5F5F5F5F5F5F5F5F5F5F5F5F5F5F5F5F5F5E2F5F5F5F5F5F5F5F5F5F5F5F5F5F5F5F5F5E2F5E2E2E2F5E2F5F5F5F5F5F5F5F5F5F5F5F5F5F5F5F5
310
F5E2F5F5E2F5E2E2E2E2E2E2F5F5F5F5F5E2F5E2F5F5F5F5F5F5F5F5F5F5F5F5F5F5F5F5F5F5F5F5F5F5F5F5F5F5F5F5F5F5F5F5F5F5F5F5F5F5F5F5F5F5F5F5F5F5F5F5F5E2F5E2F5F5F5F5F5E2E2E2E2E2E2F5E2F5F5F5F5F5F5F5F5F5F5F5F5F5F5F5F5F5F5F5F5F5F5F5F5F5F5F5F5F5F5F5F5F5F5F5F5F5F5F5F5F5F5
310
F5F5F5F5F5F5F5F5F5F5F5F5E2F5F5F5F5F5F5F5F5F5F5F5F5F5F5F5F5F5E2F5E2E2E2F5E2F5F5F5F5F5F5F5F5F5F5F5F5F5F5F5F5F5E2F5F5E2F5E2E2E2E2E2E2F5F5F5F5F5E2F5E2F5F5F5F5F5F5F5F5F5F5F5F5F5F5F5F5F5F5F5F5F5F5F5F5F5F5F5F5F5F5F5F5F5F5F5F5F5F5F5F5F5F5F5F5F5F5F5F5F5E2F5E2F5F5
310
F5F5F5E2E2E2E2E2E2F5E2F5F5F5F5F5F5F5F5F5F5F5F5F5F5F5F5F5F5F5F5F5F5F5F5F5F5F5F5F5F5F5F5F5F5F5F5F5F5F5F5F5F5F5F5F5F5F5F5F5F5F5F5F5F5E2F5F5F5F5F5F5F5F5F5F5F5F5F5F5F5F5F5E2F5E2E2E2F5E2F5F5F5F5F5F5F5F5F5F5F5F5F5F5F5F5F5E2F5F5E2F5E2E2E2E2E2E2F5F5F5F5F5E2F5E2F5
310
F5F5F5F5F5F5F5F5F5F5F5F5F5F5F5F5F5F5F5F5F5F5F5F5F5F5F5F5F5F5F5F5F5F5F5F5F5F5F5F5F5F5F5F5F5F5F5F5E2F5E2F5F5F5F5F5E2E2E2E2E2E2F5E2F5F5F5F5F5F5F5F5F5F5F5F5F5F5F5F5F5F5F5F5F5F5F5F5F5F5F5F5F5F5F5F5F5F5F5F5F5F5F5F5F5F5F5F5F5F5F5F5F5F5F5F5F5F5E2F5F5F5F5F5F5F5F5
310
F5F5F5F5F5F5F5F5F5E2F5E2E2E2F5E2F5F5F5F5F5F5F5F5F5F5F5F5F5F5F5F5F5E2F5F5E2F5E2E2E2E2E2E2F5F5F5F5F5E2F5E2F5F5F5F5F5F5F5F5F5F5F5F5F5F5F5F5F5F5F5F5F5F5F5F5F5F5F5F5F5F5F5F5F5F5F5F5F5F5F5F5F5F5F5F5F5F5F5F5F5E2F5E2F5F5F5F5F5E2E2E2E2E2E2F5E2F5F5F5F5F5F5F5F5F5F5
310
F5F5F5F5F5F5F5F5F5F5F5F5F5F5F5F5F5F5F5F5F5F5F5F5F5F5F5F5F5F5F5F5F5F5F5F5F5F5F5F5F5F5F5F5E2F5F5F5F5F5F5F5F5F5F5F5F5F5F5F5F5F5E2F5E2E2E2F5E2F5F5F5F5F5F5F5F5F5F5F5F5F5F5F5F5F5E2F5F5E2F5E2E2E2E2E2E2F5F5F5F5F5E2F5E2F5F5F5F5F5F5F5F5F5F5F5F5F5F5F5F5F5F5F5F5F5F5
310
F5F5F5F5F5F5F5F5F5F5F5F5F5F5F5F5F5F5F5F5F5F5F5F5F5F5F5E2F5E2F5F5F5F5F5E2E2E2E2E2E2F5E2F5F5F5F5F5F5F5F5F5F5F5F5F5F5F5F5F5F5F5F5F5F5F5F5F5F5F5F5F5F5F5F5F5F5F5F5F5F5F5F5F5F5F5F5F5F5F5F5F5F5F5F5F5F5E2F5F5F5F5F5F5F5F5F5F5F5F5F5F5F5F5F5E2F5E2E2E2F5E2F5F5F5F5F5
310
F5F5F5F5F5F5F5F5F5F5F5F5E2F5F5E2F5E2E2E2E2E2E2F5F5F5F5F5E2F5E2F5F5F5F5F5F5F5F5F5F5F5F5F5F5F5F5F5F5F5F5F5F5F5F5F5F5F5F5F5F5F5F5F5F5F5F5F5F5F5F5F5F5F5F5F5F5F5F5F5E2F5E2F5F5F5F5F5E2E2E2E2E2E2F5E2F5F5F5F5F5F5F5F5F5F5F5F5F5F5F5F5F5F5F5F5F5F5F5F5F5F5F5F5F5F5F5
310
F5F5F5F5F5F5F5F5F5F5F5F5F5F5F5F5F5F5F5F5F5F5F5E2F5F5F5F5F5F5F5F5F5F5F5F5F5F5F5F5F5E2F5E2E2E2F5F5F5F5F5F5F5F5F5F5F5F5F5F5F5F5F5F5F5E2F5F5E2F5E2E2E2E2E2E2F5F5F5F5F5E2F5E2F5F5F5F5F5F5F5F5F5F5F5F5F5F5F5F5F5F5F5F5F5F5F5F5F5F5F5F5F5F5F5F5F5F5F5F5F5F5F5F5F5F5F5
310
F5F5F5F5F5F5E2F5E2F5F5F5F5F5E2E2E2E2E2E2F5E2F5F5F5F5F5F5F5F5F5F5F5F5F5F5F5F5F5F5F5F5F5F5F5F5F5F5F5F5F5F5F5F5F5F5F5F5F5F5F5F5F5F5F5F5F5F5F5F5F5F5F5F5F5F5E2F5F5F5F5F5F5F5F5F5F5F5F5F5F5F5F5F5F5F5E2E2E2F5F5F5F5F5F5F5F5F5F5F5F5F5F5F5F5F5F5F5E2F5F5E2F5E2E2E2E2
310
E2E2F5F5F5F5F5E2F5E2F5F5F5F5F5F5F5F5F5F5F5F5F5F5F5F5F5F5F5F5F5F5F5F5F5F5F5F5F5F5F5F5F5F5F5F5F5F5F5F5F5F5F5F5F5F5F5F5F5E2F5E2F5F5F5F5F5E2E2E2E2E2E2F5E2F5F5F5F5F5F5F5F5F5F5F5F5F5F5F5F5F5F5F5F5F5F5F5F5F5F5F5F5F5F5F5F5F5F5F5F5F5F5F5F5F5F5F5F5F5F5F5F5F5F5F5F5
310
F5F5E2F5F5F5F5F5F5F5F5F5F5F5F5F5F5F5F5F5F5F5E2E2E2F5F5F5F5F5F5F5F5F5F5F5F5F5F5F5F5F5F5F5E2F5F5E2F5E2E2E2E2E2E2F5F5F5F5F5E2F5E2F5F5F5F5F5F5F5F5F5F5F5F5F5F5F5F5F5F5F5F5F5F5F5F5F5F5F5F5F5F5F5F5F5F5F5F5F5F5F5F5F5F5F5F5F5F5F5F5F5E2F5E2F5F5F5F5F5E2E2E2E2E2E2F5
310
E2F5F5F5F5F5F5F5F5F5F5F5F5F5F5F5F5F5F5F5F5F5F5F5F5F5F5F5F5F5F5F5F5F5F5F5F5F5F5F5F5F5F5F5F5F5F5F5F5F5F5F5F5F5F5E2F5F5F5F5F5F5F5F5F5F5F5F5F5F5F5F5F5F5F5E2E2E2F5F5F5F5F5F5F5F5F5F5F5F5F5F5F5F5F5F5F5E2F5F5E2F5E2E2E2E2E2E2F5F5F5F5F5E2F5E2F5F5F5F5F5F5F5F5F5F5F5
310
F5F5F5F5F5F5F5F5F5F5F5F5F5F5F5F5F5F5F5F5F5F5F5F5F5F5F5F5F5F5F5F5F5F5F5F5F5F5E2F5E2F5F5F5F5F5E2E2E2E2E2E2F5E2F5F5F5F5F5F5F5F5F5F5F5F5F5F5F5F5F5F5F5F5F5F5F5F5F5F5F5F5F5F5F5F5F5F5F5F5F5F5F5F5F5F5F5F5F5F5F5F5F5F5F5F5F5F5E2F5F5F5F5F5F5F5F5F5F5F5F5F5F5F5F5F5F5
310
F5E2E2E2F5F5F5F5F5F5F5F5F5F5F5F5F5F5F5F5F5F5F5E2F5F5E2F5E2E2E2E2E2E2F5F5F5F5F5E2F5E2F5F5F5F5F5F5F5F5F5F5F5F5F5F5F5F5F5F5F5F5F5F5F5F5F5F5F5F5F5F5F5F5F5F5F5F5F5F5F5F5F5F5F5F5F5F5F5F5F5E2F5E2F5F5F5F5F5E2E2E2E2E2E2F5E2F5F5F5F5F5F5F5F5F5F5F5F5F5F5F5F5F5F5F5F5
310
F5F5F5F5F5F5F5F5F5F5F5F5F5F5F5F5F5F5F5F5F5F5F5F5F5F5F5F5F5F5F5F5F5F5E2F5F5F5F5F5F5F5F5F5F5F5F5F5F5F5F5F5F5F5E2E2E2F5F5F5F5F5F5F5F5F5F5F5F5F5F5F5F5F5F5F5E2F5F5E2F5E2E2E2E2E2E2F5F5F5F5F5E2F5E2F5F5F5F5F5F5F5F5F5F5F5F5F5F5F5F5F5F5F5F5F5F5F5F5F5F5F5F5F5F5F5F5
310
F5F5F5F5F5F5F5F5F5F5F5F5F5F5F5F5F5E2F5E2F5F5F5F5F5E2E2E2E2E2E2F5E2F5F5F5F5F5F5F5F5F5F5F5F5F5F5F5F5F5F5F5F5F5F5F5F5F5F5F5F5F5F5F5F5F5F5F5F5F5F5F5F5F5F5F5F5F5F5F5F5F5F5F5F5F5F5E2F5F5F5F5F5F5F5F5F5F5F5F5F5F5F5F5F5F5F5E2E2E2F5F5F5F5F5F5F5F5F5F5F5F5F5F5F5F5F5
310
F5F5E2F5F5E2F5E2E2E2E2E2E2F5F5F5F5F5E2F5E2F5F5F5F5F5F5F5F5F5F5F5F5F5F5F5F5F5F5F5F5F5F5F5F5F5F5F5F5F5F5F5F5F5F5F5F5F5F5F5F5F5F5F5F5F5F5F5F5F5E2F5E2F5F5F5F5F5E2E2E2E2E2E2F5E2F5F5F5F5F5F5F5F5F5F5F5F5F5F5F5F5F5F5F5F5F5F5F5F5F5F5F5F5F5F5F5F5F5F5F5F5F5F5F5F5F5
310
F5F5F5F5F5F5F5F5F5F5F5F5F5E2F5F5F5F5F5F5F5F5F5F5F5F5F5F5F5F5F5F5F5E2E2E2F5F5F5F5F5F5F5F5F5F5F5F5F5F5F5F5F5F5F5E2F5F5E2F5E2E2E2E2E2E2F5F5F5F5F5E2F5E2F5F5F5F5F5F5F5F5F5F5F5F5F5F5F5F5F5F5F5F5F5F5F5F5F5F5F5F5F5F5F5F5F5F5F5F5F5F5F5F5F5F5F5F5F5F5F5F5F5E2F5E2F5
310
F5F5F5F5E2E2E2E2E2E2F5E2F5F5F5F5F5F5F5F5F5F5F5F5F5F5F5F5F5F5F5F5F5F5F5F5F5F5F5F5F5F5F5F5F5F5F5F5F5F5F5F5F5F5F5F5F5F5F5F5F5F5F5F5F5F5E2F5F5F5F5F5F5F5F5F5F5F5F5F5F5F5F5F5F5F5E2E2E2F5F5F5F5F5F5F5F5F5F5F5F5F5F5F5F5F5F5F5E2F5F5E2F5E2E2E2E2E2E2F5F5F5F5F5E2F5E2
310
F5F5F5F5F5F5F5F5F5F5F5F5F5F5F5F5F5F5F5F5F5F5F5F5F5F5F5F5F5F5F5F5F5F5F5F5F5F5F5F5F5F5F5F5F5F5F5F5F5E2F5E2F5F5F5F5F5E2E2E2E2E2E2F5E2F5F5F5F5F5F5F5F5F5F5F5F5F5F5F5F5F5F5F5F5F5F5F5F5F5F5F5F5F5F5F5F5F5F5F5F5F5F5F5F5F5F5F5F5F5F5F5F5F5F5F5F5F5F5E2F5F5F5F5F5F5F5
310
F5F5F5F5F5F5F5F5F5F5F5F5E2E2E2F5F5F5F5F5F5F5F5F5F5F5F5F5F5F5F5F5F5F5E2F5F5E2F5E2E2E2E2E2E2F5F5F5F5F5E2F5E2F5F5F5F5F5F5F5F5F5F5F5F5F5F5F5F5F5F5F5F5F5F5F5F5F5F5F5F5F5F5F5F5F5F5F5F5F5F5F5F5F5F5F5F5F5F5F5F5F5E2F5E2F5F5F5F5F5E2E2E2E2E2E2F5E2F5F5F5F5F5F5F5F5F5
310
F5F5F5F5F5F5F5F5F5F5F5F5F5F5F5F5F5F5F5F5F5F5F5F5F5F5F5F5F5F5F5F5F5F5F5F5F5F5F5F5F5F5F5F5F5E2F5F5F5F5F5F5F5F5F5F5F5F5F5F5F5F5F5F5F5E2E2E2F5E2F5F5F5F5F5F5F5F5F5F5F5F5F5F5F5F5F5E2F5F5E2F5E2E2E2E2E2E2F5F5F5F5F5E2F5E2E2F5F5F5F5F5F5F5F5F5F5F5F5F5F5F5F5F5F5F5F5
310
F5F5F5F5F5F5F5F5F5F5F5F5F5F5F5F5F5F5F5F5F5F5F5F5F5F5F5E2E2F5E2F5F5F5F5F5E2E2E2E2E2E2F5E2F5F5F5F5F5F5F5F5F5F5F5F5F5F5F5F5F5F5F5F5F5F5F5F5F5F5F5F5F5F5F5F5F5F5F5F5F5F5F5F5F5F5F5F5F5F5F5F5F5F5F5F5F5F5E2F5F5F5F5F5F5F5F5F5F5F5F5F5F5F5F5F5E2F5E2E2E2F5E2F5F5F5F5
310
F5F5F5F5F5F5F5F5F5F5F5F5F5E2F5F5E2F5E2E2E2E2E2E2F5F5F5F5F5E2E2F5E2E2E2E2E2E2E2E2E2E2E2E2E2E2E2E2E2E2E2E2E2E2E2E2E2E2E2E2E2E2E2E2E2E2E2E2E2E2E2E2E2E2E2E2E2E2E2E2E2F5E2F5F5F5F5F5F5E2E2E2E2E2E2F5E2F5F5F5F5F5F5F5F5F5F5F5F5F5F5F5F5F5F5F5F5F5F5F5F5F5F5F5F5F5F5
310
F5F5F5F5F5F5F5F5F5F5F5F5F5F5F5F5F5F5F5F5F5F5F5F5E2F5F5F5F5F5F5F5F5F5F5F5F5F5F5F5F5F5E2F5E2E2E2F5E2F5F5F5F5F5F5F5F5F5F5F5F5F5F5F5F5F5E2F5F5E2F5E2E2E2E2E2E2F5F5F5F5F5F5E2E2E2E2E2E2E2E2E2E2E2E2E2E2E2E2E2E2E2E2E2E2E2E2E2E2E2E2E2E2E2E2E2E2E2E2E2E2E2E2E2E2E2E2
310
E2E2E2E2E2E2E2E2E2F5F5F5F5F5F5E2E2E2E2E2E2F5E2F5F5F5F5F5F5F5F5F5F5F5F5F5F5F5F5F5F5F5F5F5F5F5F5F5F5F5F5F5F5F5F5F5F5F5F5F5F5F5F5F5F5F5F5F5F5F5F5F5F5F5F5F5F5E2F5F5F5F5F5F5F5F5F5F5F5F5F5F5F5F5F5E2F5E2E2E2F5E2F5F5F5F5F5F5F5F5F5F5F5F5F5F5F5F5F5E2F5F5E2F5E2E2E2
310
E2E2E2F5F5F5F5F5F5F5F5F5F5F5F5F5F5F5F5F5F5F5F5F5F5F5E2E2E2E2E2E2E2E2E2E2E2E2E2E2E2E2E2E2E2F5F5F5F5F5F5F5F5F5F5F5F5F5F5F5F5F5F5F5F5F5F5F5E2E2E2E2E2E2F5E2F5F5F5F5F5F5F5F5F5F5F5F5F5F5F5F5F5F5F5F5F5F5F5F5F5F5F5F5F5F5F5F5F5F5F5F5F5F5F5F5F5F5F5F5F5F5F5F5F5F5F5
310
F5F5F5E2F5F5F5F5F5F5F5F5F5F5F5F5F5F5F5F5F5E2F5E2E2E2F5E2F5F5F5F5F5F5F5F5F5F5F5F5F5F5F5F5F5E2F5F5E2F5E2E2E2E2F5E2E2E2E2E2E2E2E2E2E2E2E2E2E2E2E2E2E2E2E2E2E2E2E2E2E2E2E2E2E2E2E2E2E2E2E2E2E2E2E2E2E2E2E2E2E2E2E2E2E2E2E2E2E2E2E2E2E2E2E2E2E2E2E2E2E2E2E2E2E2E2E2
310
F5E2F5F5F5F5F5F5F5F5F5F5F5F5F5F5F5F5F5F5F5F5F5F5F5F5F5F5F5F5F5F5F5F5F5F5F5F5F5F5F5F5F5F5F5F5F5F5F5F5F5F5F5F5F5F5E2F5F5F5F5F5F5F5F5F5F5F5F5F5F5F5F5F5E2F5E2E2E2F5E2F5F5F5F5F5F5F5F5F5F5F5F5F5F5F5F5F5E2F5F5E2F5E2E2E2E2E2E2E2E2E2E2E2E2E2E2E2E2E2E2E2E2E2E2E2E2
310
E2E2E2E2E2E2E2E2E2E2E2E2E2E2E2E2E2E2E2E2E2E2E2E2E2E2E2E2E2E2E2E2E2E2E2E2E2E2E2E2E2E2E2E2E2E2E2E2E2E2E2E2E2F5E2F5F5F5F5F5F5F5F5F5F5F5F5F5F5F5F5F5F5F5F5F5F5F5F5F5F5F5F5F5F5F5F5F5F5F5F5F5F5F5F5F5F5F5F5F5F5F5F5F5F5F5F5F5F5E2F5F5F5F5F5F5F5F5F5F5F5F5F5F5F5F5F5
310
E2F5E2E2E2F5E2F5F5F5F5F5F5F5F5F5F5F5F5F5F5F5F5F5E2F5F5E2F5E2E2E2E2E2E2E2E2E2E2E2E2E2E2E2E2E2E2E2E2E2E2E2E2E2E2E2E2E2E2E2F5F5F5F5F5F5F5F5F5F5F5F5F5F5F5E2E2E2E2E2E2E2E2E2E2E2E2E2E2E2E2E2E2E2E2E2E2E2E2E2E2E2E2E2E2E2F5E2F5F5F5F5F5F5F5F5F5F5F5F5F5F5F5F5F5F5F5
310
F5F5F5F5F5F5F5F5F5F5F5F5F5F5F5F5F5F5F5F5F5F5F5F5F5F5F5F5F5F5F5F5F5F5F5E2F5F5F5F5F5F5F5F5F5F5F5F5F5F5F5F5F5E2F5E2E2E2F5E2F5F5F5F5F5F5F5F5F5F5F5F5F5F5F5F5F5E2F5F5E2F5E2E2F5F5F5F5F5F5F5F5F5F5F5F5F5F5F5F5F5F5F5F5F5F5F5F5F5F5F5F5F5F5F5F5F5F5F5F5F5F5F5F5F5F5F5
310
F5F5F5F5F5F5F5F5F5F5F5F5F5F5F5F5F5F5F5F5F5F5F5F5F5F5F5F5F5F5E2E2F5E2F5F5F5F5F5F5F5F5F5F5F5F5F5F5F5F5F5F5F5F5F5F5F5F5F5F5F5F5F5F5F5F5F5F5F5F5F5F5F5F5F5F5F5F5F5F5F5F5F5F5F5F5F5F5E2F5F5F5F5F5F5F5F5F5F5F5F5F5F5F5F5F5E2F5E2E2E2F5E2F5F5F5F5F5F5F5F5F5F5F5F5F5F5
310
F5F5F5E2F5F5E2F5E2E2E2E2E2E2E2E2E2E2E2E2E2E2E2E2E2E2E2E2E2E2E2E2E2E2E2E2E2E2E2E2E2E2E2E2E2E2E2E2E2E2E2E2E2E2E2E2E2E2E2E2E2E2E2E2E2E2E2E2E2E2E2E2E2E2E2E2E2E2E2E2E2E2E2E2F5F5E2F5F5F5F5F5F5F5F5F5F5F5F5F5F5F5F5F5F5F5F5F5F5F5F5F5F5F5F5F5F5F5F5F5F5F5F5F5F5F5F5
310
F5F5F5F5F5F5F5F5F5F5F5F5F5F5E2F5F5F5F5F5F5F5F5F5F5F5F5F5F5F5F5F5E2F5E2E2E2F5E2F5F5F5F5F5F5F5F5F5F5F5F5F5F5F5F5F5E2F5F5E2F5F5F5F5F5F5F5F5F5F5F5F5F5F5F5F5F5F5F5F5F5F5F5F5F5F5F5F5F5F5F5F5F5F5F5F5F5F5F5F5F5F5F5F5F5F5F5F5F5F5F5F5F5F5F5F5F5F5F5F5F5F5F5F5F5F5F5
310
F5F5F5F5F5F5F5F5F5F5F5F5E2F5F5F5F5F5F5F5F5F5F5F5F5F5F5F5F5F5F5F5F5F5F5F5F5F5F5F5F5F5F5F5F5F5F5F5F5F5F5F5F5F5F5F5F5F5F5F5F5F5F5F5F5F5F5E2F5F5F5F5F5F5F5F5F5F5F5F5F5F5F5F5F5E2F5E2E2E2F5E2F5F5F5F5F5F5F5F5F5F5F5F5F5F5F5F5F5E2F5F5E2E2E2E2E2E2E2E2E2E2E2E2E2E2E2
310
E2E2E2E2E2E2E2E2E2E2E2E2E2E2E2E2E2E2E2E2E2E2E2E2E2E2E2E2E2E2E2E2E2E2E2E2E2E2E2E2E2E2E2E2E2E2E2E2E2E2E2E2E2E2E2E2E2E2E2E2E2E2E2E2E2E2F5F5F5F5F5F5F5F5F5F5F5F5F5F5F5F5F5F5F5F5F5F5F5F5F5F5F5F5F5F5F5F5F5F5F5F5F5F5F5F5F5F5F5F5F5F5F5F5F5F5F5F5F5F5E2F5F5F5F5F5F5
310
F5F5F5F5F5F5F5F5F5F5F5E2F5E2E2E2F5E2F5F5F5F5F5F5F5F5F5F5F5F5F5F5F5F5F5E2F5F5E2E2E2E2E2E2E2E2E2E2E2E2E2E2E2E2E2E2E2E2E2E2E2E2E2E2E2E2E2E2E2E2E2E2E2E2E2E2E2E2E2E2E2E2E2E2E2E2E2E2E2E2E2E2E2E2E2E2E2E2E2E2E2E2E2E2E2E2E2E2E2E2E2E2E2E2E2E2E2E2E2F5F5F5F5F5F5F5F5
310
F5F5F5F5F5F5F5F5F5F5F5F5F5F5F5F5F5F5F5F5F5F5F5F5F5F5F5F5F5F5F5F5F5F5F5F5F5F5F5F5F5F5F5F5F5F5E2F5F5F5F5F5F5F5F5F5F5F5F5F5F5F5F5F5E2F5E2E2E2F5E2F5F5F5F5F5F5F5F5F5F5F5F5F5F5F5F5F5E2F5F5F5F5F5F5F5F5F5F5F5F5F5F5F5F5F5F5F5F5F5F5F5F5F5F5F5F5F5F5F5F5F5F5F5F5F5F5
310
F5F5F5F5F5F5F5F5F5F5F5F5F5F5F5F5F5F5F5F5F5F5F5F5F5F5F5F5F5F5F5F5F5F5F5F5F5F5F5F5F5F5F5F5F5F5F5F5F5F5F5F5F5F5F5F5F5F5F5F5F5F5F5F5F5F5F5F5F5F5F5F5F5F5F5F5F5F5F5F5F5F5F5F5F5F5F5F5F5F5F5F5F5F5F5F5F5F5F5E2F5F5F5F5F5F5F5F5F5F5F5F5F5F5F5F5F5E2F5E2E2E2F5E2F5F5F5
310
F5F5F5F5F5F5F5F5F5F5F5F5F5F5E2F5F5F5F5F5F5F5F5F5F5F5F5F5F5F5F5F5F5F5F5F5F5F5F5F5F5F5F5F5F5F5F5F5F5F5F5F5F5F5F5F5F5F5F5F5F5F5F5F5F5F5F5F5F5F5F5F5F5F5F5F5F5F5F5F5F5F5F5F5F5F5F5F5F5F5F5F5F5F5F5F5F5F5F5F5F5F5F5F5F5F5F5F5F5F5F5F5F5F5F5F5F5F5F5F5F5F5F5F5F5F5F5
310
F5F5F5F5F5F5F5F5F5F5F5F5F5F5F5F5F5F5F5F5F5F5F5F5F5E2F5F5F5F5F5F5F5F5F5F5F5F5F5F5F5F5F5E2F5E2E2E2F5E2F5F5F5F5F5F5F5F5F5F5F5F5F5F5F5F5F5E2F5F5F5F5F5F5F5F5F5F5F5F5F5F5F5F5F5F5F5F5F5F5F5F5F5F5F5F5F5F5F5F5F5F5F5F5F5F5F5F5F5F5F5F5F5F5F5F5F5F5F5F5F5F5F5F5F5F5F5
310
F5F5F5F5F5F5F5F5F5F5F5F5F5F5F5F5F5F5F5F5F5F5F5F5F5F5F5F5F5F5F5F5F5F5F5F5F5F5F5F5F5F5F5F5F5F5F5F5F5F5F5F5F5F5F5F5F5F5F5F5F5F5F5F5F5F5F5F5F5F5F5F5F5F5F5F5F5F5E2F5F5F5F5F5F5F5F5F5F5F5F5F5F5F5F5F5E2F5E2E2E2F5E2F5F5F5F5F5F5F5F5F5F5F5F5F5F5F5F5F5E2F5F5F5F5F5F5
310
F5F5F5F5F5F5F5F5F5F5F5F5F5F5F5F5F5F5F5F5F5F5F5F5F5F5F5F5F5F5F5F5F5F5F5F5F5F5F5F5F5F5F5F5F5F5F5F5F5F5F5F5F5F5F5F5F5F5F5F5F5F5F5F5F5F5F5F5F5F5F5F5F5F5F5F5F5F5F5F5F5F5F5F5F5F5F5F5F5F5F5F5F5F5F5F5F5F5F5F5F5F5F5F5F5F5F5F5F5F5F5F5F5F5F5F5F5F5F5F5F5F5F5F5F5F5F5
310
F5F5F5F5E2F5F5F5F5F5F5F5F5F5F5F5F5F5F5F5F5F5E2F5E2E2E2F5E2F5F5F5F5F5F5F5F5F5F5F5F5F5F5F5F5F5E2F5F5F5F5F5F5F5F5F5F5F5F5F5F5F5F5F5F5F5F5F5F5F5F5F5F5F5F5F5F5F5F5F5F5F5F5F5F5F5F5F5F5F5F5F5F5F5F5F5F5F5F5F5F5F5F5F5F5F5F5F5F5F5F5F5F5F5F5F5F5F5F5F5F5F5F5F5F5F5F5
310
F5F5F5F5F5F5F5F5F5F5F5F5F5F5F5F5F5F5F5F5F5F5F5F5F5F5F5F5F5F5F5F5F5F5F5F5F5F5F5F5F5F5F5F5F5F5F5F5F5F5F5F5F5F5F5F5F5E2F5F5F5F5F5F5F5F5F5F5F5F5F5F5F5F5F5E2F5E2E2E2F5F5F5F5F5F5F5F5F5F5F5F5F5F5F5F5F5F5F5E2F5F5F5F5F5F5F5F5F5F5F5F5F5F5F5F5F5F5F5F5F5F5F5F5F5F5F5
310
F5F5F5F5F5F5F5F5F5F5F5F5F5F5F5F5F5F5F5F5F5F5F5F5F5F5F5F5F5F5F5F5F5F5F5F5F5F5F5F5F5F5F5F5F5F5F5F5F5F5F5F5F5F5F5F5F5F5F5F5F5F5F5F5F5F5F5F5F5F5F5F5F5F5F5F5F5F5F5F5F5F5F5F5F5F5F5F5F5F5F5F5F5F5F5F5F5F5F5F5F5F5F5F5F5F5F5F5F5F5E2F5F5F5F5F5F5F5F5F5F5F5F5F5F5F5F5
310
F5F5F5E2E2E2F5F5F5F5F5F5F5F5F5F5F5F5F5F5F5F5F5F5F5E2F5F5F5F5F5F5F5F5F5F5F5F5F5F5F5F5F5F5F5F5F5F5F5F5F5F5F5F5F5F5F5F5F5F5F5F5F5F5F5F5F5F5F5F5F5F5F5F5F5F5F5F5F5F5F5F5F5F5F5F5F5F5F5F5F5F5F5F5F5F5F5F5F5F5F5F5F5F5F5F5F5F5F5F5F5F5F5F5F5F5F5F5F5F5F5F5F5F5F5F5F5
310
F5F5F5F5F5F5F5F5F5F5F5F5F5F5F5F5F5F5F5F5F5F5F5F5F5F5F5F5F5F5F5F5F5F5F5F5E2F5F5F5F5F5F5F5F5F5F5F5F5F5F5F5F5F5F5F5E2E2E2F5F5F5F5F5F5F5F5F5F5F5F5F5F5F5F5F5F5F5E2F5F5F5F5F5F5F5F5F5F5F5F5F5F5F5F5F5F5F5F5F5F5F5F5F5F5F5F5F5F5F5F5F5F5F5F5F5F5F5F5F5F5F5F5F5F5F5F5
310
F5F5F5F5F5F5F5F5F5F5F5F5F5F5F5F5F5F5F5F5F5F5F5F5F5F5F5F5F5F5F5F5F5F5F5F5F5F5F5F5F5F5F5F5F5F5F5F5F5F5F5F5F5F5F5F5F5F5F5F5F5F5F5F5F5F5F5F5F5F5F5F5F5F5F5F5F5F5F5F5F5F5F5F5F5F5F5F5F5E2F5F5F5F5F5F5F5F5F5F5F5F5F5F5F5F5F5F5F5E2E2E2F5F5F5F5F5F5F5F5F5F5F5F5F5F5F5
310
F5F5F5F5E2F5F5F5F5F5F5F5F5F5F5F5F5F5F5F5F5F5F5F5F5F5F5F5F5F5F5F5F5F5F5F5F5F5F5F5F5F5F5F5F5F5F5F5F5F5F5F5F5F5F5F5F5F5F5F5F5F5F5F5F5F5F5F5F5F5F5F5F5F5F5F5F5F5F5F5F5F5F5F5F5F5F5F5F5F5F5F5F5F5F5F5F5F5F5F5F5F5F5F5F5F5F5F5F5F5F5F5F5F5F5F5F5F5F5F5F5F5F5F5F5F5F5
310
F5F5F5F5F5F5F5F5F5F5F5F5F5F5F5E2F5F5F5F5F5F5F5F5F5F5F5F5F5F5F5F5F5F5F5E2E2E2F5F5F5F5F5F5F5F5F5F5F5F5F5F5F5F5F5F5F5E2E2E2E2E2E2E2E2E2E2E2E2E2E2E2E2E2E2E2E2E2E2E2E2E2E2E2E2E2E2E2E2E2E2E2E2E2E2E2E2E2E2E2E2E2E2E2E2E2E2E2E2E2E2E2E2E2E2E2E2E2E2E2E2E2E2E2E2E2E2
310
E2E2E2E2E2E2E2E2E2E2E2E2E2E2E2E2E2E2E2E2E2E2E2E2E2E2E2E2E2E2E2E2E2E2E2E2E2E2E2E2E2E2E2E2E2E2E2E2E2E2E2E2E2E2E2E2E2E2E2E2E2E2E2E2E2E2E2E2E2F5F5F5F5F5F5F5F5F5F5F5F5F5F5F5F5F5F5F5E2E2E2F5F5F5F5F5F5F5F5F5F5F5F5F5F5F5F5F5F5F5F5F5F5F5F5F5F5F5F5F5F5F5F5F5F5F5F5
310
F5F5F5F5F5F5F5F5F5F5F5F5F5F5F5F5F5F5F5F5F5F5F5F5F5F5F5F5F5F5F5F5F5F5F5F5F5F5F5F5F5F5F5F5F5F5F5F5F5F5F5F5F5F5F5F5F5F5F5F5F5F5F5F5F5F5F5F5F5F5F5F5F5F5F5F5F5F5F5F5F5F5F5F5F5F5F5F5F5F5F5F5F5F5F5F5F5F5F5F5F5F5F5F5F5F5F5F5F5F5F5F5F5F5F5F5F5F5F5F5F5F5F5F5F5F5F5
310
F5F5F5F5F5F5F5F5F5F5F5F5F5F5E2E2E2F5F5F5F5F5F5F5F5F5F5F5F5F5F5F5F5F5F5F5F5F5F5F5F5F5F5F5F5F5F5F5F5F5F5F5F5F5F5F5F5F5F5F5F5F5F5F5F5F5F5F5F5F5F5F5F5F5F5F5F5F5F5F5F5F5F5F5F5F5F5F5F5F5F5F5F5F5F5F5F5F5F5F5F5F5F5F5F5F5F5F5F5F5F5F5F5F5F5F5F5F5F5F5F5F5F5F5F5F5F5
310
F5F5F5F5F5F5F5F5F5F5F5F5F5F5F5F5F5F5F5F5F5F5F5F5F5F5F5F5F5F5F5F5F5F5F5F5F5F5F5F5F5F5F5F5F5F5F5F5F5F5F5F5F5F5F5F5F5F5F5F5F5F5F5F5F5F5F5E2E2E2F5F5F5F5F5F5F5F5F5F5F5F5F5F5F5F5F5F5F5F5F5F5F5F5F5F5F5F5F5F5F5F5F5F5F5F5F5F5F5F5F5F5F5F5F5F5F5F5F5F5F5F5F5F5F5F5F5
310
F5F5F5F5F5F5F5F5F5F5F5F5F5F5F5F5F5F5F5F5F5F5F5F5F5F5F5F5F5F5F5F5F5F5F5F5F5F5F5F5F5F5F5F5F5F5F5F5F5F5F5F5F5F5F5F5F5F5F5F5F5F5F5F5F5F5F5F5F5F5F5F5F5F5F5F5F5F5F5F5F5F5F5F5F5F5F5F5F5F5F5F5F5F5F5F5F5F5F5F5F5F5F5F5F5F5F5F5F5F5F5F5F5F5F5F5F5F5F5F5E2E2E2F5F5F5F5
310
F5F5F5F5F5F5F5F5F5F5F5F5F5F5F5F5F5F5F5F5F5F5F5F5F5F5F5F5F5F5F5F5F5F5F5F5F5F5F5F5F5F5F5F5F5F5F5F5F5F5F5F5F5F5F5F5F5F5F5F5F5F5F5F5F5F5F5F5F5F5F5F5F5F5F5F5F5F5F5F5F5F5F5F5F5F5F5F5F5F5F5F5F5F5F5F5F5F5F5F5F5F5F5F5F5F5F5F5F5F5F5F5F5F5F5F5F5F5E2E2E2E2F5F5E2E2E2
310
F5E2E2E2E2E2F5F5E2E2E2E2E2E2E2E2E2E2E2F5F5E2E2E2E2E2F5F5F5F5F5F5F5F5F5F5F5F5F5F5F5F5F5F5F5F5E2E2E2F5F5F5F5F5F5F5F5F5F5F5F5F5F5F5F5F5F5F5F5F5F5F5F5F5F5F5F5F5F5F5F5F5F5F5F5F5F5F5F5F5F5F5F5F5F5F5F5F5F5F5F5F5F5F5F5F5F5F5F5F5F5F5F5F5F5F5F5F5F5F5F5F5F5F5F5F5F5
310
F5F5F5F5F5F5F5F5F5F5F5F5F5F5F5F5F5F5F5F5F5F5F5F5F5F5F5F5F5F5F5F5F5F5F5F5F5F5F5F5F5F5F5F5E2E2E2E2E2E2E2E2E2E2E2E2E2E2F5F5F5E2E2E2E2E2E2E2E2E2E2E2F5F5E2F5E2E2E2F5F5F5F5F5F5F5F5F5F5F5F5F5F5F5F5F5F5F5F5E2E2E2F5E2F5F5F5F5F5F5F5F5F5F5F5F5F5F5F5F5F5F5F5F5F5F5F5
310
F5F5F5F5F5F5F5F5F5F5F5F5F5F5F5F5F5F5F5F5F5F5F5F5F5F5F5F5F5F5F5F5F5F5F5F5F5F5F5F5F5F5F5F5F5F5F5F5F5F5F5F5F5F5F5F5F5F5F5F5F5F5F5F5F5F5F5F5F5F5F5F5F5F5F5F5F5F5F5F5F5F5F5F5F5F5F5F5F5F5F5F5F5F5F5F5F5E2F5E2E2F5F5E2E2E2E2E2E2E2E2F5F5F5E2E2E2E2E2E2E2E2E2E2E2F5F5
310
E2E2E2E2E2F5F5F5F5F5F5F5F5F5F5F5F5F5F5F5F5F5F5E2F5E2E2E2F5E2F5F5F5F5F5F5F5F5F5F5F5F5F5F5F5F5F5F5F5F5F5F5F5F5F5F5F5F5F5F5F5F5F5F5F5F5F5F5F5F5F5F5F5F5F5F5F5F5F5F5F5F5F5F5F5F5F5F5F5F5F5F5F5F5F5F5F5F5F5F5F5F5F5F5F5F5F5F5F5F5F5F5F5F5F5F5F5F5F5F5F5F5F5F5F5F5F5
310
F5F5F5F5F5F5F5F5F5F5F5F5F5F5F5F5F5F5F5F5F5F5F5E2F5E2F5F5F5E2F5E2F5E2E2E2E2F5F5F5E2E2E2E2F5E2E2E2E2E2F5F5F5E2E2F5E2E2F5F5F5F5F5F5F5F5F5F5F5F5F5F5F5F5F5F5E2F5E2E2E2F5E2F5F5F5F5F5F5F5F5F5F5F5F5F5F5F5F5F5F5F5F5F5F5F5F5F5F5F5F5F5F5F5F5F5F5F5F5F5F5F5F5F5F5F5F5
310
F5F5F5F5F5F5F5F5F5F5F5F5F5F5F5F5F5F5F5F5F5F5F5F5F5F5F5F5F5F5F5F5F5F5F5F5F5F5F5F5F5F5F5F5F5F5F5F5F5F5F5F5F5F5F5F5F5F5F5F5F5F5F5F5F5F5F5F5F5F5F5F5F5F5F5F5F5F5F5F5F5F5F5F5F5F5F5F5F5F5F5F5F5F5F5F5F5F5F5F5F5F5F5F5F5F5F5F5F5F5F5F5F5F5F5F5F5F5F5F5F5F5F5F5F5F5F5
310
F5F5E2F5E2E2E2F5E2F5F5F5F5F5F5F5F5F5F5F5F5F5F5F5F5F5F5F5F5F5F5F5F5F5F5F5F5F5F5F5F5F5F5F5F5F5F5F5F5F5F5F5F5F5F5F5F5F5F5F5F5F5F5F5F5F5F5F5F5F5F5F5F5F5F5F5F5F5F5F5F5F5F5F5F5F5F5F5F5F5F5F5F5F5F5F5F5F5F5F5F5F5F5F5F5F5F5F5F5F5F5F5F5F5F5F5F5F5F5F5F5F5F5F5F5F5F5
310
F5F5F5F5F5F5F5F5F5F5F5F5F5F5F5F5F5F5F5F5F5F5F5F5F5F5F5F5F5F5F5F5F5F5F5F5F5F5F5F5F5F5F5F5F5F5F5F5F5F5F5F5F5F5F5E2F5E2E2E2F5E2F5F5F5F5F5F5F5F5F5F5F5F5F5F5F5F5F5F5F5F5F5F5F5F5F5F5F5F5F5F5F5F5F5F5F5F5F5F5F5F5F5F5F5F5F5F5F5F5F5F5F5F5F5F5F5F5F5F5F5F5F5F5F5F5F5
310
F5F5F5F5F5F5F5F5F5F5F5F5F5F5F5F5F5F5F5F5F5F5F5F5F5F5F5F5F5F5F5F5F5F5F5F5F5F5F5F5F5F5F5F5F5F5F5F5F5F5F5F5F5F5F5F5F5F5F5F5F5F5F5F5F5F5F5F5F5F5F5F5F5F5F5F5F5F5F5F5F5F5F5F5F5F5F5F5F5F5F5F5F5F5F5F5F5F5F5F5F5F5F5F5F5F5F5F5E2F5E2E2E2F5E2F5F5F5F5F5F5F5F5F5F5F5F5
310
F5F5F5F5F5F5F5F5F5F5F5F5F5F5F5F5F5F5F5F5F5F5F5F5F5F5F5F5F5F5F5F5F5F5F5F5F5F5F5F5F5F5F5F5F5F5F5F5F5F5F5F5F5F5F5F5F5F5F5F5F5F5F5F5F5F5F5F5F5F5F5F5F5F5F5F5F5F5F5F5F5F5F5F5F5F5F5F5F5F5F5F5F5F5F5F5F5F5F5F5F5F5F5F5F5F5F5F5F5F5F5F5F5F5F5F5F5F5F5F5F5F5F5F5F5F5F5
310
F5F5F5F5F5F5F5F5F5F5F5F5F5F5F5F5F5F5F5F5F5F5F5F5F5F5F5F5F5F5F5F5F5F5E2F5E2E2E2F5E2F5F5F5F5F5F5F5F5F5F5F5F5F5F5F5F5F5F5F5F5F5F5F5F5F5F5F5F5F5F5F5F5F5F5F5F5F5F5F5F5F5F5F5F5F5F5F5F5F5F5F5F5F5F5F5F5F5F5F5F5F5F5F5F5F5F5F5F5F5F5F5F5F5F5F5F5F5F5F5F5F5F5F5F5F5F5
310
F5F5F5F5F5F5F5F5F5F5F5F5F5F5F5F5F5F5F5F5F5F5F5F5F5F5F5F5F5F5F5F5F5F5F5F5F5F5F5F5F5F5F5F5F5F5F5F5F5F5F5F5F5F5F5F5F5F5F5F5F5F5F5F5F5F5F5F5F5F5F5F5F5F5F5F5F5F5F5F5F5F5F5F5F5F5F5E2F5E2E2E2F5E2F5F5F5F5F5F5F5F5F5F5F5F5F5F5F5F5F5F5F5F5F5F5F5F5F5F5F5F5F5F5F5F5F5
310
F5F5F5F5F5F5F5F5F5F5F5F5F5F5F5F5F5F5F5F5F5F5F5F5F5F5F5F5F5F5F5F5F5F5F5F5F5F5F5F5F5F5F5F5F5F5F5F5F5F5F5F5F5F5F5F5F5F5F5F5F5F5F5F5F5F5F5F5F5F5F5F5F5F5F5F5F5F5F5F5F5F5F5F5F5F5F5F5F5F5F5F5F5F5F5F5F5F5F5F5F5F5F5F5F5F5F5F5F5F5F5F5F5F5F5F5F5F5F5F5F5F5F5F5F5F5F5
310
F5F5F5F5F5F5F5F5F5F5F5F5F5E2F5E2E2E2F5E2E2E2E2E2E2E2E2F5F5F5F5F5F5F5F5F5E2E2E2E2E2E2E2E2E2E2E2E2E2E2E2E2F5F5F5F5F5F5F5F5F5E2E2E2E2E2E2E2E2E2E2E2E2E2E2E2E2F5F5F5F5F5F5F5F5F5E2E2E2E2E2E2E2E2E2E2E2E2E2E2E2E2F5F5F5F5F5F5F5F5F5E2E2E2E2E2E2E2E2E2E2E2E2E2E2E2E2
310
F5F5F5F5F5F5F5F5F5E2E2E2E2E2E2E2E2E2E2E2E2E2E2E2E2F5F5F5F5F5F5F5F5F5E2E2E2E2E2E2E2E2E2E2E2E2E2E2E2E2F5F5F5F5F5F5F5F5F5E2E2E2E2E2E2E2E2F5E2EFE2F5F5F5F5F5F5F5F5F5F5F5F5F5F5F5F5F5F5F5F5F5F5F5F5F5F5F5F5F5F5F5F5F5F5F5F5F5F5F5F5F5F5F5F5F5F5F5F5F5F5F5F5F5F5F5F5
310
F5F5F5F5F5F5F5F5F5F5F5F5F5F5F5F5F5F5F5F5F5F5F5F5F5F5F5F5F5F5F5F5F5F5F5F5F5F5F5F5F5F5F5F5F5F5F5F5F5F5F5F5F5F5F5F5F5F5F5F5F5F5F5F5F5F5F5F5F5F5F5F5F5F5F5F5F5F5F5F5F5F5F5F5F5F5F5F5F5F5F5F5F5F5F5F5F5F5F5F5F5F5F5F5F5F5F5F5F5F5F5F5F5F5F5F5F5F5F5F5F5E2EFE2E2E2E2
310
E2E2E2E2E2E2E2E2E2E2E2E2E2E2E2E2E2E2E2E2E2E2E2E2E2E2E2E2E2E2E2E2E2E2E2E2E2E2E2E2E2E2E2E2E2E2E2E2E2E2E2E2E2E2E2E2E2E2E2E2E2E2E2E2E2E2E2E2E2E2E2E2E2E2E2E2E2E2E2E2E2E2E2E2E2E2E2E2E2E2E2E2E2E2E2E2E2E2E2E2E2E2E2E2E2E2E2E2E2E2E2E2E2E2E2E2E2E2E2E2E2E2E2E2E2E2E2
310
E2E2E2E2E2E2E2E2E2E2E2E2E2E2E2E2E2E2E2E2E2E2E2E2E2E2E2E2E2E2E2E2E2E2E2E2E2E2E2E2E2E2E2E2E2E2E2E2EF
  0
XRECORD
  5
18F0B
102
{ACAD_REACTORS
330
18F0A
102
}
330
18F0A
100
AcDbXrecord
280
     1
102
SHADEPLOT
 70
     0
102
SHADEPLOTRESLEVEL
 70
     2
102
SHADEPLOTCUSTOMDPI
 70
   300
  0
XRECORD
  5
18F13
102
{ACAD_REACTORS
330
18F12
102
}
330
18F12
100
AcDbXrecord
280
     1
102
MATERIAL
148
0.0
149
0.0
149
0.0
 93
        0
 94
       63
282
     0
 72
     1
 77
     1
171
     1
175
     1
179
     1
273
     0
  0
XRECORD
  5
18F11
102
{ACAD_REACTORS
330
18F10
102
}
330
18F10
100
AcDbXrecord
280
     1
102
MATERIAL
148
0.0
149
0.0
149
0.0
 93
        0
 94
       63
282
     0
 72
     1
 77
     1
171
     1
175
     1
179
     1
273
     0
  0
XRECORD
  5
18F0F
102
{ACAD_REACTORS
330
18F0E
102
}
330
18F0E
100
AcDbXrecord
280
     1
102
MATERIAL
148
0.0
149
0.0
149
0.0
 93
        0
 94
       63
282
     0
 72
     1
 77
     1
171
     1
175
     1
179
     1
273
     0
  0
XRECORD
  5
18F0D
102
{ACAD_REACTORS
330
18F0C
102
}
330
18F0C
100
AcDbXrecord
280
     1
102
ACAD_ROUNDTRIP_PRE2007_TABLESTYLE
 90
        4
 91
        0
  1

 92
        4
 93
        0
  2

 94
        4
 95
        0
  3

  0
ENDSEC
  0
EOF
