  0
SECTION
  2
HEADER
  9
$ACADVER
  1
AC1015
  9
$ACADMAINTVER
 70
    20
  9
$DWGCODEPAGE
  3
ANSI_1252
  9
$INSBASE
 10
0.0
 20
0.0
 30
0.0
  9
$EXTMIN
 10
3.406065364731265
 20
7.250821634986637
 30
0.0
  9
$EXTMAX
 10
109.8620197583338
 20
72.02354107890832
 30
0.0
  9
$LIMMIN
 10
0.0
 20
0.0
  9
$LIMMAX
 10
2000.0
 20
1000.0
  9
$ORTHOMODE
 70
     0
  9
$REGENMODE
 70
     1
  9
$FILLMODE
 70
     1
  9
$QTEXTMODE
 70
     0
  9
$MIRRTEXT
 70
     1
  9
$LTSCALE
 40
0.5
  9
$ATTMODE
 70
     1
  9
$TEXTSIZE
 40
6.0
  9
$TRACEWID
 40
1.0
  9
$TEXTSTYLE
  7
\U+68071
  9
$CLAYER
  8
\U+6807\U+6CE8
  9
$CELTYPE
  6
BYBLOCK
  9
$CECOLOR
 62
   256
  9
$CELTSCALE
 40
1.0
  9
$DISPSILH
 70
     0
  9
$DIMSCALE
 40
12.0
  9
$DIMASZ
 40
2.5
  9
$DIMEXO
 40
0.625
  9
$DIMDLI
 40
3.75
  9
$DIMRND
 40
0.0
  9
$DIMDLE
 40
0.0
  9
$DIMEXE
 40
1.25
  9
$DIMTP
 40
0.0
  9
$DIMTM
 40
0.0
  9
$DIMTXT
 40
2.5
  9
$DIMCEN
 40
2.5
  9
$DIMTSZ
 40
0.0
  9
$DIMTOL
 70
     0
  9
$DIMLIM
 70
     0
  9
$DIMTIH
 70
     0
  9
$DIMTOH
 70
     0
  9
$DIMSE1
 70
     0
  9
$DIMSE2
 70
     0
  9
$DIMTAD
 70
     1
  9
$DIMZIN
 70
     8
  9
$DIMBLK
  1

  9
$DIMASO
 70
     1
  9
$DIMSHO
 70
     1
  9
$DIMPOST
  1

  9
$DIMAPOST
  1

  9
$DIMALT
 70
     0
  9
$DIMALTD
 70
     4
  9
$DIMALTF
 40
0.0394
  9
$DIMLFAC
 40
1.0
  9
$DIMTOFL
 70
     1
  9
$DIMTVP
 40
0.0
  9
$DIMTIX
 70
     0
  9
$DIMSOXD
 70
     0
  9
$DIMSAH
 70
     1
  9
$DIMBLK1
  1
OPEN
  9
$DIMBLK2
  1
OPEN
  9
$DIMSTYLE
  2
P1
  9
$DIMCLRD
 70
     0
  9
$DIMCLRE
 70
     0
  9
$DIMCLRT
 70
     0
  9
$DIMTFAC
 40
1.0
  9
$DIMGAP
 40
0.625
  9
$DIMJUST
 70
     0
  9
$DIMSD1
 70
     0
  9
$DIMSD2
 70
     0
  9
$DIMTOLJ
 70
     1
  9
$DIMTZIN
 70
     0
  9
$DIMALTZ
 70
     0
  9
$DIMALTTZ
 70
     0
  9
$DIMUPT
 70
     0
  9
$DIMDEC
 70
     0
  9
$DIMTDEC
 70
     0
  9
$DIMALTU
 70
     8
  9
$DIMALTTD
 70
     4
  9
$DIMTXSTY
  7
STANDARD
  9
$DIMAUNIT
 70
     0
  9
$DIMADEC
 70
     0
  9
$DIMALTRND
 40
0.0
  9
$DIMAZIN
 70
     0
  9
$DIMDSEP
 70
    46
  9
$DIMATFIT
 70
     3
  9
$DIMFRAC
 70
     0
  9
$DIMLDRBLK
  1

  9
$DIMLUNIT
 70
     6
  9
$DIMLWD
 70
    -2
  9
$DIMLWE
 70
    -2
  9
$DIMTMOVE
 70
     1
  9
$LUNITS
 70
     2
  9
$LUPREC
 70
     4
  9
$SKETCHINC
 40
1.0
  9
$FILLETRAD
 40
80.0
  9
$AUNITS
 70
     0
  9
$AUPREC
 70
     0
  9
$MENU
  1
.
  9
$ELEVATION
 40
0.0
  9
$PELEVATION
 40
0.0
  9
$THICKNESS
 40
0.0
  9
$LIMCHECK
 70
     0
  9
$CHAMFERA
 40
2.0
  9
$CHAMFERB
 40
2.0
  9
$CHAMFERC
 40
20.0
  9
$CHAMFERD
 40
0.0
  9
$SKPOLY
 70
     0
  9
$TDCREATE
 40
2451592.921998148
  9
$TDUCREATE
 40
2451593.213664815
  9
$TDUPDATE
 40
2454922.430785382
  9
$TDUUPDATE
 40
2454922.722452049
  9
$TDINDWG
 40
1.3090714815
  9
$TDUSRTIMER
 40
1.3090714815
  9
$USRTIMER
 70
     1
  9
$ANGBASE
 50
0.0
  9
$ANGDIR
 70
     0
  9
$PDMODE
 70
     0
  9
$PDSIZE
 40
0.0
  9
$PLINEWID
 40
0.0
  9
$SPLFRAME
 70
     0
  9
$SPLINETYPE
 70
     6
  9
$SPLINESEGS
 70
     8
  9
$HANDSEED
  5
BF37
  9
$SURFTAB1
 70
     6
  9
$SURFTAB2
 70
     6
  9
$SURFTYPE
 70
     6
  9
$SURFU
 70
     6
  9
$SURFV
 70
     6
  9
$UCSBASE
  2

  9
$UCSNAME
  2

  9
$UCSORG
 10
0.0
 20
0.0
 30
0.0
  9
$UCSXDIR
 10
1.0
 20
0.0
 30
0.0
  9
$UCSYDIR
 10
0.0
 20
1.0
 30
0.0
  9
$UCSORTHOREF
  2

  9
$UCSORTHOVIEW
 70
     0
  9
$UCSORGTOP
 10
0.0
 20
0.0
 30
0.0
  9
$UCSORGBOTTOM
 10
0.0
 20
0.0
 30
0.0
  9
$UCSORGLEFT
 10
0.0
 20
0.0
 30
0.0
  9
$UCSORGRIGHT
 10
0.0
 20
0.0
 30
0.0
  9
$UCSORGFRONT
 10
0.0
 20
0.0
 30
0.0
  9
$UCSORGBACK
 10
0.0
 20
0.0
 30
0.0
  9
$PUCSBASE
  2

  9
$PUCSNAME
  2

  9
$PUCSORG
 10
0.0
 20
0.0
 30
0.0
  9
$PUCSXDIR
 10
1.0
 20
0.0
 30
0.0
  9
$PUCSYDIR
 10
0.0
 20
1.0
 30
0.0
  9
$PUCSORTHOREF
  2

  9
$PUCSORTHOVIEW
 70
     0
  9
$PUCSORGTOP
 10
0.0
 20
0.0
 30
0.0
  9
$PUCSORGBOTTOM
 10
0.0
 20
0.0
 30
0.0
  9
$PUCSORGLEFT
 10
0.0
 20
0.0
 30
0.0
  9
$PUCSORGRIGHT
 10
0.0
 20
0.0
 30
0.0
  9
$PUCSORGFRONT
 10
0.0
 20
0.0
 30
0.0
  9
$PUCSORGBACK
 10
0.0
 20
0.0
 30
0.0
  9
$USERI1
 70
     0
  9
$USERI2
 70
     0
  9
$USERI3
 70
     0
  9
$USERI4
 70
     0
  9
$USERI5
 70
     0
  9
$USERR1
 40
0.0
  9
$USERR2
 40
0.0
  9
$USERR3
 40
0.0
  9
$USERR4
 40
0.0
  9
$USERR5
 40
0.0
  9
$WORLDVIEW
 70
     1
  9
$SHADEDGE
 70
     3
  9
$SHADEDIF
 70
    70
  9
$TILEMODE
 70
     0
  9
$MAXACTVP
 70
    48
  9
$PINSBASE
 10
0.0
 20
0.0
 30
0.0
  9
$PLIMCHECK
 70
     0
  9
$PEXTMIN
 10
1.074768547797084
 20
0.8247909505127708
 30
-0.0000000349181948
  9
$PEXTMAX
 10
9.722229293653885
 20
7.833762918601358
 30
0.0000000814935746
  9
$PLIMMIN
 10
-0.1249995194082185
 20
-0.1249999981226884
  9
$PLIMMAX
 10
10.87500024029589
 20
8.37499976158142
  9
$UNITMODE
 70
     0
  9
$VISRETAIN
 70
     1
  9
$PLINEGEN
 70
     0
  9
$PSLTSCALE
 70
     1
  9
$TREEDEPTH
 70
  3020
  9
$CMLSTYLE
  2
STANDARD
  9
$CMLJUST
 70
     0
  9
$CMLSCALE
 40
20.0
  9
$PROXYGRAPHICS
 70
     1
  9
$MEASUREMENT
 70
     0
  9
$CELWEIGHT
370
    -1
  9
$ENDCAPS
280
     0
  9
$JOINSTYLE
280
     0
  9
$LWDISPLAY
290
     0
  9
$INSUNITS
 70
     0
  9
$HYPERLINKBASE
  1

  9
$STYLESHEET
  1
monochrome.ctb
  9
$XEDIT
290
     1
  9
$CEPSNTYPE
380
     0
  9
$PSTYLEMODE
290
     1
  9
$FINGERPRINTGUID
  2
{FEFAC99C-D8F2-4110-8713-76FB1FD3DB0B}
  9
$VERSIONGUID
  2
{8114C9CB-ED6F-49FA-847B-5FB91D29A8AE}
  9
$EXTNAMES
290
     1
  9
$PSVPSCALE
 40
0.0
  9
$OLESTARTUP
290
     0
  0
ENDSEC
  0
SECTION
  2
CLASSES
  0
CLASS
  1
DICTIONARYVAR
  2
AcDbDictionaryVar
  3
ObjectDBX Classes
 90
        0
280
     0
281
     0
  0
CLASS
  1
ACDBDICTIONARYWDFLT
  2
AcDbDictionaryWithDefault
  3
ObjectDBX Classes
 90
        0
280
     0
281
     0
  0
CLASS
  1
MATERIAL
  2
AcDbMaterial
  3
ObjectDBX Classes
 90
     1024
280
     0
281
     0
  0
CLASS
  1
VISUALSTYLE
  2
AcDbVisualStyle
  3
ObjectDBX Classes
 90
     4095
280
     0
281
     0
  0
CLASS
  1
TABLESTYLE
  2
AcDbTableStyle
  3
ObjectDBX Classes
 90
     4095
280
     0
281
     0
  0
CLASS
  1
ACDBPLACEHOLDER
  2
AcDbPlaceHolder
  3
ObjectDBX Classes
 90
        0
280
     0
281
     0
  0
CLASS
  1
LAYOUT
  2
AcDbLayout
  3
ObjectDBX Classes
 90
        0
280
     0
281
     0
  0
ENDSEC
  0
SECTION
  2
TABLES
  0
TABLE
  2
VPORT
  5
8
102
{ACAD_XDICTIONARY
360
BE7E
102
}
330
0
100
AcDbSymbolTable
 70
     1
  0
VPORT
  5
BE29
330
8
100
AcDbSymbolTableRecord
100
AcDbViewportTableRecord
  2
*Active
 70
     0
 10
0.0
 20
0.0
 11
1.0
 21
1.0
 12
56.62536976931779
 22
39.64233577675452
 13
0.0
 23
0.0
 14
10.0
 24
10.0
 15
10.0
 25
10.0
 16
0.0
 26
0.0
 36
1.0
 17
0.0
 27
0.0
 37
0.0
 40
65.39633994741885
 41
1.646976090014064
 42
50.0
 43
0.0
 44
0.0
 50
0.0
 51
0.0
 71
     0
 72
   100
 73
     1
 74
     1
 75
     0
 76
     0
 77
     0
 78
     0
281
     0
 65
     1
110
0.0
120
0.0
130
0.0
111
1.0
121
0.0
131
0.0
112
0.0
122
1.0
132
0.0
 79
     0
146
0.0
  0
ENDTAB
  0
TABLE
  2
LTYPE
  5
5
330
0
100
AcDbSymbolTable
 70
     3
  0
LTYPE
  5
12
330
5
100
AcDbSymbolTableRecord
100
AcDbLinetypeTableRecord
  2
BYBLOCK
 70
     0
  3

 72
    65
 73
     0
 40
0.0
  0
LTYPE
  5
13
330
5
100
AcDbSymbolTableRecord
100
AcDbLinetypeTableRecord
  2
BYLAYER
 70
     0
  3

 72
    65
 73
     0
 40
0.0
  0
LTYPE
  5
14
330
5
100
AcDbSymbolTableRecord
100
AcDbLinetypeTableRecord
  2
CONTINUOUS
 70
     0
  3
Solid line
 72
    65
 73
     0
 40
0.0
  0
LTYPE
  5
42
330
5
100
AcDbSymbolTableRecord
100
AcDbLinetypeTableRecord
  2
CENTERX2
 70
     0
  3
Center (2x) ________  __  ________  __  _____
 72
    65
 73
     4
 40
101.6
 49
63.5
 74
     0
 49
-12.7
 74
     0
 49
12.7
 74
     0
 49
-12.7
 74
     0
  0
LTYPE
  5
7EB
330
5
100
AcDbSymbolTableRecord
100
AcDbLinetypeTableRecord
  2
DASHED
 70
     0
  3
-- -- -- -- -- -- -- -- -- -- 
 72
    65
 73
     2
 40
3.0
 49
2.0
 74
     0
 49
-1.0
 74
     0
  0
ENDTAB
  0
TABLE
  2
LAYER
  5
2
102
{ACAD_XDICTIONARY
360
9B33
102
}
330
0
100
AcDbSymbolTable
 70
     3
  0
LAYER
  5
E
330
2
100
AcDbSymbolTableRecord
100
AcDbLayerTableRecord
  2
0
 70
     0
 62
     7
  6
CONTINUOUS
370
    -3
390
995E
  0
LAYER
  5
F1
330
2
100
AcDbSymbolTableRecord
100
AcDbLayerTableRecord
  2
\U+6807\U+6CE8
 70
     0
 62
   200
  6
CONTINUOUS
370
    -3
390
995E
1001
AcadStringInfo
1000
MIFCodePage
1070
     5
  0
LAYER
  5
3594
330
2
100
AcDbSymbolTableRecord
100
AcDbLayerTableRecord
  2
\U+9762\U+76C6
 70
     0
 62
     1
  6
CONTINUOUS
370
    -3
390
995E
1001
AcadStringInfo
1000
MIFCodePage
1070
     5
  0
ENDTAB
  0
TABLE
  2
STYLE
  5
3
330
0
100
AcDbSymbolTable
 70
     2
  0
STYLE
  5
F
330
3
100
AcDbSymbolTableRecord
100
AcDbTextStyleTableRecord
  2
STANDARD
 70
     0
 40
0.0
 41
0.6600000000000001
 50
0.0
 71
     0
 42
5.0
  3
txt.shx
  4
hztxt.shx
  0
STYLE
  5
F5
330
3
100
AcDbSymbolTableRecord
100
AcDbTextStyleTableRecord
  2
\U+68071
 70
     0
 40
0.0
 41
0.6600000000000001
 50
0.0
 71
     0
 42
6.0
  3
TIMES.TTF
  4

1001
ACAD
1000
Times New Roman
1071
       18
1001
AcadStringInfo
1000
MIFCodePage
1070
     5
  0
ENDTAB
  0
TABLE
  2
VIEW
  5
6
330
0
100
AcDbSymbolTable
 70
     2
  0
ENDTAB
  0
TABLE
  2
UCS
  5
7
330
0
100
AcDbSymbolTable
 70
     0
  0
ENDTAB
  0
TABLE
  2
APPID
  5
9
330
0
100
AcDbSymbolTable
 70
     5
  0
APPID
  5
10
330
9
100
AcDbSymbolTableRecord
100
AcDbRegAppTableRecord
  2
ACAD
 70
     0
  0
APPID
  5
7C0
330
9
100
AcDbSymbolTableRecord
100
AcDbRegAppTableRecord
  2
RAK
 70
     0
  0
APPID
  5
BE41
330
9
100
AcDbSymbolTableRecord
100
AcDbRegAppTableRecord
  2
AcadStringInfo
 70
     0
  0
APPID
  5
BE5F
330
9
100
AcDbSymbolTableRecord
100
AcDbRegAppTableRecord
  2
ACAD_PSEXT
 70
     0
  0
APPID
  5
BE6A
330
9
100
AcDbSymbolTableRecord
100
AcDbRegAppTableRecord
  2
ACAD_EXEMPT_FROM_CAD_STANDARDS
 70
     0
  0
ENDTAB
  0
TABLE
  2
DIMSTYLE
  5
A
330
0
100
AcDbSymbolTable
 70
     1
100
AcDbDimStyleTable
 71
     1
340
76
  0
DIMSTYLE
105
76
330
A
100
AcDbSymbolTableRecord
100
AcDbDimStyleTableRecord
  2
P1
 70
     0
 41
2.5
 42
0.625
 43
3.75
 44
1.25
 73
     0
 74
     0
 77
     1
 78
     8
140
2.5
141
2.5
143
0.0394
147
0.625
171
     4
172
     1
273
     8
274
     4
277
     6
340
F
  0
ENDTAB
  0
TABLE
  2
BLOCK_RECORD
  5
1
330
0
100
AcDbSymbolTable
 70
     2
  0
BLOCK_RECORD
  5
18
330
1
100
AcDbSymbolTableRecord
100
AcDbBlockTableRecord
  2
*MODEL_SPACE
340
9963
  0
BLOCK_RECORD
  5
BEE4
330
1
100
AcDbSymbolTableRecord
100
AcDbBlockTableRecord
  2
*Paper_Space
340
BEE5
  0
BLOCK_RECORD
  5
1EA8
330
1
100
AcDbSymbolTableRecord
100
AcDbBlockTableRecord
  2
_OPEN
340
0
  0
BLOCK_RECORD
  5
BDAF
330
1
100
AcDbSymbolTableRecord
100
AcDbBlockTableRecord
  2
ASQW
340
0
310
2800000020000000200000000100080000000000000400000000000000000000000000000000000000000000000080000080000000808000800000008000800080800000C0C0C000C0DCC000F0CAA6000020400000206000002080000020A0000020C0000020E00000400000004020000040400000406000004080000040A0
310
000040C0000040E00000600000006020000060400000606000006080000060A0000060C0000060E00000800000008020000080400000806000008080000080A0000080C0000080E00000A0000000A0200000A0400000A0600000A0800000A0A00000A0C00000A0E00000C0000000C0200000C0400000C0600000C0800000C0
310
A00000C0C00000C0E00000E0000000E0200000E0400000E0600000E0800000E0A00000E0C00000E0E00040000000400020004000400040006000400080004000A0004000C0004000E00040200000402020004020400040206000402080004020A0004020C0004020E000404000004040200040404000404060004040800040
310
40A0004040C0004040E00040600000406020004060400040606000406080004060A0004060C0004060E00040800000408020004080400040806000408080004080A0004080C0004080E00040A0000040A0200040A0400040A0600040A0800040A0A00040A0C00040A0E00040C0000040C0200040C0400040C0600040C08000
310
40C0A00040C0C00040C0E00040E0000040E0200040E0400040E0600040E0800040E0A00040E0C00040E0E00080000000800020008000400080006000800080008000A0008000C0008000E00080200000802020008020400080206000802080008020A0008020C0008020E00080400000804020008040400080406000804080
310
008040A0008040C0008040E00080600000806020008060400080606000806080008060A0008060C0008060E00080800000808020008080400080806000808080008080A0008080C0008080E00080A0000080A0200080A0400080A0600080A0800080A0A00080A0C00080A0E00080C0000080C0200080C0400080C0600080C0
310
800080C0A00080C0C00080C0E00080E0000080E0200080E0400080E0600080E0800080E0A00080E0C00080E0E000C0000000C0002000C0004000C0006000C0008000C000A000C000C000C000E000C0200000C0202000C0204000C0206000C0208000C020A000C020C000C020E000C0400000C0402000C0404000C0406000C0
310
408000C040A000C040C000C040E000C0600000C0602000C0604000C0606000C0608000C060A000C060C000C060E000C0800000C0802000C0804000C0806000C0808000C080A000C080C000C080E000C0A00000C0A02000C0A04000C0A06000C0A08000C0A0A000C0A0C000C0A0E000C0C00000C0C02000C0C04000C0C06000
310
C0C08000C0C0A000F0FBFF00A4A0A000808080000000FF0000FF000000FFFF00FF000000FF00FF00FFFF0000FFFFFF0000000000000000000000000000000000000000000000000000000000000000000000000000000000000000000000000000000000000000000000000000000000000000000000000000000000000000
310
00000000000000000000000000000000000000000000000000000000000000000000000000000000000000000000000000000000000000000000000000000000000000000000000000000000000000000000000000000000000000000000000000000000000000000000000000000000000000000000000000000000000000
310
00000000000000000000000000000000000000000000000000000000000000000000000000000000000000000000000000000000000000000000000000000000000000000000000000000000000000000000000000000000000000000000000000000000000000000000000000000000000000000000000000000000000000
310
0000000000000000000000000000000000000000000000000000000000000000000000000000000000000000000000000000000000000000000000000000FFFF00000000000000000000000000FFFF00000000000000FFFFFFFF000000FFFFFFFF000000FFFFFFFFFF000000FFFFFFFF00000000000000FFFF000000FFFF00
310
00FFFFFF0000FF00FF0000FFFFFF0000FFFF000000000000FFFF000000FFFF0000FF00FF0000FF00FF0000FF00FF0000FF00FF0000FFFF00FFFF00FFFF00FF0000FF00FFFF00FF00FF00FFFF00FF0000FF00FF0000FFFF00FFFF00FFFFFFFF0000FF00FFFFFFFF00FFFFFFFF00FF0000FFFF000000FFFFFFFFFFFFFFFF00FF
310
FFFFFFFF00FFFFFFFFFFFFFF00FFFFFFFFFF0000000000000000000000000000FFFF00000000000000000000000000FFFF000000000000000000000000000000000000000000000000000000000000000000000000000000000000000000000000000000000000000000000000000000000000000000000000000000000000
310
00000000000000000000000000000000000000000000000000000000000000000000000000000000000000000000000000000000000000000000000000000000000000000000000000000000000000000000000000000000000000000000000000000000000000000000000000000000000000000000000000000000000000
310
00000000000000000000000000000000000000000000000000000000000000000000000000000000000000000000000000000000000000000000000000000000000000000000000000000000000000000000000000000000000000000000000000000000000000000000000000000000000000000000000000000000000000
310
0000000000000000000000000000000000000000000000000000000000000000000000000000000000000000000000000000000000000000
102
{BLKREFS
331
BE1A
102
}
  0
ENDTAB
  0
ENDSEC
  0
SECTION
  2
BLOCKS
  0
BLOCK
  5
19
330
18
100
AcDbEntity
  8
0
100
AcDbBlockBegin
  2
*MODEL_SPACE
 70
     0
 10
0.0
 20
0.0
 30
0.0
  3
*MODEL_SPACE
  1

  0
ENDBLK
  5
1A
330
18
100
AcDbEntity
  8
0
100
AcDbBlockEnd
  0
BLOCK
  5
BEE6
330
BEE4
100
AcDbEntity
 67
     1
  8
0
100
AcDbBlockBegin
  2
*Paper_Space
 70
     0
 10
0.0
 20
0.0
 30
0.0
  3
*Paper_Space
  1

  0
ENDBLK
  5
BEE7
330
BEE4
100
AcDbEntity
 67
     1
  8
0
100
AcDbBlockEnd
  0
BLOCK
  5
1EAC
330
1EA8
100
AcDbEntity
  8
0
100
AcDbBlockBegin
  2
_OPEN
 70
     0
 10
0.0
 20
0.0
 30
0.0
  3
_OPEN
  1

  0
LINE
  5
1EA9
330
1EA8
100
AcDbEntity
  8
0
  6
ByBlock
 62
     0
100
AcDbLine
 10
-1.0
 20
0.1666666666666666
 30
0.0
 11
0.0
 21
0.0
 31
0.0
  0
LINE
  5
1EAA
330
1EA8
100
AcDbEntity
  8
0
  6
ByBlock
 62
     0
100
AcDbLine
 10
0.0
 20
0.0
 30
0.0
 11
-1.0
 21
-0.1666666666666666
 31
0.0
  0
LINE
  5
1EAB
330
1EA8
100
AcDbEntity
  8
0
  6
ByBlock
 62
     0
100
AcDbLine
 10
0.0
 20
0.0
 30
0.0
 11
-1.0
 21
0.0
 31
0.0
  0
ENDBLK
  5
1EAD
330
1EA8
100
AcDbEntity
  8
0
100
AcDbBlockEnd
  0
BLOCK
  5
BDB0
330
BDAF
100
AcDbEntity
  8
0
100
AcDbBlockBegin
  2
ASQW
 70
     0
 10
0.0
 20
0.0
 30
0.0
  3
ASQW
  1

  0
ARC
  5
BDB2
330
BDAF
100
AcDbEntity
  8
0
  6
ByBlock
 62
     0
370
     5
100
AcDbCircle
 10
12580.56673684412
 20
5679.481731498682
 30
0.0
 40
5.060384866009128
100
AcDbArc
 50
0.0
 51
20.25021674657236
  0
ARC
  5
BDB3
330
BDAF
100
AcDbEntity
  8
0
  6
ByBlock
 62
     0
370
     5
100
AcDbCircle
 10
12576.47735390162
 20
5679.481731498682
 30
0.0
 40
7.155604750000054
100
AcDbArc
 50
347.7536671402987
 51
12.24633285970133
  0
LINE
  5
BDB4
330
BDAF
100
AcDbEntity
  8
0
  6
ByBlock
 62
     0
370
     5
100
AcDbLine
 10
12591.70682540162
 20
5677.068060123682
 30
0.0
 11
12591.70682540162
 21
5682.727823430616
 31
0.0
  0
LINE
  5
BDB5
330
BDAF
100
AcDbEntity
  8
0
  6
ByBlock
 62
     0
370
     5
100
AcDbLine
 10
12590.16236690162
 20
5677.068060123682
 30
0.0
 11
12590.16236690162
 21
5682.725402873682
 31
0.0
  0
ARC
  5
BDB6
330
BDAF
100
AcDbEntity
  8
0
  6
ByBlock
 62
     0
370
     5
100
AcDbCircle
 10
12595.97272602662
 20
5679.481731498682
 30
0.0
 40
7.155604750000054
100
AcDbArc
 50
347.7536671402987
 51
12.24633285970133
  0
ARC
  5
BDB7
330
BDAF
100
AcDbEntity
  8
0
  6
ByBlock
 62
     0
370
     5
100
AcDbCircle
 10
12605.39183840162
 20
5679.481731498682
 30
0.0
 40
7.155604749999144
100
AcDbArc
 50
167.7536671402986
 51
192.2463328597013
  0
ARC
  5
BDB8
330
BDAF
100
AcDbEntity
  8
0
  6
ByBlock
 62
     0
370
     5
100
AcDbCircle
 10
12601.30138689549
 20
5679.481731498682
 30
0.0
 40
5.060384866010414
100
AcDbArc
 50
159.7497832534276
 51
180.0
  0
ARC
  5
BDB9
330
BDAF
100
AcDbEntity
  8
0
  6
ByBlock
 62
     0
370
     5
100
AcDbCircle
 10
12581.18691008912
 20
5678.459502248681
 30
0.0
 40
2.336385713394631
100
AcDbArc
 50
280.0304238417806
 51
347.7536671402987
  0
ARC
  5
BDBA
330
BDAF
100
AcDbEntity
  8
0
  6
ByBlock
 62
     0
370
     5
100
AcDbCircle
 10
12581.18637580731
 20
5681.340648388236
 30
0.0
 40
5.98984331078744
100
AcDbArc
 50
273.9515281528202
 51
286.6992442339437
  0
ARC
  5
BDBB
330
BDAF
100
AcDbEntity
  8
0
  6
ByBlock
 62
     0
370
     5
100
AcDbCircle
 10
12581.60254947172
 20
5676.109591468117
 30
0.0
 40
0.05
100
AcDbArc
 50
100.0304238418832
 51
180.0
  0
ARC
  5
BDBC
330
BDAF
100
AcDbEntity
  8
0
  6
ByBlock
 62
     0
370
     5
100
AcDbCircle
 10
12581.60254947172
 20
5675.414929060317
 30
0.0
 40
0.05
100
AcDbArc
 50
180.0
 51
274.020368063706
  0
LINE
  5
BDBD
330
BDAF
100
AcDbEntity
  8
0
  6
ByBlock
 62
     0
370
     5
100
AcDbLine
 10
12581.55254947172
 20
5676.109591468117
 30
0.0
 11
12581.55254947172
 21
5675.414929060317
 31
0.0
  0
ARC
  5
BDBE
330
BDAF
100
AcDbEntity
  8
0
  6
ByBlock
 62
     0
370
     5
100
AcDbCircle
 10
12580.75254947172
 20
5676.112979794703
 30
0.0
 40
0.05
100
AcDbArc
 50
0.0
 51
79.51278607664987
  0
ARC
  5
BDBF
330
BDAF
100
AcDbEntity
  8
0
  6
ByBlock
 62
     0
370
     5
100
AcDbCircle
 10
12580.75254947172
 20
5675.416197085625
 30
0.0
 40
0.05
100
AcDbArc
 50
265.8031498192778
 51
0.0
  0
LINE
  5
BDC0
330
BDAF
100
AcDbEntity
  8
0
  6
ByBlock
 62
     0
370
     5
100
AcDbLine
 10
12580.80254947172
 20
5676.112979794703
 30
0.0
 11
12580.80254947172
 21
5675.416197085625
 31
0.0
  0
ARC
  5
BDC1
330
BDAF
100
AcDbEntity
  8
0
  6
ByBlock
 62
     0
370
     5
100
AcDbCircle
 10
12580.56673684412
 20
5679.481731498682
 30
0.0
 40
5.060384866009777
100
AcDbArc
 50
335.8578005514428
 51
0.0
  0
ARC
  5
BDC2
330
BDAF
100
AcDbEntity
  8
0
  6
ByBlock
 62
     0
370
     5
100
AcDbCircle
 10
12581.72657628776
 20
5679.427818879781
 30
0.0
 40
4.002589221644941
100
AcDbArc
 50
287.1606012322138
 51
329.7599751170486
  0
ARC
  5
BDC3
330
BDAF
100
AcDbEntity
  8
0
  6
ByBlock
 62
     0
370
     5
100
AcDbCircle
 10
12592.53682540162
 20
5677.068060123682
 30
0.0
 40
0.8299999999999998
100
AcDbArc
 50
180.0
 51
270.0
  0
ARC
  5
BDC4
330
BDAF
100
AcDbEntity
  8
0
  6
ByBlock
 62
     0
370
     5
100
AcDbCircle
 10
12589.33236690162
 20
5677.068060123682
 30
0.0
 40
0.8299999999999998
100
AcDbArc
 50
270.0
 51
0.0
  0
LINE
  5
BDC5
330
BDAF
100
AcDbEntity
  8
0
  6
ByBlock
 62
     0
370
     5
100
AcDbLine
 10
12588.40997390162
 20
5676.238060123682
 30
0.0
 11
12589.33236690162
 21
5676.238060123682
 31
0.0
  0
LINE
  5
BDC6
330
BDAF
100
AcDbEntity
  8
0
  6
ByBlock
 62
     0
370
     5
100
AcDbLine
 10
12588.40997390162
 20
5675.715830873682
 30
0.0
 11
12588.40997390162
 21
5676.238060123682
 31
0.0
  0
LINE
  5
BDC7
330
BDAF
100
AcDbEntity
  8
0
  6
ByBlock
 62
     0
370
     5
100
AcDbLine
 10
12593.45921840162
 20
5676.238060123682
 30
0.0
 11
12592.53682540162
 21
5676.238060123682
 31
0.0
  0
LINE
  5
BDC8
330
BDAF
100
AcDbEntity
  8
0
  6
ByBlock
 62
     0
370
     5
100
AcDbLine
 10
12593.45921840162
 20
5675.715830873682
 30
0.0
 11
12588.40997390162
 21
5675.715830873682
 31
0.0
  0
LINE
  5
BDC9
330
BDAF
100
AcDbEntity
  8
0
  6
ByBlock
 62
     0
370
     5
100
AcDbLine
 10
12593.45921840162
 20
5676.238060123682
 30
0.0
 11
12593.45921840162
 21
5675.715830873682
 31
0.0
  0
ARC
  5
BDCA
330
BDAF
100
AcDbEntity
  8
0
  6
ByBlock
 62
     0
370
     5
100
AcDbCircle
 10
12601.30138689549
 20
5679.481731498682
 30
0.0
 40
5.060384866010105
100
AcDbArc
 50
180.0
 51
204.1421994485572
  0
ARC
  5
BDCB
330
BDAF
100
AcDbEntity
  8
0
  6
ByBlock
 62
     0
370
     5
100
AcDbCircle
 10
12600.14154745185
 20
5679.427818879781
 30
0.0
 40
4.002589221645123
100
AcDbArc
 50
210.2400248829514
 51
252.8393987677862
  0
LINE
  5
BDCC
330
BDAF
100
AcDbEntity
  8
0
  6
ByBlock
 62
     0
370
     5
100
AcDbLine
 10
12600.29792159672
 20
5676.112979794703
 30
0.0
 11
12600.29792159672
 21
5675.416197085626
 31
0.0
  0
ARC
  5
BDCD
330
BDAF
100
AcDbEntity
  8
0
  6
ByBlock
 62
     0
370
     5
100
AcDbCircle
 10
12600.24792159672
 20
5675.416197085626
 30
0.0
 40
0.05
100
AcDbArc
 50
265.8031498192778
 51
0.0
  0
ARC
  5
BDCE
330
BDAF
100
AcDbEntity
  8
0
  6
ByBlock
 62
     0
370
     5
100
AcDbCircle
 10
12600.24792159672
 20
5676.112979794703
 30
0.0
 40
0.05
100
AcDbArc
 50
0.0
 51
79.51278607664987
  0
LINE
  5
BDCF
330
BDAF
100
AcDbEntity
  8
0
  6
ByBlock
 62
     0
370
     5
100
AcDbLine
 10
12601.04792159672
 20
5676.109591468117
 30
0.0
 11
12601.04792159672
 21
5675.414929060317
 31
0.0
  0
ARC
  5
BDD0
330
BDAF
100
AcDbEntity
  8
0
  6
ByBlock
 62
     0
370
     5
100
AcDbCircle
 10
12601.09792159672
 20
5675.414929060317
 30
0.0
 40
0.05
100
AcDbArc
 50
180.0
 51
274.020368063706
  0
ARC
  5
BDD1
330
BDAF
100
AcDbEntity
  8
0
  6
ByBlock
 62
     0
370
     5
100
AcDbCircle
 10
12601.09792159672
 20
5676.109591468117
 30
0.0
 40
0.05
100
AcDbArc
 50
100.0304238418832
 51
180.0
  0
ARC
  5
BDD2
330
BDAF
100
AcDbEntity
  8
0
  6
ByBlock
 62
     0
370
     5
100
AcDbCircle
 10
12600.68174793231
 20
5681.340648388236
 30
0.0
 40
5.98984331078744
100
AcDbArc
 50
273.9515281528202
 51
286.6992442339437
  0
ARC
  5
BDD3
330
BDAF
100
AcDbEntity
  8
0
  6
ByBlock
 62
     0
370
     5
100
AcDbCircle
 10
12600.68174793231
 20
5681.340648388236
 30
0.0
 40
5.98984331078749
100
AcDbArc
 50
253.3007557659565
 51
265.8776428378498
  0
ARC
  5
BDD4
330
BDAF
100
AcDbEntity
  8
0
  6
ByBlock
 62
     0
370
     5
100
AcDbCircle
 10
12600.68228221412
 20
5678.459502248681
 30
0.0
 40
2.336385713394631
100
AcDbArc
 50
280.0304238417806
 51
347.7536671402987
  0
ARC
  5
BDD5
330
BDAF
100
AcDbEntity
  8
0
  6
ByBlock
 62
     0
370
     5
100
AcDbCircle
 10
12600.68228221412
 20
5678.459502248681
 30
0.0
 40
2.336385713395296
100
AcDbArc
 50
192.2463328597013
 51
259.5127860765379
  0
ARC
  5
BDD6
330
BDAF
100
AcDbEntity
  8
\U+6807\U+6CE8
 62
     0
370
     5
100
AcDbCircle
 10
12589.76633415162
 20
5680.796026248682
 30
0.0
 40
2.440491250002651
100
AcDbArc
 50
151.4992214889386
 51
180.0
  0
LINE
  5
BDD7
330
BDAF
100
AcDbEntity
  8
0
  6
ByBlock
 62
     0
370
     5
100
AcDbLine
 10
12587.32584290162
 20
5680.680944373682
 30
0.0
 11
12586.80361365162
 21
5680.680944373682
 31
0.0
  0
LINE
  5
BDD8
330
BDAF
100
AcDbEntity
  8
0
  6
ByBlock
 62
     0
370
     5
100
AcDbLine
 10
12586.80361365162
 20
5683.247632123682
 30
0.0
 11
12595.06557865162
 21
5683.247632123682
 31
0.0
  0
LINE
  5
BDD9
330
BDAF
100
AcDbEntity
  8
0
  6
ByBlock
 62
     0
370
     5
100
AcDbLine
 10
12586.80361365162
 20
5680.680944373682
 30
0.0
 11
12586.80361365162
 21
5683.247632123682
 31
0.0
  0
LINE
  5
BDDA
330
BDAF
100
AcDbEntity
  8
0
  6
ByBlock
 62
     0
370
     5
100
AcDbLine
 10
12580.80254947172
 20
5682.850483202661
 30
0.0
 11
12580.80254947172
 21
5683.547265911738
 31
0.0
  0
ARC
  5
BDDB
330
BDAF
100
AcDbEntity
  8
0
  6
ByBlock
 62
     0
370
     5
100
AcDbCircle
 10
12580.75254947172
 20
5683.547265911738
 30
0.0
 40
0.05
100
AcDbArc
 50
0.0
 51
94.19685018072225
  0
ARC
  5
BDDC
330
BDAF
100
AcDbEntity
  8
0
  6
ByBlock
 62
     0
370
     5
100
AcDbCircle
 10
12580.75254947172
 20
5682.850483202661
 30
0.0
 40
0.05
100
AcDbArc
 50
280.4872139233502
 51
0.0
  0
ARC
  5
BDDD
330
BDAF
100
AcDbEntity
  8
0
  6
ByBlock
 62
     0
370
     5
100
AcDbCircle
 10
12581.19970553611
 20
5677.816878716638
 30
0.0
 40
5.795794531796138
100
AcDbArc
 50
68.79077895122709
 51
85.97963193650185
  0
LINE
  5
BDDE
330
BDAF
100
AcDbEntity
  8
0
  6
ByBlock
 62
     0
370
     5
100
AcDbLine
 10
12581.55254947172
 20
5682.853871529247
 30
0.0
 11
12581.55254947172
 21
5683.548533937046
 31
0.0
  0
ARC
  5
BDDF
330
BDAF
100
AcDbEntity
  8
0
  6
ByBlock
 62
     0
370
     5
100
AcDbCircle
 10
12581.60254947172
 20
5683.548533937046
 30
0.0
 40
0.05
100
AcDbArc
 50
85.97963193629395
 51
180.0
  0
ARC
  5
BDE0
330
BDAF
100
AcDbEntity
  8
0
  6
ByBlock
 62
     0
370
     5
100
AcDbCircle
 10
12581.18691008912
 20
5680.503960748682
 30
0.0
 40
2.336385713395258
100
AcDbArc
 50
12.24633285970133
 51
79.96957615821944
  0
ARC
  5
BDE1
330
BDAF
100
AcDbEntity
  8
0
  6
ByBlock
 62
     0
370
     5
100
AcDbCircle
 10
12581.80601477049
 20
5679.688277819743
 30
0.0
 40
3.833436410616458
100
AcDbArc
 50
23.76720121404107
 51
67.11979055595094
  0
ARC
  5
BDE2
330
BDAF
100
AcDbEntity
  8
\U+6807\U+6CE8
 62
     0
370
     5
100
AcDbCircle
 10
12592.10285815162
 20
5680.796026248682
 30
0.0
 40
2.440491250002651
100
AcDbArc
 50
0.0
 51
28.50077851106139
  0
LINE
  5
BDE3
330
BDAF
100
AcDbEntity
  8
0
  6
ByBlock
 62
     0
370
     5
100
AcDbLine
 10
12588.96981953709
 20
5682.725402873682
 30
0.0
 11
12590.16236690162
 21
5682.725402873682
 31
0.0
  0
LINE
  5
BDE4
330
BDAF
100
AcDbEntity
  8
0
  6
ByBlock
 62
     0
370
     5
100
AcDbLine
 10
12595.06557865162
 20
5683.247632123682
 30
0.0
 11
12595.06557865162
 21
5680.680944373682
 31
0.0
  0
LINE
  5
BDE5
330
BDAF
100
AcDbEntity
  8
0
  6
ByBlock
 62
     0
370
     5
100
AcDbLine
 10
12595.06557865162
 20
5680.680944373682
 30
0.0
 11
12594.54334940162
 21
5680.680944373682
 31
0.0
  0
LINE
  5
BDE6
330
BDAF
100
AcDbEntity
  8
0
  6
ByBlock
 62
     0
370
     5
100
AcDbLine
 10
12594.54334940162
 20
5680.796026248682
 30
0.0
 11
12594.54334940162
 21
5680.680944373682
 31
0.0
  0
ARC
  5
BDE7
330
BDAF
100
AcDbEntity
  8
\U+6807\U+6CE8
 62
     0
370
     5
100
AcDbCircle
 10
12592.89832187462
 20
5681.157823430617
 30
0.0
 40
1.569999999999043
100
AcDbArc
 50
30.7501526167589
 51
90.0
  0
LINE
  5
BDE8
330
BDAF
100
AcDbEntity
  8
\U+6807\U+6CE8
 62
     0
370
     5
100
AcDbLine
 10
12592.89832187466
 20
5682.727823430616
 30
0.0
 11
12591.70682540162
 21
5682.727823430616
 31
0.0
  0
ARC
  5
BDE9
330
BDAF
100
AcDbEntity
  8
\U+6807\U+6CE8
 62
     0
370
     5
100
AcDbCircle
 10
12588.97087042863
 20
5681.157823430617
 30
0.0
 40
1.569999999999043
100
AcDbArc
 50
90.0
 51
149.2498473832411
  0
LINE
  5
BDEA
330
BDAF
100
AcDbEntity
  8
0
  6
ByBlock
 62
     0
370
     5
100
AcDbLine
 10
12587.32584290162
 20
5680.680944373682
 30
0.0
 11
12587.32584290162
 21
5680.796026248682
 31
0.0
  0
ARC
  5
BDEB
330
BDAF
100
AcDbEntity
  8
0
  6
ByBlock
 62
     0
370
     5
100
AcDbCircle
 10
12600.06210896912
 20
5679.688277819744
 30
0.0
 40
3.83343641061578
100
AcDbArc
 50
112.880209444049
 51
156.2327987859589
  0
ARC
  5
BDEC
330
BDAF
100
AcDbEntity
  8
0
  6
ByBlock
 62
     0
370
     5
100
AcDbCircle
 10
12601.09792159672
 20
5682.853871529247
 30
0.0
 40
0.05
100
AcDbArc
 50
180.0
 51
259.9695761581169
  0
ARC
  5
BDED
330
BDAF
100
AcDbEntity
  8
0
  6
ByBlock
 62
     0
370
     5
100
AcDbCircle
 10
12600.68228221412
 20
5680.503960748683
 30
0.0
 40
2.336385713395258
100
AcDbArc
 50
12.24633285970133
 51
79.96957615821944
  0
ARC
  5
BDEE
330
BDAF
100
AcDbEntity
  8
0
  6
ByBlock
 62
     0
370
     5
100
AcDbCircle
 10
12601.09792159672
 20
5683.548533937046
 30
0.0
 40
0.05
100
AcDbArc
 50
85.97963193629395
 51
180.0
  0
LINE
  5
BDEF
330
BDAF
100
AcDbEntity
  8
0
  6
ByBlock
 62
     0
370
     5
100
AcDbLine
 10
12601.04792159672
 20
5682.853871529247
 30
0.0
 11
12601.04792159672
 21
5683.548533937046
 31
0.0
  0
ARC
  5
BDF0
330
BDAF
100
AcDbEntity
  8
0
  6
ByBlock
 62
     0
370
     5
100
AcDbCircle
 10
12600.69507766111
 20
5677.81687871664
 30
0.0
 40
5.795794531796138
100
AcDbArc
 50
68.79077895122709
 51
85.97963193650185
  0
ARC
  5
BDF1
330
BDAF
100
AcDbEntity
  8
0
  6
ByBlock
 62
     0
370
     5
100
AcDbCircle
 10
12600.24792159672
 20
5682.850483202661
 30
0.0
 40
0.05
100
AcDbArc
 50
280.4872139233502
 51
0.0
  0
ARC
  5
BDF2
330
BDAF
100
AcDbEntity
  8
0
  6
ByBlock
 62
     0
370
     5
100
AcDbCircle
 10
12600.68228221412
 20
5680.503960748683
 30
0.0
 40
2.336385713394631
100
AcDbArc
 50
100.4872139234621
 51
167.7536671402986
  0
ARC
  5
BDF3
330
BDAF
100
AcDbEntity
  8
0
  6
ByBlock
 62
     0
370
     5
100
AcDbCircle
 10
12600.24792159672
 20
5683.547265911738
 30
0.0
 40
0.05
100
AcDbArc
 50
0.0
 51
94.19685018072225
  0
LINE
  5
BDF4
330
BDAF
100
AcDbEntity
  8
0
  6
ByBlock
 62
     0
370
     5
100
AcDbLine
 10
12600.29792159672
 20
5682.850483202661
 30
0.0
 11
12600.29792159672
 21
5683.547265911738
 31
0.0
  0
ARC
  5
BDF5
330
BDAF
100
AcDbEntity
  8
0
  6
ByBlock
 62
     0
370
     5
100
AcDbCircle
 10
12600.6684182035
 20
5677.81687871664
 30
0.0
 40
5.795794531795778
100
AcDbArc
 50
94.19685018051056
 51
111.2092210487729
  0
ARC
  5
BDF6
330
BDAF
100
AcDbEntity
  8
0
  6
ByBlock
 62
     0
370
     5
100
AcDbCircle
 10
12581.60254947172
 20
5682.853871529247
 30
0.0
 40
0.05
100
AcDbArc
 50
180.0
 51
259.9695761581169
  0
LINE
  5
BDF7
330
BDAF
100
AcDbEntity
  8
0
  6
ByBlock
 62
     0
370
     5
100
AcDbLine
 10
12570.66699477662
 20
5677.068060123682
 30
0.0
 11
12570.66699477662
 21
5682.725402873682
 31
0.0
  0
LINE
  5
BDF8
330
BDAF
100
AcDbEntity
  8
0
  6
ByBlock
 62
     0
370
     5
100
AcDbLine
 10
12572.21145327662
 20
5677.068060123682
 30
0.0
 11
12572.21145327662
 21
5682.727823430616
 31
0.0
  0
ARC
  5
BDF9
330
BDAF
100
AcDbEntity
  8
0
  6
ByBlock
 62
     0
370
     5
100
AcDbCircle
 10
12581.80601477049
 20
5679.481731498682
 30
0.0
 40
5.060384866010414
100
AcDbArc
 50
159.7497832534276
 51
180.0
  0
ARC
  5
BDFA
330
BDAF
100
AcDbEntity
  8
0
  6
ByBlock
 62
     0
370
     5
100
AcDbCircle
 10
12585.89646627662
 20
5679.481731498682
 30
0.0
 40
7.155604749999144
100
AcDbArc
 50
167.7536671402986
 51
192.2463328597013
  0
LINE
  5
BDFB
330
BDAF
100
AcDbEntity
  8
0
  6
ByBlock
 62
     0
370
     5
100
AcDbLine
 10
12573.96384627662
 20
5675.715830873682
 30
0.0
 11
12568.91460177662
 21
5675.715830873682
 31
0.0
  0
LINE
  5
BDFC
330
BDAF
100
AcDbEntity
  8
0
  6
ByBlock
 62
     0
370
     5
100
AcDbLine
 10
12568.91460177662
 20
5675.715830873682
 30
0.0
 11
12568.91460177662
 21
5676.238060123682
 31
0.0
  0
LINE
  5
BDFD
330
BDAF
100
AcDbEntity
  8
0
  6
ByBlock
 62
     0
370
     5
100
AcDbLine
 10
12568.91460177662
 20
5676.238060123682
 30
0.0
 11
12569.83699477662
 21
5676.238060123682
 31
0.0
  0
ARC
  5
BDFE
330
BDAF
100
AcDbEntity
  8
0
  6
ByBlock
 62
     0
370
     5
100
AcDbCircle
 10
12569.83699477662
 20
5677.068060123682
 30
0.0
 40
0.8299999999999998
100
AcDbArc
 50
270.0
 51
0.0
  0
LINE
  5
BDFF
330
BDAF
100
AcDbEntity
  8
0
  6
ByBlock
 62
     0
370
     5
100
AcDbLine
 10
12573.96384627662
 20
5676.238060123682
 30
0.0
 11
12573.96384627662
 21
5675.715830873682
 31
0.0
  0
LINE
  5
BE00
330
BDAF
100
AcDbEntity
  8
0
  6
ByBlock
 62
     0
370
     5
100
AcDbLine
 10
12573.96384627662
 20
5676.238060123682
 30
0.0
 11
12573.04145327662
 21
5676.238060123682
 31
0.0
  0
ARC
  5
BE01
330
BDAF
100
AcDbEntity
  8
0
  6
ByBlock
 62
     0
370
     5
100
AcDbCircle
 10
12573.04145327662
 20
5677.068060123682
 30
0.0
 40
0.8299999999999998
100
AcDbArc
 50
180.0
 51
270.0
  0
ARC
  5
BE02
330
BDAF
100
AcDbEntity
  8
0
  6
ByBlock
 62
     0
370
     5
100
AcDbCircle
 10
12580.64617532685
 20
5679.427818879781
 30
0.0
 40
4.002589221645123
100
AcDbArc
 50
210.2400248829514
 51
252.8393987677862
  0
ARC
  5
BE03
330
BDAF
100
AcDbEntity
  8
0
  6
ByBlock
 62
     0
370
     5
100
AcDbCircle
 10
12581.80601477049
 20
5679.481731498682
 30
0.0
 40
5.060384866010105
100
AcDbArc
 50
180.0
 51
204.1421994485572
  0
LINE
  5
BE04
330
BDAF
100
AcDbEntity
  8
0
  6
ByBlock
 62
     0
370
     5
100
AcDbLine
 10
12567.30824152662
 20
5683.247632123682
 30
0.0
 11
12575.57020652662
 21
5683.247632123682
 31
0.0
  0
LINE
  5
BE05
330
BDAF
100
AcDbEntity
  8
0
  6
ByBlock
 62
     0
370
     5
100
AcDbLine
 10
12567.30824152662
 20
5680.680944373682
 30
0.0
 11
12567.30824152662
 21
5683.247632123682
 31
0.0
  0
LINE
  5
BE06
330
BDAF
100
AcDbEntity
  8
0
  6
ByBlock
 62
     0
370
     5
100
AcDbLine
 10
12567.83047077662
 20
5680.680944373682
 30
0.0
 11
12567.83047077662
 21
5680.796026248682
 31
0.0
  0
LINE
  5
BE07
330
BDAF
100
AcDbEntity
  8
0
  6
ByBlock
 62
     0
370
     5
100
AcDbLine
 10
12567.83047077662
 20
5680.680944373682
 30
0.0
 11
12567.30824152662
 21
5680.680944373682
 31
0.0
  0
ARC
  5
BE08
330
BDAF
100
AcDbEntity
  8
\U+6807\U+6CE8
 62
     0
370
     5
100
AcDbCircle
 10
12570.27096202662
 20
5680.796026248682
 30
0.0
 40
2.440491250002651
100
AcDbArc
 50
151.4992214889386
 51
180.0
  0
ARC
  5
BE09
330
BDAF
100
AcDbEntity
  8
\U+6807\U+6CE8
 62
     0
370
     5
100
AcDbCircle
 10
12569.47549830363
 20
5681.157823430617
 30
0.0
 40
1.569999999999043
100
AcDbArc
 50
90.0
 51
149.2498473832411
  0
LINE
  5
BE0A
330
BDAF
100
AcDbEntity
  8
0
  6
ByBlock
 62
     0
370
     5
100
AcDbLine
 10
12569.47444741209
 20
5682.725402873682
 30
0.0
 11
12570.66699477662
 21
5682.725402873682
 31
0.0
  0
LINE
  5
BE0B
330
BDAF
100
AcDbEntity
  8
\U+6807\U+6CE8
 62
     0
370
     5
100
AcDbLine
 10
12573.40294974966
 20
5682.727823430616
 30
0.0
 11
12572.21145327662
 21
5682.727823430616
 31
0.0
  0
ARC
  5
BE0C
330
BDAF
100
AcDbEntity
  8
\U+6807\U+6CE8
 62
     0
370
     5
100
AcDbCircle
 10
12573.40294974962
 20
5681.157823430617
 30
0.0
 40
1.569999999999043
100
AcDbArc
 50
30.7501526167589
 51
90.0
  0
LINE
  5
BE0D
330
BDAF
100
AcDbEntity
  8
0
  6
ByBlock
 62
     0
370
     5
100
AcDbLine
 10
12575.04797727662
 20
5680.796026248682
 30
0.0
 11
12575.04797727662
 21
5680.680944373682
 31
0.0
  0
LINE
  5
BE0E
330
BDAF
100
AcDbEntity
  8
0
  6
ByBlock
 62
     0
370
     5
100
AcDbLine
 10
12575.57020652662
 20
5680.680944373682
 30
0.0
 11
12575.04797727662
 21
5680.680944373682
 31
0.0
  0
LINE
  5
BE0F
330
BDAF
100
AcDbEntity
  8
0
  6
ByBlock
 62
     0
370
     5
100
AcDbLine
 10
12575.57020652662
 20
5683.247632123682
 30
0.0
 11
12575.57020652662
 21
5680.680944373682
 31
0.0
  0
ARC
  5
BE10
330
BDAF
100
AcDbEntity
  8
\U+6807\U+6CE8
 62
     0
370
     5
100
AcDbCircle
 10
12572.60748602662
 20
5680.796026248682
 30
0.0
 40
2.440491250002651
100
AcDbArc
 50
0.0
 51
28.50077851106139
  0
ARC
  5
BE11
330
BDAF
100
AcDbEntity
  8
0
  6
ByBlock
 62
     0
370
     5
100
AcDbCircle
 10
12580.56673684412
 20
5679.688277819743
 30
0.0
 40
3.83343641061578
100
AcDbArc
 50
112.880209444049
 51
156.2327987859589
  0
ARC
  5
BE12
330
BDAF
100
AcDbEntity
  8
0
  6
ByBlock
 62
     0
370
     5
100
AcDbCircle
 10
12581.18691008912
 20
5678.459502248681
 30
0.0
 40
2.336385713395296
100
AcDbArc
 50
192.2463328597013
 51
259.5127860765379
  0
ARC
  5
BE13
330
BDAF
100
AcDbEntity
  8
0
  6
ByBlock
 62
     0
370
     5
100
AcDbCircle
 10
12581.18637580731
 20
5681.340648388236
 30
0.0
 40
5.98984331078749
100
AcDbArc
 50
253.3007557659565
 51
265.8776428378498
  0
ARC
  5
BE14
330
BDAF
100
AcDbEntity
  8
0
  6
ByBlock
 62
     0
370
     5
100
AcDbCircle
 10
12581.1730460785
 20
5677.816878716638
 30
0.0
 40
5.795794531795778
100
AcDbArc
 50
94.19685018051056
 51
111.2092210487729
  0
ARC
  5
BE15
330
BDAF
100
AcDbEntity
  8
0
  6
ByBlock
 62
     0
370
     5
100
AcDbCircle
 10
12581.18691008912
 20
5680.503960748682
 30
0.0
 40
2.336385713394631
100
AcDbArc
 50
100.4872139234621
 51
167.7536671402986
  0
ARC
  5
BE16
330
BDAF
100
AcDbEntity
  8
0
  6
ByBlock
 62
     0
370
     5
100
AcDbCircle
 10
12600.06210896912
 20
5679.481731498682
 30
0.0
 40
5.060384866009128
100
AcDbArc
 50
0.0
 51
20.25021674657236
  0
ARC
  5
BE17
330
BDAF
100
AcDbEntity
  8
0
  6
ByBlock
 62
     0
370
     5
100
AcDbCircle
 10
12601.22194841276
 20
5679.427818879781
 30
0.0
 40
4.002589221644941
100
AcDbArc
 50
287.1606012322138
 51
329.7599751170486
  0
ARC
  5
BE18
330
BDAF
100
AcDbEntity
  8
0
  6
ByBlock
 62
     0
370
     5
100
AcDbCircle
 10
12600.06210896912
 20
5679.481731498682
 30
0.0
 40
5.060384866009777
100
AcDbArc
 50
335.8578005514428
 51
0.0
  0
ARC
  5
BE19
330
BDAF
100
AcDbEntity
  8
0
  6
ByBlock
 62
     0
370
     5
100
AcDbCircle
 10
12601.30138689549
 20
5679.688277819744
 30
0.0
 40
3.833436410616458
100
AcDbArc
 50
23.76720121404107
 51
67.11979055595094
  0
ENDBLK
  5
BDB1
330
BDAF
100
AcDbEntity
  8
0
100
AcDbBlockEnd
  0
ENDSEC
  0
SECTION
  2
ENTITIES
  0
MTEXT
  5
1174
330
18
100
AcDbEntity
  8
\U+6807\U+6CE8
  6
DASHED
100
AcDbMText
 10
1563.755827897638
 20
1611.233430954657
 30
0.0
 40
20.0
 41
0.0
 71
     4
 72
     1
  1
\A1;
 73
     1
 44
1.0
1001
ACAD
1000
MTEXTBEGIN
1070
    73
1070
     1
1070
    44
1040
1.0
1070
    74
1070
     0
1000
MTEXTEND
  0
LINE
  5
4983
330
18
100
AcDbEntity
  8
0
  6
ByBlock
100
AcDbLine
 10
47.9127148316301
 20
38.35990041786468
 30
0.0
 11
107.6370048316301
 21
38.35990041786468
 31
0.0
  0
LINE
  5
4984
330
18
100
AcDbEntity
  8
0
  6
ByBlock
100
AcDbLine
 10
47.9127148316301
 20
69.97401041786472
 30
0.0
 11
47.9127148316301
 21
38.35990041786468
 31
0.0
  0
LINE
  5
4985
330
18
100
AcDbEntity
  8
0
  6
ByBlock
100
AcDbLine
 10
48.30641483163011
 20
70.36771041786471
 30
0.0
 11
107.2433048316301
 21
70.36771041786469
 31
0.0
  0
LINE
  5
4986
330
18
100
AcDbEntity
  8
0
  6
ByBlock
100
AcDbLine
 10
107.6370048316301
 20
69.97401041786469
 30
0.0
 11
107.6370048316301
 21
38.35990041786468
 31
0.0
  0
LINE
  5
4988
330
18
100
AcDbEntity
  8
\U+6807\U+6CE8
  6
CENTERX2
 48
0.1
100
AcDbLine
 10
82.55831483163012
 20
72.02354107890832
 30
0.0
 11
82.55831483163012
 21
36.05791491884001
 31
0.0
  0
ARC
  5
498F
330
18
100
AcDbEntity
  8
0
  6
ByBlock
100
AcDbCircle
 10
83.9122222015742
 20
57.84649003850795
 30
0.0
 40
19.685
100
AcDbArc
 50
3.380898757778773
 51
11.79431662628991
  0
ARC
  5
4992
330
18
100
AcDbEntity
  8
0
  6
ByBlock
100
AcDbCircle
 10
97.40080483163012
 20
60.66300541786468
 30
0.0
 40
5.905499999999999
100
AcDbArc
 50
11.79431662628991
 51
90.0
  0
ARC
  5
4996
330
18
100
AcDbEntity
  8
0
  6
ByBlock
100
AcDbCircle
 10
88.93125890573035
 20
12.18479435289328
 30
0.0
 40
55.118
100
AcDbArc
 50
81.14804570563929
 51
87.98335633344088
  0
ARC
  5
4997
330
18
100
AcDbEntity
  8
0
  6
ByBlock
100
AcDbCircle
 10
82.55831483163005
 20
-168.8050395821353
 30
0.0
 40
236.22
100
AcDbArc
 50
87.98335633344088
 51
95.8749331853486
  0
ARC
  5
49A0
330
18
100
AcDbEntity
  8
0
  6
ByBlock
100
AcDbCircle
 10
64.82715649442751
 20
3.513113866713414
 30
0.0
 40
62.992
100
AcDbArc
 50
95.8749331853486
 51
100.0644039083069
  0
ARC
  5
49A2
330
18
100
AcDbEntity
  8
0
  6
ByBlock
100
AcDbCircle
 10
54.36939483163012
 20
62.43465541786468
 30
0.0
 40
3.1496
100
AcDbArc
 50
100.0644039083069
 51
166.6835198672549
  0
ARC
  5
49A4
330
18
100
AcDbEntity
  8
0
  6
ByBlock
100
AcDbCircle
 10
66.62905740167136
 20
59.53287041054078
 30
0.0
 40
15.748
100
AcDbArc
 50
166.6835198672549
 51
175.2930689512635
  0
ARC
  5
49A8
330
18
100
AcDbEntity
  8
0
  6
ByBlock
100
AcDbCircle
 10
129.4086148316301
 20
54.36380541786468
 30
0.0
 40
78.74000000000001
100
AcDbArc
 50
175.2930689512635
 51
184.7069310487364
  0
ARC
  5
49B1
330
18
100
AcDbEntity
  8
0
  6
ByBlock
100
AcDbCircle
 10
67.23347174245855
 20
1.184712697949517
 30
0.0
 40
62.992
100
AcDbArc
 50
95.07538154260769
 51
101.2581063241836
  0
ARC
  5
49B3
330
18
100
AcDbEntity
  8
0
  6
ByBlock
100
AcDbCircle
 10
55.55049483163011
 20
59.87560541786468
 30
0.0
 40
3.1496
100
AcDbArc
 50
101.2581063241836
 51
167.6562871020071
  0
ARC
  5
49B5
330
18
100
AcDbEntity
  8
0
  6
ByBlock
100
AcDbCircle
 10
67.85765462008001
 20
57.18237306591984
 30
0.0
 40
15.748
100
AcDbArc
 50
167.6562871020071
 51
177.4354526550062
  0
ARC
  5
49B8
330
18
100
AcDbEntity
  8
0
  6
ByBlock
100
AcDbCircle
 10
130.7865648316301
 20
54.36380541786468
 30
0.0
 40
78.74000000000001
100
AcDbArc
 50
177.4354526550062
 51
182.5645473449937
  0
ARC
  5
49BC
330
18
100
AcDbEntity
  8
0
  6
ByBlock
100
AcDbCircle
 10
83.54152982538479
 20
9.735241427880845
 30
0.0
 40
55.118
100
AcDbArc
 50
82.39586560868268
 51
89.68893581381882
  0
ARC
  5
49BF
330
18
100
AcDbEntity
  8
0
  6
ByBlock
100
AcDbCircle
 10
82.55831483163005
 20
-171.3640895821353
 30
0.0
 40
236.22
100
AcDbArc
 50
89.68893581381882
 51
95.07538154260769
  0
ARC
  5
49C0
330
18
100
AcDbEntity
  8
0
  6
ByBlock
100
AcDbCircle
 10
75.30913205984113
 20
55.6862709931827
 30
0.0
 40
19.685
100
AcDbArc
 50
3.852111217170259
 51
17.66934221599164
  0
ARC
  5
49C2
330
18
100
AcDbEntity
  8
0
  6
ByBlock
100
AcDbCircle
 10
90.31420483163012
 20
60.46615541786469
 30
0.0
 40
3.937
100
AcDbArc
 50
17.66934221599164
 51
82.39586560868268
  0
ARC
  5
49C4
330
18
100
AcDbEntity
  8
0
  6
ByBlock
100
AcDbCircle
 10
90.31420483163012
 20
48.26145541786468
 30
0.0
 40
3.937
100
AcDbArc
 50
277.6041343913173
 51
342.3306577840083
  0
ARC
  5
49C5
330
18
100
AcDbEntity
  8
0
  6
ByBlock
100
AcDbCircle
 10
75.30913205984113
 20
53.04133984254665
 30
0.0
 40
19.685
100
AcDbArc
 50
342.3306577840083
 51
356.1478887828297
  0
ARC
  5
49C6
330
18
100
AcDbEntity
  8
0
  6
ByBlock
100
AcDbCircle
 10
88.93125890573035
 20
96.54281648283609
 30
0.0
 40
55.118
100
AcDbArc
 50
272.0166436665591
 51
278.8519542943607
  0
ARC
  5
49C7
330
18
100
AcDbEntity
  8
0
  6
ByBlock
100
AcDbCircle
 10
82.55831483163005
 20
280.0917004178647
 30
0.0
 40
236.22
100
AcDbArc
 50
264.9246184573923
 51
270.3110641861812
  0
ARC
  5
49C8
330
18
100
AcDbEntity
  8
0
  6
ByBlock
100
AcDbCircle
 10
82.55831483163005
 20
277.5326504178647
 30
0.0
 40
236.22
100
AcDbArc
 50
264.1250668146514
 51
272.0166436665591
  0
ARC
  5
49C9
330
18
100
AcDbEntity
  8
0
  6
ByBlock
100
AcDbCircle
 10
67.23347174245855
 20
107.5428981377798
 30
0.0
 40
62.992
100
AcDbArc
 50
258.7418936758163
 51
264.9246184573923
  0
ARC
  5
49CA
330
18
100
AcDbEntity
  8
0
  6
ByBlock
100
AcDbCircle
 10
55.55049483163011
 20
48.85200541786468
 30
0.0
 40
3.1496
100
AcDbArc
 50
192.3437128979929
 51
258.7418936758163
  0
ARC
  5
49CB
330
18
100
AcDbEntity
  8
0
  6
ByBlock
100
AcDbCircle
 10
54.36939483163012
 20
46.29295541786468
 30
0.0
 40
3.1496
100
AcDbArc
 50
193.3164801327451
 51
259.935596091693
  0
ARC
  5
49CC
330
18
100
AcDbEntity
  8
0
  6
ByBlock
100
AcDbCircle
 10
66.62905740167136
 20
49.19474042518858
 30
0.0
 40
15.748
100
AcDbArc
 50
184.7069310487364
 51
193.3164801327451
  0
ARC
  5
49CD
330
18
100
AcDbEntity
  8
0
  6
ByBlock
100
AcDbCircle
 10
67.85765462008001
 20
51.54523776980951
 30
0.0
 40
15.748
100
AcDbArc
 50
182.5645473449937
 51
192.3437128979929
  0
ARC
  5
49CE
330
18
100
AcDbEntity
  8
0
  6
ByBlock
100
AcDbCircle
 10
64.82715649442751
 20
105.2144969690159
 30
0.0
 40
62.992
100
AcDbArc
 50
259.935596091693
 51
264.1250668146514
  0
ARC
  5
49CF
330
18
100
AcDbEntity
  8
0
  6
ByBlock
100
AcDbCircle
 10
83.54152982538479
 20
98.99236940784852
 30
0.0
 40
55.118
100
AcDbArc
 50
270.3110641861812
 51
277.6041343913173
  0
ARC
  5
49D0
330
18
100
AcDbEntity
  8
0
  6
ByBlock
100
AcDbCircle
 10
97.40080483163012
 20
48.06460541786468
 30
0.0
 40
5.905499999999999
100
AcDbArc
 50
270.0
 51
348.2056833737101
  0
ARC
  5
49D1
330
18
100
AcDbEntity
  8
0
  6
ByBlock
100
AcDbCircle
 10
83.9122222015742
 20
50.88112079722142
 30
0.0
 40
19.685
100
AcDbArc
 50
348.2056833737101
 51
356.6191012422212
  0
ARC
  5
49D4
330
18
100
AcDbEntity
  8
0
  6
ByBlock
100
AcDbCircle
 10
55.66860483163011
 20
54.36380541786468
 30
0.0
 40
39.37000000000001
100
AcDbArc
 50
356.1478887828297
 51
3.852111217170259
  0
ARC
  5
49D5
330
18
100
AcDbEntity
  8
0
  6
ByBlock
100
AcDbCircle
 10
24.96000483163011
 20
54.36380541786468
 30
0.0
 40
78.74000000000001
100
AcDbArc
 50
356.6191012422212
 51
3.380898757778773
  0
LINE
  5
49D6
330
18
100
AcDbEntity
  8
0
  6
ByBlock
100
AcDbLine
 10
48.34578483163011
 20
69.54094041786472
 30
0.0
 11
48.34578483163011
 21
38.35990041786468
 31
0.0
  0
LINE
  5
49D7
330
18
100
AcDbEntity
  8
0
  6
ByBlock
100
AcDbLine
 10
48.73948483163012
 20
69.93464041786471
 30
0.0
 11
106.8102348316301
 21
69.93464041786468
 31
0.0
  0
LINE
  5
49D8
330
18
100
AcDbEntity
  8
0
  6
ByBlock
100
AcDbLine
 10
107.2039348316301
 20
69.54094041786468
 30
0.0
 11
107.2039348316301
 21
38.35990041786468
 31
0.0
  0
ARC
  5
49DA
330
18
100
AcDbEntity
  8
0
  6
ByBlock
100
AcDbCircle
 10
48.30641483163011
 20
69.97401041786472
 30
0.0
 40
0.3937
100
AcDbArc
 50
90.0
 51
180.0
  0
ARC
  5
49DB
330
18
100
AcDbEntity
  8
0
  6
ByBlock
100
AcDbCircle
 10
48.73948483163012
 20
69.54094041786472
 30
0.0
 40
0.3937
100
AcDbArc
 50
90.0
 51
180.0
  0
ARC
  5
49DC
330
18
100
AcDbEntity
  8
0
  6
ByBlock
100
AcDbCircle
 10
107.2433048316301
 20
69.97401041786469
 30
0.0
 40
0.3937
100
AcDbArc
 50
0.0
 51
90.0
  0
ARC
  5
49DD
330
18
100
AcDbEntity
  8
0
  6
ByBlock
100
AcDbCircle
 10
106.8102348316301
 20
69.54094041786468
 30
0.0
 40
0.3937
100
AcDbArc
 50
0.0
 51
90.0
  0
LINE
  5
49DF
330
18
100
AcDbEntity
  8
\U+6807\U+6CE8
  6
CENTERX2
 48
0.1
100
AcDbLine
 10
46.03711998290243
 20
54.36380541786468
 30
0.0
 11
109.8620197583338
 21
54.36380541786468
 31
0.0
  0
LINE
  5
49EB
330
18
100
AcDbEntity
  8
\U+6807\U+6CE8
  6
DASHED
 48
0.1
100
AcDbLine
 10
56.66078916790933
 20
38.59612041786468
 30
0.0
 11
98.8889304953509
 21
38.59612041786468
 31
0.0
  0
LINE
  5
49ED
330
18
100
AcDbEntity
  8
\U+6807\U+6CE8
  6
ByBlock
 48
0.1
100
AcDbLine
 10
55.78671483163011
 20
38.35990041786468
 30
0.0
 11
56.49109587408812
 21
38.57121473060202
 31
0.0
  0
ARC
  5
49EE
330
18
100
AcDbEntity
  8
\U+6807\U+6CE8
  6
ByBlock
 48
0.1
100
AcDbCircle
 10
56.66078916790933
 20
38.00557041786468
 30
0.0
 40
0.59055
100
AcDbArc
 50
90.0
 51
106.6992442340435
  0
LINE
  5
49F2
330
18
100
AcDbEntity
  8
\U+6807\U+6CE8
  6
ByBlock
 48
0.1
100
AcDbLine
 10
99.76300483163011
 20
38.35990041786468
 30
0.0
 11
99.05862378917213
 21
38.57121473060202
 31
0.0
  0
ARC
  5
49F3
330
18
100
AcDbEntity
  8
\U+6807\U+6CE8
  6
ByBlock
 48
0.1
100
AcDbCircle
 10
98.8889304953509
 20
38.00557041786468
 30
0.0
 40
0.59055
100
AcDbArc
 50
73.30075576595648
 51
90.0
  0
LINE
  5
49F5
330
18
100
AcDbEntity
  8
0
  6
ByBlock
100
AcDbLine
 10
47.91271483163003
 20
27.30399281235811
 30
0.0
 11
47.91271483163003
 21
26.67407281235814
 31
0.0
  0
LINE
  5
49F6
330
18
100
AcDbEntity
  8
0
  6
ByBlock
100
AcDbLine
 10
107.6370048316301
 20
27.30399281235815
 30
0.0
 11
107.6370048316301
 21
26.67407281235814
 31
0.0
  0
LINE
  5
49F7
330
18
100
AcDbEntity
  8
0
  6
ByBlock
100
AcDbLine
 10
47.9127148316301
 20
27.30399281235815
 30
0.0
 11
107.6370048316301
 21
27.30399281235815
 31
0.0
  0
LINE
  5
49F8
330
18
100
AcDbEntity
  8
0
  6
ByBlock
100
AcDbLine
 10
48.55619184611004
 20
26.91029281235814
 30
0.0
 11
105.5428404748441
 21
26.91029281235814
 31
0.0
  0
LINE
  5
49FF
330
18
100
AcDbEntity
  8
\U+6807\U+6CE8
  6
DASHED
 48
0.1
100
AcDbLine
 10
103.452034173795
 20
26.23682262046805
 30
0.0
 11
96.15787509587605
 21
14.53301282726166
 31
0.0
  0
ARC
  5
4A04
330
18
100
AcDbEntity
  8
0
  6
ByBlock
100
AcDbCircle
 10
105.5428404748441
 20
20.61109281235815
 30
0.0
 40
6.2992
100
AcDbArc
 50
90.0
 51
102.2785504431863
  0
LINE
  5
4A07
330
18
100
AcDbEntity
  8
0
  6
ByBlock
100
AcDbLine
 10
107.5230761136368
 20
27.26489423681011
 30
0.0
 11
107.3446897036032
 21
27.06668711455045
 31
0.0
  0
ARC
  5
4A08
330
18
100
AcDbEntity
  8
0
  6
ByBlock
100
AcDbCircle
 10
106.9935278171502
 20
27.38273281235815
 30
0.0
 40
0.4724400000000001
100
AcDbArc
 50
270.0
 51
318.0127875041601
  0
ARC
  5
4A0A
330
18
100
AcDbEntity
  8
0
  6
ByBlock
100
AcDbCircle
 10
107.6108665852501
 20
27.18588281235818
 30
0.0
 40
0.11811
100
AcDbArc
 50
90.0
 51
138.0127875041601
  0
LINE
  5
4A0F
330
18
100
AcDbEntity
  8
\U+6807\U+6CE8
  6
DASHED
 48
0.1
100
AcDbLine
 10
107.6370048316301
 20
26.67407281235814
 30
0.0
 11
107.5779498316301
 21
26.47722281235815
 31
0.0
  0
LINE
  5
4A10
330
18
100
AcDbEntity
  8
\U+6807\U+6CE8
  6
DASHED
 48
0.1
100
AcDbLine
 10
106.8299198316301
 20
26.63470281235815
 30
0.0
 11
107.5779498316301
 21
26.47722281235815
 31
0.0
  0
ARC
  5
4A11
330
18
100
AcDbEntity
  8
\U+6807\U+6CE8
  6
DASHED
 48
0.1
100
AcDbCircle
 10
104.4544017891249
 20
25.61211759108398
 30
0.0
 40
1.1811
100
AcDbArc
 50
102.2785504431863
 51
148.0676236070666
  0
ARC
  5
4A12
330
18
100
AcDbEntity
  8
\U+6807\U+6CE8
  6
DASHED
 48
0.1
100
AcDbCircle
 10
105.5428404748441
 20
20.61109281235815
 30
0.0
 40
6.02361
100
AcDbArc
 50
90.0
 51
102.2785504431863
  0
ARC
  5
4A13
330
18
100
AcDbEntity
  8
\U+6807\U+6CE8
  6
DASHED
 48
0.1
100
AcDbCircle
 10
104.4544017891249
 20
25.61211759108398
 30
0.0
 40
0.9055099999999999
100
AcDbArc
 50
102.2785504431863
 51
148.0676236070666
  0
LINE
  5
4A14
330
18
100
AcDbEntity
  8
\U+6807\U+6CE8
  6
DASHED
 48
0.1
100
AcDbLine
 10
103.6859199507053
 20
26.09105811361176
 30
0.0
 11
96.39176087278627
 21
14.38724832040541
 31
0.0
  0
LINE
  5
4A15
330
18
100
AcDbEntity
  8
0
  6
ByBlock
100
AcDbLine
 10
105.5428404748441
 20
26.91029281235814
 30
0.0
 11
106.9935278171502
 21
26.91029281235814
 31
0.0
  0
LINE
  5
4A16
330
18
100
AcDbEntity
  8
\U+6807\U+6CE8
  6
DASHED
 48
0.1
100
AcDbLine
 10
105.5428404748441
 20
26.63470281235815
 30
0.0
 11
106.8299198316301
 21
26.63470281235815
 31
0.0
  0
LINE
  5
4A1A
330
18
100
AcDbEntity
  8
\U+6807\U+6CE8
  6
DASHED
 48
0.1
100
AcDbLine
 10
92.92322949270234
 20
12.67980581722171
 30
0.0
 11
54.26106225077834
 21
11.63278624296693
 31
0.0
  0
LINE
  5
4A1C
330
18
100
AcDbEntity
  8
\U+6807\U+6CE8
  6
DASHED
 48
0.1
100
AcDbLine
 10
48.71979983163011
 20
26.63470281235815
 30
0.0
 11
49.22153300536741
 21
26.63470281235815
 31
0.0
  0
LINE
  5
4A1D
330
18
100
AcDbEntity
  8
\U+6807\U+6CE8
  6
DASHED
 48
0.1
100
AcDbLine
 10
50.72959597704926
 20
25.96813931066764
 30
0.0
 11
51.84473817027637
 21
13.77891131090811
 31
0.0
  0
ARC
  5
4A21
330
18
100
AcDbEntity
  8
0
  6
ByBlock
100
AcDbCircle
 10
49.22153300536741
 20
22.97329281235815
 30
0.0
 40
3.937
100
AcDbArc
 50
79.70102601517176
 51
90.0
  0
LINE
  5
4A24
330
18
100
AcDbEntity
  8
\U+6807\U+6CE8
  6
DASHED
 48
0.1
100
AcDbLine
 10
48.71979983163011
 20
26.63470281235815
 30
0.0
 11
47.97176983163011
 21
26.47722281235815
 31
0.0
  0
LINE
  5
4A25
330
18
100
AcDbEntity
  8
\U+6807\U+6CE8
  6
DASHED
 48
0.1
100
AcDbLine
 10
47.9127148316301
 20
26.67407281235814
 30
0.0
 11
47.97176983163011
 21
26.47722281235815
 31
0.0
  0
ARC
  5
4A26
330
18
100
AcDbEntity
  8
0
  6
ByBlock
100
AcDbCircle
 10
47.93885307801013
 20
27.18588281235818
 30
0.0
 40
0.11811
100
AcDbArc
 50
41.9872124958399
 51
90.0
  0
LINE
  5
4A27
330
18
100
AcDbEntity
  8
0
  6
ByBlock
100
AcDbLine
 10
48.02664354962339
 20
27.26489423681011
 30
0.0
 11
48.205029959657
 21
27.06668711455045
 31
0.0
  0
ARC
  5
4A28
330
18
100
AcDbEntity
  8
0
  6
ByBlock
100
AcDbCircle
 10
48.55619184611004
 20
27.38273281235815
 30
0.0
 40
0.4724400000000001
100
AcDbArc
 50
221.9872124958399
 51
270.0
  0
ARC
  5
4A29
330
18
100
AcDbEntity
  8
\U+6807\U+6CE8
  6
DASHED
 48
0.1
100
AcDbCircle
 10
49.74943922215484
 20
25.87846881197972
 30
0.0
 40
0.9842500000000001
100
AcDbArc
 50
5.227203633416383
 51
79.70102601517176
  0
ARC
  5
4A2A
330
18
100
AcDbEntity
  8
\U+6807\U+6CE8
  6
DASHED
 48
0.1
100
AcDbCircle
 10
49.74943922215484
 20
25.87846881197972
 30
0.0
 40
0.7086600000000001
100
AcDbArc
 50
5.227203633416383
 51
79.70102601517176
  0
LINE
  5
4A2B
330
18
100
AcDbEntity
  8
\U+6807\U+6CE8
  6
DASHED
 48
0.1
100
AcDbLine
 10
50.4551520856788
 20
25.943031571035
 30
0.0
 11
51.57029427890576
 21
13.75380357127551
 31
0.0
  0
ARC
  5
4A2C
330
18
100
AcDbEntity
  8
\U+6807\U+6CE8
  6
DASHED
 48
0.1
100
AcDbCircle
 10
49.22153300536741
 20
22.97329281235815
 30
0.0
 40
3.66141
100
AcDbArc
 50
79.70102601517176
 51
90.0
  0
ARC
  5
4A2E
330
18
100
AcDbEntity
  8
\U+6807\U+6CE8
  6
DASHED
 48
0.1
100
AcDbCircle
 10
92.81664971144293
 20
16.61536292520866
 30
0.0
 40
3.937
100
AcDbArc
 50
271.5512618152839
 51
328.0676236070666
  0
ARC
  5
4A2F
330
18
100
AcDbEntity
  8
\U+6807\U+6CE8
  6
DASHED
 48
0.1
100
AcDbCircle
 10
54.19711438202281
 20
13.99412050775912
 30
0.0
 40
2.3622
100
AcDbArc
 50
185.2272036334164
 51
271.5512618152839
  0
ARC
  5
4A30
330
18
100
AcDbEntity
  8
\U+6807\U+6CE8
  6
DASHED
 48
0.1
100
AcDbCircle
 10
54.19711438202281
 20
13.99412050775912
 30
0.0
 40
2.63779
100
AcDbArc
 50
185.2272036334164
 51
260.4251651339355
  0
LINE
  5
4A31
330
18
100
AcDbEntity
  8
\U+6807\U+6CE8
  6
DASHED
 48
0.1
100
AcDbLine
 10
92.93069007739054
 20
12.40431681966261
 30
0.0
 11
57.93443184984504
 21
11.45657462092262
 31
0.0
  0
ARC
  5
4A33
330
18
100
AcDbEntity
  8
\U+6807\U+6CE8
  6
DASHED
 48
0.1
100
AcDbCircle
 10
92.81664971144293
 20
16.61536292520866
 30
0.0
 40
4.21259
100
AcDbArc
 50
271.5512618152839
 51
328.0676236070666
  0
LINE
  5
4A38
330
18
100
AcDbEntity
  8
\U+6807\U+6CE8
  6
DASHED
 48
0.1
100
AcDbLine
 10
60.97041061214898
 20
11.53879270174734
 30
0.0
 11
60.94275536492226
 21
11.01109915110452
 31
0.0
  0
LINE
  5
4A39
330
18
100
AcDbEntity
  8
0
  6
Continuous
100
AcDbLine
 10
60.65428869766893
 20
10.57174281235814
 30
0.0
 11
60.63365575622675
 21
10.96544281235814
 31
0.0
  0
LINE
  5
4A3A
330
18
100
AcDbEntity
  8
0
  6
Continuous
100
AcDbLine
 10
61.38786593851079
 20
10.57174281235814
 30
0.0
 11
60.1864127418833
 21
10.57174281235814
 31
0.0
  0
LINE
  5
4A3B
330
18
100
AcDbEntity
  8
0
  6
Continuous
100
AcDbLine
 10
59.98983251793392
 20
10.75829047999997
 30
0.0
 11
59.97897612488554
 21
10.96544281235811
 31
0.0
  0
LINE
  5
4A3C
330
18
100
AcDbEntity
  8
0
  6
Continuous
100
AcDbLine
 10
61.58443429664117
 20
10.75806650807229
 30
0.0
 11
61.59553937022148
 21
10.96544281235818
 31
0.0
  0
ARC
  5
4A3D
330
18
100
AcDbEntity
  8
0
  6
Continuous
100
AcDbCircle
 10
60.1864127418833
 20
10.76859281235814
 30
0.0
 40
0.19685
100
AcDbArc
 50
182.9999998168974
 51
270.0
  0
ARC
  5
4A3E
330
18
100
AcDbEntity
  8
0
  6
Continuous
100
AcDbCircle
 10
61.38786593851079
 20
10.76859281235814
 30
0.0
 40
0.19685
100
AcDbArc
 50
270.0
 51
356.9347187837393
  0
LINE
  5
4A3F
330
18
100
AcDbEntity
  8
\U+6807\U+6CE8
  6
CENTERX2
 48
0.1
100
AcDbLine
 10
60.78579707217201
 20
9.501076897444871
 30
0.0
 11
60.788458425117
 21
12.64003607908699
 31
0.0
  0
LINE
  5
4A48
330
18
100
AcDbEntity
  8
\U+6807\U+6CE8
  6
CENTERX2
 48
0.1
100
AcDbLine
 10
91.25817707217201
 20
9.872462114736404
 30
0.0
 11
91.26083842511702
 21
13.01142129637853
 31
0.0
  0
ARC
  5
4A49
330
18
100
AcDbEntity
  8
0
  6
Continuous
100
AcDbCircle
 10
91.86024593851078
 20
10.76859281235814
 30
0.0
 40
0.19685
100
AcDbArc
 50
270.0
 51
356.9347187837393
  0
ARC
  5
4A4A
330
18
100
AcDbEntity
  8
0
  6
Continuous
100
AcDbCircle
 10
90.65879274188331
 20
10.76859281235814
 30
0.0
 40
0.19685
100
AcDbArc
 50
182.9999998168974
 51
270.0
  0
LINE
  5
4A4B
330
18
100
AcDbEntity
  8
0
  6
Continuous
100
AcDbLine
 10
92.05681429664117
 20
10.75806650807229
 30
0.0
 11
92.06791937022147
 21
10.96544281235818
 31
0.0
  0
LINE
  5
4A4C
330
18
100
AcDbEntity
  8
0
  6
Continuous
100
AcDbLine
 10
90.46221251793392
 20
10.75829047999997
 30
0.0
 11
90.45130632049133
 21
10.9663931368718
 31
0.0
  0
LINE
  5
4A4D
330
18
100
AcDbEntity
  8
0
  6
Continuous
100
AcDbLine
 10
91.86024593851078
 20
10.57174281235814
 30
0.0
 11
90.65879274188331
 21
10.57174281235814
 31
0.0
  0
LINE
  5
4A4E
330
18
100
AcDbEntity
  8
0
  6
Continuous
100
AcDbLine
 10
91.12666869766893
 20
10.57174281235814
 30
0.0
 11
91.10603575622683
 21
10.96544281235818
 31
0.0
  0
LINE
  5
4A4F
330
18
100
AcDbEntity
  8
\U+6807\U+6CE8
  6
DASHED
 48
0.1
100
AcDbLine
 10
91.48610054976975
 20
12.36519553857363
 30
0.0
 11
91.41461926039932
 21
11.00125129019114
 31
0.0
  0
LINE
  5
4A50
330
18
100
AcDbEntity
  8
\U+6807\U+6CE8
  6
DASHED
 48
0.1
100
AcDbLine
 10
57.22417902756205
 20
10.88670280448412
 30
0.0
 11
54.34419863792817
 21
10.88670280448412
 31
0.0
  0
LINE
  5
4A52
330
18
100
AcDbEntity
  8
\U+6807\U+6CE8
  6
DASHED
 48
0.1
100
AcDbLine
 10
54.70403983163011
 20
10.88670280054709
 30
0.0
 11
54.70403983163011
 21
11.0305107412771
 31
0.0
  0
ARC
  5
4A53
330
18
100
AcDbEntity
  8
\U+6807\U+6CE8
  6
DASHED
 48
0.1
100
AcDbCircle
 10
53.63013203063111
 20
10.7819725493781
 30
0.0
 40
0.6299200078740001
100
AcDbArc
 50
17.33168537999124
 51
24.59866485999051
  0
ARC
  5
4A54
330
18
100
AcDbEntity
  8
\U+6807\U+6CE8
  6
DASHED
 48
0.1
100
AcDbCircle
 10
54.34419863792817
 20
11.00481280448412
 30
0.0
 40
0.11811
100
AcDbArc
 50
197.3316853799912
 51
270.0
  0
ARC
  5
4A55
330
18
100
AcDbEntity
  8
\U+6807\U+6CE8
  6
DASHED
 48
0.1
100
AcDbCircle
 10
53.46615942156914
 20
10.0570390149961
 30
0.0
 40
1.574800019685
100
AcDbArc
 50
38.81718622001461
 51
44.1094563100054
  0
ARC
  5
4A56
330
18
100
AcDbEntity
  8
\U+6807\U+6CE8
  6
DASHED
 48
0.1
100
AcDbCircle
 10
53.63013203063111
 20
10.7819725493781
 30
0.0
 40
0.6299200078740001
100
AcDbArc
 50
24.59866485999051
 51
78.1698390099622
  0
LINE
  5
4A58
330
18
100
AcDbEntity
  8
\U+6807\U+6CE8
  6
DASHED
 48
0.1
100
AcDbLine
 10
54.60103729747814
 20
11.14884820932607
 30
0.0
 11
54.38402568819509
 21
11.37357031106209
 31
0.0
  0
ARC
  5
4A59
330
18
100
AcDbEntity
  8
\U+6807\U+6CE8
  6
DASHED
 48
0.1
100
AcDbCircle
 10
53.67601547823428
 20
10.68985280054752
 30
0.0
 40
0.9842500118105615
100
AcDbArc
 50
43.99999999999262
 51
83.55470460916542
  0
ARC
  5
4A5A
330
18
100
AcDbEntity
  8
\U+6807\U+6CE8
  6
DASHED
 48
0.1
100
AcDbCircle
 10
53.46615942156914
 20
10.0570390149961
 30
0.0
 40
1.574800019685
100
AcDbArc
 50
38.18158395998046
 51
38.81718622001461
  0
ARC
  5
4A5B
330
18
100
AcDbEntity
  8
\U+6807\U+6CE8
  6
DASHED
 48
0.1
100
AcDbCircle
 10
57.94815806779009
 20
10.81665529891011
 30
0.0
 40
0.6299200078740001
100
AcDbArc
 50
91.22360729999334
 51
158.826050890003
  0
LINE
  5
4A5C
330
18
100
AcDbEntity
  8
\U+6807\U+6CE8
  6
DASHED
 48
0.1
100
AcDbLine
 10
56.86938983163011
 20
10.88670280054709
 30
0.0
 11
56.86938983163011
 21
11.03978450619409
 31
0.0
  0
ARC
  5
4A5D
330
18
100
AcDbEntity
  8
\U+6807\U+6CE8
  6
DASHED
 48
0.1
100
AcDbCircle
 10
57.22417902756205
 20
11.00481280448412
 30
0.0
 40
0.11811
100
AcDbArc
 50
270.0
 51
345.4314953800113
  0
LINE
  5
4A5E
330
18
100
AcDbEntity
  8
\U+6807\U+6CE8
  6
DASHED
 48
0.1
100
AcDbLine
 10
57.05533688493207
 20
11.2730012996021
 30
0.0
 11
57.19798158783111
 21
11.4207142128371
 31
0.0
  0
ARC
  5
4A5F
330
18
100
AcDbEntity
  8
\U+6807\U+6CE8
  6
DASHED
 48
0.1
100
AcDbCircle
 10
58.18815322165713
 20
10.17905328277809
 30
0.0
 40
1.574800019685
100
AcDbArc
 50
135.9999999900187
 51
146.6769966300261
  0
ARC
  5
4A60
330
18
100
AcDbEntity
  8
\U+6807\U+6CE8
  6
DASHED
 48
0.1
100
AcDbCircle
 10
58.18815322165713
 20
10.17905328277809
 30
0.0
 40
1.574800019685
100
AcDbArc
 50
146.6769966300261
 51
146.8682965699698
  0
ARC
  5
4A61
330
18
100
AcDbEntity
  8
\U+6807\U+6CE8
  6
DASHED
 48
0.1
100
AcDbCircle
 10
57.94815806779009
 20
10.81665529891011
 30
0.0
 40
0.6299200078740001
100
AcDbArc
 50
158.826050890003
 51
165.4314953800113
  0
ARC
  5
4A62
330
18
100
AcDbEntity
  8
\U+6807\U+6CE8
  6
DASHED
 48
0.1
100
AcDbCircle
 10
57.90599179779207
 20
10.7369967023221
 30
0.0
 40
0.9842500118109999
100
AcDbArc
 50
91.22360728998605
 51
135.9999999999699
  0
LINE
  5
4A6B
330
18
100
AcDbEntity
  8
\U+6807\U+6CE8
  6
CENTERX2
 48
0.1
100
AcDbLine
 10
19.40997036473126
 20
28.00473266525721
 30
0.0
 11
19.40997036473126
 21
10.12578305796084
 31
0.0
  0
ARC
  5
4AAE
330
18
100
AcDbEntity
  8
0
  6
ByBlock
100
AcDbCircle
 10
78.79541657005724
 20
-170.1530168836136
 30
0.0
 40
236.22
100
AcDbArc
 50
85.9629034262692
 51
86.00186931858116
  0
ARC
  5
4AB1
330
18
100
AcDbEntity
  8
0
  6
ByBlock
100
AcDbCircle
 10
95.43230483163013
 20
60.46615541786469
 30
0.0
 40
4.92125
100
AcDbArc
 50
63.12206733139174
 51
79.0578409646676
  0
ARC
  5
4AB4
330
18
100
AcDbEntity
  8
0
  6
ByBlock
100
AcDbCircle
 10
93.37719355067736
 20
49.83624322715693
 30
0.0
 40
15.748
100
AcDbArc
 50
79.0578409646676
 51
86.20775159151548
  0
ARC
  5
4AB7
330
18
100
AcDbEntity
  8
0
  6
ByBlock
100
AcDbCircle
 10
78.79541657005724
 20
-170.1530168836136
 30
0.0
 40
236.22
100
AcDbArc
 50
86.20775159151548
 51
95.79121183747323
  0
ARC
  5
4AB9
330
18
100
AcDbEntity
  8
0
  6
ByBlock
100
AcDbCircle
 10
78.79541657005724
 20
278.880627719343
 30
0.0
 40
236.22
100
AcDbArc
 50
264.2087881625267
 51
273.7922484084845
  0
ARC
  5
4ABA
330
18
100
AcDbEntity
  8
0
  6
ByBlock
100
AcDbCircle
 10
93.37719355067736
 20
58.89136760857244
 30
0.0
 40
15.748
100
AcDbArc
 50
273.7922484084845
 51
280.9421590353324
  0
ARC
  5
4ABB
330
18
100
AcDbEntity
  8
0
  6
ByBlock
100
AcDbCircle
 10
78.79541657005724
 20
278.880627719343
 30
0.0
 40
236.22
100
AcDbArc
 50
273.9981306814188
 51
274.0370965737308
  0
ARC
  5
4ABC
330
18
100
AcDbEntity
  8
0
  6
ByBlock
100
AcDbCircle
 10
95.43230483163013
 20
48.26145541786468
 30
0.0
 40
4.92125
100
AcDbArc
 50
280.9421590353324
 51
296.8779326686083
  0
ARC
  5
4AC2
330
18
100
AcDbEntity
  8
\U+6807\U+6CE8
  6
DASHED
 48
0.1
100
AcDbCircle
 10
83.69487779340888
 20
140.2904241591016
 30
0.0
 40
118.11
100
AcDbArc
 50
255.9192239369336
 51
269.4486388456947
  0
LINE
  5
4AC3
330
18
100
AcDbEntity
  8
\U+6807\U+6CE8
  6
DASHED
 48
0.1
100
AcDbLine
 10
82.55831483163012
 20
22.18589281235814
 30
0.0
 11
97.65715865993666
 21
22.18589281235814
 31
0.0
  0
LINE
  5
4AC5
330
18
100
AcDbEntity
  8
0
  6
ByBlock
100
AcDbLine
 10
4.213150364731265
 20
26.63470281235815
 30
0.0
 11
3.465120364731264
 21
26.47722281235815
 31
0.0
  0
ARC
  5
4AC6
330
18
100
AcDbEntity
  8
\U+6807\U+6CE8
  6
ByBlock
 48
0.1
100
AcDbCircle
 10
4.049542379211199
 20
27.38273281235815
 30
0.0
 40
0.4724400000000001
100
AcDbArc
 50
221.9872124958399
 51
270.0
  0
LINE
  5
4AC7
330
18
100
AcDbEntity
  8
\U+6807\U+6CE8
  6
ByBlock
 48
0.1
100
AcDbLine
 10
3.519994082724541
 20
27.26489423681011
 30
0.0
 11
3.698380492758157
 21
27.06668711455045
 31
0.0
  0
ARC
  5
4AC8
330
18
100
AcDbEntity
  8
\U+6807\U+6CE8
  6
ByBlock
 48
0.1
100
AcDbCircle
 10
3.432203611111281
 20
27.18588281235818
 30
0.0
 40
0.11811
100
AcDbArc
 50
41.9872124958399
 51
90.0
  0
LINE
  5
4AC9
330
18
100
AcDbEntity
  8
0
  6
ByBlock
100
AcDbLine
 10
3.406065364731265
 20
26.67407281235814
 30
0.0
 11
3.465120364731264
 21
26.47722281235815
 31
0.0
  0
LINE
  5
4AD4
330
18
100
AcDbEntity
  8
\U+6807\U+6CE8
  6
ByBlock
 48
0.1
100
AcDbLine
 10
4.768832678064523
 20
26.91029281235814
 30
0.0
 11
34.62647536473127
 21
26.91029281235814
 31
0.0
  0
LINE
  5
4ADF
330
18
100
AcDbEntity
  8
\U+6807\U+6CE8
  6
ByBlock
 48
0.1
100
AcDbLine
 10
4.049542379211199
 20
26.91029281235814
 30
0.0
 11
4.768832678064523
 21
26.91029281235814
 31
0.0
  0
LINE
  5
4AE0
330
18
100
AcDbEntity
  8
0
  6
ByBlock
100
AcDbLine
 10
4.213150364731265
 20
26.63470281235815
 30
0.0
 11
34.35088536473127
 21
26.63470281235815
 31
0.0
  0
ARC
  5
4AE1
330
18
100
AcDbEntity
  8
\U+6807\U+6CE8
  6
ByBlock
 48
0.1
100
AcDbCircle
 10
4.768832678064523
 20
22.18589281235814
 30
0.0
 40
4.448809999999999
100
AcDbArc
 50
77.54983520676145
 51
90.0
  0
ARC
  5
4AE2
330
18
100
AcDbEntity
  8
0
  6
ByBlock
100
AcDbCircle
 10
5.575172967470694
 20
25.83808905026492
 30
0.0
 40
0.7086600000000001
100
AcDbArc
 50
17.20955752054966
 51
50.09201188740329
  0
LINE
  5
4AE3
330
18
100
AcDbEntity
  8
0
  6
ByBlock
100
AcDbLine
 10
6.252105565997411
 20
26.04775843918913
 30
0.0
 11
7.453158585604437
 21
22.17007297588636
 31
0.0
  0
LINE
  5
4AE4
330
18
100
AcDbEntity
  8
0
  6
ByBlock
100
AcDbLine
 10
7.472011729927962
 20
22.08299196080181
 30
0.0
 11
8.403330061013429
 21
14.73413697257634
 31
0.0
  0
LINE
  5
4AE5
330
18
100
AcDbEntity
  8
0
  6
ByBlock
100
AcDbLine
 10
6.252105565997411
 20
26.04775843918913
 30
0.0
 11
7.453158585604437
 21
22.17007297588636
 31
0.0
  0
LINE
  5
4AE6
330
18
100
AcDbEntity
  8
0
  6
ByBlock
100
AcDbLine
 10
7.472011729927962
 20
22.08299196080181
 30
0.0
 11
8.403330061013429
 21
14.73413697257634
 31
0.0
  0
ARC
  5
4AE7
330
18
100
AcDbEntity
  8
0
  6
ByBlock
100
AcDbCircle
 10
6.964262820001828
 20
22.01864508388554
 30
0.0
 40
0.51181
100
AcDbArc
 50
7.222576408640124
 51
17.20955752054966
  0
ARC
  5
4AE8
330
18
100
AcDbEntity
  8
0
  6
ByBlock
100
AcDbCircle
 10
11.02018982755545
 20
15.06577087668327
 30
0.0
 40
2.63779
100
AcDbArc
 50
187.2225764086401
 51
265.843368666423
  0
ARC
  5
4AE9
330
18
100
AcDbEntity
  8
0
  6
ByBlock
100
AcDbCircle
 10
19.40997036473126
 20
130.5091110370321
 30
0.0
 40
118.38559
100
AcDbArc
 50
265.843368666423
 51
266.2076772076567
  0
LINE
  5
4AEB
330
18
100
AcDbEntity
  8
0
  6
ByBlock
100
AcDbLine
 10
3.406065364731265
 20
27.30399281235818
 30
0.0
 11
3.406065364731265
 21
26.67407281235814
 31
0.0
  0
LINE
  5
4AEC
330
18
100
AcDbEntity
  8
0
  6
ByBlock
100
AcDbLine
 10
3.406065364731265
 20
27.30399281235815
 30
0.0
 11
34.62647536473127
 21
27.30399281235815
 31
0.0
  0
LINE
  5
4AED
330
18
100
AcDbEntity
  8
0
  6
ByBlock
100
AcDbLine
 10
35.41387536473127
 20
26.51659281235815
 30
0.0
 11
35.41387536473127
 21
10.96544281235818
 31
0.0
  0
LINE
  5
4AEE
330
18
100
AcDbEntity
  8
0
  6
ByBlock
100
AcDbLine
 10
34.90206536473126
 20
10.96544281235818
 30
0.0
 11
35.41387536473127
 21
10.96544281235814
 31
0.0
  0
LINE
  5
4AF1
330
18
100
AcDbEntity
  8
0
  6
ByBlock
100
AcDbLine
 10
3.465120364731264
 20
26.47722281235815
 30
0.0
 11
33.03823620164336
 21
25.37559100854259
 31
0.0
  0
LINE
  5
4AF3
330
18
100
AcDbEntity
  8
0
  6
ByBlock
100
AcDbLine
 10
34.17360028584923
 20
24.25993050195666
 30
0.0
 11
34.90206536473126
 21
10.96544281235814
 31
0.0
  0
ARC
  5
4AF4
330
18
100
AcDbEntity
  8
0
  6
ByBlock
100
AcDbCircle
 10
32.99426939375103
 20
24.19530963115678
 30
0.0
 40
1.1811
100
AcDbArc
 50
3.136358368330448
 51
87.86665422666308
  0
LINE
  5
4AF5
330
18
100
AcDbEntity
  8
0
  6
ByBlock
100
AcDbLine
 10
35.13828536473127
 20
25.84730281235815
 30
0.0
 11
35.13828536473127
 21
10.96544281235818
 31
0.0
  0
ARC
  5
4AF6
330
18
100
AcDbEntity
  8
0
  6
ByBlock
100
AcDbCircle
 10
34.35088536473127
 20
25.84730281235815
 30
0.0
 40
0.7874000000000001
100
AcDbArc
 50
0.0
 51
90.0
  0
ARC
  5
4AF7
330
18
100
AcDbEntity
  8
\U+6807\U+6CE8
  6
ByBlock
 48
0.1
100
AcDbCircle
 10
34.62647536473127
 20
26.12289281235815
 30
0.0
 40
0.7874000000000001
100
AcDbArc
 50
0.0
 51
90.0
  0
ARC
  5
4AF8
330
18
100
AcDbEntity
  8
0
  6
ByBlock
100
AcDbCircle
 10
34.62647536473127
 20
26.51659281235815
 30
0.0
 40
0.7874000000000001
100
AcDbArc
 50
0.0
 51
90.0
  0
LINE
  5
4AF9
330
18
100
AcDbEntity
  8
0
  6
ByBlock
100
AcDbLine
 10
32.36738199960374
 20
25.40058108157941
 30
0.0
 11
31.3667821438581
 21
22.17007297588636
 31
0.0
  0
LINE
  5
4AFA
330
18
100
AcDbEntity
  8
0
  6
ByBlock
100
AcDbLine
 10
32.36738199960374
 20
25.40058108157941
 30
0.0
 11
31.3667821438581
 21
22.17007297588636
 31
0.0
  0
ARC
  5
4AFC
330
18
100
AcDbEntity
  8
0
  6
ByBlock
100
AcDbCircle
 10
27.79975090190708
 20
15.06577087668327
 30
0.0
 40
2.63779
100
AcDbArc
 50
274.156631333577
 51
352.7774235913599
  0
LINE
  5
4AFD
330
18
100
AcDbEntity
  8
0
  6
ByBlock
100
AcDbLine
 10
31.34792899953457
 20
22.08299196080181
 30
0.0
 11
30.4166106684491
 21
14.73413697257634
 31
0.0
  0
LINE
  5
4AFE
330
18
100
AcDbEntity
  8
0
  6
ByBlock
100
AcDbLine
 10
31.34792899953457
 20
22.08299196080181
 30
0.0
 11
30.4166106684491
 21
14.73413697257634
 31
0.0
  0
ARC
  5
4B00
330
18
100
AcDbEntity
  8
0
  6
ByBlock
100
AcDbCircle
 10
31.8556779094607
 20
22.01864508388554
 30
0.0
 40
0.51181
100
AcDbArc
 50
162.7904424794503
 51
172.7774235913599
  0
ARC
  5
4B12
330
18
100
AcDbEntity
  8
\U+6807\U+6CE8
  6
ByBlock
 48
0.1
100
AcDbCircle
 10
5.575172967470694
 20
25.83808905026492
 30
0.0
 40
0.7086600000000001
100
AcDbArc
 50
52.7301781193427
 51
77.54983520676145
  0
ARC
  5
4B26
330
18
100
AcDbEntity
  8
0
  6
ByBlock
100
AcDbCircle
 10
13.47564694556966
 20
14.21691236286335
 30
0.0
 40
2.63779
100
AcDbArc
 50
187.2225764086401
 51
267.0611897662368
  0
LINE
  5
4B27
330
18
100
AcDbEntity
  8
0
  6
ByBlock
100
AcDbLine
 10
9.468305611966327
 20
24.85730280216773
 30
0.0
 11
10.8587871790275
 21
13.8852784587565
 31
0.0
  0
ARC
  5
4B28
330
18
100
AcDbEntity
  8
0
  6
ByBlock
100
AcDbCircle
 10
19.40997036473126
 20
129.8124875826648
 30
0.0
 40
118.38559
100
AcDbArc
 50
267.0611897662368
 51
268.9591438831759
  0
LINE
  5
4B2A
330
18
100
AcDbEntity
  8
0
  6
ByBlock
100
AcDbLine
 10
29.35163511749621
 20
24.85730280216773
 30
0.0
 11
27.96115355043503
 21
13.8852784587565
 31
0.0
  0
ARC
  5
4B2B
330
18
100
AcDbEntity
  8
0
  6
ByBlock
100
AcDbCircle
 10
25.34429378389287
 20
14.21691236286335
 30
0.0
 40
2.63779
100
AcDbArc
 50
272.9388102337631
 51
352.7774235913599
  0
ARC
  5
4B2D
330
18
100
AcDbEntity
  8
0
  6
ByBlock
100
AcDbCircle
 10
19.40997036473126
 20
130.5091110370321
 30
0.0
 40
118.38559
100
AcDbArc
 50
273.7923227923433
 51
274.156631333577
  0
ARC
  5
4B31
330
18
100
AcDbEntity
  8
0
100
AcDbCircle
 10
21.57393959977632
 20
10.81665529891011
 30
0.0
 40
0.6299200078740001
100
AcDbArc
 50
158.826050890003
 51
165.4314953800113
  0
ARC
  5
4B34
330
18
100
AcDbEntity
  8
0
100
AcDbCircle
 10
20.84996055954828
 20
11.00481280448412
 30
0.0
 40
0.11811
100
AcDbArc
 50
270.0
 51
345.4314953800113
  0
ARC
  5
4B36
330
18
100
AcDbEntity
  8
0
100
AcDbCircle
 10
21.57393959977632
 20
10.81665529891011
 30
0.0
 40
0.6299200078740001
100
AcDbArc
 50
91.22360729999334
 51
158.826050890003
  0
LINE
  5
4B37
330
18
100
AcDbEntity
  8
0
  6
Continuous
100
AcDbLine
 10
20.84996055954828
 20
10.88670280448412
 30
0.0
 11
17.96998016991425
 21
10.88670280448412
 31
0.0
  0
ARC
  5
4B39
330
18
100
AcDbEntity
  8
0
100
AcDbCircle
 10
17.24600112968621
 20
10.81665529891011
 30
0.0
 40
0.6299200078740001
100
AcDbArc
 50
21.17394910999699
 51
88.77639270000662
  0
ARC
  5
4B3A
330
18
100
AcDbEntity
  8
0
100
AcDbCircle
 10
17.96998016991425
 20
11.00481280448412
 30
0.0
 40
0.11811
100
AcDbArc
 50
194.5685046199887
 51
270.0
  0
ARC
  5
4B3B
330
18
100
AcDbEntity
  8
0
100
AcDbCircle
 10
17.24600112968621
 20
10.81665529891011
 30
0.0
 40
0.6299200078740001
100
AcDbArc
 50
14.56850461998867
 51
21.17394910999699
  0
ARC
  5
4B3E
330
18
100
AcDbEntity
  8
0
  6
ByBlock
100
AcDbCircle
 10
19.40997036473126
 20
129.8210070191998
 30
0.0
 40
118.38559
100
AcDbArc
 50
269.2891563047719
 51
270.7395913520115
  0
ARC
  5
4B41
330
18
100
AcDbEntity
  8
0
  6
ByBlock
100
AcDbCircle
 10
19.40997036473126
 20
129.8124875826648
 30
0.0
 40
118.38559
100
AcDbArc
 50
271.0408561168241
 51
272.9388102337631
  0
ARC
  5
4B42
330
18
100
AcDbEntity
  8
0
  6
ByBlock
100
AcDbCircle
 10
19.40997036473126
 20
129.8124875826648
 30
0.0
 40
118.38559
100
AcDbArc
 50
269.1798585565753
 51
269.2891563047719
  0
LINE
  5
4B4C
330
18
100
AcDbEntity
  8
0
  6
Continuous
100
AcDbLine
 10
11.27117596021862
 20
12.36519553857363
 30
0.0
 11
11.17718508526392
 21
10.57174281235814
 31
0.0
  0
LINE
  5
4B4D
330
18
100
AcDbEntity
  8
0
  6
Continuous
100
AcDbLine
 10
10.9117441081178
 20
10.57174281235814
 30
0.0
 11
10.81403997860415
 21
12.43604877655988
 31
0.0
  0
LINE
  5
4B4E
330
18
100
AcDbEntity
  8
0
  6
Continuous
100
AcDbLine
 10
11.64532134895965
 20
10.57174281235814
 30
0.0
 11
10.44386815233216
 21
10.57174281235814
 31
0.0
  0
LINE
  5
4B4F
330
18
100
AcDbEntity
  8
0
  6
Continuous
100
AcDbLine
 10
10.24728792838278
 20
10.75829047999997
 30
0.0
 11
10.15208228149442
 21
12.57492255280405
 31
0.0
  0
LINE
  5
4B50
330
18
100
AcDbEntity
  8
0
  6
Continuous
100
AcDbLine
 10
11.84188970709004
 20
10.75806650807229
 30
0.0
 11
11.9133001856238
 21
12.09158681467394
 31
0.0
  0
ARC
  5
4B51
330
18
100
AcDbEntity
  8
0
  6
Continuous
100
AcDbCircle
 10
10.44386815233216
 20
10.76859281235814
 30
0.0
 40
0.19685
100
AcDbArc
 50
182.9999998168974
 51
270.0
  0
ARC
  5
4B52
330
18
100
AcDbEntity
  8
0
  6
Continuous
100
AcDbCircle
 10
11.64532134895965
 20
10.76859281235814
 30
0.0
 40
0.19685
100
AcDbArc
 50
270.0
 51
356.9347187837393
  0
LINE
  5
4B53
330
18
100
AcDbEntity
  8
\U+6807\U+6CE8
  6
ByBlock
 48
0.1
100
AcDbLine
 10
11.04325248262088
 20
9.872462114736404
 30
0.0
 11
11.04591383556587
 21
13.01142129637853
 31
0.0
  0
LINE
  5
4B54
330
18
100
AcDbEntity
  8
0
  6
Continuous
100
AcDbLine
 10
28.57413970709004
 20
10.75806650807229
 30
0.0
 11
28.67150112783305
 21
12.57619508396313
 31
0.0
  0
ARC
  5
4B55
330
18
100
AcDbEntity
  8
0
  6
Continuous
100
AcDbCircle
 10
28.37757134895966
 20
10.76859281235814
 30
0.0
 40
0.19685
100
AcDbArc
 50
270.0
 51
356.9347187837393
  0
ARC
  5
4B56
330
18
100
AcDbEntity
  8
0
  6
Continuous
100
AcDbCircle
 10
27.17611815233217
 20
10.76859281235814
 30
0.0
 40
0.19685
100
AcDbArc
 50
182.9999998168974
 51
270.0
  0
LINE
  5
4B57
330
18
100
AcDbEntity
  8
0
  6
Continuous
100
AcDbLine
 10
26.97953792838279
 20
10.75829047999997
 30
0.0
 11
26.90955056188964
 21
12.09372906812991
 31
0.0
  0
LINE
  5
4B58
330
18
100
AcDbEntity
  8
0
  6
Continuous
100
AcDbLine
 10
28.37757134895966
 20
10.57174281235814
 30
0.0
 11
27.17611815233217
 21
10.57174281235814
 31
0.0
  0
LINE
  5
4B59
330
18
100
AcDbEntity
  8
0
  6
Continuous
100
AcDbLine
 10
27.6439941081178
 20
10.57174281235814
 30
0.0
 11
27.54799249441367
 21
12.40356283769945
 31
0.0
  0
LINE
  5
4B5A
330
18
100
AcDbEntity
  8
0
  6
Continuous
100
AcDbLine
 10
28.00714434573552
 20
12.4361465606341
 30
0.0
 11
27.90943508526393
 21
10.57174281235814
 31
0.0
  0
LINE
  5
4B5C
330
18
100
AcDbEntity
  8
\U+6807\U+6CE8
  6
ByBlock
 48
0.1
100
AcDbLine
 10
27.77550248262088
 20
9.872462114736404
 30
0.0
 11
27.77816383556587
 21
13.01142129637853
 31
0.0
  0
LINE
  5
4B5E
330
18
100
AcDbEntity
  8
\U+6807\U+6CE8
  6
CENTERX2
 48
0.1
100
AcDbLine
 10
16.93661812638944
 20
24.15439281235814
 30
0.0
 11
21.63890748283235
 21
24.15439281235814
 31
0.0
  0
LINE
  5
4B61
330
18
100
AcDbEntity
  8
0
  6
ByBlock
100
AcDbLine
 10
48.06750378609651
 20
10.96544281235814
 30
0.0
 11
107.4795248316301
 21
10.96544281235818
 31
0.0
  0
LINE
  5
4B62
330
18
100
AcDbEntity
  8
\U+6807\U+6CE8
  6
ByBlock
 48
0.1
100
AcDbLine
 10
107.6370048316301
 20
26.46205606794866
 30
0.0
 11
107.6370048316301
 21
9.096073531212846
 31
0.0
  0
LINE
  5
4B63
330
18
100
AcDbEntity
  8
\U+6807\U+6CE8
  6
ByBlock
 48
0.1
100
AcDbLine
 10
47.91271483163003
 20
26.40594976485159
 30
0.0
 11
47.9127148316301
 21
7.250821634986637
 31
0.0
  0
LINE
  5
4B66
330
18
100
AcDbEntity
  8
0
  6
ByBlock
100
AcDbLine
 10
47.91271483163003
 20
27.30399281235815
 30
0.0
 11
48.06750378609651
 21
10.96544281235814
 31
0.0
  0
LINE
  5
4B67
330
18
100
AcDbEntity
  8
0
  6
ByBlock
100
AcDbLine
 10
107.6370048316301
 20
27.30399281235815
 30
0.0
 11
107.4795248316301
 21
10.96544281235818
 31
0.0
  0
LINE
  5
4B68
330
18
100
AcDbEntity
  8
\U+6807\U+6CE8
  6
DASHED
 48
0.1
100
AcDbLine
 10
59.97682203257669
 20
11.00654534465501
 30
0.0
 11
59.95037583473887
 21
11.51116889132594
 31
0.0
  0
LINE
  5
4B69
330
18
100
AcDbEntity
  8
\U+6807\U+6CE8
  6
DASHED
 48
0.1
100
AcDbLine
 10
60.63072103591137
 20
11.02144061526097
 30
0.0
 11
60.60412761725386
 21
11.52887330268792
 31
0.0
  0
LINE
  5
4B6A
330
18
100
AcDbEntity
  8
0
  6
Continuous
100
AcDbLine
 10
60.94039752809774
 20
10.96610894452376
 30
0.0
 11
60.91972967481506
 21
10.57174281235814
 31
0.0
  0
LINE
  5
4B6B
330
18
100
AcDbEntity
  8
\U+6807\U+6CE8
  6
DASHED
 48
0.1
100
AcDbLine
 10
61.5982558130003
 20
11.01616970400862
 30
0.0
 11
61.62719493243905
 21
11.55657923800387
 31
0.0
  0
LINE
  5
4B6C
330
18
100
AcDbEntity
  8
\U+6807\U+6CE8
  6
DASHED
 48
0.1
100
AcDbLine
 10
90.44879260352303
 20
11.01435771687006
 30
0.0
 11
90.3795686624751
 21
12.33522927883742
 31
0.0
  0
LINE
  5
4B6D
330
18
100
AcDbEntity
  8
\U+6807\U+6CE8
  6
DASHED
 48
0.1
100
AcDbLine
 10
91.10372770804788
 20
11.00948299783483
 30
0.0
 11
91.03332044499003
 21
12.35293369019939
 31
0.0
  0
LINE
  5
4B6E
330
18
100
AcDbEntity
  8
0
  6
Continuous
100
AcDbLine
 10
91.41274261759011
 20
10.96544281235821
 30
0.0
 11
91.39210967481506
 21
10.57174281235814
 31
0.0
  0
LINE
  5
4B6F
330
18
100
AcDbEntity
  8
\U+6807\U+6CE8
  6
DASHED
 48
0.1
100
AcDbLine
 10
92.06958026310518
 20
10.99645835003615
 30
0.0
 11
92.14383046452047
 21
12.38300768270427
 31
0.0
  0
LINE
  5
4B73
330
18
100
AcDbEntity
  8
0
  6
ByBlock
100
AcDbLine
 10
59.46704961604774
 20
15.68984281235814
 30
0.0
 11
96.08267004721241
 21
15.68984281235814
 31
0.0
  0
LINE
  5
4B76
330
18
100
AcDbEntity
  8
0
  6
ByBlock
100
AcDbLine
 10
55.78671483163011
 20
24.94179281235815
 30
0.0
 11
56.32879445255174
 21
18.57235726652871
 31
0.0
  0
LINE
  5
4B77
330
18
100
AcDbEntity
  8
0
  6
ByBlock
100
AcDbLine
 10
99.76300483163011
 20
24.94179281235815
 30
0.0
 11
99.22092521070835
 21
18.57235726652871
 31
0.0
  0
ARC
  5
4B78
330
18
100
AcDbEntity
  8
0
  6
ByBlock
100
AcDbCircle
 10
59.46704961604774
 20
18.83944281235814
 30
0.0
 40
3.1496
100
AcDbArc
 50
184.8645144377704
 51
270.0
  0
ARC
  5
4B79
330
18
100
AcDbEntity
  8
0
  6
ByBlock
100
AcDbCircle
 10
96.08267004721241
 20
18.83944281235814
 30
0.0
 40
3.1496
100
AcDbArc
 50
270.0
 51
355.1354855622295
  0
LINE
  5
4B7B
330
18
100
AcDbEntity
  8
\U+6807\U+6CE8
  6
CENTERX2
 48
0.1
100
AcDbLine
 10
55.78671483163011
 20
51.48181632561801
 30
0.0
 11
55.78671483163011
 21
57.24579451011134
 31
0.0
  0
CIRCLE
  5
4B7D
330
18
100
AcDbEntity
  8
0
  6
ByBlock
100
AcDbCircle
 10
55.78671483163011
 20
54.36380541786468
 30
0.0
 40
1.082675
  0
CIRCLE
  5
4B7E
330
18
100
AcDbEntity
  8
0
  6
ByBlock
100
AcDbCircle
 10
55.78671483163011
 20
54.36380541786468
 30
0.0
 40
1.791335
  0
LINE
  5
4B7F
330
18
100
AcDbEntity
  8
\U+6807\U+6CE8
  6
CENTERX2
 48
0.1
100
AcDbLine
 10
55.78671483163011
 20
9.884555584179089
 30
0.0
 11
55.78671483163011
 21
27.9413580908796
 31
0.0
  0
CIRCLE
  5
6A92
330
18
100
AcDbEntity
  8
0
100
AcDbCircle
 10
19.40997036473126
 20
24.15439281235818
 30
0.0
 40
1.1811
  0
CIRCLE
  5
6F2F
330
18
100
AcDbEntity
  8
\U+9762\U+76C6
100
AcDbCircle
 10
59.52686483163011
 20
59.40316541786469
 30
0.0
 40
0.51181
  0
CIRCLE
  5
6F30
330
18
100
AcDbEntity
  8
\U+9762\U+76C6
100
AcDbCircle
 10
59.52686483163011
 20
58.14332541786468
 30
0.0
 40
0.51181
  0
CIRCLE
  5
6F31
330
18
100
AcDbEntity
  8
\U+9762\U+76C6
100
AcDbCircle
 10
59.52686483163011
 20
60.66300541786468
 30
0.0
 40
0.51181
  0
CIRCLE
  5
6F32
330
18
100
AcDbEntity
  8
\U+9762\U+76C6
100
AcDbCircle
 10
59.52686483163011
 20
55.62364541786468
 30
0.0
 40
0.51181
  0
CIRCLE
  5
6F33
330
18
100
AcDbEntity
  8
\U+9762\U+76C6
100
AcDbCircle
 10
59.52686483163011
 20
54.36380541786468
 30
0.0
 40
0.51181
  0
CIRCLE
  5
6F34
330
18
100
AcDbEntity
  8
\U+9762\U+76C6
100
AcDbCircle
 10
59.52686483163011
 20
56.88348541786468
 30
0.0
 40
0.51181
  0
ARC
  5
6F35
330
18
100
AcDbEntity
  8
\U+9762\U+76C6
100
AcDbCircle
 10
55.78671483163011
 20
54.36380541786468
 30
0.0
 40
3.1496
100
AcDbArc
 50
70.86372595903572
 51
89.28378302760336
  0
ARC
  5
6F36
330
18
100
AcDbEntity
  8
\U+9762\U+76C6
100
AcDbCircle
 10
56.33789483163011
 20
57.51340541786468
 30
0.0
 40
0.51181
100
AcDbArc
 50
340.1199617788964
 51
180.0275472078087
  0
CIRCLE
  5
6F37
330
18
100
AcDbEntity
  8
\U+9762\U+76C6
100
AcDbCircle
 10
58.46387483163011
 20
57.51340541786468
 30
0.0
 40
0.51181
  0
ARC
  5
6F38
330
18
100
AcDbEntity
  8
\U+9762\U+76C6
100
AcDbCircle
 10
57.40088483163011
 20
56.88348541786468
 30
0.0
 40
0.51181
100
AcDbArc
 50
340.6369598978669
 51
134.073759832312
  0
ARC
  5
6F39
330
18
100
AcDbEntity
  8
\U+9762\U+76C6
100
AcDbCircle
 10
58.46387483163011
 20
56.25356541786469
 30
0.0
 40
0.51181
100
AcDbArc
 50
286.4292028061719
 51
144.0059831301682
  0
ARC
  5
6F3A
330
18
100
AcDbEntity
  8
\U+9762\U+76C6
100
AcDbCircle
 10
58.46387483163011
 20
54.99372541786468
 30
0.0
 40
0.51181
100
AcDbArc
 50
331.2989879527805
 51
55.18205187758677
  0
ARC
  5
6F3B
330
18
100
AcDbEntity
  8
\U+9762\U+76C6
100
AcDbCircle
 10
55.78671483163011
 20
54.36380541786468
 30
0.0
 40
3.1496
100
AcDbArc
 50
26.36800217054316
 51
44.06718376583225
  0
ARC
  5
6F3C
330
18
100
AcDbEntity
  8
\U+9762\U+76C6
100
AcDbCircle
 10
55.78671483163011
 20
54.36380541786468
 30
0.0
 40
3.1496
100
AcDbArc
 50
7.005300470244481
 51
19.47573936015226
  0
ARC
  5
6F3D
330
18
100
AcDbEntity
  8
\U+9762\U+76C6
100
AcDbCircle
 10
55.78671483163011
 20
54.36380541786468
 30
0.0
 40
3.1496
100
AcDbArc
 50
48.25562117856168
 51
66.45509855155703
  0
CIRCLE
  5
6F3E
330
18
100
AcDbEntity
  8
\U+9762\U+76C6
100
AcDbCircle
 10
55.27490483163012
 20
59.40316541786469
 30
0.0
 40
0.51181
  0
CIRCLE
  5
6F3F
330
18
100
AcDbEntity
  8
\U+9762\U+76C6
100
AcDbCircle
 10
57.40088483163011
 20
59.40316541786469
 30
0.0
 40
0.51181
  0
CIRCLE
  5
6F40
330
18
100
AcDbEntity
  8
\U+9762\U+76C6
100
AcDbCircle
 10
58.46387483163011
 20
60.03308541786468
 30
0.0
 40
0.51181
  0
CIRCLE
  5
6F41
330
18
100
AcDbEntity
  8
\U+9762\U+76C6
100
AcDbCircle
 10
56.33789483163011
 20
60.03308541786468
 30
0.0
 40
0.51181
  0
CIRCLE
  5
6F42
330
18
100
AcDbEntity
  8
\U+9762\U+76C6
100
AcDbCircle
 10
56.33789483163011
 20
58.77324541786467
 30
0.0
 40
0.51181
  0
CIRCLE
  5
6F43
330
18
100
AcDbEntity
  8
\U+9762\U+76C6
100
AcDbCircle
 10
55.27490483163012
 20
58.14332541786468
 30
0.0
 40
0.51181
  0
CIRCLE
  5
6F44
330
18
100
AcDbEntity
  8
\U+9762\U+76C6
100
AcDbCircle
 10
58.46387483163011
 20
58.77324541786467
 30
0.0
 40
0.51181
  0
CIRCLE
  5
6F45
330
18
100
AcDbEntity
  8
\U+9762\U+76C6
100
AcDbCircle
 10
57.40088483163011
 20
58.14332541786468
 30
0.0
 40
0.51181
  0
CIRCLE
  5
6F46
330
18
100
AcDbEntity
  8
\U+9762\U+76C6
100
AcDbCircle
 10
57.40088483163011
 20
60.66300541786468
 30
0.0
 40
0.51181
  0
CIRCLE
  5
6F47
330
18
100
AcDbEntity
  8
\U+9762\U+76C6
100
AcDbCircle
 10
85.03862483163011
 20
59.40316541786469
 30
0.0
 40
0.51181
  0
CIRCLE
  5
6F48
330
18
100
AcDbEntity
  8
\U+9762\U+76C6
100
AcDbCircle
 10
85.03862483163011
 20
58.14332541786468
 30
0.0
 40
0.51181
  0
CIRCLE
  5
6F49
330
18
100
AcDbEntity
  8
\U+9762\U+76C6
100
AcDbCircle
 10
85.03862483163011
 20
60.66300541786468
 30
0.0
 40
0.51181
  0
CIRCLE
  5
6F4A
330
18
100
AcDbEntity
  8
\U+9762\U+76C6
100
AcDbCircle
 10
85.03862483163011
 20
55.62364541786468
 30
0.0
 40
0.51181
  0
CIRCLE
  5
6F4B
330
18
100
AcDbEntity
  8
\U+9762\U+76C6
100
AcDbCircle
 10
85.03862483163011
 20
54.36380541786468
 30
0.0
 40
0.51181
  0
CIRCLE
  5
6F4C
330
18
100
AcDbEntity
  8
\U+9762\U+76C6
100
AcDbCircle
 10
85.03862483163011
 20
56.88348541786468
 30
0.0
 40
0.51181
  0
CIRCLE
  5
6F4D
330
18
100
AcDbEntity
  8
\U+9762\U+76C6
100
AcDbCircle
 10
72.28274483163011
 20
59.40316541786469
 30
0.0
 40
0.51181
  0
CIRCLE
  5
6F4E
330
18
100
AcDbEntity
  8
\U+9762\U+76C6
100
AcDbCircle
 10
72.28274483163011
 20
58.14332541786468
 30
0.0
 40
0.51181
  0
CIRCLE
  5
6F4F
330
18
100
AcDbEntity
  8
\U+9762\U+76C6
100
AcDbCircle
 10
72.28274483163011
 20
60.66300541786468
 30
0.0
 40
0.51181
  0
CIRCLE
  5
6F50
330
18
100
AcDbEntity
  8
\U+9762\U+76C6
100
AcDbCircle
 10
72.28274483163011
 20
55.62364541786468
 30
0.0
 40
0.51181
  0
CIRCLE
  5
6F51
330
18
100
AcDbEntity
  8
\U+9762\U+76C6
100
AcDbCircle
 10
72.28274483163011
 20
54.36380541786468
 30
0.0
 40
0.51181
  0
CIRCLE
  5
6F52
330
18
100
AcDbEntity
  8
\U+9762\U+76C6
100
AcDbCircle
 10
72.28274483163011
 20
56.88348541786468
 30
0.0
 40
0.51181
  0
CIRCLE
  5
6F53
330
18
100
AcDbEntity
  8
\U+9762\U+76C6
100
AcDbCircle
 10
64.84181483163012
 20
57.51340541786468
 30
0.0
 40
0.51181
  0
CIRCLE
  5
6F54
330
18
100
AcDbEntity
  8
\U+9762\U+76C6
100
AcDbCircle
 10
60.58985483163011
 20
57.51340541786468
 30
0.0
 40
0.51181
  0
CIRCLE
  5
6F55
330
18
100
AcDbEntity
  8
\U+9762\U+76C6
100
AcDbCircle
 10
62.71583483163011
 20
57.51340541786468
 30
0.0
 40
0.51181
  0
CIRCLE
  5
6F56
330
18
100
AcDbEntity
  8
\U+9762\U+76C6
100
AcDbCircle
 10
69.09377483163011
 20
57.51340541786468
 30
0.0
 40
0.51181
  0
CIRCLE
  5
6F57
330
18
100
AcDbEntity
  8
\U+9762\U+76C6
100
AcDbCircle
 10
71.21975483163011
 20
57.51340541786468
 30
0.0
 40
0.51181
  0
CIRCLE
  5
6F58
330
18
100
AcDbEntity
  8
\U+9762\U+76C6
100
AcDbCircle
 10
66.96779483163012
 20
57.51340541786468
 30
0.0
 40
0.51181
  0
CIRCLE
  5
6F59
330
18
100
AcDbEntity
  8
\U+9762\U+76C6
100
AcDbCircle
 10
65.90480483163012
 20
55.62364541786468
 30
0.0
 40
0.51181
  0
CIRCLE
  5
6F5A
330
18
100
AcDbEntity
  8
\U+9762\U+76C6
100
AcDbCircle
 10
65.90480483163012
 20
54.36380541786468
 30
0.0
 40
0.51181
  0
CIRCLE
  5
6F5B
330
18
100
AcDbEntity
  8
\U+9762\U+76C6
100
AcDbCircle
 10
65.90480483163012
 20
56.88348541786468
 30
0.0
 40
0.51181
  0
CIRCLE
  5
6F5C
330
18
100
AcDbEntity
  8
\U+9762\U+76C6
100
AcDbCircle
 10
64.84181483163012
 20
56.25356541786469
 30
0.0
 40
0.51181
  0
CIRCLE
  5
6F5D
330
18
100
AcDbEntity
  8
\U+9762\U+76C6
100
AcDbCircle
 10
64.84181483163012
 20
54.99372541786468
 30
0.0
 40
0.51181
  0
CIRCLE
  5
6F5E
330
18
100
AcDbEntity
  8
\U+9762\U+76C6
100
AcDbCircle
 10
63.77882483163012
 20
55.62364541786468
 30
0.0
 40
0.51181
  0
CIRCLE
  5
6F5F
330
18
100
AcDbEntity
  8
\U+9762\U+76C6
100
AcDbCircle
 10
62.71583483163011
 20
56.25356541786469
 30
0.0
 40
0.51181
  0
CIRCLE
  5
6F60
330
18
100
AcDbEntity
  8
\U+9762\U+76C6
100
AcDbCircle
 10
63.77882483163012
 20
54.36380541786468
 30
0.0
 40
0.51181
  0
CIRCLE
  5
6F61
330
18
100
AcDbEntity
  8
\U+9762\U+76C6
100
AcDbCircle
 10
62.71583483163011
 20
54.99372541786468
 30
0.0
 40
0.51181
  0
CIRCLE
  5
6F62
330
18
100
AcDbEntity
  8
\U+9762\U+76C6
100
AcDbCircle
 10
63.77882483163012
 20
56.88348541786468
 30
0.0
 40
0.51181
  0
CIRCLE
  5
6F63
330
18
100
AcDbEntity
  8
\U+9762\U+76C6
100
AcDbCircle
 10
61.65284483163011
 20
55.62364541786468
 30
0.0
 40
0.51181
  0
CIRCLE
  5
6F64
330
18
100
AcDbEntity
  8
\U+9762\U+76C6
100
AcDbCircle
 10
61.65284483163011
 20
54.36380541786468
 30
0.0
 40
0.51181
  0
CIRCLE
  5
6F65
330
18
100
AcDbEntity
  8
\U+9762\U+76C6
100
AcDbCircle
 10
61.65284483163011
 20
56.88348541786468
 30
0.0
 40
0.51181
  0
CIRCLE
  5
6F66
330
18
100
AcDbEntity
  8
\U+9762\U+76C6
100
AcDbCircle
 10
60.58985483163011
 20
56.25356541786469
 30
0.0
 40
0.51181
  0
CIRCLE
  5
6F67
330
18
100
AcDbEntity
  8
\U+9762\U+76C6
100
AcDbCircle
 10
60.58985483163011
 20
54.99372541786468
 30
0.0
 40
0.51181
  0
CIRCLE
  5
6F68
330
18
100
AcDbEntity
  8
\U+9762\U+76C6
100
AcDbCircle
 10
70.15676483163011
 20
55.62364541786468
 30
0.0
 40
0.51181
  0
CIRCLE
  5
6F69
330
18
100
AcDbEntity
  8
\U+9762\U+76C6
100
AcDbCircle
 10
69.09377483163011
 20
56.25356541786469
 30
0.0
 40
0.51181
  0
CIRCLE
  5
6F6A
330
18
100
AcDbEntity
  8
\U+9762\U+76C6
100
AcDbCircle
 10
70.15676483163011
 20
54.36380541786468
 30
0.0
 40
0.51181
  0
CIRCLE
  5
6F6B
330
18
100
AcDbEntity
  8
\U+9762\U+76C6
100
AcDbCircle
 10
69.09377483163011
 20
54.99372541786468
 30
0.0
 40
0.51181
  0
CIRCLE
  5
6F6C
330
18
100
AcDbEntity
  8
\U+9762\U+76C6
100
AcDbCircle
 10
70.15676483163011
 20
56.88348541786468
 30
0.0
 40
0.51181
  0
CIRCLE
  5
6F6D
330
18
100
AcDbEntity
  8
\U+9762\U+76C6
100
AcDbCircle
 10
71.21975483163011
 20
56.25356541786469
 30
0.0
 40
0.51181
  0
CIRCLE
  5
6F6E
330
18
100
AcDbEntity
  8
\U+9762\U+76C6
100
AcDbCircle
 10
71.21975483163011
 20
54.99372541786468
 30
0.0
 40
0.51181
  0
CIRCLE
  5
6F6F
330
18
100
AcDbEntity
  8
\U+9762\U+76C6
100
AcDbCircle
 10
68.03078483163012
 20
55.62364541786468
 30
0.0
 40
0.51181
  0
CIRCLE
  5
6F70
330
18
100
AcDbEntity
  8
\U+9762\U+76C6
100
AcDbCircle
 10
68.03078483163012
 20
54.36380541786468
 30
0.0
 40
0.51181
  0
CIRCLE
  5
6F71
330
18
100
AcDbEntity
  8
\U+9762\U+76C6
100
AcDbCircle
 10
68.03078483163012
 20
56.88348541786468
 30
0.0
 40
0.51181
  0
CIRCLE
  5
6F72
330
18
100
AcDbEntity
  8
\U+9762\U+76C6
100
AcDbCircle
 10
66.96779483163012
 20
56.25356541786469
 30
0.0
 40
0.51181
  0
CIRCLE
  5
6F73
330
18
100
AcDbEntity
  8
\U+9762\U+76C6
100
AcDbCircle
 10
66.96779483163012
 20
54.99372541786468
 30
0.0
 40
0.51181
  0
CIRCLE
  5
6F74
330
18
100
AcDbEntity
  8
\U+9762\U+76C6
100
AcDbCircle
 10
65.90480483163012
 20
59.40316541786469
 30
0.0
 40
0.51181
  0
CIRCLE
  5
6F75
330
18
100
AcDbEntity
  8
\U+9762\U+76C6
100
AcDbCircle
 10
65.90480483163012
 20
58.14332541786468
 30
0.0
 40
0.51181
  0
CIRCLE
  5
6F76
330
18
100
AcDbEntity
  8
\U+9762\U+76C6
100
AcDbCircle
 10
65.90480483163012
 20
60.66300541786468
 30
0.0
 40
0.51181
  0
CIRCLE
  5
6F77
330
18
100
AcDbEntity
  8
\U+9762\U+76C6
100
AcDbCircle
 10
63.77882483163012
 20
59.40316541786469
 30
0.0
 40
0.51181
  0
CIRCLE
  5
6F78
330
18
100
AcDbEntity
  8
\U+9762\U+76C6
100
AcDbCircle
 10
61.65284483163011
 20
59.40316541786469
 30
0.0
 40
0.51181
  0
CIRCLE
  5
6F79
330
18
100
AcDbEntity
  8
\U+9762\U+76C6
100
AcDbCircle
 10
64.84181483163012
 20
60.03308541786468
 30
0.0
 40
0.51181
  0
CIRCLE
  5
6F7A
330
18
100
AcDbEntity
  8
\U+9762\U+76C6
100
AcDbCircle
 10
62.71583483163011
 20
60.03308541786468
 30
0.0
 40
0.51181
  0
CIRCLE
  5
6F7B
330
18
100
AcDbEntity
  8
\U+9762\U+76C6
100
AcDbCircle
 10
64.84181483163012
 20
58.77324541786467
 30
0.0
 40
0.51181
  0
CIRCLE
  5
6F7C
330
18
100
AcDbEntity
  8
\U+9762\U+76C6
100
AcDbCircle
 10
62.71583483163011
 20
58.77324541786467
 30
0.0
 40
0.51181
  0
CIRCLE
  5
6F7D
330
18
100
AcDbEntity
  8
\U+9762\U+76C6
100
AcDbCircle
 10
63.77882483163012
 20
58.14332541786468
 30
0.0
 40
0.51181
  0
CIRCLE
  5
6F7E
330
18
100
AcDbEntity
  8
\U+9762\U+76C6
100
AcDbCircle
 10
61.65284483163011
 20
58.14332541786468
 30
0.0
 40
0.51181
  0
CIRCLE
  5
6F7F
330
18
100
AcDbEntity
  8
\U+9762\U+76C6
100
AcDbCircle
 10
63.77882483163012
 20
60.66300541786468
 30
0.0
 40
0.51181
  0
CIRCLE
  5
6F80
330
18
100
AcDbEntity
  8
\U+9762\U+76C6
100
AcDbCircle
 10
61.65284483163011
 20
60.66300541786468
 30
0.0
 40
0.51181
  0
CIRCLE
  5
6F81
330
18
100
AcDbEntity
  8
\U+9762\U+76C6
100
AcDbCircle
 10
60.58985483163011
 20
60.03308541786468
 30
0.0
 40
0.51181
  0
CIRCLE
  5
6F82
330
18
100
AcDbEntity
  8
\U+9762\U+76C6
100
AcDbCircle
 10
60.58985483163011
 20
58.77324541786467
 30
0.0
 40
0.51181
  0
CIRCLE
  5
6F83
330
18
100
AcDbEntity
  8
\U+9762\U+76C6
100
AcDbCircle
 10
70.15676483163011
 20
59.40316541786469
 30
0.0
 40
0.51181
  0
CIRCLE
  5
6F84
330
18
100
AcDbEntity
  8
\U+9762\U+76C6
100
AcDbCircle
 10
71.21975483163011
 20
60.03308541786468
 30
0.0
 40
0.51181
  0
CIRCLE
  5
6F85
330
18
100
AcDbEntity
  8
\U+9762\U+76C6
100
AcDbCircle
 10
69.09377483163011
 20
60.03308541786468
 30
0.0
 40
0.51181
  0
CIRCLE
  5
6F86
330
18
100
AcDbEntity
  8
\U+9762\U+76C6
100
AcDbCircle
 10
68.03078483163012
 20
59.40316541786469
 30
0.0
 40
0.51181
  0
CIRCLE
  5
6F87
330
18
100
AcDbEntity
  8
\U+9762\U+76C6
100
AcDbCircle
 10
69.09377483163011
 20
58.77324541786467
 30
0.0
 40
0.51181
  0
CIRCLE
  5
6F88
330
18
100
AcDbEntity
  8
\U+9762\U+76C6
100
AcDbCircle
 10
70.15676483163011
 20
58.14332541786468
 30
0.0
 40
0.51181
  0
CIRCLE
  5
6F89
330
18
100
AcDbEntity
  8
\U+9762\U+76C6
100
AcDbCircle
 10
71.21975483163011
 20
58.77324541786467
 30
0.0
 40
0.51181
  0
CIRCLE
  5
6F8A
330
18
100
AcDbEntity
  8
\U+9762\U+76C6
100
AcDbCircle
 10
68.03078483163012
 20
58.14332541786468
 30
0.0
 40
0.51181
  0
CIRCLE
  5
6F8B
330
18
100
AcDbEntity
  8
\U+9762\U+76C6
100
AcDbCircle
 10
70.15676483163011
 20
60.66300541786468
 30
0.0
 40
0.51181
  0
CIRCLE
  5
6F8C
330
18
100
AcDbEntity
  8
\U+9762\U+76C6
100
AcDbCircle
 10
68.03078483163012
 20
60.66300541786468
 30
0.0
 40
0.51181
  0
CIRCLE
  5
6F8D
330
18
100
AcDbEntity
  8
\U+9762\U+76C6
100
AcDbCircle
 10
66.96779483163012
 20
60.03308541786468
 30
0.0
 40
0.51181
  0
CIRCLE
  5
6F8E
330
18
100
AcDbEntity
  8
\U+9762\U+76C6
100
AcDbCircle
 10
66.96779483163012
 20
58.77324541786467
 30
0.0
 40
0.51181
  0
CIRCLE
  5
6F8F
330
18
100
AcDbEntity
  8
\U+9762\U+76C6
100
AcDbCircle
 10
77.59769483163012
 20
57.51340541786468
 30
0.0
 40
0.51181
  0
CIRCLE
  5
6F90
330
18
100
AcDbEntity
  8
\U+9762\U+76C6
100
AcDbCircle
 10
73.34573483163011
 20
57.51340541786468
 30
0.0
 40
0.51181
  0
CIRCLE
  5
6F91
330
18
100
AcDbEntity
  8
\U+9762\U+76C6
100
AcDbCircle
 10
75.47171483163011
 20
57.51340541786468
 30
0.0
 40
0.51181
  0
CIRCLE
  5
6F92
330
18
100
AcDbEntity
  8
\U+9762\U+76C6
100
AcDbCircle
 10
79.72367483163012
 20
57.51340541786468
 30
0.0
 40
0.51181
  0
CIRCLE
  5
6F93
330
18
100
AcDbEntity
  8
\U+9762\U+76C6
100
AcDbCircle
 10
83.97563483163011
 20
57.51340541786468
 30
0.0
 40
0.51181
  0
CIRCLE
  5
6F94
330
18
100
AcDbEntity
  8
\U+9762\U+76C6
100
AcDbCircle
 10
81.84965483163011
 20
57.51340541786468
 30
0.0
 40
0.51181
  0
CIRCLE
  5
6F95
330
18
100
AcDbEntity
  8
\U+9762\U+76C6
100
AcDbCircle
 10
78.66068483163012
 20
55.62364541786468
 30
0.0
 40
0.51181
  0
CIRCLE
  5
6F96
330
18
100
AcDbEntity
  8
\U+9762\U+76C6
100
AcDbCircle
 10
78.66068483163012
 20
54.36380541786468
 30
0.0
 40
0.51181
  0
CIRCLE
  5
6F97
330
18
100
AcDbEntity
  8
\U+9762\U+76C6
100
AcDbCircle
 10
78.66068483163012
 20
56.88348541786468
 30
0.0
 40
0.51181
  0
CIRCLE
  5
6F98
330
18
100
AcDbEntity
  8
\U+9762\U+76C6
100
AcDbCircle
 10
76.53470483163011
 20
55.62364541786468
 30
0.0
 40
0.51181
  0
CIRCLE
  5
6F99
330
18
100
AcDbEntity
  8
\U+9762\U+76C6
100
AcDbCircle
 10
76.53470483163011
 20
54.36380541786468
 30
0.0
 40
0.51181
  0
CIRCLE
  5
6F9A
330
18
100
AcDbEntity
  8
\U+9762\U+76C6
100
AcDbCircle
 10
76.53470483163011
 20
56.88348541786468
 30
0.0
 40
0.51181
  0
CIRCLE
  5
6F9B
330
18
100
AcDbEntity
  8
\U+9762\U+76C6
100
AcDbCircle
 10
77.59769483163012
 20
56.25356541786469
 30
0.0
 40
0.51181
  0
CIRCLE
  5
6F9C
330
18
100
AcDbEntity
  8
\U+9762\U+76C6
100
AcDbCircle
 10
77.59769483163012
 20
54.99372541786468
 30
0.0
 40
0.51181
  0
CIRCLE
  5
6F9D
330
18
100
AcDbEntity
  8
\U+9762\U+76C6
100
AcDbCircle
 10
74.40872483163011
 20
55.62364541786468
 30
0.0
 40
0.51181
  0
CIRCLE
  5
6F9E
330
18
100
AcDbEntity
  8
\U+9762\U+76C6
100
AcDbCircle
 10
74.40872483163011
 20
54.36380541786468
 30
0.0
 40
0.51181
  0
CIRCLE
  5
6F9F
330
18
100
AcDbEntity
  8
\U+9762\U+76C6
100
AcDbCircle
 10
74.40872483163011
 20
56.88348541786468
 30
0.0
 40
0.51181
  0
CIRCLE
  5
6FA0
330
18
100
AcDbEntity
  8
\U+9762\U+76C6
100
AcDbCircle
 10
75.47171483163011
 20
56.25356541786469
 30
0.0
 40
0.51181
  0
CIRCLE
  5
6FA1
330
18
100
AcDbEntity
  8
\U+9762\U+76C6
100
AcDbCircle
 10
75.47171483163011
 20
54.99372541786468
 30
0.0
 40
0.51181
  0
CIRCLE
  5
6FA2
330
18
100
AcDbEntity
  8
\U+9762\U+76C6
100
AcDbCircle
 10
73.34573483163011
 20
56.25356541786469
 30
0.0
 40
0.51181
  0
CIRCLE
  5
6FA3
330
18
100
AcDbEntity
  8
\U+9762\U+76C6
100
AcDbCircle
 10
73.34573483163011
 20
54.99372541786468
 30
0.0
 40
0.51181
  0
CIRCLE
  5
6FA4
330
18
100
AcDbEntity
  8
\U+9762\U+76C6
100
AcDbCircle
 10
80.78666483163011
 20
55.62364541786468
 30
0.0
 40
0.51181
  0
CIRCLE
  5
6FA5
330
18
100
AcDbEntity
  8
\U+9762\U+76C6
100
AcDbCircle
 10
79.72367483163012
 20
56.25356541786469
 30
0.0
 40
0.51181
  0
CIRCLE
  5
6FA6
330
18
100
AcDbEntity
  8
\U+9762\U+76C6
100
AcDbCircle
 10
80.78666483163011
 20
54.36380541786468
 30
0.0
 40
0.51181
  0
CIRCLE
  5
6FA7
330
18
100
AcDbEntity
  8
\U+9762\U+76C6
100
AcDbCircle
 10
79.72367483163012
 20
54.99372541786468
 30
0.0
 40
0.51181
  0
CIRCLE
  5
6FA8
330
18
100
AcDbEntity
  8
\U+9762\U+76C6
100
AcDbCircle
 10
80.78666483163011
 20
56.88348541786468
 30
0.0
 40
0.51181
  0
CIRCLE
  5
6FA9
330
18
100
AcDbEntity
  8
\U+9762\U+76C6
100
AcDbCircle
 10
83.97563483163011
 20
56.25356541786469
 30
0.0
 40
0.51181
  0
CIRCLE
  5
6FAA
330
18
100
AcDbEntity
  8
\U+9762\U+76C6
100
AcDbCircle
 10
83.97563483163011
 20
54.99372541786468
 30
0.0
 40
0.51181
  0
CIRCLE
  5
6FAB
330
18
100
AcDbEntity
  8
\U+9762\U+76C6
100
AcDbCircle
 10
82.91264483163011
 20
55.62364541786468
 30
0.0
 40
0.51181
  0
CIRCLE
  5
6FAC
330
18
100
AcDbEntity
  8
\U+9762\U+76C6
100
AcDbCircle
 10
82.91264483163011
 20
54.36380541786468
 30
0.0
 40
0.51181
  0
CIRCLE
  5
6FAD
330
18
100
AcDbEntity
  8
\U+9762\U+76C6
100
AcDbCircle
 10
82.91264483163011
 20
56.88348541786468
 30
0.0
 40
0.51181
  0
CIRCLE
  5
6FAE
330
18
100
AcDbEntity
  8
\U+9762\U+76C6
100
AcDbCircle
 10
81.84965483163011
 20
56.25356541786469
 30
0.0
 40
0.51181
  0
CIRCLE
  5
6FAF
330
18
100
AcDbEntity
  8
\U+9762\U+76C6
100
AcDbCircle
 10
81.84965483163011
 20
54.99372541786468
 30
0.0
 40
0.51181
  0
CIRCLE
  5
6FB0
330
18
100
AcDbEntity
  8
\U+9762\U+76C6
100
AcDbCircle
 10
78.66068483163012
 20
59.40316541786469
 30
0.0
 40
0.51181
  0
CIRCLE
  5
6FB1
330
18
100
AcDbEntity
  8
\U+9762\U+76C6
100
AcDbCircle
 10
78.66068483163012
 20
58.14332541786468
 30
0.0
 40
0.51181
  0
CIRCLE
  5
6FB2
330
18
100
AcDbEntity
  8
\U+9762\U+76C6
100
AcDbCircle
 10
78.66068483163012
 20
60.66300541786468
 30
0.0
 40
0.51181
  0
CIRCLE
  5
6FB3
330
18
100
AcDbEntity
  8
\U+9762\U+76C6
100
AcDbCircle
 10
76.53470483163011
 20
60.66300541786468
 30
0.0
 40
0.51181
  0
CIRCLE
  5
6FB4
330
18
100
AcDbEntity
  8
\U+9762\U+76C6
100
AcDbCircle
 10
76.53470483163011
 20
59.40316541786469
 30
0.0
 40
0.51181
  0
CIRCLE
  5
6FB5
330
18
100
AcDbEntity
  8
\U+9762\U+76C6
100
AcDbCircle
 10
76.53470483163011
 20
58.14332541786468
 30
0.0
 40
0.51181
  0
CIRCLE
  5
6FB6
330
18
100
AcDbEntity
  8
\U+9762\U+76C6
100
AcDbCircle
 10
77.59769483163012
 20
60.03308541786468
 30
0.0
 40
0.51181
  0
CIRCLE
  5
6FB7
330
18
100
AcDbEntity
  8
\U+9762\U+76C6
100
AcDbCircle
 10
77.59769483163012
 20
58.77324541786467
 30
0.0
 40
0.51181
  0
CIRCLE
  5
6FB8
330
18
100
AcDbEntity
  8
\U+9762\U+76C6
100
AcDbCircle
 10
74.40872483163011
 20
59.40316541786469
 30
0.0
 40
0.51181
  0
CIRCLE
  5
6FB9
330
18
100
AcDbEntity
  8
\U+9762\U+76C6
100
AcDbCircle
 10
75.47171483163011
 20
60.03308541786468
 30
0.0
 40
0.51181
  0
CIRCLE
  5
6FBA
330
18
100
AcDbEntity
  8
\U+9762\U+76C6
100
AcDbCircle
 10
74.40872483163011
 20
58.14332541786468
 30
0.0
 40
0.51181
  0
CIRCLE
  5
6FBB
330
18
100
AcDbEntity
  8
\U+9762\U+76C6
100
AcDbCircle
 10
75.47171483163011
 20
58.77324541786467
 30
0.0
 40
0.51181
  0
CIRCLE
  5
6FBC
330
18
100
AcDbEntity
  8
\U+9762\U+76C6
100
AcDbCircle
 10
74.40872483163011
 20
60.66300541786468
 30
0.0
 40
0.51181
  0
CIRCLE
  5
6FBD
330
18
100
AcDbEntity
  8
\U+9762\U+76C6
100
AcDbCircle
 10
73.34573483163011
 20
60.03308541786468
 30
0.0
 40
0.51181
  0
CIRCLE
  5
6FBE
330
18
100
AcDbEntity
  8
\U+9762\U+76C6
100
AcDbCircle
 10
73.34573483163011
 20
58.77324541786467
 30
0.0
 40
0.51181
  0
CIRCLE
  5
6FBF
330
18
100
AcDbEntity
  8
\U+9762\U+76C6
100
AcDbCircle
 10
80.78666483163011
 20
59.40316541786469
 30
0.0
 40
0.51181
  0
CIRCLE
  5
6FC0
330
18
100
AcDbEntity
  8
\U+9762\U+76C6
100
AcDbCircle
 10
79.72367483163012
 20
60.03308541786468
 30
0.0
 40
0.51181
  0
CIRCLE
  5
6FC1
330
18
100
AcDbEntity
  8
\U+9762\U+76C6
100
AcDbCircle
 10
82.91264483163011
 20
59.40316541786469
 30
0.0
 40
0.51181
  0
CIRCLE
  5
6FC2
330
18
100
AcDbEntity
  8
\U+9762\U+76C6
100
AcDbCircle
 10
83.97563483163011
 20
60.03308541786468
 30
0.0
 40
0.51181
  0
CIRCLE
  5
6FC3
330
18
100
AcDbEntity
  8
\U+9762\U+76C6
100
AcDbCircle
 10
81.84965483163011
 20
60.03308541786468
 30
0.0
 40
0.51181
  0
CIRCLE
  5
6FC4
330
18
100
AcDbEntity
  8
\U+9762\U+76C6
100
AcDbCircle
 10
79.72367483163012
 20
58.77324541786467
 30
0.0
 40
0.51181
  0
CIRCLE
  5
6FC5
330
18
100
AcDbEntity
  8
\U+9762\U+76C6
100
AcDbCircle
 10
80.78666483163011
 20
58.14332541786468
 30
0.0
 40
0.51181
  0
CIRCLE
  5
6FC6
330
18
100
AcDbEntity
  8
\U+9762\U+76C6
100
AcDbCircle
 10
83.97563483163011
 20
58.77324541786467
 30
0.0
 40
0.51181
  0
CIRCLE
  5
6FC7
330
18
100
AcDbEntity
  8
\U+9762\U+76C6
100
AcDbCircle
 10
82.91264483163011
 20
58.14332541786468
 30
0.0
 40
0.51181
  0
CIRCLE
  5
6FC8
330
18
100
AcDbEntity
  8
\U+9762\U+76C6
100
AcDbCircle
 10
81.84965483163011
 20
58.77324541786467
 30
0.0
 40
0.51181
  0
CIRCLE
  5
6FC9
330
18
100
AcDbEntity
  8
\U+9762\U+76C6
100
AcDbCircle
 10
80.78666483163011
 20
60.66300541786468
 30
0.0
 40
0.51181
  0
CIRCLE
  5
6FCA
330
18
100
AcDbEntity
  8
\U+9762\U+76C6
100
AcDbCircle
 10
82.91264483163011
 20
60.66300541786468
 30
0.0
 40
0.51181
  0
CIRCLE
  5
6FCB
330
18
100
AcDbEntity
  8
\U+9762\U+76C6
100
AcDbCircle
 10
90.35357483163011
 20
57.51340541786468
 30
0.0
 40
0.51181
  0
CIRCLE
  5
6FCC
330
18
100
AcDbEntity
  8
\U+9762\U+76C6
100
AcDbCircle
 10
88.22759483163011
 20
57.51340541786468
 30
0.0
 40
0.51181
  0
CIRCLE
  5
6FCD
330
18
100
AcDbEntity
  8
\U+9762\U+76C6
100
AcDbCircle
 10
86.10161483163011
 20
57.51340541786468
 30
0.0
 40
0.51181
  0
CIRCLE
  5
6FCE
330
18
100
AcDbEntity
  8
\U+9762\U+76C6
100
AcDbCircle
 10
92.47955483163011
 20
57.51340541786468
 30
0.0
 40
0.51181
  0
CIRCLE
  5
6FCF
330
18
100
AcDbEntity
  8
\U+9762\U+76C6
100
AcDbCircle
 10
91.41656483163011
 20
55.62364541786468
 30
0.0
 40
0.51181
  0
CIRCLE
  5
6FD0
330
18
100
AcDbEntity
  8
\U+9762\U+76C6
100
AcDbCircle
 10
91.41656483163011
 20
54.36380541786468
 30
0.0
 40
0.51181
  0
CIRCLE
  5
6FD1
330
18
100
AcDbEntity
  8
\U+9762\U+76C6
100
AcDbCircle
 10
91.41656483163011
 20
56.88348541786468
 30
0.0
 40
0.51181
  0
CIRCLE
  5
6FD2
330
18
100
AcDbEntity
  8
\U+9762\U+76C6
100
AcDbCircle
 10
89.29058483163011
 20
55.62364541786468
 30
0.0
 40
0.51181
  0
CIRCLE
  5
6FD3
330
18
100
AcDbEntity
  8
\U+9762\U+76C6
100
AcDbCircle
 10
89.29058483163011
 20
54.36380541786468
 30
0.0
 40
0.51181
  0
CIRCLE
  5
6FD4
330
18
100
AcDbEntity
  8
\U+9762\U+76C6
100
AcDbCircle
 10
89.29058483163011
 20
56.88348541786468
 30
0.0
 40
0.51181
  0
CIRCLE
  5
6FD5
330
18
100
AcDbEntity
  8
\U+9762\U+76C6
100
AcDbCircle
 10
90.35357483163011
 20
56.25356541786469
 30
0.0
 40
0.51181
  0
CIRCLE
  5
6FD6
330
18
100
AcDbEntity
  8
\U+9762\U+76C6
100
AcDbCircle
 10
90.35357483163011
 20
54.99372541786468
 30
0.0
 40
0.51181
  0
CIRCLE
  5
6FD7
330
18
100
AcDbEntity
  8
\U+9762\U+76C6
100
AcDbCircle
 10
87.16460483163011
 20
55.62364541786468
 30
0.0
 40
0.51181
  0
CIRCLE
  5
6FD8
330
18
100
AcDbEntity
  8
\U+9762\U+76C6
100
AcDbCircle
 10
88.22759483163011
 20
56.25356541786469
 30
0.0
 40
0.51181
  0
CIRCLE
  5
6FD9
330
18
100
AcDbEntity
  8
\U+9762\U+76C6
100
AcDbCircle
 10
87.16460483163011
 20
54.36380541786468
 30
0.0
 40
0.51181
  0
CIRCLE
  5
6FDA
330
18
100
AcDbEntity
  8
\U+9762\U+76C6
100
AcDbCircle
 10
88.22759483163011
 20
54.99372541786468
 30
0.0
 40
0.51181
  0
CIRCLE
  5
6FDB
330
18
100
AcDbEntity
  8
\U+9762\U+76C6
100
AcDbCircle
 10
87.16460483163011
 20
56.88348541786468
 30
0.0
 40
0.51181
  0
CIRCLE
  5
6FDC
330
18
100
AcDbEntity
  8
\U+9762\U+76C6
100
AcDbCircle
 10
86.10161483163011
 20
56.25356541786469
 30
0.0
 40
0.51181
  0
CIRCLE
  5
6FDD
330
18
100
AcDbEntity
  8
\U+9762\U+76C6
100
AcDbCircle
 10
86.10161483163011
 20
54.99372541786468
 30
0.0
 40
0.51181
  0
CIRCLE
  5
6FDE
330
18
100
AcDbEntity
  8
\U+9762\U+76C6
100
AcDbCircle
 10
92.47955483163011
 20
56.25356541786469
 30
0.0
 40
0.51181
  0
CIRCLE
  5
6FDF
330
18
100
AcDbEntity
  8
\U+9762\U+76C6
100
AcDbCircle
 10
92.47955483163011
 20
54.99372541786468
 30
0.0
 40
0.51181
  0
CIRCLE
  5
6FE0
330
18
100
AcDbEntity
  8
\U+9762\U+76C6
100
AcDbCircle
 10
91.41656483163011
 20
59.40316541786469
 30
0.0
 40
0.51181
  0
CIRCLE
  5
6FE1
330
18
100
AcDbEntity
  8
\U+9762\U+76C6
100
AcDbCircle
 10
91.41656483163011
 20
58.14332541786468
 30
0.0
 40
0.51181
  0
CIRCLE
  5
6FE2
330
18
100
AcDbEntity
  8
\U+9762\U+76C6
100
AcDbCircle
 10
87.16460483163011
 20
59.40316541786469
 30
0.0
 40
0.51181
  0
CIRCLE
  5
6FE3
330
18
100
AcDbEntity
  8
\U+9762\U+76C6
100
AcDbCircle
 10
89.29058483163011
 20
59.40316541786469
 30
0.0
 40
0.51181
  0
CIRCLE
  5
6FE4
330
18
100
AcDbEntity
  8
\U+9762\U+76C6
100
AcDbCircle
 10
90.35357483163011
 20
60.03308541786468
 30
0.0
 40
0.51181
  0
CIRCLE
  5
6FE5
330
18
100
AcDbEntity
  8
\U+9762\U+76C6
100
AcDbCircle
 10
86.10161483163011
 20
60.03308541786468
 30
0.0
 40
0.51181
  0
CIRCLE
  5
6FE6
330
18
100
AcDbEntity
  8
\U+9762\U+76C6
100
AcDbCircle
 10
88.22759483163011
 20
60.03308541786468
 30
0.0
 40
0.51181
  0
CIRCLE
  5
6FE7
330
18
100
AcDbEntity
  8
\U+9762\U+76C6
100
AcDbCircle
 10
89.29058483163011
 20
58.14332541786468
 30
0.0
 40
0.51181
  0
CIRCLE
  5
6FE8
330
18
100
AcDbEntity
  8
\U+9762\U+76C6
100
AcDbCircle
 10
90.35357483163011
 20
58.77324541786467
 30
0.0
 40
0.51181
  0
CIRCLE
  5
6FE9
330
18
100
AcDbEntity
  8
\U+9762\U+76C6
100
AcDbCircle
 10
88.22759483163011
 20
58.77324541786467
 30
0.0
 40
0.51181
  0
CIRCLE
  5
6FEA
330
18
100
AcDbEntity
  8
\U+9762\U+76C6
100
AcDbCircle
 10
87.16460483163011
 20
58.14332541786468
 30
0.0
 40
0.51181
  0
CIRCLE
  5
6FEB
330
18
100
AcDbEntity
  8
\U+9762\U+76C6
100
AcDbCircle
 10
86.10161483163011
 20
58.77324541786467
 30
0.0
 40
0.51181
  0
CIRCLE
  5
6FEC
330
18
100
AcDbEntity
  8
\U+9762\U+76C6
100
AcDbCircle
 10
89.29058483163011
 20
60.66300541786468
 30
0.0
 40
0.51181
  0
CIRCLE
  5
6FED
330
18
100
AcDbEntity
  8
\U+9762\U+76C6
100
AcDbCircle
 10
87.16460483163011
 20
60.66300541786468
 30
0.0
 40
0.51181
  0
CIRCLE
  5
6FEE
330
18
100
AcDbEntity
  8
\U+9762\U+76C6
100
AcDbCircle
 10
92.47955483163011
 20
58.77324541786467
 30
0.0
 40
0.51181
  0
CIRCLE
  5
6FEF
330
18
100
AcDbEntity
  8
\U+9762\U+76C6
100
AcDbCircle
 10
76.53470483163011
 20
50.58428541786469
 30
0.0
 40
0.51181
  0
CIRCLE
  5
6FF0
330
18
100
AcDbEntity
  8
\U+9762\U+76C6
100
AcDbCircle
 10
89.29058483163011
 20
50.58428541786469
 30
0.0
 40
0.51181
  0
CIRCLE
  5
6FF1
330
18
100
AcDbEntity
  8
\U+9762\U+76C6
100
AcDbCircle
 10
91.41656483163011
 20
50.58428541786469
 30
0.0
 40
0.51181
  0
CIRCLE
  5
6FF2
330
18
100
AcDbEntity
  8
\U+9762\U+76C6
100
AcDbCircle
 10
80.78666483163011
 20
50.58428541786469
 30
0.0
 40
0.51181
  0
CIRCLE
  5
6FF3
330
18
100
AcDbEntity
  8
\U+9762\U+76C6
100
AcDbCircle
 10
78.66068483163012
 20
50.58428541786469
 30
0.0
 40
0.51181
  0
CIRCLE
  5
6FF4
330
18
100
AcDbEntity
  8
\U+9762\U+76C6
100
AcDbCircle
 10
85.03862483163011
 20
50.58428541786469
 30
0.0
 40
0.51181
  0
CIRCLE
  5
6FF5
330
18
100
AcDbEntity
  8
\U+9762\U+76C6
100
AcDbCircle
 10
82.91264483163011
 20
50.58428541786469
 30
0.0
 40
0.51181
  0
CIRCLE
  5
6FF6
330
18
100
AcDbEntity
  8
\U+9762\U+76C6
100
AcDbCircle
 10
87.16460483163011
 20
50.58428541786469
 30
0.0
 40
0.51181
  0
CIRCLE
  5
6FF7
330
18
100
AcDbEntity
  8
\U+9762\U+76C6
100
AcDbCircle
 10
65.90480483163012
 20
50.58428541786469
 30
0.0
 40
0.51181
  0
CIRCLE
  5
6FF8
330
18
100
AcDbEntity
  8
\U+9762\U+76C6
100
AcDbCircle
 10
70.15676483163011
 20
50.58428541786469
 30
0.0
 40
0.51181
  0
CIRCLE
  5
6FF9
330
18
100
AcDbEntity
  8
\U+9762\U+76C6
100
AcDbCircle
 10
72.28274483163011
 20
50.58428541786469
 30
0.0
 40
0.51181
  0
CIRCLE
  5
6FFA
330
18
100
AcDbEntity
  8
\U+9762\U+76C6
100
AcDbCircle
 10
74.40872483163011
 20
50.58428541786469
 30
0.0
 40
0.51181
  0
CIRCLE
  5
6FFB
330
18
100
AcDbEntity
  8
\U+9762\U+76C6
100
AcDbCircle
 10
68.03078483163012
 20
50.58428541786469
 30
0.0
 40
0.51181
  0
CIRCLE
  5
6FFC
330
18
100
AcDbEntity
  8
\U+9762\U+76C6
100
AcDbCircle
 10
55.27490483163012
 20
50.58428541786469
 30
0.0
 40
0.51181
  0
CIRCLE
  5
6FFD
330
18
100
AcDbEntity
  8
\U+9762\U+76C6
100
AcDbCircle
 10
59.52686483163011
 20
50.58428541786469
 30
0.0
 40
0.51181
  0
CIRCLE
  5
6FFE
330
18
100
AcDbEntity
  8
\U+9762\U+76C6
100
AcDbCircle
 10
57.40088483163011
 20
50.58428541786469
 30
0.0
 40
0.51181
  0
CIRCLE
  5
6FFF
330
18
100
AcDbEntity
  8
\U+9762\U+76C6
100
AcDbCircle
 10
63.77882483163012
 20
50.58428541786469
 30
0.0
 40
0.51181
  0
CIRCLE
  5
7000
330
18
100
AcDbEntity
  8
\U+9762\U+76C6
100
AcDbCircle
 10
61.65284483163011
 20
50.58428541786469
 30
0.0
 40
0.51181
  0
CIRCLE
  5
7001
330
18
100
AcDbEntity
  8
\U+9762\U+76C6
100
AcDbCircle
 10
59.52686483163011
 20
49.32444541786468
 30
0.0
 40
0.51181
  0
CIRCLE
  5
7002
330
18
100
AcDbEntity
  8
\U+9762\U+76C6
100
AcDbCircle
 10
59.52686483163011
 20
48.06460541786468
 30
0.0
 40
0.51181
  0
CIRCLE
  5
7003
330
18
100
AcDbEntity
  8
\U+9762\U+76C6
100
AcDbCircle
 10
55.27490483163012
 20
49.32444541786468
 30
0.0
 40
0.51181
  0
CIRCLE
  5
7004
330
18
100
AcDbEntity
  8
\U+9762\U+76C6
100
AcDbCircle
 10
56.33789483163011
 20
48.69452541786468
 30
0.0
 40
0.51181
  0
CIRCLE
  5
7005
330
18
100
AcDbEntity
  8
\U+9762\U+76C6
100
AcDbCircle
 10
56.33789483163011
 20
49.95436541786467
 30
0.0
 40
0.51181
  0
CIRCLE
  5
7006
330
18
100
AcDbEntity
  8
\U+9762\U+76C6
100
AcDbCircle
 10
58.46387483163011
 20
48.69452541786468
 30
0.0
 40
0.51181
  0
CIRCLE
  5
7007
330
18
100
AcDbEntity
  8
\U+9762\U+76C6
100
AcDbCircle
 10
58.46387483163011
 20
49.95436541786467
 30
0.0
 40
0.51181
  0
CIRCLE
  5
7008
330
18
100
AcDbEntity
  8
\U+9762\U+76C6
100
AcDbCircle
 10
57.40088483163011
 20
49.32444541786468
 30
0.0
 40
0.51181
  0
CIRCLE
  5
7009
330
18
100
AcDbEntity
  8
\U+9762\U+76C6
100
AcDbCircle
 10
57.40088483163011
 20
48.06460541786468
 30
0.0
 40
0.51181
  0
CIRCLE
  5
700A
330
18
100
AcDbEntity
  8
\U+9762\U+76C6
100
AcDbCircle
 10
85.03862483163011
 20
49.32444541786468
 30
0.0
 40
0.51181
  0
CIRCLE
  5
700B
330
18
100
AcDbEntity
  8
\U+9762\U+76C6
100
AcDbCircle
 10
85.03862483163011
 20
48.06460541786468
 30
0.0
 40
0.51181
  0
CIRCLE
  5
700C
330
18
100
AcDbEntity
  8
\U+9762\U+76C6
100
AcDbCircle
 10
72.28274483163011
 20
49.32444541786468
 30
0.0
 40
0.51181
  0
CIRCLE
  5
700D
330
18
100
AcDbEntity
  8
\U+9762\U+76C6
100
AcDbCircle
 10
72.28274483163011
 20
48.06460541786468
 30
0.0
 40
0.51181
  0
CIRCLE
  5
700E
330
18
100
AcDbEntity
  8
\U+9762\U+76C6
100
AcDbCircle
 10
65.90480483163012
 20
49.32444541786468
 30
0.0
 40
0.51181
  0
CIRCLE
  5
700F
330
18
100
AcDbEntity
  8
\U+9762\U+76C6
100
AcDbCircle
 10
65.90480483163012
 20
48.06460541786468
 30
0.0
 40
0.51181
  0
CIRCLE
  5
7010
330
18
100
AcDbEntity
  8
\U+9762\U+76C6
100
AcDbCircle
 10
64.84181483163012
 20
48.69452541786468
 30
0.0
 40
0.51181
  0
CIRCLE
  5
7011
330
18
100
AcDbEntity
  8
\U+9762\U+76C6
100
AcDbCircle
 10
64.84181483163012
 20
49.95436541786467
 30
0.0
 40
0.51181
  0
CIRCLE
  5
7012
330
18
100
AcDbEntity
  8
\U+9762\U+76C6
100
AcDbCircle
 10
63.77882483163012
 20
49.32444541786468
 30
0.0
 40
0.51181
  0
CIRCLE
  5
7013
330
18
100
AcDbEntity
  8
\U+9762\U+76C6
100
AcDbCircle
 10
62.71583483163011
 20
48.69452541786468
 30
0.0
 40
0.51181
  0
CIRCLE
  5
7014
330
18
100
AcDbEntity
  8
\U+9762\U+76C6
100
AcDbCircle
 10
63.77882483163012
 20
48.06460541786468
 30
0.0
 40
0.51181
  0
CIRCLE
  5
7015
330
18
100
AcDbEntity
  8
\U+9762\U+76C6
100
AcDbCircle
 10
62.71583483163011
 20
49.95436541786467
 30
0.0
 40
0.51181
  0
CIRCLE
  5
7016
330
18
100
AcDbEntity
  8
\U+9762\U+76C6
100
AcDbCircle
 10
61.65284483163011
 20
49.32444541786468
 30
0.0
 40
0.51181
  0
CIRCLE
  5
7017
330
18
100
AcDbEntity
  8
\U+9762\U+76C6
100
AcDbCircle
 10
61.65284483163011
 20
48.06460541786468
 30
0.0
 40
0.51181
  0
CIRCLE
  5
7018
330
18
100
AcDbEntity
  8
\U+9762\U+76C6
100
AcDbCircle
 10
60.58985483163011
 20
48.69452541786468
 30
0.0
 40
0.51181
  0
CIRCLE
  5
7019
330
18
100
AcDbEntity
  8
\U+9762\U+76C6
100
AcDbCircle
 10
60.58985483163011
 20
49.95436541786467
 30
0.0
 40
0.51181
  0
CIRCLE
  5
701A
330
18
100
AcDbEntity
  8
\U+9762\U+76C6
100
AcDbCircle
 10
70.15676483163011
 20
49.32444541786468
 30
0.0
 40
0.51181
  0
CIRCLE
  5
701B
330
18
100
AcDbEntity
  8
\U+9762\U+76C6
100
AcDbCircle
 10
69.09377483163011
 20
48.69452541786468
 30
0.0
 40
0.51181
  0
CIRCLE
  5
701C
330
18
100
AcDbEntity
  8
\U+9762\U+76C6
100
AcDbCircle
 10
70.15676483163011
 20
48.06460541786468
 30
0.0
 40
0.51181
  0
CIRCLE
  5
701D
330
18
100
AcDbEntity
  8
\U+9762\U+76C6
100
AcDbCircle
 10
69.09377483163011
 20
49.95436541786467
 30
0.0
 40
0.51181
  0
CIRCLE
  5
701E
330
18
100
AcDbEntity
  8
\U+9762\U+76C6
100
AcDbCircle
 10
71.21975483163011
 20
48.69452541786468
 30
0.0
 40
0.51181
  0
CIRCLE
  5
701F
330
18
100
AcDbEntity
  8
\U+9762\U+76C6
100
AcDbCircle
 10
71.21975483163011
 20
49.95436541786467
 30
0.0
 40
0.51181
  0
CIRCLE
  5
7020
330
18
100
AcDbEntity
  8
\U+9762\U+76C6
100
AcDbCircle
 10
68.03078483163012
 20
49.32444541786468
 30
0.0
 40
0.51181
  0
CIRCLE
  5
7021
330
18
100
AcDbEntity
  8
\U+9762\U+76C6
100
AcDbCircle
 10
68.03078483163012
 20
48.06460541786468
 30
0.0
 40
0.51181
  0
CIRCLE
  5
7022
330
18
100
AcDbEntity
  8
\U+9762\U+76C6
100
AcDbCircle
 10
66.96779483163012
 20
48.69452541786468
 30
0.0
 40
0.51181
  0
CIRCLE
  5
7023
330
18
100
AcDbEntity
  8
\U+9762\U+76C6
100
AcDbCircle
 10
66.96779483163012
 20
49.95436541786467
 30
0.0
 40
0.51181
  0
CIRCLE
  5
7024
330
18
100
AcDbEntity
  8
\U+9762\U+76C6
100
AcDbCircle
 10
78.66068483163012
 20
49.32444541786468
 30
0.0
 40
0.51181
  0
CIRCLE
  5
7025
330
18
100
AcDbEntity
  8
\U+9762\U+76C6
100
AcDbCircle
 10
78.66068483163012
 20
48.06460541786468
 30
0.0
 40
0.51181
  0
CIRCLE
  5
7026
330
18
100
AcDbEntity
  8
\U+9762\U+76C6
100
AcDbCircle
 10
76.53470483163011
 20
49.32444541786468
 30
0.0
 40
0.51181
  0
CIRCLE
  5
7027
330
18
100
AcDbEntity
  8
\U+9762\U+76C6
100
AcDbCircle
 10
76.53470483163011
 20
48.06460541786468
 30
0.0
 40
0.51181
  0
CIRCLE
  5
7028
330
18
100
AcDbEntity
  8
\U+9762\U+76C6
100
AcDbCircle
 10
77.59769483163012
 20
48.69452541786468
 30
0.0
 40
0.51181
  0
CIRCLE
  5
7029
330
18
100
AcDbEntity
  8
\U+9762\U+76C6
100
AcDbCircle
 10
77.59769483163012
 20
49.95436541786467
 30
0.0
 40
0.51181
  0
CIRCLE
  5
702A
330
18
100
AcDbEntity
  8
\U+9762\U+76C6
100
AcDbCircle
 10
74.40872483163011
 20
49.32444541786468
 30
0.0
 40
0.51181
  0
CIRCLE
  5
702B
330
18
100
AcDbEntity
  8
\U+9762\U+76C6
100
AcDbCircle
 10
74.40872483163011
 20
48.06460541786468
 30
0.0
 40
0.51181
  0
CIRCLE
  5
702C
330
18
100
AcDbEntity
  8
\U+9762\U+76C6
100
AcDbCircle
 10
75.47171483163011
 20
48.69452541786468
 30
0.0
 40
0.51181
  0
CIRCLE
  5
702D
330
18
100
AcDbEntity
  8
\U+9762\U+76C6
100
AcDbCircle
 10
75.47171483163011
 20
49.95436541786467
 30
0.0
 40
0.51181
  0
CIRCLE
  5
702E
330
18
100
AcDbEntity
  8
\U+9762\U+76C6
100
AcDbCircle
 10
73.34573483163011
 20
48.69452541786468
 30
0.0
 40
0.51181
  0
CIRCLE
  5
702F
330
18
100
AcDbEntity
  8
\U+9762\U+76C6
100
AcDbCircle
 10
73.34573483163011
 20
49.95436541786467
 30
0.0
 40
0.51181
  0
CIRCLE
  5
7030
330
18
100
AcDbEntity
  8
\U+9762\U+76C6
100
AcDbCircle
 10
80.78666483163011
 20
49.32444541786468
 30
0.0
 40
0.51181
  0
CIRCLE
  5
7031
330
18
100
AcDbEntity
  8
\U+9762\U+76C6
100
AcDbCircle
 10
79.72367483163012
 20
48.69452541786468
 30
0.0
 40
0.51181
  0
CIRCLE
  5
7032
330
18
100
AcDbEntity
  8
\U+9762\U+76C6
100
AcDbCircle
 10
80.78666483163011
 20
48.06460541786468
 30
0.0
 40
0.51181
  0
CIRCLE
  5
7033
330
18
100
AcDbEntity
  8
\U+9762\U+76C6
100
AcDbCircle
 10
79.72367483163012
 20
49.95436541786467
 30
0.0
 40
0.51181
  0
CIRCLE
  5
7034
330
18
100
AcDbEntity
  8
\U+9762\U+76C6
100
AcDbCircle
 10
82.91264483163011
 20
49.32444541786468
 30
0.0
 40
0.51181
  0
CIRCLE
  5
7035
330
18
100
AcDbEntity
  8
\U+9762\U+76C6
100
AcDbCircle
 10
83.97563483163011
 20
48.69452541786468
 30
0.0
 40
0.51181
  0
CIRCLE
  5
7036
330
18
100
AcDbEntity
  8
\U+9762\U+76C6
100
AcDbCircle
 10
82.91264483163011
 20
48.06460541786468
 30
0.0
 40
0.51181
  0
CIRCLE
  5
7037
330
18
100
AcDbEntity
  8
\U+9762\U+76C6
100
AcDbCircle
 10
83.97563483163011
 20
49.95436541786467
 30
0.0
 40
0.51181
  0
CIRCLE
  5
7038
330
18
100
AcDbEntity
  8
\U+9762\U+76C6
100
AcDbCircle
 10
81.84965483163011
 20
48.69452541786468
 30
0.0
 40
0.51181
  0
CIRCLE
  5
7039
330
18
100
AcDbEntity
  8
\U+9762\U+76C6
100
AcDbCircle
 10
81.84965483163011
 20
49.95436541786467
 30
0.0
 40
0.51181
  0
CIRCLE
  5
703A
330
18
100
AcDbEntity
  8
\U+9762\U+76C6
100
AcDbCircle
 10
91.41656483163011
 20
49.32444541786468
 30
0.0
 40
0.51181
  0
CIRCLE
  5
703B
330
18
100
AcDbEntity
  8
\U+9762\U+76C6
100
AcDbCircle
 10
89.29058483163011
 20
49.32444541786468
 30
0.0
 40
0.51181
  0
CIRCLE
  5
703C
330
18
100
AcDbEntity
  8
\U+9762\U+76C6
100
AcDbCircle
 10
89.29058483163011
 20
48.06460541786468
 30
0.0
 40
0.51181
  0
CIRCLE
  5
703D
330
18
100
AcDbEntity
  8
\U+9762\U+76C6
100
AcDbCircle
 10
90.35357483163011
 20
48.69452541786468
 30
0.0
 40
0.51181
  0
CIRCLE
  5
703E
330
18
100
AcDbEntity
  8
\U+9762\U+76C6
100
AcDbCircle
 10
90.35357483163011
 20
49.95436541786467
 30
0.0
 40
0.51181
  0
CIRCLE
  5
703F
330
18
100
AcDbEntity
  8
\U+9762\U+76C6
100
AcDbCircle
 10
87.16460483163011
 20
49.32444541786468
 30
0.0
 40
0.51181
  0
CIRCLE
  5
7040
330
18
100
AcDbEntity
  8
\U+9762\U+76C6
100
AcDbCircle
 10
88.22759483163011
 20
48.69452541786468
 30
0.0
 40
0.51181
  0
CIRCLE
  5
7041
330
18
100
AcDbEntity
  8
\U+9762\U+76C6
100
AcDbCircle
 10
87.16460483163011
 20
48.06460541786468
 30
0.0
 40
0.51181
  0
CIRCLE
  5
7042
330
18
100
AcDbEntity
  8
\U+9762\U+76C6
100
AcDbCircle
 10
88.22759483163011
 20
49.95436541786467
 30
0.0
 40
0.51181
  0
CIRCLE
  5
7043
330
18
100
AcDbEntity
  8
\U+9762\U+76C6
100
AcDbCircle
 10
86.10161483163011
 20
48.69452541786468
 30
0.0
 40
0.51181
  0
CIRCLE
  5
7044
330
18
100
AcDbEntity
  8
\U+9762\U+76C6
100
AcDbCircle
 10
86.10161483163011
 20
49.95436541786467
 30
0.0
 40
0.51181
  0
CIRCLE
  5
7045
330
18
100
AcDbEntity
  8
\U+9762\U+76C6
100
AcDbCircle
 10
92.47955483163011
 20
49.95436541786467
 30
0.0
 40
0.51181
  0
CIRCLE
  5
7046
330
18
100
AcDbEntity
  8
\U+9762\U+76C6
100
AcDbCircle
 10
59.52686483163011
 20
51.84412541786468
 30
0.0
 40
0.51181
  0
CIRCLE
  5
7047
330
18
100
AcDbEntity
  8
\U+9762\U+76C6
100
AcDbCircle
 10
59.52686483163011
 20
53.10396541786468
 30
0.0
 40
0.51181
  0
ARC
  5
7048
330
18
100
AcDbEntity
  8
\U+9762\U+76C6
100
AcDbCircle
 10
58.46387483163011
 20
53.73388541786468
 30
0.0
 40
0.51181
100
AcDbArc
 50
304.8179481224132
 51
28.70101204721946
  0
ARC
  5
7049
330
18
100
AcDbEntity
  8
\U+9762\U+76C6
100
AcDbCircle
 10
55.78671483163011
 20
54.36380541786468
 30
0.0
 40
3.1496
100
AcDbArc
 50
340.5242606398477
 51
352.9946995297555
  0
ARC
  5
704A
330
18
100
AcDbEntity
  8
\U+9762\U+76C6
100
AcDbCircle
 10
56.33789483163011
 20
51.21420541786468
 30
0.0
 40
0.51181
100
AcDbArc
 50
179.9724527921913
 51
19.88003822110361
  0
ARC
  5
704B
330
18
100
AcDbEntity
  8
\U+9762\U+76C6
100
AcDbCircle
 10
55.78671483163011
 20
54.36380541786468
 30
0.0
 40
3.1496
100
AcDbArc
 50
270.7162169723966
 51
289.1362740409643
  0
CIRCLE
  5
704C
330
18
100
AcDbEntity
  8
\U+9762\U+76C6
100
AcDbCircle
 10
58.46387483163011
 20
51.21420541786468
 30
0.0
 40
0.51181
  0
ARC
  5
704D
330
18
100
AcDbEntity
  8
\U+9762\U+76C6
100
AcDbCircle
 10
57.40088483163011
 20
51.84412541786468
 30
0.0
 40
0.51181
100
AcDbArc
 50
225.9262401676879
 51
19.36304010213312
  0
ARC
  5
704E
330
18
100
AcDbEntity
  8
\U+9762\U+76C6
100
AcDbCircle
 10
55.78671483163011
 20
54.36380541786468
 30
0.0
 40
3.1496
100
AcDbArc
 50
293.5449014484429
 51
311.7443788214036
  0
ARC
  5
704F
330
18
100
AcDbEntity
  8
\U+9762\U+76C6
100
AcDbCircle
 10
58.46387483163011
 20
52.47404541786468
 30
0.0
 40
0.51181
100
AcDbArc
 50
215.9940168698318
 51
73.57079719382809
  0
ARC
  5
7050
330
18
100
AcDbEntity
  8
\U+9762\U+76C6
100
AcDbCircle
 10
55.78671483163011
 20
54.36380541786468
 30
0.0
 40
3.1496
100
AcDbArc
 50
315.9328162341677
 51
333.6319978294568
  0
CIRCLE
  5
7051
330
18
100
AcDbEntity
  8
\U+9762\U+76C6
100
AcDbCircle
 10
85.03862483163011
 20
51.84412541786468
 30
0.0
 40
0.51181
  0
CIRCLE
  5
7052
330
18
100
AcDbEntity
  8
\U+9762\U+76C6
100
AcDbCircle
 10
85.03862483163011
 20
53.10396541786468
 30
0.0
 40
0.51181
  0
CIRCLE
  5
7053
330
18
100
AcDbEntity
  8
\U+9762\U+76C6
100
AcDbCircle
 10
72.28274483163011
 20
51.84412541786468
 30
0.0
 40
0.51181
  0
CIRCLE
  5
7054
330
18
100
AcDbEntity
  8
\U+9762\U+76C6
100
AcDbCircle
 10
72.28274483163011
 20
53.10396541786468
 30
0.0
 40
0.51181
  0
CIRCLE
  5
7055
330
18
100
AcDbEntity
  8
\U+9762\U+76C6
100
AcDbCircle
 10
65.90480483163012
 20
51.84412541786468
 30
0.0
 40
0.51181
  0
CIRCLE
  5
7056
330
18
100
AcDbEntity
  8
\U+9762\U+76C6
100
AcDbCircle
 10
65.90480483163012
 20
53.10396541786468
 30
0.0
 40
0.51181
  0
CIRCLE
  5
7057
330
18
100
AcDbEntity
  8
\U+9762\U+76C6
100
AcDbCircle
 10
64.84181483163012
 20
53.73388541786468
 30
0.0
 40
0.51181
  0
CIRCLE
  5
7058
330
18
100
AcDbEntity
  8
\U+9762\U+76C6
100
AcDbCircle
 10
64.84181483163012
 20
51.21420541786468
 30
0.0
 40
0.51181
  0
CIRCLE
  5
7059
330
18
100
AcDbEntity
  8
\U+9762\U+76C6
100
AcDbCircle
 10
64.84181483163012
 20
52.47404541786468
 30
0.0
 40
0.51181
  0
CIRCLE
  5
705A
330
18
100
AcDbEntity
  8
\U+9762\U+76C6
100
AcDbCircle
 10
62.71583483163011
 20
53.73388541786468
 30
0.0
 40
0.51181
  0
CIRCLE
  5
705B
330
18
100
AcDbEntity
  8
\U+9762\U+76C6
100
AcDbCircle
 10
63.77882483163012
 20
51.84412541786468
 30
0.0
 40
0.51181
  0
CIRCLE
  5
705C
330
18
100
AcDbEntity
  8
\U+9762\U+76C6
100
AcDbCircle
 10
62.71583483163011
 20
51.21420541786468
 30
0.0
 40
0.51181
  0
CIRCLE
  5
705D
330
18
100
AcDbEntity
  8
\U+9762\U+76C6
100
AcDbCircle
 10
62.71583483163011
 20
52.47404541786468
 30
0.0
 40
0.51181
  0
CIRCLE
  5
705E
330
18
100
AcDbEntity
  8
\U+9762\U+76C6
100
AcDbCircle
 10
63.77882483163012
 20
53.10396541786468
 30
0.0
 40
0.51181
  0
CIRCLE
  5
705F
330
18
100
AcDbEntity
  8
\U+9762\U+76C6
100
AcDbCircle
 10
61.65284483163011
 20
51.84412541786468
 30
0.0
 40
0.51181
  0
CIRCLE
  5
7060
330
18
100
AcDbEntity
  8
\U+9762\U+76C6
100
AcDbCircle
 10
61.65284483163011
 20
53.10396541786468
 30
0.0
 40
0.51181
  0
CIRCLE
  5
7061
330
18
100
AcDbEntity
  8
\U+9762\U+76C6
100
AcDbCircle
 10
60.58985483163011
 20
53.73388541786468
 30
0.0
 40
0.51181
  0
CIRCLE
  5
7062
330
18
100
AcDbEntity
  8
\U+9762\U+76C6
100
AcDbCircle
 10
60.58985483163011
 20
51.21420541786468
 30
0.0
 40
0.51181
  0
CIRCLE
  5
7063
330
18
100
AcDbEntity
  8
\U+9762\U+76C6
100
AcDbCircle
 10
60.58985483163011
 20
52.47404541786468
 30
0.0
 40
0.51181
  0
CIRCLE
  5
7064
330
18
100
AcDbEntity
  8
\U+9762\U+76C6
100
AcDbCircle
 10
69.09377483163011
 20
53.73388541786468
 30
0.0
 40
0.51181
  0
CIRCLE
  5
7065
330
18
100
AcDbEntity
  8
\U+9762\U+76C6
100
AcDbCircle
 10
71.21975483163011
 20
53.73388541786468
 30
0.0
 40
0.51181
  0
CIRCLE
  5
7066
330
18
100
AcDbEntity
  8
\U+9762\U+76C6
100
AcDbCircle
 10
70.15676483163011
 20
51.84412541786468
 30
0.0
 40
0.51181
  0
CIRCLE
  5
7067
330
18
100
AcDbEntity
  8
\U+9762\U+76C6
100
AcDbCircle
 10
69.09377483163011
 20
51.21420541786468
 30
0.0
 40
0.51181
  0
CIRCLE
  5
7068
330
18
100
AcDbEntity
  8
\U+9762\U+76C6
100
AcDbCircle
 10
71.21975483163011
 20
51.21420541786468
 30
0.0
 40
0.51181
  0
CIRCLE
  5
7069
330
18
100
AcDbEntity
  8
\U+9762\U+76C6
100
AcDbCircle
 10
71.21975483163011
 20
52.47404541786468
 30
0.0
 40
0.51181
  0
CIRCLE
  5
706A
330
18
100
AcDbEntity
  8
\U+9762\U+76C6
100
AcDbCircle
 10
69.09377483163011
 20
52.47404541786468
 30
0.0
 40
0.51181
  0
CIRCLE
  5
706B
330
18
100
AcDbEntity
  8
\U+9762\U+76C6
100
AcDbCircle
 10
70.15676483163011
 20
53.10396541786468
 30
0.0
 40
0.51181
  0
CIRCLE
  5
706C
330
18
100
AcDbEntity
  8
\U+9762\U+76C6
100
AcDbCircle
 10
68.03078483163012
 20
51.84412541786468
 30
0.0
 40
0.51181
  0
CIRCLE
  5
706D
330
18
100
AcDbEntity
  8
\U+9762\U+76C6
100
AcDbCircle
 10
68.03078483163012
 20
53.10396541786468
 30
0.0
 40
0.51181
  0
CIRCLE
  5
706E
330
18
100
AcDbEntity
  8
\U+9762\U+76C6
100
AcDbCircle
 10
66.96779483163012
 20
53.73388541786468
 30
0.0
 40
0.51181
  0
CIRCLE
  5
706F
330
18
100
AcDbEntity
  8
\U+9762\U+76C6
100
AcDbCircle
 10
66.96779483163012
 20
51.21420541786468
 30
0.0
 40
0.51181
  0
CIRCLE
  5
7070
330
18
100
AcDbEntity
  8
\U+9762\U+76C6
100
AcDbCircle
 10
66.96779483163012
 20
52.47404541786468
 30
0.0
 40
0.51181
  0
CIRCLE
  5
7071
330
18
100
AcDbEntity
  8
\U+9762\U+76C6
100
AcDbCircle
 10
78.66068483163012
 20
51.84412541786468
 30
0.0
 40
0.51181
  0
CIRCLE
  5
7072
330
18
100
AcDbEntity
  8
\U+9762\U+76C6
100
AcDbCircle
 10
78.66068483163012
 20
53.10396541786468
 30
0.0
 40
0.51181
  0
CIRCLE
  5
7073
330
18
100
AcDbEntity
  8
\U+9762\U+76C6
100
AcDbCircle
 10
76.53470483163011
 20
51.84412541786468
 30
0.0
 40
0.51181
  0
CIRCLE
  5
7074
330
18
100
AcDbEntity
  8
\U+9762\U+76C6
100
AcDbCircle
 10
76.53470483163011
 20
53.10396541786468
 30
0.0
 40
0.51181
  0
CIRCLE
  5
7075
330
18
100
AcDbEntity
  8
\U+9762\U+76C6
100
AcDbCircle
 10
77.59769483163012
 20
53.73388541786468
 30
0.0
 40
0.51181
  0
CIRCLE
  5
7076
330
18
100
AcDbEntity
  8
\U+9762\U+76C6
100
AcDbCircle
 10
77.59769483163012
 20
51.21420541786468
 30
0.0
 40
0.51181
  0
CIRCLE
  5
7077
330
18
100
AcDbEntity
  8
\U+9762\U+76C6
100
AcDbCircle
 10
77.59769483163012
 20
52.47404541786468
 30
0.0
 40
0.51181
  0
CIRCLE
  5
7078
330
18
100
AcDbEntity
  8
\U+9762\U+76C6
100
AcDbCircle
 10
74.40872483163011
 20
51.84412541786468
 30
0.0
 40
0.51181
  0
CIRCLE
  5
7079
330
18
100
AcDbEntity
  8
\U+9762\U+76C6
100
AcDbCircle
 10
74.40872483163011
 20
53.10396541786468
 30
0.0
 40
0.51181
  0
CIRCLE
  5
707A
330
18
100
AcDbEntity
  8
\U+9762\U+76C6
100
AcDbCircle
 10
75.47171483163011
 20
52.47404541786468
 30
0.0
 40
0.51181
  0
CIRCLE
  5
707B
330
18
100
AcDbEntity
  8
\U+9762\U+76C6
100
AcDbCircle
 10
75.47171483163011
 20
51.21420541786468
 30
0.0
 40
0.51181
  0
CIRCLE
  5
707C
330
18
100
AcDbEntity
  8
\U+9762\U+76C6
100
AcDbCircle
 10
75.47171483163011
 20
53.73388541786468
 30
0.0
 40
0.51181
  0
CIRCLE
  5
707D
330
18
100
AcDbEntity
  8
\U+9762\U+76C6
100
AcDbCircle
 10
73.34573483163011
 20
53.73388541786468
 30
0.0
 40
0.51181
  0
CIRCLE
  5
707E
330
18
100
AcDbEntity
  8
\U+9762\U+76C6
100
AcDbCircle
 10
73.34573483163011
 20
51.21420541786468
 30
0.0
 40
0.51181
  0
CIRCLE
  5
707F
330
18
100
AcDbEntity
  8
\U+9762\U+76C6
100
AcDbCircle
 10
73.34573483163011
 20
52.47404541786468
 30
0.0
 40
0.51181
  0
CIRCLE
  5
7080
330
18
100
AcDbEntity
  8
\U+9762\U+76C6
100
AcDbCircle
 10
79.72367483163012
 20
53.73388541786468
 30
0.0
 40
0.51181
  0
CIRCLE
  5
7081
330
18
100
AcDbEntity
  8
\U+9762\U+76C6
100
AcDbCircle
 10
80.78666483163011
 20
51.84412541786468
 30
0.0
 40
0.51181
  0
CIRCLE
  5
7082
330
18
100
AcDbEntity
  8
\U+9762\U+76C6
100
AcDbCircle
 10
79.72367483163012
 20
51.21420541786468
 30
0.0
 40
0.51181
  0
CIRCLE
  5
7083
330
18
100
AcDbEntity
  8
\U+9762\U+76C6
100
AcDbCircle
 10
79.72367483163012
 20
52.47404541786468
 30
0.0
 40
0.51181
  0
CIRCLE
  5
7084
330
18
100
AcDbEntity
  8
\U+9762\U+76C6
100
AcDbCircle
 10
80.78666483163011
 20
53.10396541786468
 30
0.0
 40
0.51181
  0
CIRCLE
  5
7085
330
18
100
AcDbEntity
  8
\U+9762\U+76C6
100
AcDbCircle
 10
83.97563483163011
 20
53.73388541786468
 30
0.0
 40
0.51181
  0
CIRCLE
  5
7086
330
18
100
AcDbEntity
  8
\U+9762\U+76C6
100
AcDbCircle
 10
83.97563483163011
 20
51.21420541786468
 30
0.0
 40
0.51181
  0
CIRCLE
  5
7087
330
18
100
AcDbEntity
  8
\U+9762\U+76C6
100
AcDbCircle
 10
82.91264483163011
 20
51.84412541786468
 30
0.0
 40
0.51181
  0
CIRCLE
  5
7088
330
18
100
AcDbEntity
  8
\U+9762\U+76C6
100
AcDbCircle
 10
83.97563483163011
 20
52.47404541786468
 30
0.0
 40
0.51181
  0
CIRCLE
  5
7089
330
18
100
AcDbEntity
  8
\U+9762\U+76C6
100
AcDbCircle
 10
82.91264483163011
 20
53.10396541786468
 30
0.0
 40
0.51181
  0
CIRCLE
  5
708A
330
18
100
AcDbEntity
  8
\U+9762\U+76C6
100
AcDbCircle
 10
81.84965483163011
 20
52.47404541786468
 30
0.0
 40
0.51181
  0
CIRCLE
  5
708B
330
18
100
AcDbEntity
  8
\U+9762\U+76C6
100
AcDbCircle
 10
81.84965483163011
 20
51.21420541786468
 30
0.0
 40
0.51181
  0
CIRCLE
  5
708C
330
18
100
AcDbEntity
  8
\U+9762\U+76C6
100
AcDbCircle
 10
81.84965483163011
 20
53.73388541786468
 30
0.0
 40
0.51181
  0
CIRCLE
  5
708D
330
18
100
AcDbEntity
  8
\U+9762\U+76C6
100
AcDbCircle
 10
91.41656483163011
 20
51.84412541786468
 30
0.0
 40
0.51181
  0
CIRCLE
  5
708E
330
18
100
AcDbEntity
  8
\U+9762\U+76C6
100
AcDbCircle
 10
91.41656483163011
 20
53.10396541786468
 30
0.0
 40
0.51181
  0
CIRCLE
  5
708F
330
18
100
AcDbEntity
  8
\U+9762\U+76C6
100
AcDbCircle
 10
89.29058483163011
 20
51.84412541786468
 30
0.0
 40
0.51181
  0
CIRCLE
  5
7090
330
18
100
AcDbEntity
  8
\U+9762\U+76C6
100
AcDbCircle
 10
89.29058483163011
 20
53.10396541786468
 30
0.0
 40
0.51181
  0
CIRCLE
  5
7091
330
18
100
AcDbEntity
  8
\U+9762\U+76C6
100
AcDbCircle
 10
90.35357483163011
 20
53.73388541786468
 30
0.0
 40
0.51181
  0
CIRCLE
  5
7092
330
18
100
AcDbEntity
  8
\U+9762\U+76C6
100
AcDbCircle
 10
90.35357483163011
 20
51.21420541786468
 30
0.0
 40
0.51181
  0
CIRCLE
  5
7093
330
18
100
AcDbEntity
  8
\U+9762\U+76C6
100
AcDbCircle
 10
90.35357483163011
 20
52.47404541786468
 30
0.0
 40
0.51181
  0
CIRCLE
  5
7094
330
18
100
AcDbEntity
  8
\U+9762\U+76C6
100
AcDbCircle
 10
88.22759483163011
 20
53.73388541786468
 30
0.0
 40
0.51181
  0
CIRCLE
  5
7095
330
18
100
AcDbEntity
  8
\U+9762\U+76C6
100
AcDbCircle
 10
86.10161483163011
 20
53.73388541786468
 30
0.0
 40
0.51181
  0
CIRCLE
  5
7096
330
18
100
AcDbEntity
  8
\U+9762\U+76C6
100
AcDbCircle
 10
87.16460483163011
 20
51.84412541786468
 30
0.0
 40
0.51181
  0
CIRCLE
  5
7097
330
18
100
AcDbEntity
  8
\U+9762\U+76C6
100
AcDbCircle
 10
88.22759483163011
 20
51.21420541786468
 30
0.0
 40
0.51181
  0
CIRCLE
  5
7098
330
18
100
AcDbEntity
  8
\U+9762\U+76C6
100
AcDbCircle
 10
86.10161483163011
 20
51.21420541786468
 30
0.0
 40
0.51181
  0
CIRCLE
  5
7099
330
18
100
AcDbEntity
  8
\U+9762\U+76C6
100
AcDbCircle
 10
86.10161483163011
 20
52.47404541786468
 30
0.0
 40
0.51181
  0
CIRCLE
  5
709A
330
18
100
AcDbEntity
  8
\U+9762\U+76C6
100
AcDbCircle
 10
88.22759483163011
 20
52.47404541786468
 30
0.0
 40
0.51181
  0
CIRCLE
  5
709B
330
18
100
AcDbEntity
  8
\U+9762\U+76C6
100
AcDbCircle
 10
87.16460483163011
 20
53.10396541786468
 30
0.0
 40
0.51181
  0
CIRCLE
  5
709C
330
18
100
AcDbEntity
  8
\U+9762\U+76C6
100
AcDbCircle
 10
92.47955483163011
 20
53.73388541786468
 30
0.0
 40
0.51181
  0
CIRCLE
  5
709D
330
18
100
AcDbEntity
  8
\U+9762\U+76C6
100
AcDbCircle
 10
92.47955483163011
 20
51.21420541786468
 30
0.0
 40
0.51181
  0
CIRCLE
  5
709E
330
18
100
AcDbEntity
  8
\U+9762\U+76C6
100
AcDbCircle
 10
92.47955483163011
 20
52.47404541786468
 30
0.0
 40
0.51181
  0
INSERT
  5
BE1A
330
18
100
AcDbEntity
  8
0
  6
ByBlock
 48
0.1
100
AcDbBlockReference
  2
ASQW
 10
-444.7695979795791
 20
-199.0045164643512
 30
0.0
 41
0.03937
 42
0.03937
 43
0.03937
  0
VIEWPORT
  5
BEEB
102
{ACAD_XDICTIONARY
360
BF33
102
}
330
BEE4
100
AcDbEntity
 67
     1
  8
0
  6
ByBlock
100
AcDbViewport
 10
5.398498920725484
 20
4.329276934557064
 30
0.0
 40
11.64088685303494
 41
7.068036338606187
 68
     1
 69
     1
 12
5.398498920725484
 22
4.329276934557064
 13
0.0
 23
0.0
 14
0.5
 24
0.5
 15
0.5
 25
0.5
 16
0.0
 26
0.0
 36
1.0
 17
0.0
 27
0.0
 37
0.0
 42
50.0
 43
0.0
 44
0.0
 45
7.068036338606187
 50
0.0
 51
0.0
 72
   100
 90
   557088
  1

281
     0
 71
     1
 74
     0
110
0.0
120
0.0
130
0.0
111
1.0
121
0.0
131
0.0
112
0.0
122
1.0
132
0.0
 79
     0
146
0.0
  0
VIEWPORT
  5
BEED
102
{ACAD_XDICTIONARY
360
BF35
102
}
330
BEE4
100
AcDbEntity
 67
     1
  8
\U+6807\U+6CE8
  6
ByBlock
100
AcDbViewport
 10
5.375000121086602
 20
4.124999820716737
 30
0.0
 40
8.600000193738562
 41
6.599999713146781
 68
     2
 69
     2
 12
56.63404256153256
 22
39.63718135694748
 13
0.0
 23
0.0
 14
10.0
 24
10.0
 15
10.0
 25
10.0
 16
0.0
 26
0.0
 36
1.0
 17
0.0
 27
0.0
 37
0.0
 42
50.0
 43
0.0
 44
0.0
 45
82.30920174050329
 50
0.0
 51
0.0
 72
   100
 90
   819232
  1

281
     0
 71
     1
 74
     0
110
0.0
120
0.0
130
0.0
111
1.0
121
0.0
131
0.0
112
0.0
122
1.0
132
0.0
 79
     0
146
0.0
  0
MTEXT
  5
BEEF
330
BEE4
100
AcDbEntity
 67
     1
  8
\U+6807\U+6CE8
  6
ByBlock
 62
     7
100
AcDbMText
 10
7.916035082780037
 20
7.78588599033187
 30
0.0
 40
0.15
 41
250.3293871665465
 71
     1
 72
     1
  1
AD-00160, FBY1525LP, V.01
  7
\U+68071
 73
     1
 44
1.0
1001
ACAD
1000
MTEXTBEGIN
1070
    73
1070
     1
1070
    44
1040
1.0
1070
    74
1070
     0
1000
MTEXTEND
  0
ENDSEC
  0
SECTION
  2
OBJECTS
  0
DICTIONARY
  5
C
330
0
100
AcDbDictionary
281
     1
  3
ACAD_COLOR
350
9960
  3
ACAD_GROUP
350
D
  3
ACAD_LAYOUT
350
9961
  3
ACAD_MATERIAL
350
995F
  3
ACAD_MLINESTYLE
350
1B
  3
ACAD_PLOTSETTINGS
350
9962
  3
ACAD_PLOTSTYLENAME
350
995D
  3
ACAD_TABLESTYLE
350
BE3F
  3
ACAD_VISUALSTYLE
350
BE2E
  3
ACDBVARIABLEDICTIONARY
350
D7
  3
DWGPROPS
350
BF27
  0
DICTIONARY
  5
BE7E
330
8
100
AcDbDictionary
280
     1
281
     1
  0
DICTIONARY
  5
9B33
330
2
100
AcDbDictionary
280
     1
281
     1
  3
ACAD_LAYERSTATES
360
9B34
  0
DICTIONARY
  5
BF33
330
BEEB
100
AcDbDictionary
280
     1
281
     1
  3
ACAD_XREC_ROUNDTRIP
360
BF34
  0
DICTIONARY
  5
BF35
330
BEED
100
AcDbDictionary
280
     1
281
     1
  3
ACAD_XREC_ROUNDTRIP
360
BF36
  0
DICTIONARY
  5
9960
102
{ACAD_REACTORS
330
C
102
}
330
C
100
AcDbDictionary
281
     1
  0
DICTIONARY
  5
D
102
{ACAD_REACTORS
330
C
102
}
330
C
100
AcDbDictionary
281
     1
  0
DICTIONARY
  5
9961
102
{ACAD_REACTORS
330
C
102
}
330
C
100
AcDbDictionary
281
     1
  3
Layout1
350
BEE5
  3
Model
350
9963
1001
AcadStringInfo
1000
MIFCodePage
1070
     5
  0
DICTIONARY
  5
995F
102
{ACAD_REACTORS
330
C
102
}
330
C
100
AcDbDictionary
281
     1
  3
ByBlock
350
BE2C
  3
ByLayer
350
BE2B
  3
Global
350
BE2D
  0
DICTIONARY
  5
1B
102
{ACAD_REACTORS
330
C
102
}
330
C
100
AcDbDictionary
281
     1
  3
STANDARD
350
1C
  0
DICTIONARY
  5
9962
102
{ACAD_REACTORS
330
C
102
}
330
C
100
AcDbDictionary
281
     1
  0
ACDBDICTIONARYWDFLT
  5
995D
102
{ACAD_REACTORS
330
C
102
}
330
C
100
AcDbDictionary
281
     1
  3
Normal
350
995E
100
AcDbDictionaryWithDefault
340
995E
  0
DICTIONARY
  5
BE3F
102
{ACAD_REACTORS
330
C
102
}
330
C
100
AcDbDictionary
281
     1
  3
Standard
350
BE40
  0
DICTIONARY
  5
BE2E
102
{ACAD_REACTORS
330
C
102
}
330
C
100
AcDbDictionary
281
     1
  3
2dWireframe
350
BE34
  3
3D Hidden
350
BE73
  3
3dWireframe
350
BE72
  3
Basic
350
BE33
  3
Brighten
350
BE3A
  3
ColorChange
350
BE3E
  3
Conceptual
350
BE74
  3
Dim
350
BE39
  3
Facepattern
350
BE3D
  3
Flat
350
BE2F
  3
FlatWithEdges
350
BE30
  3
Gouraud
350
BE31
  3
GouraudWithEdges
350
BE32
  3
Linepattern
350
BE3C
  3
Realistic
350
BE75
  3
Thicken
350
BE3B
  0
DICTIONARY
  5
D7
102
{ACAD_REACTORS
330
C
102
}
330
C
100
AcDbDictionary
281
     1
  3
CTABLESTYLE
350
BE52
  3
DIMASSOC
350
BF1E
  3
INDEXCTL
350
BF1D
  3
SORTENTS
350
D8
  0
XRECORD
  5
BF27
102
{ACAD_REACTORS
330
C
102
}
330
C
100
AcDbXrecord
280
     1
  1
DWGPROPS COOKIE
  2

  3

  4

  6

  7

  8
nnguyen
  9

300
=
301
=
302
=
303
=
304
=
305
=
306
=
307
=
308
=
309
=
 40
1.309067511574073
 41
2451592.921998148
 42
2454922.430785382
  1

 90
        0
  0
DICTIONARY
  5
9B34
102
{ACAD_REACTORS
330
9B33
102
}
330
9B33
100
AcDbDictionary
281
     1
  0
XRECORD
  5
BF34
102
{ACAD_REACTORS
330
BF33
102
}
330
BF33
100
AcDbXrecord
280
     1
102
SHADEPLOT
 70
     0
  0
XRECORD
  5
BF36
102
{ACAD_REACTORS
330
BF35
102
}
330
BF35
100
AcDbXrecord
280
     1
102
SHADEPLOT
 70
     0
  0
LAYOUT
  5
BEE5
102
{ACAD_XDICTIONARY
360
BEFF
102
}
102
{ACAD_REACTORS
330
9961
102
}
330
9961
100
AcDbPlotSettings
  1

  2
Adobe PDF
  4
Letter
  6

 40
3.174999952316284
 41
3.174999952316284
 42
3.175003051757812
 43
3.17498779296875
 44
215.8999938964844
 45
279.3999938964844
 46
0.0
 47
0.0
 48
0.0
 49
0.0
140
0.0
141
0.0
142
1.0
143
1.0
 70
   688
 72
     0
 73
     1
 74
     5
  7

 75
    16
147
1.0
148
0.0
149
0.0
100
AcDbLayout
  1
Layout1
 70
     1
 71
     1
 10
-0.1249995194082185
 20
-0.1249999981226884
 11
10.87500024029589
 21
8.37499976158142
 12
0.0
 22
0.0
 32
0.0
 14
1.074768547797084
 24
0.8247909505127708
 34
-0.0000000349181948
 15
9.722229293653885
 25
7.833762918601358
 35
0.0000000814935746
146
0.0
 13
0.0
 23
0.0
 33
0.0
 16
1.0
 26
0.0
 36
0.0
 17
0.0
 27
1.0
 37
0.0
 76
     0
330
BEE4
331
BEEB
1001
ACAD_PSEXT
1000
Adobe PDF
1000
Adobe PDF Converter
1000
My Documents
1000

1070
     0
  0
LAYOUT
  5
9963
102
{ACAD_XDICTIONARY
360
BF28
102
}
102
{ACAD_REACTORS
330
9961
102
}
330
9961
100
AcDbPlotSettings
  1

  2
Adobe PDF
  4
Letter
  6

 40
3.174999952316284
 41
3.174999952316284
 42
3.175003051757812
 43
3.17498779296875
 44
215.8999938964844
 45
279.3999938964844
 46
21.76623073641952
 47
0.0
 48
0.0
 49
0.0
140
0.0
141
0.0
142
1.0
143
9.921761017669846
 70
 11956
 72
     0
 73
     1
 74
     1
  7
monochrome.ctb
 75
     0
147
0.1007885594320486
148
-83.71593868793079
149
-183.3222029070853
100
AcDbLayout
  1
Model
 70
     1
 71
     0
 10
0.0
 20
0.0
 11
12.0
 21
9.0
 12
0.0
 22
0.0
 32
0.0
 14
0.0
 24
0.0
 34
0.0
 15
0.0
 25
0.0
 35
0.0
146
0.0
 13
0.0
 23
0.0
 33
0.0
 16
1.0
 26
0.0
 36
0.0
 17
0.0
 27
1.0
 37
0.0
 76
     0
330
18
331
BE29
1001
ACAD_PSEXT
1000
Adobe PDF
1000
Adobe PDF Converter
1000
My Documents
1000

1070
     0
  0
MATERIAL
  5
BE2C
102
{ACAD_XDICTIONARY
360
BF2C
102
}
102
{ACAD_REACTORS
330
995F
102
}
330
995F
100
AcDbMaterial
  1
ByBlock
  0
MATERIAL
  5
BE2B
102
{ACAD_XDICTIONARY
360
BF2A
102
}
102
{ACAD_REACTORS
330
995F
102
}
330
995F
100
AcDbMaterial
  1
ByLayer
  0
MATERIAL
  5
BE2D
102
{ACAD_XDICTIONARY
360
BF2E
102
}
102
{ACAD_REACTORS
330
995F
102
}
330
995F
100
AcDbMaterial
  1
Global
  0
MLINESTYLE
  5
1C
102
{ACAD_REACTORS
330
1B
102
}
330
1B
100
AcDbMlineStyle
  2
STANDARD
 70
     0
  3

 62
   256
 51
90.0
 52
90.0
 71
     2
 49
0.5
 62
   256
  6
BYLAYER
 49
-0.5
 62
   256
  6
BYLAYER
  0
ACDBPLACEHOLDER
  5
995E
102
{ACAD_REACTORS
330
995D
102
}
330
995D
  0
TABLESTYLE
  5
BE40
102
{ACAD_XDICTIONARY
360
BF30
102
}
102
{ACAD_REACTORS
330
BE3F
102
}
330
BE3F
100
AcDbTableStyle
  3
Standard
 70
     0
 71
     0
 40
0.06
 41
0.06
280
     0
281
     0
  7
STANDARD
140
0.18
170
     2
 62
     0
 63
     7
283
     0
274
    -2
284
     1
 64
     0
275
    -2
285
     1
 65
     0
276
    -2
286
     1
 66
     0
277
    -2
287
     1
 67
     0
278
    -2
288
     1
 68
     0
279
    -2
289
     1
 69
     0
  7
STANDARD
140
0.25
170
     5
 62
     0
 63
     7
283
     0
274
    -2
284
     1
 64
     0
275
    -2
285
     1
 65
     0
276
    -2
286
     1
 66
     0
277
    -2
287
     1
 67
     0
278
    -2
288
     1
 68
     0
279
    -2
289
     1
 69
     0
  7
STANDARD
140
0.18
170
     5
 62
     0
 63
     7
283
     0
274
    -2
284
     1
 64
     0
275
    -2
285
     1
 65
     0
276
    -2
286
     1
 66
     0
277
    -2
287
     1
 67
     0
278
    -2
288
     1
 68
     0
279
    -2
289
     1
 69
     0
  0
VISUALSTYLE
  5
BE34
102
{ACAD_REACTORS
330
BE2E
102
}
330
BE2E
100
AcDbVisualStyle
  2
2dWireframe
 70
     4
 71
     0
 72
     2
 73
     0
 90
        0
 40
-0.6
 41
-30.0
 62
     5
 63
     7
 74
     1
 91
        4
 64
     7
 65
   257
 75
     1
175
     1
 42
1.0
 92
        0
 66
   257
 43
1.0
 76
     1
 77
     6
 78
     2
 67
     7
 79
     5
170
     0
171
     0
290
     0
174
     0
 93
        1
 44
0.0
173
     0
291
     0
 45
0.0
1001
ACAD
1000
AcDbSavedByObjectVersion
1070
     0
  0
VISUALSTYLE
  5
BE73
102
{ACAD_REACTORS
330
BE2E
102
}
330
BE2E
100
AcDbVisualStyle
  2
3D Hidden
 70
     6
 71
     1
 72
     2
 73
     2
 90
        0
 40
-0.6
 41
-30.0
 62
     5
 63
     7
 74
     2
 91
        2
 64
     7
 65
   257
 75
     2
175
     1
 42
40.0
 92
        0
 66
   257
 43
1.0
 76
     1
 77
     6
 78
     2
 67
     7
 79
     3
170
     0
171
     0
290
     0
174
     0
 93
        1
 44
0.0
173
     0
291
     0
 45
0.0
1001
ACAD
1000
AcDbSavedByObjectVersion
1070
     0
  0
VISUALSTYLE
  5
BE72
102
{ACAD_REACTORS
330
BE2E
102
}
330
BE2E
100
AcDbVisualStyle
  2
3dWireframe
 70
     5
 71
     0
 72
     2
 73
     0
 90
        0
 40
-0.6
 41
-30.0
 62
     5
 63
     7
 74
     1
 91
        4
 64
     7
 65
   257
 75
     1
175
     1
 42
1.0
 92
        0
 66
   257
 43
1.0
 76
     1
 77
     6
 78
     2
 67
     7
 79
     5
170
     0
171
     0
290
     0
174
     0
 93
        1
 44
0.0
173
     0
291
     0
 45
0.0
1001
ACAD
1000
AcDbSavedByObjectVersion
1070
     0
  0
VISUALSTYLE
  5
BE33
102
{ACAD_REACTORS
330
BE2E
102
}
330
BE2E
100
AcDbVisualStyle
  2
Basic
 70
     7
 71
     1
 72
     0
 73
     1
 90
        0
 40
-0.6
 41
-30.0
 62
     5
 63
     7
 74
     0
 91
        4
 64
     7
 65
   257
 75
     1
175
     1
 42
1.0
 92
        8
 66
     7
 43
1.0
 76
     1
 77
     6
 78
     2
 67
     7
 79
     5
170
     0
171
     0
290
     0
174
     0
 93
        1
 44
0.0
173
     0
291
     1
 45
0.0
1001
ACAD
1000
AcDbSavedByObjectVersion
1070
     0
  0
VISUALSTYLE
  5
BE3A
102
{ACAD_REACTORS
330
BE2E
102
}
330
BE2E
100
AcDbVisualStyle
  2
Brighten
 70
    12
 71
     2
 72
     2
 73
     0
 90
        0
 40
-0.6
 41
-30.0
 62
     5
 63
     7
 74
     1
 91
        4
 64
     7
 65
   257
 75
     1
175
     1
 42
1.0
 92
        8
 66
     7
 43
1.0
 76
     1
 77
     6
 78
     2
 67
     7
 79
     5
170
     0
171
     0
290
     0
174
     0
 93
        1
 44
50.0
173
     0
291
     1
 45
0.0
1001
ACAD
1000
AcDbSavedByObjectVersion
1070
     0
  0
VISUALSTYLE
  5
BE3E
102
{ACAD_REACTORS
330
BE2E
102
}
330
BE2E
100
AcDbVisualStyle
  2
ColorChange
 70
    16
 71
     2
 72
     2
 73
     3
 90
        0
 40
-0.6
 41
-30.0
 62
     5
 63
     8
 74
     1
 91
        4
 64
     7
 65
   257
 75
     1
175
     1
 42
1.0
 92
        8
 66
     8
 43
1.0
 76
     1
 77
     6
 78
     2
 67
     7
 79
     5
170
     0
171
     0
290
     0
174
     0
 93
        1
 44
0.0
173
     0
291
     1
 45
0.0
1001
ACAD
1000
AcDbSavedByObjectVersion
1070
     0
  0
VISUALSTYLE
  5
BE74
102
{ACAD_REACTORS
330
BE2E
102
}
330
BE2E
100
AcDbVisualStyle
  2
Conceptual
 70
     9
 71
     3
 72
     2
 73
     0
 90
        0
 40
-0.6
 41
-30.0
 62
     5
 63
     7
 74
     2
 91
        2
 64
     7
 65
   257
 75
     1
175
     1
 42
40.0
 92
        8
 66
     7
 43
1.0
 76
     1
 77
     6
 78
     2
 67
     7
 79
     3
170
     0
171
     0
290
     0
174
     0
 93
        1
 44
0.0
173
     0
291
     0
 45
0.0
1001
ACAD
1000
AcDbSavedByObjectVersion
1070
     0
  0
VISUALSTYLE
  5
BE39
102
{ACAD_REACTORS
330
BE2E
102
}
330
BE2E
100
AcDbVisualStyle
  2
Dim
 70
    11
 71
     2
 72
     2
 73
     0
 90
        0
 40
-0.6
 41
-30.0
 62
     5
 63
     7
 74
     1
 91
        4
 64
     7
 65
   257
 75
     1
175
     1
 42
1.0
 92
        8
 66
     7
 43
1.0
 76
     1
 77
     6
 78
     2
 67
     7
 79
     5
170
     0
171
     0
290
     0
174
     0
 93
        1
 44
-50.0
173
     0
291
     1
 45
0.0
1001
ACAD
1000
AcDbSavedByObjectVersion
1070
     0
  0
VISUALSTYLE
  5
BE3D
102
{ACAD_REACTORS
330
BE2E
102
}
330
BE2E
100
AcDbVisualStyle
  2
Facepattern
 70
    15
 71
     2
 72
     2
 73
     0
 90
        0
 40
-0.6
 41
-30.0
 62
     5
 63
     7
 74
     1
 91
        4
 64
     7
 65
   257
 75
     1
175
     1
 42
1.0
 92
        8
 66
     7
 43
1.0
 76
     1
 77
     6
 78
     2
 67
     7
 79
     5
170
     0
171
     0
290
     0
174
     0
 93
        1
 44
0.0
173
     0
291
     1
 45
0.0
1001
ACAD
1000
AcDbSavedByObjectVersion
1070
     0
  0
VISUALSTYLE
  5
BE2F
102
{ACAD_REACTORS
330
BE2E
102
}
330
BE2E
100
AcDbVisualStyle
  2
Flat
 70
     0
 71
     2
 72
     1
 73
     1
 90
        2
 40
-0.6
 41
30.0
 62
     5
 63
     7
 74
     0
 91
        4
 64
     7
 65
   257
 75
     1
175
     1
 42
1.0
 92
        8
 66
     7
 43
1.0
 76
     1
 77
     6
 78
     2
 67
     7
 79
     5
170
     0
171
     0
290
     0
174
     0
 93
       13
 44
0.0
173
     0
291
     1
 45
0.0
1001
ACAD
1000
AcDbSavedByObjectVersion
1070
     0
  0
VISUALSTYLE
  5
BE30
102
{ACAD_REACTORS
330
BE2E
102
}
330
BE2E
100
AcDbVisualStyle
  2
FlatWithEdges
 70
     1
 71
     2
 72
     1
 73
     1
 90
        2
 40
-0.6
 41
30.0
 62
     5
 63
     7
 74
     1
 91
        4
 64
     7
 65
   257
 75
     1
175
     1
 42
1.0
 92
        0
 66
   257
 43
1.0
 76
     1
 77
     6
 78
     2
 67
     7
 79
     5
170
     0
171
     0
290
     0
174
     0
 93
       13
 44
0.0
173
     0
291
     1
 45
0.0
1001
ACAD
1000
AcDbSavedByObjectVersion
1070
     0
  0
VISUALSTYLE
  5
BE31
102
{ACAD_REACTORS
330
BE2E
102
}
330
BE2E
100
AcDbVisualStyle
  2
Gouraud
 70
     2
 71
     2
 72
     2
 73
     1
 90
        2
 40
-0.6
 41
30.0
 62
     5
 63
     7
 74
     0
 91
        4
 64
     7
 65
   257
 75
     1
175
     1
 42
1.0
 92
        0
 66
     7
 43
1.0
 76
     1
 77
     6
 78
     2
 67
     7
 79
     5
170
     0
171
     0
290
     0
174
     0
 93
       13
 44
0.0
173
     0
291
     1
 45
0.0
1001
ACAD
1000
AcDbSavedByObjectVersion
1070
     0
  0
VISUALSTYLE
  5
BE32
102
{ACAD_REACTORS
330
BE2E
102
}
330
BE2E
100
AcDbVisualStyle
  2
GouraudWithEdges
 70
     3
 71
     2
 72
     2
 73
     1
 90
        2
 40
-0.6
 41
30.0
 62
     5
 63
     7
 74
     1
 91
        4
 64
     7
 65
   257
 75
     1
175
     1
 42
1.0
 92
        0
 66
   257
 43
1.0
 76
     1
 77
     6
 78
     2
 67
     7
 79
     5
170
     0
171
     0
290
     0
174
     0
 93
       13
 44
0.0
173
     0
291
     1
 45
0.0
1001
ACAD
1000
AcDbSavedByObjectVersion
1070
     0
  0
VISUALSTYLE
  5
BE3C
102
{ACAD_REACTORS
330
BE2E
102
}
330
BE2E
100
AcDbVisualStyle
  2
Linepattern
 70
    14
 71
     2
 72
     2
 73
     0
 90
        0
 40
-0.6
 41
-30.0
 62
     5
 63
     7
 74
     1
 91
        4
 64
     7
 65
   257
 75
     7
175
     7
 42
1.0
 92
        8
 66
     7
 43
1.0
 76
     1
 77
     6
 78
     2
 67
     7
 79
     5
170
     0
171
     0
290
     0
174
     0
 93
        1
 44
0.0
173
     0
291
     1
 45
0.0
1001
ACAD
1000
AcDbSavedByObjectVersion
1070
     0
  0
VISUALSTYLE
  5
BE75
102
{ACAD_REACTORS
330
BE2E
102
}
330
BE2E
100
AcDbVisualStyle
  2
Realistic
 70
     8
 71
     2
 72
     2
 73
     0
 90
        0
 40
-0.6
 41
-30.0
 62
     5
 63
     7
 74
     1
 91
        0
 64
     7
 65
   257
 75
     1
175
     1
 42
1.0
 92
        8
 66
     8
 43
1.0
 76
     1
 77
     6
 78
     2
 67
     7
 79
     5
170
     0
171
     0
290
     0
174
     0
 93
       13
 44
0.0
173
     0
291
     0
 45
0.0
1001
ACAD
1000
AcDbSavedByObjectVersion
1070
     0
  0
VISUALSTYLE
  5
BE3B
102
{ACAD_REACTORS
330
BE2E
102
}
330
BE2E
100
AcDbVisualStyle
  2
Thicken
 70
    13
 71
     2
 72
     2
 73
     0
 90
        0
 40
-0.6
 41
-30.0
 62
     5
 63
     7
 74
     1
 91
        4
 64
     7
 65
   257
 75
     1
175
     1
 42
1.0
 92
       12
 66
     7
 43
1.0
 76
     1
 77
     6
 78
     2
 67
     7
 79
     5
170
     0
171
     0
290
     0
174
     0
 93
        1
 44
0.0
173
     0
291
     1
 45
0.0
1001
ACAD
1000
AcDbSavedByObjectVersion
1070
     0
  0
DICTIONARYVAR
  5
BE52
102
{ACAD_REACTORS
330
D7
102
}
330
D7
100
DictionaryVariables
280
     0
  1
STANDARD
  0
DICTIONARYVAR
  5
BF1E
102
{ACAD_REACTORS
330
D7
102
}
330
D7
100
DictionaryVariables
280
     0
  1
1
  0
DICTIONARYVAR
  5
BF1D
102
{ACAD_REACTORS
330
D7
102
}
330
D7
100
DictionaryVariables
280
     0
  1
0
  0
DICTIONARYVAR
  5
D8
102
{ACAD_REACTORS
330
D7
102
}
330
D7
100
DictionaryVariables
280
     0
  1
96
  0
DICTIONARY
  5
BEFF
330
BEE5
100
AcDbDictionary
280
     1
281
     1
  3
ACAD_XREC_ROUNDTRIP
360
BF32
  3
ADSK_XREC_LAYOUTTHUMBNAIL
360
BF00
  0
DICTIONARY
  5
BF28
330
9963
100
AcDbDictionary
280
     1
281
     1
  3
ACAD_XREC_ROUNDTRIP
360
BF29
  0
DICTIONARY
  5
BF2C
330
BE2C
100
AcDbDictionary
280
     1
281
     1
  3
ACAD_XREC_ROUNDTRIP
360
BF2D
  0
DICTIONARY
  5
BF2A
330
BE2B
100
AcDbDictionary
280
     1
281
     1
  3
ACAD_XREC_ROUNDTRIP
360
BF2B
  0
DICTIONARY
  5
BF2E
330
BE2D
100
AcDbDictionary
280
     1
281
     1
  3
ACAD_XREC_ROUNDTRIP
360
BF2F
  0
DICTIONARY
  5
BF30
330
BE40
100
AcDbDictionary
280
     1
281
     1
  3
ACAD_XREC_ROUNDTRIP
360
BF31
  0
XRECORD
  5
BF32
102
{ACAD_REACTORS
330
BEFF
102
}
330
BEFF
100
AcDbXrecord
280
     1
102
SHADEPLOT
 70
     0
102
SHADEPLOTRESLEVEL
 70
     2
102
SHADEPLOTCUSTOMDPI
 70
   300
  0
XRECORD
  5
BF00
102
{ACAD_REACTORS
330
BEFF
102
}
330
BEFF
100
AcDbXrecord
280
     1
310
28000000B40000008B0000000100080000000000BC61000000000000000000000001000000000000FFFFFF0000000000FFFFFF000000000000000000000000000000000000000000000000000000000000000000330000006600000099000000CC000000FF00000000330000333300006633000099330000CC330000FF3300
310
0000660000336600006666000099660000CC660000FF66000000990000339900006699000099990000CC990000FF99000000CC000033CC000066CC000099CC0000CCCC0000FFCC000000FF000033FF000066FF000099FF0000CCFF0000FFFF000000003300330033006600330099003300CC003300FF003300003333003333
310
33006633330099333300CC333300FF33330000663300336633006666330099663300CC663300FF66330000993300339933006699330099993300CC993300FF99330000CC330033CC330066CC330099CC3300CCCC3300FFCC330000FF330033FF330066FF330099FF3300CCFF3300FFFF330000006600330066006600660099
310
006600CC006600FF00660000336600333366006633660099336600CC336600FF33660000666600336666006666660099666600CC666600FF66660000996600339966006699660099996600CC996600FF99660000CC660033CC660066CC660099CC6600CCCC6600FFCC660000FF660033FF660066FF660099FF6600CCFF6600
310
FFFF660000009900330099006600990099009900CC009900FF00990000339900333399006633990099339900CC339900FF33990000669900336699006666990099669900CC669900FF66990000999900339999006699990099999900CC999900FF99990000CC990033CC990066CC990099CC9900CCCC9900FFCC990000FF99
310
0033FF990066FF990099FF9900CCFF9900FFFF99000000CC003300CC006600CC009900CC00CC00CC00FF00CC000033CC003333CC006633CC009933CC00CC33CC00FF33CC000066CC003366CC006666CC009966CC00CC66CC00FF66CC000099CC003399CC006699CC009999CC00CC99CC00FF99CC0000CCCC0033CCCC0066CC
310
CC0099CCCC00CCCCCC00FFCCCC0000FFCC0033FFCC0066FFCC0099FFCC00CCFFCC00FFFFCC000000FF003300FF006600FF009900FF00CC00FF00FF00FF000033FF003333FF006633FF009933FF00CC33FF00FF33FF000066FF003366FF006666FF009966FF00CC66FF00FF66FF000099FF003399FF006699FF009999FF00CC
310
99FF00FF99FF0000CCFF0033CCFF0066CCFF0099CCFF00CCCCFF00FFCCFF0000FFFF0033FFFF0066FFFF0099FFFF00CCFFFF00FFFFFF00000000000D0D0D001A1A1A00282828003535350043434300505050005D5D5D006B6B6B00787878008686860093939300A1A1A100AEAEAE00BBBBBB00C9C9C900D6D6D600E4E4E400
310
F1F1F100FFFFFF0000000000000000000000000000000000000000000000000000000000000000000000000000000000E2E2E2E2E2E2E2E2E2E2E2E2E2E2E2E2E2E2E2E2E2E2E2E2E2E2E2E2E2E2E2E2E2E2E2E2E2E2E2E2E2E2E2E2E2E2E2E2E2E2E2E2E2E2E2E2E2E2E2E2E2E2E2E2E2E2E2E2E2E2E2E2E2E2E2E2E2E2E2
310
E2E2E2E2E2E2E2E2E2E2E2E2E2E2E2E2E2E2E2E2E2E2E2E2E2E2E2E2E2E2E2E2E2E2E2E2E2E2E2E2E2E2E2E2E2E2E2E2E2E2E2E2E2E2E2E2E2E2E2E2E2E2E2E2E2E2E2E2E2E2E2E2E2E2E2E2E2E2E2E2E2E2E2E2E2E2E2E2E2E2E2E2E2E2E2E2E2E2E2E2E2E2F5F5F5F5F5F5F5F5F5F5F5F5F5F5F5F5F5F5F5F5F5F5F5F5F5
310
F5F5F5F5F5F5F5F5F5F5F5F5F5F5F5F5F5F5F5F5F5F5F5F5F5F5F5F5F5F5F5F5F5F5F5F5F5F5F5F5F5F5F5F5F5F5F5F5F5F5F5F5F5F5F5F5F5F5F5F5F5F5F5F5F5F5F5F5F5F5F5F5F5F5F5F5F5F5F5F5F5F5F5F5F5F5F5F5F5F5F5F5F5F5F5F5F5F5F5F5F5F5F5F5F5F5F5F5F5F5F5F5F5F5F5F5F5F5F5F5F5F5F5F5F5F5F5
310
F5F5F5F5F5F5F5F5F5F5F5F5F5F5F5F5F5F5F5F5F5F5F5F5F5E2E2E2F5E2E2E2E2E2E2E2E2F5F5F5F5F5F5F5F5F5E2E2E2E2E2E2E2E2E2E2E2E2E2E2E2E2F5F5F5F5F5F5F5F5F5E2E2E2E2E2E2E2E2E2E2E2E2E2E2E2E2F5F5F5F5F5F5F5F5F5E2E2E2E2E2E2E2E2E2E2E2E2E2E2E2E2F5F5F5F5F5F5F5F5F5E2E2E2E2E2E2
310
E2E2E2E2E2E2E2E2E2E2F5F5F5F5F5F5F5F5F5E2E2E2E2E2E2E2E2E2E2E2E2E2E2E2E2F5F5F5F5F5F5F5F5F5E2E2E2E2E2E2E2E2E2E2E2E2E2E2E2E2F5F5F5F5F5F5F5F5F5E2E2E2E2E2E2E2E2F5E2E2E2F5E2F5F5F5F5F5F5F5F5F5F5F5F5F5F5F5F5F5F5F5F5F5F5F5F5F5F5F5F5F5F5F5F5F5F5F5F5F5F5F5F5F5F5F5F5
310
F5F5F5F5F5F5F5F5F5F5F5F5F5F5F5F5F5F5F5F5F5F5F5F5F5F5F5F5F5F5F5F5F5F5F5F5F5F5F5F5F5F5F5F5F5F5F5F5F5F5F5F5F5F5F5F5F5F5F5F5F5F5F5F5F5F5F5F5F5F5F5F5F5F5F5F5F5F5F5F5F5F5F5F5F5F5F5F5F5F5F5F5F5F5F5F5F5F5F5F5F5F5F5F5F5F5F5F5F5F5F5F5F5F5F5F5F5F5F5F5F5F5F5F5F5F5F5
310
F5F5E2F5E2E2E2F5E2F5F5F5F5F5F5F5F5F5F5F5F5F5F5F5F5F5F5F5F5F5F5F5F5F5F5F5F5F5F5F5F5F5F5F5F5F5F5F5F5F5F5F5F5F5F5F5F5F5F5F5F5F5F5F5F5F5F5F5F5F5F5F5F5F5F5F5F5F5F5F5F5F5F5F5F5F5F5F5F5F5F5F5F5F5F5F5F5F5F5F5F5F5F5F5F5F5F5F5F5F5F5F5F5F5F5F5F5F5F5F5F5F5F5F5F5F5F5
310
F5F5F5F5F5F5F5F5F5F5F5F5F5F5F5F5F5F5F5F5F5F5F5F5F5F5F5F5F5F5F5F5F5F5F5F5F5F5F5F5F5F5F5F5F5F5F5F5F5F5F5F5F5F5F5E2F5E2E2E2F5E2F5F5F5F5F5F5F5F5F5F5F5F5F5F5F5F5F5F5F5F5F5F5F5F5F5F5F5F5F5F5F5F5F5F5F5F5F5F5F5F5F5F5F5F5F5F5F5F5F5F5F5F5F5F5F5F5F5F5F5F5F5F5F5F5F5
310
F5F5F5F5F5F5F5F5F5F5F5F5F5F5F5F5F5F5F5F5F5F5F5F5F5F5F5F5F5F5F5F5F5F5F5F5F5F5F5F5F5F5F5F5F5F5F5F5F5F5F5F5F5F5F5F5F5F5F5F5F5F5F5F5F5F5F5F5F5F5F5F5F5F5F5F5F5F5F5F5F5F5F5F5F5F5F5F5F5F5F5F5F5F5F5F5F5F5F5F5F5F5F5F5F5F5F5F5E2F5E2E2E2F5E2F5F5F5F5F5F5F5F5F5F5F5F5
310
F5F5F5F5F5F5F5F5F5F5F5F5F5F5F5F5F5F5F5F5F5F5F5F5F5F5F5F5F5F5F5F5F5F5F5F5F5F5F5F5F5F5F5F5F5F5F5F5F5F5F5F5F5F5F5F5F5F5F5F5F5F5F5F5F5F5F5F5F5F5F5F5F5F5F5F5F5F5F5F5F5F5F5F5F5F5F5F5F5F5F5F5F5F5F5F5F5F5F5F5F5F5F5F5F5F5F5F5F5F5F5F5F5F5F5F5F5F5F5F5F5F5F5F5F5F5F5
310
F5F5F5F5F5F5F5F5F5F5F5F5F5F5F5F5F5F5F5F5F5F5F5F5F5F5F5F5F5F5F5F5F5F5E2F5E2E2E2F5E2F5F5F5F5F5F5F5F5F5F5F5F5F5F5F5F5F5F5F5F5F5F5F5F5F5F5F5F5F5F5F5F5F5F5F5F5F5F5F5F5F5F5F5F5F5F5F5F5F5F5F5F5F5F5F5F5F5F5F5F5F5F5F5F5F5F5F5F5F5F5F5F5F5F5F5F5F5F5F5F5F5F5F5F5F5F5
310
F5F5F5F5F5F5F5F5F5F5F5F5F5F5F5F5F5F5F5F5F5F5F5F5F5F5F5F5F5F5F5F5F5F5F5F5F5F5F5F5F5F5F5F5F5F5F5F5F5F5F5F5F5F5F5F5F5F5F5F5F5F5F5F5F5F5F5F5F5F5F5F5F5F5F5F5F5F5F5F5F5F5F5F5F5F5F5E2F5E2E2E2F5E2F5F5F5F5F5F5F5F5F5F5F5F5F5F5F5F5F5F5F5F5F5F5F5F5F5F5F5F5F5F5F5F5F5
310
F5F5F5F5F5F5F5F5F5F5F5F5F5F5F5F5F5F5F5F5F5F5F5F5F5F5F5F5F5F5F5F5F5F5F5F5F5F5F5F5F5F5F5F5F5F5F5F5F5F5F5F5F5F5F5F5F5F5F5F5F5F5F5F5F5F5F5F5F5F5F5F5F5F5F5F5F5F5F5F5F5F5F5F5F5F5F5F5F5F5F5F5F5F5F5F5F5F5F5F5F5F5F5F5F5F5F5F5F5F5F5F5F5F5F5F5F5F5F5F5F5F5F5F5F5F5F5
310
F5F5F5F5F5F5F5F5F5F5F5F5F5E2F5E2E2E2F5E2F5F5F5F5F5F5F5F5F5F5F5F5F5F5F5F5F5F5F5F5F5F5F5F5F5F5F5F5F5F5F5F5F5F5F5F5F5F5F5F5F5F5F5F5F5F5F5F5F5F5F5F5F5F5F5F5F5F5F5F5F5F5F5F5F5F5F5F5F5F5F5F5F5F5F5F5F5F5F5F5F5F5F5F5F5F5F5F5F5F5F5F5F5F5F5F5F5F5F5F5F5F5F5F5F5F5F5
310
F5F5F5F5F5F5F5F5F5F5F5F5F5F5F5F5F5F5F5F5F5F5F5F5F5F5F5F5F5F5F5F5F5F5F5F5F5F5F5F5F5F5F5F5F5F5F5F5F5F5F5F5F5F5F5F5F5F5F5F5F5F5F5F5F5F5E2F5E2E2E2F5E2F5F5F5F5F5F5F5F5F5F5F5F5F5F5F5F5F5F5F5F5F5F5F5F5F5F5F5F5F5F5F5F5F5F5F5F5F5F5F5F5F5F5F5F5F5F5F5F5F5F5F5F5F5F5
310
F5F5F5F5F5F5F5F5F5F5F5F5F5F5F5F5F5F5F5F5F5F5F5F5F5F5F5F5F5F5F5F5F5F5F5F5F5F5F5F5F5F5F5F5F5F5F5F5F5F5F5F5F5F5F5F5F5F5F5F5F5F5F5F5F5F5F5F5F5F5F5F5F5F5F5F5F5F5F5F5F5F5F5F5F5F5F5F5F5F5F5F5F5F5F5F5F5F5F5F5F5F5F5F5F5F5F5F5F5F5F5F5F5F5F5F5F5F5F5E2F5E2E2E2F5F5F5
310
F5F5F5F5F5F5F5F5F5F5F5F5F5F5F5F5F5F5F5F5F5F5F5F5F5F5F5F5F5F5F5F5F5F5F5F5F5F5F5F5F5F5F5F5F5F5F5F5F5F5F5F5F5F5F5F5F5F5F5F5F5F5F5F5F5F5F5F5F5F5F5F5F5F5F5F5F5F5F5F5F5F5F5F5F5F5F5F5F5F5F5F5F5F5F5F5F5F5F5F5F5F5F5F5F5F5F5F5F5F5F5F5F5F5F5F5F5F5F5F5F5F5F5F5F5F5F5
310
F5F5F5F5F5F5F5F5F5F5F5F5F5F5F5F5F5F5F5F5F5F5F5F5F5F5F5F5F5F5F5F5F5F5F5F5F5F5F5F5F5F5F5F5F5F5F5E2E2E2F5F5F5F5F5F5F5F5F5F5F5F5F5F5F5F5F5F5F5F5F5F5F5F5F5F5F5F5F5F5F5F5F5F5F5F5F5F5F5F5F5F5F5F5F5F5F5F5F5F5F5F5F5F5F5F5F5F5F5F5F5F5F5F5F5F5F5F5F5F5F5F5F5F5F5F5F5
310
F5F5F5F5F5F5F5F5F5F5F5F5F5F5F5F5F5F5F5F5F5F5F5F5F5F5F5F5F5F5F5F5F5F5F5F5F5F5F5F5F5F5F5F5F5F5F5F5F5F5F5F5F5F5F5F5F5F5F5F5F5F5F5F5F5F5F5F5F5F5F5F5F5F5F5F5F5F5F5F5F5F5F5F5F5F5F5F5F5F5F5F5F5F5F5F5F5F5F5F5E2E2E2F5F5F5F5F5F5F5F5F5F5F5F5F5F5F5F5F5F5F5F5F5F5F5F5
310
F5F5F5F5F5F5F5F5F5F5F5F5F5F5F5F5F5F5F5F5F5F5F5F5F5F5F5F5F5F5F5F5F5F5F5F5F5F5F5F5F5F5F5F5F5F5F5F5F5F5F5F5F5F5F5F5F5F5F5F5F5F5F5F5F5F5F5F5F5F5F5F5F5F5F5F5F5F5F5F5F5F5F5F5F5F5F5F5F5F5F5F5F5F5F5F5F5F5F5F5F5F5F5F5F5F5F5F5F5F5F5F5F5F5F5F5F5F5F5F5F5F5F5F5F5F5F5
310
F5F5F5F5F5F5F5F5F5F5F5F5F5F5F5F5F5F5F5F5F5F5F5F5F5F5E2E2E2F5F5F5F5F5F5F5F5F5F5F5F5F5F5F5F5F5F5F5F5F5F5F5F5F5F5F5F5F5F5F5F5F5F5F5F5F5F5F5F5F5F5F5F5F5F5F5F5F5F5F5F5F5F5F5F5F5F5F5F5F5F5F5F5F5F5F5F5F5F5F5F5F5F5F5F5F5F5F5F5F5F5F5F5F5F5F5F5F5F5F5F5F5F5F5F5F5F5
310
F5F5F5F5F5F5F5F5F5F5F5F5F5F5F5F5F5F5F5F5F5F5F5F5F5F5F5F5F5F5F5F5F5F5F5F5F5F5F5F5F5F5F5F5F5F5F5F5F5F5F5F5F5F5F5F5F5F5F5F5F5F5F5F5F5F5F5F5F5F5F5F5F5F5F5F5F5F5F5E2E2E2F5F5F5F5F5F5F5F5F5F5F5F5F5F5F5F5F5F5F5F5F5F5F5F5F5F5F5F5F5F5F5F5F5F5F5F5F5F5F5F5F5F5F5F5F5
310
F5F5F5F5F5F5F5F5F5F5F5F5F5F5F5F5F5F5F5F5F5F5F5F5F5F5F5F5F5F5F5F5F5F5F5F5F5F5F5F5F5F5F5F5F5F5F5F5F5F5F5F5F5F5F5F5F5F5F5F5F5F5F5F5F5F5F5F5F5F5F5F5F5F5F5F5F5F5F5F5F5F5F5F5F5F5F5F5F5F5F5F5F5F5F5F5F5F5F5F5F5F5F5F5F5F5F5F5F5F5F5F5F5F5F5F5F5F5F5F5F5F5F5F5F5F5F5
310
F5F5F5F5F5E2E2E2F5F5F5F5F5F5F5F5F5F5F5F5F5F5F5F5F5F5F59F9F9F9F9F9F9F9F9F9F9F9F9F9F9F9F9F9F9F9F9F9F9F9F9F9F9F9F9F9F9F9F9F9F9F9F9F9F9F9F9F9F9F9F9F9F9F9F9F9F9F9F9F9F9F9F9F9F9F9F9F9F9F9F9F9F9F9F9F9F9F9F9F9F9F9F9F9F9F9F9F9F9F9F9F9F9F9F9F9F9F9F9F9F9F9F9F9F9F9F
310
9F9F9F9F9F9F9F9F9F9F9F9F9F9F9F9F9F9F9F9F9F9F9F9F9F9F9F9F9F9F9F9F9F9F9F9F9F9F9FF5F5F5F5F5F5F5F5F5F5F5F5F5F5F5F5F5F5F5E2E2E2F5F5F5F5F5F5F5F5F5F5F5F5F5F5F5F5F5F5F59FF5F5F5F5F5F5F5F5F5F5F5F5F5F5F5F5F5F5F5F5F5F5F5F5F5F5F5F5F5F5F5F5F5F5F5F5F5F5F5F5F5F5F5F5F5F5
310
F5F5F5F5F5F5F5F5F5F5F5F5F5F5F5F5F5F5F5F5F5F5F5F5F5F5F5F5F5F5F5F5F5F5F5F5F5F5F5F5F5F5F5F5F5F5F5F5F5F5F5F5F5F5F5F5F5F5F5F5F5F5F5F5F5F5F5F5F5F5F5F5F5F5F5F5F5F5F5F5F5F5F5F5F5F5F5F5F5F5F59FF5F5F5F5F5F5F5F5F5F5F5F5F5F5F5F5F5F5F5E2E2E2F5F5F5F5F5F5F5F5F5F5F5F5F5
310
F5F5F5F5F5F59FF5F5F5F5F5F5F5F5F5F5F5F5F5F5F5F5F5F5F5F5F5F5F5F5F5F5F5F5F5F5F5F5F5F5F5F5F5F5F5F5F5F5F5F5F5F5F5F5F5F5F5F5F5F5F5F5F5F5F5F5F5F5F5F5F5F5F5F5F5F5F5F5F5F5F5F5F5F5F5F5F5F5F5F5F5F5F5F5F5F5F5F5F5F5F5F5F5F5F5F5F5F5F5F5F5F5F5F5F5F5F5F5F5F5F5F5F5F5F5F5
310
F5F5F5F5F5F5F5F5F5F5F5F5F5F5F5F5F59FF5F5F5F5F5F5F5F5F5F5F5F5F5F5F5F5F5F5F5E2E2E2F5F5F5F5F5F5F5F5F5F5F5F5F5F5F5F5F5F5F59FF5F5F5F5F5F5F5F5F5F5F5F5F5F5F5F5F5F5F5F5F5F5F5F5F5F5F5F5F5F5F5F5F5F5F5F5F5F5F5F5F5F5F5F5F5F5F5F5F5F5F5F5F5F5F5F5F5F5F5F5F5F5F5F5F5F5F5
310
F5F5F5F5F5F5F5F5F5F5F5F5F5F5F5F5F5F5F5F5F5F5F5F5F5F5F5F5F5F5F5F5F5F5F5F5F5F5F5F5F5F5F5F5F5F5F5F5F5F5F5F5F5F5F5F5F5F5F5F5F5F5F5F5F5F5F5F5F5F59FF5F5F5F5F5F5F5F5F5F5F5F5F5F5F5F5F5F5F5E2E2E2F5F5F5F5F5F5F5F5F5F5F5F5F5F5F5F5F5F5F59FF5F5F5F5F5F5F5F5F5F5F5F5F5F5
310
F5F5F5F5F5F5F5F5F5F5F5F5F5F5F5F5F5F5F5F5F5F5F5F5F5F5F5F5F5F5F5F5F5F5F5F5F5F5F5F5F5F5F5F5F5F5F5F5F5F5F5F5F5F5F5F5F5F5F5F5F5F5F5F5F5F5F5F5F5F5F5F5F5F5F5F5F5F5F5F5F5F5F5F5F5F5F5F5F5F5F5F5F5F5F5F5F5F5F5F5F5F5F5F5F5F5F5F5F5F5F5F5F5F5F5F5F5F5F5F5F5F5F59FF5F5F5
310
F5F5F5F5F5F5F5F5F5F5F5F5F5F5F5F5E2E2E2F5E2F5F5F5F5F5F5F5F5F5F5F5F5F5F5F5F5F59FF5F5F5F5F5F5F5F5F5F5F5F5F5F5F5F5F5F5F5F5F5F5F5F5F5F5F5F5F5F5F5F5F5F5F5F5F5F5F5F5F5F5F5F5F5F5F5F5F5F5F5F5F5F5F5F5F5F5F5F5F5F5F5F5F5F5F5F5F5F5F5F5F5F5F5F5F5F5F5F5F5F5F5F5F5F5F5F5
310
F5F5F5F5F5F5F5F5F5F5F5F5F5F5F5F5F5F5F5F5F5F5F5F5F5F5F5F5F5F5F5F5F5F5F5F5F5F5F5F5F5F5F5F5F5F5F5F5F59FF5F5F5F5F5F5F5F5F5F5F5F5F5F5F5F5F5E2F5E2E2E2F5E2F5F5F5F5F5F5F5F5F5F5F5F5F5F5F5F5F59FF5F5F5F5F5F5F5F5F5F5F5F5F5F5F5F5F5F5F5F5F5F5F5F5F5F5F5F5F5F5F5F5F5F5F5
310
F5F5F5F5F5F5F5F5F5F5F5F5F5F5F5F5F5F5F5F5F5F5F5F5F5F5F5F5F5F5F5F5F5F5F5F5F5F5F5F5F5F5F5F5F5F5F5F5F5F5F5F5F5F5F5F5F5F5F5F5F5F5F5F5F5F5F5F5F5F5F5F5F5F5F5F5F5F5F5F5F5F5F5F5F5F5F5F5F5F5F5F5F5F5F5F5F5F5F5F5F5F59FF5F5F5F5F5F5F5F5F5F5F5F5F5F5F5F5F5E2F5E2E2E2F5E2
310
F5F5F5F5F5F5F5F5F5F5F5F5F5F5F5F5F59FF5F5F5F5F5F5F5F5F5F5F5F5F5F5F5F5F5F5F5F5F5F5F5F5F5F5F5F5F5F5F5F5F5F5F5F5F5F5F5F5F5F5F5F5F5F5F5F5F5F5F5F5F5F5F5F5F5F5F5F5F5F5F5F5F5F5F5F5F5F5F5F5F5F5F5F5F5F5F5F5F5F5F5F5F5F5F5F5F5F5F5F5F5F5F5F5F5F5F5F5F5F5F5F5F5F5F5F5F5
310
F5F5F5F5F5F5F5F5F5F5F5F5F5F5F5F5F5F5F5F5F5F5F5F5F5F5F5F59FF5F5F5F5F5F5F5F5F5F5F5F5F5F5F5F5F5E2F5E2E2E2F5E2F5F5F5F5F5F5F5F5F5F5F5F5F5F5F5F5F59FF5F5F5F5F5F5F5F5F5F5F5F5F5F5F5F5F5F5F5F5F5F5F5F5F5F5F5F5F5F5F5F5F5F5F5F5F5F5F5F5F5F5F5F5F5F5F5F5F5F5F5F5F5F5F5F5
310
F5F5F5F5F5F5F5F5F5F5F5F5F5F5F5F5F5F5F5F5F5F5F5F5F5F5F5F5F5F5F5F5F5F5F5F5F5F5F5F5F5F5F5F5F5F5F5F5F5F5F5F5F5F5F5F5F5F5F5F5F5F5F5F5F5F5F5F5F5F5F5F5F5F5F5F5F5F5F5F5F59FF5F5F5F5F5F5F5F5F5F5F5F5F5F5F5F5F5E2F5E2E2E2F5E2F5F5F5F5F5F5F5F5F5F5F5F5F5F5F5F5F59FF5F5F5
310
F5F5F5F5F5F5F5F5F5F5F5F5F5F5F5F5F5F5F5F5F5F5F5F5F5F5F5F5F5F5F5F5F5F5F5F5F5F5F5F5F5F5F5F5F5F5F5F5F5F5F5F5F5F5F5F5F5F5F5F5F5F5F5F5F5F5F5F5F5F5F5F5F5F5F5F5F5F5F5F5F5F5F5F5F5F5F5F5F5F5F5F5F5F5F5F5F5F5F5F5F5F5F5F5F5F5F5F5F5F5F5F5F5F5F5F5F5F5F5F5F5F5F5F5F5F5F5
310
F5F5F5F5F5F5F59FF5F5F5F5F5F5F5F5F5F5F5F5F5F5F5F5F5E2F5E2E2E2F5E2F5F5F5F5F5F5F5F5F5F5F5F5F5F5F5F5F59FF5F5F5F5F5F5F5F5F5F5F5F5F5F5F5F5F5F5F5F5F5F5F5F5F5F5F5F5F5F5F5F5F5F5F5F5F5F5F5F5F5F5F5F5F5F5F5F5F5F5F5F5F5F5F5F5F5F5F5F5F5F5F5F5F5F5F5F5F5F5F5F5F5F5F5F5F5
310
F5F5F5F5F5F5F5F5F5F5F5F5F5F5F5F5F5F5F5F5F5F5F5F5F5F5F5F5F5F5F5F5F5F5F5F5F5F5F5F5F5F5F5F5F5F5F5F5F5F5F5F5F5F5F5F5F5F5F5F59FF5F5F5F5F5F5F5F5F5F5F5F5F5F5F5F5F5E2F5E2E2E2F5E2F5F5F5F5F5F5F5F5F5F5F5F5F5F5F5F5F59FF5F5F5F5F5F5F5F5F5F5F5F5F5F5F5F5F5F5F5F5F5F5F5F5
310
F5F5F5F5F5F5F5F5F5F5F5F5F5F5F5F5F5F5F5F5F5F5F5F5F5F5F5F5F5F5F5F5F59FF5F5F5F5F5F5F5F5F5F5F5F5F5F5F5F5F5F5F5F5F5F5F5F5F5F5F5F5F5F5F5F5F5F5F5F5F5F5F5F5F5F5F5F5F5F5F5F5F5F5F5F5F5F5F5F5F5F5F5F5F5F5F5F5F5F5F5F5F5F5F5F5F5F5F5F5F5F5F59FF5F5F5F5F5F5F5F5F5F5F5F5F5
310
F5F5F5F5E2F5E2E2E2F5E2F5F5F5F5F5F5F5F5F5F5F5F5F5F5F5F5F59FF5F5F5F5F5F5F5F5F5F5F5F5F5F5F5F5F5F5F5F5F5F5F5F5F5F5F5F5F5F5F5F5F5F5F5F5F5F5F5F5F5F5F5F5F5F5F5F5F5F5F5F5F5F5F5F5F59FF5F5F5F5F5F5F5F5F5F5F5F5F5F5F5F5F5F5F5F5F5F5F5F5F5F5F5F5F5F5F5F5F5F5F5F5F5F5F5F5
310
F5F5F5F5F5F5F5F5F5F5F5F5F5F5F5F5F5F5F5F5F5F5F5F5F5F5F5F5F5F5F5F5F5F5F5F5F5F5F59FF5F5F5F5F5F5F5F5F5F5F5F5F5F5F5F5F5E2F5E2E2E2F5E2F5F5F5F5F5F5F5F5F5F5F5F5F5F5F5F5F59FF5F5F5F5F5F5F5F5F5F5F5F5F5F5F5F5F5F5F5F5F5F5F5F5F5F5F5F5F5F5F5F5F5F5F5F5F5F5F5F5F5F5F5F5F5
310
F5F5F5F5F5F5F5F5F5F5F5F59FF5F5F5F5F5F5F5F5F5F5F5F5F5F5F5F5F5F5F5F5F5F5F5F5F5F5F5F5F5F5F5F5F5F5F5F5F5F5F5F5F5F5F5F5F5F5F5F5F5F5F5F5F5F5F5F5F5F5F5F5F5F5F5F5F5F5F5F5F5F5F5F5F5F5F5F5F5F5F59FF5F5F5F5F5F5F5F5F5F5F5F5F5F5F5F5F5E2F5E2E2E2F5E2F5F5F5F5F5F5F5F5F5F5
310
F5F5F5F5F5F5F59FF5F5F5F5F5F5F5F5F5F5F5F5F5F5F5F5F5F5F5F5F5F5F5F5F5F5F5F5F5F5F5F5F5F5F5F5F5F5F5F5F5F5F5F5F5F5F5F5F5F5F5F5F5F5F5F5F59FF5F5F5F5F5F5F5F5F5F5F5F5F5F5F59FF5F5F5F5F5F5F5F5F5F5F5F5F5F5F5F5F5F5F5F5F5F5F5F5F5F5F5F5F5F5F5F5F5F5F5F5F5F5F5F5F5F5F5F5F5
310
F5F5F5F5F5F5F5F5F5F5F5F5F5F5F59FF5F59FF5F5F5F5F5F5F5F5F5F5F5F5F5F5F5F5F5E2F5E2E2E2F5E2F5F5F5F5F5F5F5F5F5F5F5F5F5F5F5F5F59FF5F5F5F5F5F5F5F5E2E2E2F5F5F5F5F5F5F5F5F59FF5F5F5F5F5F5F5F5F5E2E2E2F5F5F5F5F5F5F5F5F5F5F5F5F5F5F5F5F5F5F5F5F5F5F5F59FF5F5F5F5F5F5F5F5
310
F59FF5F5F5F5F5E2E2F5F5F5F5F5F5F5F5F5F5F5F5F5F5F5F5F5F5F5F5F5F5F5F5F5F5F5F5F5F5F5F5F5F5F5F5F5E29FF5F5F5F5F5F5F5F5F5F5F5F5F5F5F5F5F5F5F5F59FF5F59FF5F5F5F5F5F5F5F5F5F5F5F5F5F5F5F5F5E2F5E2E2E2F5E2F5F5F5F5F5F5F5F5F5F5F5F5F5F5F5F5F59FF5F5F5F5F5F5F5F5E2E2E2F5F5
310
F5F5F5F5F5E2E29FE2E2F5F5F5F5F5F5F5E2E2E2F5F5F5F5F5F5F5E2E2F5F5F5F5F5F5F5F5F5F5F5F5F5F5F5E2E2E2E2E2E2E2E29F9F9F9F9FE2E2E2E29FE2E2E2E2E2E2E2E2E2E2E2E2E2E2E2E2E2E2E2E2E2E2E2E2E2E2E2E2E2E2E2E2E2E2E2E2E2E29FE2E2E2E2E2E2E2E2E2E2E2E2E2E2E2E2E2E2E2E2E2F5F59FF5F5
310
F5F5F5F5F5F5F5F5F5F5F5F5F5F5F5E2F5E2E2E2F5E2F5F5F5F5F5F5F5F5F5F5F5F5F5F5F5F5F59FF5F5F5F5F5F5F5F5E2E2E2E2E2E2E2E2E2E2E2E29FE2E2E2E2E2E2E2E2E2E2E2E2F5F5F5F5F5F5F5E2E2F5F5F5F5F5F5F5F5F5F5F5F5F5F5F59FF5F5F5F5F59F9F9F9F9F9F9F9F9F9F9F9F9F9F9F9F9F9F9F9F9F9F9F9F
310
9F9F9F9F9F9F9F9F9F9F9F9F9F9F9F9F9FF5F5F5F5F5F5F5F59F9F9FF5F5F5F5F5F5F5F5F5F5F5F5F5F5F5F5F5F5F59FF5F59FF5F5F5F5F5F5F5F5F5F5F5F5F5F5F5F5F5E2F5E2E2E2F5E2F5F5F5F5F5F5F5F5F5F5F5F5F5F5F5F5F59FF5F5F5F5F5F5F5E2E2E2E2F5F5F5F5F5F5F5F5F59FF5F5F5F5F5F5F5F5F5E2E2E2E2
310
F5F5F5F5F5F5E2E2F5F5F5F5F5F5F5F5F5F5F5F5F5F5F59FF5F5F5F59F9FF5F5F59FF5F5F5F5F59FF5F5F5F5F5F5F5F5F5F5F5F5F5F5F5F59F9F9F9F9F9F9F9F9F9F9F9F9F9F9F9F9F9F9F9F9F9F9F9F9F9F9F9FF5F5F5F5F5F5F5F5F5F5F5F5F5F5F5F59FF5F59FF5F5F5F5F5F5F5F5F5F5F5F5F5F5F5F5F5E2F5E2E2E2F5
310
E2F5F5F5F5F5F5F5F5F5F5F5F5F5F5F5F5F59FF5F5F5F5F5F5E2F5F5E2F5F5F5F5F5F5F5F5F5F59FF5F5F5F5F5F5F5F5F5F5E2F5F5E2F5F5F5F5F5E2E2F5F5F5F5F5F5F5F5F5F5F5F5F5F5F59FF5F5F5F59FF5F5F5F59FF5F5F5F5F5F5F5F5F5F5F5F5F5F5F5F5F5F5F5F5F5F5F5F5F5F5F5F5F5F5F5F5F5F5F5F5F5F5F5F5
310
F5F5F5F5F59FF5F59F9F9FF5F5F5F5F5F5F5F5F5F5F5F5F5F5F59FF5F59FF5F5F5F5F5F5F5F5F5F5F5F5F5F5F5F5F5E2F5E2E2E2F5E2F5F5F5F5F5F5F5F5F5F5F5F5F5F5F5F5F59FF5F5F5F5F5F5E2F5F5E2F5F5F5F5F5F5F5F5F5F59FF5F5F5F5F5F5F5F5F5F5E2F5F5E2F5F5F5F5F5E2E2F5F5F5F5F5F5F5F5F5F5F5F5F5
310
F5F59FF5F5F59F9FF5F5F5F59FF5F5F5F5F5F5F5F5F5F5F5F5F5F5F5F5F5F5F5F5F5F5F5F5F5F5F5F5F5F5F5F5F5F5F5F5F5F5F5F5F5F5F5F5F5F5F5F5F5F59F9FF5F5F5F5F5F5F5F5F5F5F5F5F5F59FF5F59FF5F5F5F5F5F5F5F5F5F5F5F5F5F5F5F5F5E2F5E2E2E2F5E2F5F5F5F5F5F5F5F5F5F5F5F5F5F5F5F5F59FF5F5
310
F5F5F5F5E2F5F5E2F5F5F5F5F5F5F5F5F5F59FF5F5F5F5F5F5F5F5F5F5E2F5F5E2F5F5F5F5F5E2E2F5F5F5F5F5F5F5F5F5F5F5F5F5F5F59FF5F5F59F9FF5F5F5F59FF5F5F5F5F5F5F5F5F5F5F5F5F5F5F5F5F5F5F5F5F5F5F5F5F5F5F5F5F5F5F5F5F5F5F5F5F5F5F5F5F5F5F5F5F5F5F5F5F5F5F59F9FF5F5F5F5F5F5F5F5
310
F5F5F5F5F59FF5F59FF5F5F5F5F5F5F5F5F5F5F5F5F5F5F5F5F5E2F5E2E2E2F5F5F5F5F5F5F5F5F5F5F5F5F5F5F5F5F5F5F59FF5F5F5F5F5F5E2F5F5E2F5F5F5F5F5F5F5F5F5F59FF5F5F5F5F5F5F5F5F5F5E2F5F5E2F5F5F5F5F5E2E2F5F5F5F5F5F5F5F5F5F5F5F5F5F5F59FF5F5F59F9FF5F5F5F59FF5F5E2E2E2E2E2E2
310
E2E2E2E2E2E2E2E2E2E2E2E2E2E2E2E2E2E2E2E2E2E2E2E2E2E2E2E2E2E2E2E2E2E2E2E2E2E2E2E2E2E2E2E29FF5F5F5F5F5F5F5F5F5F5F5F5F59FF5F59FF5F5F5F5F5F5F5F5F5F5F5F5F5F5F5F5F5F5F5E2E2E2F5F5F5F5F5F5F5F5F5F5F5F5F5F5F5F5F5F5F59FF5F5F5F5F5F5E2F5F5E2F5F5F5F5F5F5F5F5F5F59FF5F5
310
F5F5F5F5F5F5F5F5E2F5F5E2F5F5F5F5F5E2E2F5F5F5F5F5F5F5F5F5F5F5F5F5F5F59FF5F5F59FF5F5F5F5F59FF5E2F5F5F5F5F5F5F5F5F5F5F5F5F5F5F5F5F5F5F5F5F5F5F5F5F5F5F5F5F5F5F5F5F5F5F5F5F5F5F5F5F5F5F5F5F5F5F5F5F5F5F59FE2F5F5F5F5F5F5F5F5F5F5F59FF5F59FF5F5F5F5F5F5F5F5F5F5F5F5
310
F5F5F5F5F5F5F5E2E2E2F5F5F5F5F5F5F5F5F5F5F5F5F5F5F5F5F5F5F59FF5F5F5F5F5F5E2F5E2F5F5F5F5F5F5F5F5F5F5F59FF5F5F5F5F5F5F5F5F5F5F5E2F5E2F5F5F5F5F5E2E2F5F5F5F5F5F5F5F5F5F5F5F5F5F5F59FF5F5F59FF5F5F5F5F59FE2F5F5F5F5F5F5F5F5F5F5F5F5F5F5F5F5F5F5F5F5F5F5F5F5F5F5F5F5
310
F5F5F5F5F5F5F5F5F5F5F5F5F5F5F5F5F5F5F5F5F5F5F5F59F9FE2F5F5F5F5F5F5F5F5F5F59FF5F59FF5F5F5F5F5F5F5F5F5F5F5F5F5F5F5F5F5F5F5E2E2E2F5F5F5F5F5F5F5F5F5F5F5F5F5F5F5F5F5F5F59FF5F5F5F5F5F5E2F5E2F5F5F5F5F5F5F5F5F5F5F59FF5F5F5F5F5F5F5F5F5F5F5E2F5E2F5F5F5F5E2E2E2F5F5
310
F5F5F5F5F5F5F5F5F5F5F5F5F59FF5F5F59FF5F5F5F5F59FE2F5F5F5F5F5F5F5F5F5F5F5F5F5F5F5F5F5F5F5F5F5F5F5F5F5F5F5F5F5F5F5F5F5F5F5F5F5F5F5F5F5F5F5F5F5F5F5F5F5F5F5F5F59FE2F5F5F5F5F5F5F5F5F5F59FF5F59FF5F5F5F5F5F5F5F5F5F5F5F5F5F5F5F5F5F5F5E2E2E2F5F5F5F5F5F5F5F5F5F5F5
310
F5F5F5F5F5F5F5F59FF5F5F5F5F5E2F5F5E2F5F5F5F5F5F5F5F5F5F5F59FF5F5F5F5F5F5F5F5F5F5F5E2F5F5E2F5F5F5E2E2E2F5F5F5F5F5F5F5F5F5F5F5F5F5F5F59FF5F5F59FF5F5F5F5F59FE2F5F5F5F5F5F5F5F5F5F5F5F5F5F5F5F5F5F5F5F5F5F5F5F5F5F5F5F5F5F5F5F5F5F5F5F5F5F5F5F5F5F5F5F5F5F5F5F5F5
310
F5F5F5F59F9FF5F5F5F5F5F5F5F5F5F59FF5F59FF5F5F5F5F5F5F5F5F5F5F5F5F5F5F5F5F5F5F5E2E2E2F5F5F5F5F5F5F5F5F5F5F5F5F5F5F5F5F5F5F59FF5F5F5F5F5E2F5F5E2F5F5F5F5F5F5F5F5F5F5F59FF5F5F5F5F5F5F5F5F5F5F5E2F5F5E2F5F5F5E2E2E2F5F5F5F5F5F5F5F5F5F5F5F5F5F5F59FF5F5F59FF5F5F5
310
F5F59FE2F5F5F5F5F5F5F5F5F5F5F5F5F5F5F5F5F5F5F5F5F5F5F5F5F5F5F5F5F5F5F5F5F5F5F5F5F5F5F5F5F5F5F5F5F5F5F5F5F5F5F5F5F5F59F9FF5F5F5F5F5F5F5F5F59FF5F59FF5F5F5F5F5F5F5F5F5F5F5F5F5F5F5F5F5F5F5E2E2E2F5F5F5F5F5F5F5F5F5F5F5F5F5F5F5F5F5F5F59FF5F5F5F5F5E2F5F5E2F5F5F5
310
F5F5F5F5F5F5F5F59FF5F5F5F5F5F5F5F5F5F5F5E2F5F5E2F5F5F5E2E2E2F5F5F5F5F5F5F5F5F5F5F5F5F5F5F59FF5F5F59FF5F5F5F5F59FE2F5F5F5F5F5F5F5F5F5F5F5F5F5F5F5F5F5F5F5F5F5F5F5F5F5F5F5F5F5F5F5F5F5F5F5F5F5F5F5F5F5F5F5F5F5F5F5F5F5F5F5F5F5F59F9FF5F5F5F5F5F5F5F5F59FF5F59FF5
310
F5F5F5F5F5F5F5F5F5F5F5F5F5F5F5F5F5F5E2E2E2F5F5F5F5F5F5F5F5F5F5F5F5F5F5F5F5F5F5F59FF5F5F5F5F5E2F5F5E2F5F5F5F5F5F5F5F5F5F5F59FF5F5F5F5F5F5F5F5F5F5F5E2F5F5E2F5F5F5E2E2E2F5F5F5F5F5F5F5F5F5F5F5F5F5F5F59FF5F5F59FF5F5F5F5F59FE2F5F5F5F5F5F5F5F5F5F5F5F5F5F5F5F5F5
310
F5F5F5F5F5F5F5F5F5F5F5F5F5F5F5F5F5F5F5F5F5F5F5F5F5F5F5F5F5F5F5F5F5F5F5F5F5E2F59FF5F5F5F5F5F5F5F59FF5F59FF5F5F5F5F5F5F5F5F5F5F5F5F5F5F5F5F5F5F5E2E2E2F5F5F5F5F5F5F5F5F5F5F5F5F5F5F5F5F5F5F59FF5F5F5F5F5E2F5F5E2F5F5F5F5F5F5F5F5F5F5F59FF5F5F5F5F5F5F5F5F5F5F5E2
310
F5F5E2F5F5F5E2E2E2F5F5F5F5F5F5F5F5F5F5F5F5F5F5F59FF5F5F59FF5F5F5F5F59FE2F5F5F5F5F5F5F5F5F5F5F5F5F5F5F5F5F5F5F5F5F5F5F5F5F5F5F5F5F5F5F5F59F9F9F9F9F9F9F9F9F9F9F9F9F9F9F9F9F9F9F9F9FF5F5E29FF5F5F5F5F5F5F5F59FF5F59FF5F5F5F5F5F5F5F5F5F5F5F5F5F5F5F5F5F5F5E2E2E2
310
F5F5F5F5F5F5F5F5F5F5F5F5F5F5F5F5F5F5F59FF5F5F5F5F5E2F5E2F5F5F5F5F5F5F5F5F5F5F5F59FF5F5F5F5F5F5F5F5F5F5F5F5E2F5E2F5F5F5E2E2E2F5F5F5F5F5F5F5F5F5F5F5F5F5F5F59FF5F59F9FF5F5F5F5F5E2F5F5F5F5F5F5F5F5F5F5F5F5F5F5F5F5F5F5F59F9F9F9F9F9F9F9F9F9F9F9F9F9FF5F5F5F5F5F5
310
F5F5F5F5F5F5F5F5F5F5F5F5F5F5F5F5F5E29F9FF5F5F5F5F5F5F59FF5F59FF5F5F5F5F5F5F5F5F5F5F5F5F5F5F5F5F5F5F5E2E2E2F5E2F5F5F5F5F5F5F5F5F5F5F5F5F5F5F5F5F59FF5F5F5F5E2F5F5E2F5F5F5F5F5F5F5F5F5F5F5E29FE2F5F5F5F5F5F5F5F5F5F5F5E2F5F5E2F5F5E2E2E2F5F5F5F5F5F5F5F5F5F5F5F5
310
F5F5F59FF5F59F9FF5F5F5F5F5E2F5F5F5F5F5F5F5F5F5F5F5F59F9F9F9F9F9F9FF5F5F5F5F5F5F5F5F5F5F5F5F5F5F5F5F5F5F5F5F5F5F5F5F5F5F5F5F5F5F5F5F5F5F5F5F5E2F59F9FF5F5F5F5F5F59FF5F59FF5F5F5F5F5F5F5F5F5F5F5F5F5F5F5F5F5E2F5E2E2E2F5E2F5F5F5F5F5F5F5F5F5F5F5F5F5F5F5F5F59FF5
310
F5F5F5E2F5F5E2F5F5F5F5F5F5F5F5F59F9F9F9F9F9F9FF5F5F5F5F5F5F5F5F5E2F5F5E2F5F5E2E2E2F5F5F5F5F5F5F5F5F5F5F5F5F5F5F59FF5F59F9FF5F5F5F5F5E2F5F5F5F5F59F9F9F9F9F9F9FF5F5F5F5F5F5F5F5F5F5F5F5F5F5F5F5F5F5F5F5F5F5F5F5F5F5F5F5F5F5F5F5F5F5F5F5F5F5F5F5F5F5F5F5E2F59FF5
310
9FF5F5F5F5F59FF5F59FF5F5F5F5F5F5F5F5F5F5F5F5F5F5F5F5F5E2F5E2E2E2F5E2F5F5F5F5F5F5F5F5F5F5F5F5F5F5F5F5F59FF5F5F5E2F5F5F5E2F5F5F5F5F5F5F5F5F5F5F5E29FE2F5F5F5F5F5F5F5F5F5F5F5E2F5F5F5E2E2E2E2E2F5F5F5F5F5F5F5F5F5F5F5F5F5F5F59FF5E29F9FF5F5F5F5F5E29F9F9F9F9FF5F5
310
F5F5F5F5F5F5F5F5F5F5F5F5F5F5F5F5F5F5F5F5F5F5F5F5F5F5F5F5F5F5F5F5F5F5F5F5F5F5F5F5F5F5F5F5F5F5F5F5F5E2F5F59F9FF5F5F5F5F59FF5F59FF5F5F5F5F5F5F5F5F5F5F5F5F5F5F5F5F5E2F5E2E2E2F5E2F5F5F5F5F5F5F5F5F5F5F5F5F5F5F5F5F59FF5F5F5E2F5F5F5F5F5F5F5F5F5F5F5F5F5F5F5E29FE2
310
E2E2E2E2E2E2E2E2E2E2E2E2E2E2E2E2E2F5E2E2F5F5F5F5F5F5F5F5F5F5F5F5F5F5F59FF5F59FF5F5F5F5F59F9F9FF5F5F5F5F5F5F5F5F5F5F5F5F5F5F5F5F5F5F5F5F5F5F5F5F5F5F5F5F5F5F5F5F5F5F5F5F5F5F5F5F5F5F5F5F5F5F5F5F5F5F5F5F5F5F5F5F5F5F59F9FF5F5F5F59FF5F59FF5F5F5F5F5F5F5F5F5F5F5
310
F5F5F5F5F5F5E2F5E2E2E2F5E2F5F5F5F5F5F5F5F5F5F5F5F5F5F5F5F5F59FE2E2E2E2E2E2E2E2E2E2E2E2E2E2E2E2E2E2E2E29FE2E2E2E2E2E2E2E2E2E2E2E2E2E2E2E2E2E2E2E2E2F5F5F5F5F5F5F5F5F5F5F5F5F5F5F5E29FE29FF5F5F5F5F5F59FF5F5F5F5F5F5F5F5F5F5F5F5F5F5F5F5F5F5F5F5F5F5F5F5F5F5F5F5
310
F5F5F5F5F5F5F5F5F5F5F5F5F5F5F5F5F5F5F5F5F5F5F5F5F5F5F5F5F5F5F5F59FE29F9F9F9FE2F5F59FF5F5F5F5F5F5F5F5F5F5F5F5F5F5F5F5F5E2F5E2E2E2F5E2F5F5F5F5F5F5F5F5F5F5F5F5F5F5F5F5F59F9F9F9F9F9F9F9F9F9F9F9F9F9F9F9F9F9F9F9F9F9F9F9F9F9F9F9F9F9F9F9F9F9F9F9F9F9F9F9F9F9FF5F5
310
F5F5F5F5F5F5F5F5F5F5F5F5F5F5E2E2E2E2E2E2E2E2E2E2E2E2E2E2E2E2E2E2E2E2E2E2E2E2E2E2E2E2E2E2E2E2E2E2E2E2E2E2E2E2E2E2E2E2E2E2E2E2E2E2E2E2E2E2E2E2E2E2E2E2E2E2E2E2E2E2E2E2E2E2E2E2E2E2E2E2E2E2F5F59FF5F5F5F5F5F5F5F5F5F5F5F5F5F5F5F5F5E2F5E2E2E2F5E2F5F5F5F5F5F5F5F5
310
F5F5F5F5F5F5F5F5F59FF5F5F5F5F5F5F5F5F5F5F5F5F5F5F5F5F5F5F5F59FF5F5F5F5F5F5F5F5F5F5F5F5F5F5F5F5F5F5F5F5F5F5F5F5F5F5F5F5F5F5F5F5F5F5F5F5F5F5F5F5F5F5F5F5F5F59FF5F5F5F5F5F5F5F5F5F5F5F5F5F5F5F5F5F5F5F5F5F5F5F5F5F5F5F5F5F5F5F5F5F5F5F5F5F5F5F5F5F5F5F5F5F5F5F5F5
310
F5F5F5F5F5F5F5F5F5F5F5F5F5F5F5F5F5F5F5F59FF5F5F5F5F5F5F5F5F5F5F5F5F5F5F5F5F5E2F5E2E2E2F5E2F5F5F5F5F5F5F5F5F5F5F5F5F5F5F5F5F59FF5F5F5F5F5F5F5F5F5F5F5F5F5F5F5F5F5F5F5F5F5F5F5F5F5F5F5F5F5F5F5F5F5F5F5F5F5F5F5F5F5F5F5F5F5F5F5F5F5F5F5F5F5F5F5F5F5F5F5F5F5F5F5F5
310
F5F5F5F5F5F5F5F5F5F5F5F5F5F5F5F5F5F5F5F5F5F5F5F5F5F5F5F5F5F5F5F5F5F5F5F5F5F5F5F5F5F5F5F5F5F5F5F5F5F5F5F5F5F5F5F5F5F5F5F5F5F5F5F5F5F5F5F5F5F5F5F5F59FF5F5F5F5F5F5F5F5F5F5F5F5F5F5F5F5F5E2F5E2E2E2F5E2F5F5F5F5F5F5F5F5F5F5F5F5F5F5F5F5F59FF5F5F5F5F5F5F5F5F5F5F5
310
F5F5F5F5F5F5F5F5F5F5F5F5F5F5F5F5F5F5F5F5F5F5F5F5F5F5F5F5F5F5F5F5F5F5F5F5F5F5F5F5F5F5F5F5F5F5F5F5F5F5F5F5F5F5F5F5F5F5F5F5F5F5F5F5F5F5F5F5F5F5F5F5F5F5F5F5F5F5F5F5F5F5F5F5F5F5F5F5F5F5F5F5F5F5F5F5F5F5F5F5F5F5F5F5F5F5F5F5F5F5F5F5F5F5F5F5F5F5F5F5F5F5F5F5F5F59F
310
F5F5F5F5F5F5F5F5F5F5F5F5F5F5F5F5F5E2F5E2E2E2F5E2F5F5F5F5F5F5F5F5F5F5F5F5F5F5F5F5F59FF5F5F5F5F5F5F5F5F5F5F5F5F5F5F5F5F5F5F5F5F5F5F5F5F5F5F5F5F5F5F5F5F5F5F5F5F5F5F5F5F5F5F5F5F5F5F5F5F5F5F5F5F5F5F5F5F5F5F5F5F5F5F5F5F5F5F5F5F5F5F5F5F5F5F5F5F5F5F5F5F5F5F5F5F5
310
F5F5F5F5F5F5F5F5F5F5F5F5F5F5F5F5F5F5F5F5F5F5F5F5F5F5F5F5F5F5F5F5F5F5F5F5F5F5F5F5F5F5F5F5F5F5F5F5F5F5F5F59FF5F5F5F5F5F5F5F5F5F5F5F5F5F5F5F5F5E2F5E2E2E2F5E2F5F5F5F5F5F5F5F5F5F5F5F5F5F5F5F5F59FF5F5F5F5F5F5F5F5F5F5F5F5F5F5F5F5F5F5F5F5F5F5F5F5F5F5F5F5F5F5F5F5
310
F5F5F5F5F5F5F5F5F5F5F5F5F5F5F5F5F5F5F5F5F5F5F5F5F5F5F5F5F5F5F5F5F5F5F5F5F5F5F5F5F5F5F5F5F5F5F5F5F5F5F5F5F5F5F5F5F5F5F5F5F5F5F5F5F5F5F5F5F5F5F5F5F5F5F5F5F5F5F5F5F5F5F5F5F5F5F5F5F5F5F5F5F5F5F5F5F5F5F5F5F5F5F5F5F59FF5F5F5F5F5F5F5F5F5F5F5F5F5F5F5F5F5E2F5E2E2
310
E2F5E2F5F5F5F5F5F5F5F5F5F5F5F5F5F5F5F5F59FF5F5F5F5F5F5F5F5F5F5F5F5F5F5F5F5F5F5F5F5F5F5F5F5F5F5F5F5F5F5F5F5F5F5F5F5F5F5F5F5F5F5F5F5F5F5F5F5F5F5F5F5F5F5F5F5F5F5F5F5F5F5F5F5F5F5F5F5F5F5F5F5F5F5F5F5F5F5F5F5F5F5F5F5F5F5F5F5F5F5F5F5F5F5F5F5F5F5F5F5F5F5F5F5F5F5
310
F5F5F5F5F5F5F5F5F5F5F5F5F5F5F5F5F5F5F5F5F5F5F5F5F5F5F5F5F5F5F59FF5F5F5F5F5F5F5F5F5F5F5F5F5F5F5F5F5E2F5E2E2E2F5E2F5F5F5F5F5F5F5F5F5F5F5F5F5F5F5F5F59FF5F5F5F5F5F5F5F5F5F5F5F5F5F5F5F5F5F5F5F5F5F5F5F5F5F5F5F5F5F5F5F5F5F5F5F5F5F5F5F5F5F5F5F5F5F5F5F5F5F5F5F5F5
310
F5F5F5F5F5F5F5F5F5F5F5F5F5F5F5F5F5F5F5F5F5F5F5F5F5F5F5F5F5F5F5F5F5F5F5F5F5F5F5F5F5F5F5F5F5F5F5F5F5F5F5F5F5F5F5F5F5F5F5F5F5F5F5F5F5F5F5F5F5F5F5F5F5F5F5F5F5F5F5F5F5F5F5F59FF5F5F5F5F5F5F5F5F5F5F5F5F5F5F5F5F5E2F5E2E2E2F5E2F5F5F5F5F5F5F5F5F5F5F5F5F5F5F5F5F59F
310
F5F5F5F5F5F5F5F5F5F5F5F5F5F5F5F5F5F5F5F5F5F5F5F5F5F5F5F5F5F5F5F5F5F5F5F5F5F5F5F5F5F5F5F5F5F5F5F5F5F5F5F5F5F5F5F5F5F5F5F5F5F5F5F5F5F5F5F5F5F5F5F5F5F5F5F5F5F5F5F5F5F5F5F5F5F5F5F5F5F5F5F5F5F5F5F5F5F5F5F5F5F5F5F5F5F5F5F5F5F5F5F5F5F5F5F5F5F5F5F5F5F5F5F5F5F5F5
310
F5F5F5F5F5F5F5F5F5F59FF5F5F5F5F5F5F5F5F5F5F5F5F5F5F5F5F5E2F5E2E2E2F5E2F5F5F5F5F5F5F5F5F5F5F5F5F5F5F5F5F59FF5F5F5F5F5F5F5F5F5F5F5F5F5F5F5F5F5F5F5F5F5F5F5F5F5F5F5F5F5F5F5F5F5F5F5F5F5F5F5F5F5F5F5F5F5F5F5F5F5F5F5F5F5F5F5F5F5F5F5F5F5F5F5F5F5F5F5F5F5F5F5F5F5F5
310
F5F5F5F5F5F5F5F5F5F5F5F5F5F5F5F5F5F5F5F5F5F5F5F5F5F5F5F5F5F5F5F5F5F5F5F5F5F5F5F5F5F5F5F5F5F5F5F5F5F5F5F5F5F5F5F5F5F5F5F5F5F5F59FF5F5F5F5F5F5F5F5F5F5F5F5F5F5F5F5F5E2F5E2E2E2F5E2F5F5F5F5F5F5F5F5F5F5F5F5F5F5F5F5F59FF5F5F5F5F5F5F5F5F5F5F5F5F5F5F5F5F5F5F5F5F5
310
F5F5F5F5F5F5F5F5F5F5F5F5F5F5F5F5F5F5F5F5F5F5F5F5F5F5F5F5F5F5F5F5F5F5F5F5F5F5F5F5F5F5F5F5F5F5F5F5F5F5F5F5F5F5F5F5F5F5F5F5F5F5F5F5F5F5F5F5F5F5F5F5F5F5F5F5F5F5F5F5F5F5F5F5F5F5F5F5F5F5F5F5F5F5F5F5F5F5F5F5F5F5F5F5F5F5F5F5F5F5F5F5F5F5F5F59FF5F5F5F5F5F5F5F5F5F5
310
F5F5F5F5F5F5F5E2F5E2E2E2F5E2F5F5F5F5F5F5F5F5F5F5F5F5F5F5F5F5F59FF5F5F5F5F5F5F5F5F5F5F5F5F5F5F5F5F5F5F5F5F5F5F5F5F5F5F5F5F5F5F5F5F5F5F5F5F5F5F5F5F5F5F5F5F5F5F5F5F5F5F5F5F5F5F5F5F5F5F5F5F5F5F5F5F5F5F5F5F5F5F5F5F5F5F5F5F5F5F5F5F5F5F5F5F5F5F5F5F5F5F5F5F5F5F5
310
F5F5F5F5F5F59FF5F5F5F5F5F5F5F5F5F5F5F5F5F5F5F5F5F5F5F5F5F5F5F5F5F5F5F5F5F5F5F5F5F5F59FF5F5F5F5F5F5F5F5F5F5F5F5F5F5F5F5F5E2F5E2E2E2F5F5F5F5F5F5F5F5F5F5F5F5F5F5F5F5F5F5F59FF5F5F5F5F5F5F5F5F5F5F5F5F5F5F5F5F5F5F5F5F5F5F5F5F5F5F5F5F5F5F5F5F5F5F5F5F5F5F5F5F5F5
310
F5F5F5F5F5F5F5F5F5F5F5F5F5F5F5F5F5F5F5F5F5F5F5F5F5F5F5F5F5F5F5F5F5F5F5F5F5F5F5F5F5F5F5F5F5F5F5F5F5F5F5F5F5F5F5F5F5F5F59FF5F5F5F5F5F5F5F5F5F5F5F5F5F5F5F5F5F5F5F5F5F5F5F5F5F5F5F5F5F5F5F5F5F5F59FF5F5F5F5F5F5F5F5F5F5F5F5F5F5F5F5F5F5F5E2E2E2F5F5F5F5F5F5F5F5F5
310
F5F5F5F5F5F5F5F5F5F59FF5F5F5F5F5F5F5F5F5F5F5F5F5F5F5F5F5F5F5F5F5F5F5F5F5F5F5F5F5F5F5F5F5F5F5F5F5F5F5F5F5F5F5F5F5F5F5F5F5F5F5F5F5F5F5F5F5F5F5F5F5F5F5F5F5F5F5F5F5F5F5F5F5F5F5F5F5F5F5F5F5F5F5F5F5F5F5F5F5F5F5F5F5F5F5F5F5F5F5F5F59FF5F5F5F5F5F5F5F5F5F5F5F5F5F5
310
F5F5F5F5F5F5F5F5F5F5F5F5F5F5F5F5F5F5F5F5F59FF5F5F5F5F5F5F5F5F5F5F5F5F5F5F5F5F5F5F5E2E2E2F5F5F5F5F5F5F5F5F5F5F5F5F5F5F5F5F5F5F59FF5F5F5F5F5F5F5F5F5F5F5F5F5F5F5F5F5F5F5F5F5F5F5F5F5F5F5F5F5F5F5F5F5F5F5F5F5F5F5F5F5F5F5F5F5F5F5F5F5F5F5F5F5F5F5F5F5E2E2E2E2E2E2
310
E2E2E2E2E2E2E2E2E2E2E2E2E2E2E2E2E2E2E2E2E2E2E2E2E2E2E2E2E2E2E2E2E2E2E2E2E2E2E2E2E2E2E2E2E2E2E2E2E2E2E2E2E2E2E2E2E2E2E2E2E2E2E2E2E2E2E2E2E2E2E2E2F5F59FF5F5F5F5F5F5F5F5F5F5F5F5F5F5F5F5F5F5F5E2E2E2F5F5F5F5F5F5F5F5F5F5F5F5F5F5F5F5F5F5F59FF5F5F5F5F5F5F5F5F5F5
310
F5F5F5F5F5F5F5F5F5F5F5F5F5F5F5F5F5F5F5F5F5F5F5F5F5F5F5F5F5F5F5F5F5F5F5F5F5F5F5F5F5F5F5F5F5F5F5E2F5F5F5F5F5F5F5F5F5F59F9F9F9F9F9F9F9F9F9F9F9F9F9F9F9F9F9F9F9F9F9F9F9F9F9F9F9F9F9F9F9F9F9F9F9F9F9F9F9F9F9F9F9F9F9F9F9F9F9F9F9F9F9F9F9FF5F5F5F5F5F5F5F5F5E2E2F5F5
310
9FF5F5F5F5F5F5F5F5F5F5F5F5F5F5F5F5F5F5F5E2E2E2F5F5F5F5F5F5F5F5F5F5F5F5F5F5F5F5F5F5F59FF5F5F5F5F5F5F5F5F5F5F5F5F5F5F5F5F5F5F5F5F5F5F5F5F5F5F5F5F5F5F5F5F5F5F5F5F5F5F5F5F5F5F5F5F5F5F5F5F5F5F5F5F5F5F5F5F5E2F5F5F5F5F5F5F5F5F5F5F5F5F5F5F5F5F5F5F5F5F5F5F5F5F5F5
310
F5F5F5F5F5F5F5F5F5F5F5F5F5F5F5F5F59FF5F5F5F5F5F5F5F5F5F5F5F5F5F5F5F5F5F5F5F5F5F5F5F5F5F5F5F5F5F5F5E2E2F5F59FF5F5F5F5F5F5F5F5F5F5F5F5F5F5F5F5F5F5F5E2E2E2F5F5F5F5F5F5F5F5F5F5F5F5F5F5F5F5F5F5F59FF5F5F5F5F5F5F5F5F5F5F5F5F5F5F5F5F5F5F5F5F5F5F5F5F5F5F5F5F5F5F5
310
F5F5F5F5F5F5F5F5F5F5F5F5F5F5F5F5F5F5F5F5F5F5F5F5F5F5E2F5F5F5F5F5F5F5F5F5F5F5F5F5F5F5F5F5F5F5F5F5F5F5F5F5F5F5F5F5F5F5F5F5F5F5F5F5F5F5F5F5F5F59FF5F5F5F5F5F5F5F5F5F5F5F5F5F5F5F5F5F5F5F5F5F5F5F5F5F5F5F5F5F5F5E2E2F5F59FF5F5F5F5F5F5F5F5F5F5F5F5F5F5F5F5F5F5F5E2
310
E2E2F5F5F5F5F5F5F5F5F5F5F5F5F5F5F5F5F5F5F59FF5F5F5F5F5F5F5F5F5F5F5F5F5F5F5F5F5F5F5F5F5F5F5F5F5F5F5F5F5F5F5F5F5F5F5F5F5F5F5F5F5F5F5F5F5F5F5F5F5F5F5F5F5F5F5F5F5E2F5F5F5F5F5F5F5F5F5F5F5F5F5F5F5F5F5F5F5F5F5F5F5F5F5F5F5F5F5F5F5F5F5F5E2E2E2E2E2E2E2E2E29FE2E2E2
310
E2E2E2E2E2E2E2E2E2E2E2E2F5F5F5F5F5F5F5F5F5F5F5F5F5F5F5F5E2E2F5F59FF5F5F5F5F5F5F5F5F5F5F5F5F5F5F5F5F5F5F5E2E2E2F5F5F5F5F5F5F5F5F5F5F5F5F5F5F5F5F5F5F59FF5F5F5F5F5F5F5F5F5F5F5F5F5F5F5F5F5F5F5F5F5F5F5F5F5F5F5F5F5F5F5F5F5F5F5F5F5F5F5F5F5F5F5F5F5F5F5F5F5F5F5F5
310
F5F5F5F5F5E2F5F5F5F5F5F5F5F5F5F5F5F5F5F5F5F5F5F5F5F5E2E2E2E2E2E2E2E2E2E2E2E2E2E2F5F5F5F5F5F5F5F5F59FF5F5F5F5F5F5F5F5F5F5F5F5F5F5F5E2E2E2E2E2F5F5F5F5F5F5F5F5F5F5F5E2E2F5F59FF5F5F5F5F5F5F5F5F5F5F5F5F5F5F5F5F5F5F5E2E2E2F5F5F5F5F5F5F5F5F5F5F5F5F5F5F5F5F5F5F5
310
9FF5F5F5F5F5F5F5F5F5F5F5F5F5F5F5F5F5F5F5F5F5F5F5F5F5F5F5F5F5F5F5F5F5F5F5F5F5F5F5F5F5F5F5F5F5F5F5F5F5F5F5F5F5F5F5F5F5E2F5F5F5F5F5F5F5F5F5F5E2E2E2E2E2E2E2E2E2E2E2E2E2E2E2E2E2E2E2E2E2E2E2E2E2E2E2E2E2E2E2E2E29FE2E2E2E2E2E2E2E2E2F5F5F5F5F5F5F5F5F5F5F5E2E2F5F5
310
F5F5F5F5F5F5F5E2E2F5F59FF5F5F5F5F5F5F5F5F5F5F5F5F5F5F5F5F5F5F5E2E2E2F5E2F5F5F5F5F5F5F5F5F5F5F5F5F5F5F5F5F59FF5F5F5F5F5F5F5F5F5F5F5F5F5F5F5F5F5F5F5F5F5F5F5F5F5F5F5F5F5F5F5F5F5F5F5F5F5F5F5F5F5F5F5F5F5F5F5F5F5F5F5F5F5F5F5F5F5E2F5F5F5F5F5E2E2E2E2E2E2E2E2E2E2
310
F5F5F5F5F5F5F5F5F5F5F5F5F5F5F5F5F5F5F5F5F5F5F5F5E2E2E2E29FE2E2E2E2E2E2F5F5F5E2E2E2E2E2E2E2E2E2E2E2F5F5E2E2F5F5F5F5F5F5F5E2E2F5F59FF5F5F5F5F5F5F5F5F5F5F5F5F5F5F5F5F5E2F5E2E2E2F5E2F5F5F5F5F5F5F5F5F5F5F5F5F5F5F5F5F59FF5F5F5F5F5F5F5F5F5F5F5F5F5F5F5F5F5F5F5F5
310
F5F5F5F5F5F5F5F5F5F5F5F5F5F5F5F5F5F5F5F5F5F5F5F5F5F5F5F5F5F5F5F5F5F5F5F5F5E2F5F5F5F5E2F5F5F5F5F5F5F5F5F5F5F5F5F5F5F5F5F5F5F5E2E2E2E2E2E2E2E2E2E2E2E2E2E2E2F5F5F5F59FF5F5F5F5F5F5E2E2E2E2E2E2F5F5F5F5F5F5F5F5F5F5F5F5E2F5F5F5F5F5F5E2E2F5F59FF5F5F5F5F5F5F5F5F5
310
F5F5F5F5F5F5F5F5E2F5E2E2E2F5E2F5F5F5F5F5F5F5F5F5F5F5F5F5F5F5F5F59FF5F5F5F5F5F5F5F5F5F5F5F5F5F5F5F5F5F5F5F5F5F5F5F5F5F5F5F5F5F5F5F5F5F5F5F5F5F5F5F5F5F5F5F5F5F5F5F5F5F5F5F5F5F5F5F5F5E2F5F5F5F5E2F5F5F5F5F5F5F5F5E2E2E2E2E2E2E2E2E2E2E2F5F5F5F5F5F5F5F5F5F5F5F5
310
F5F5F5F5F5F5F59FF5F5F5F5F5F5F5F5F5F5F5F5E2E2F5F5F5F5F5F5F5F5F5F5F5E2F5F5F5F5F5E2E2F5F59FF5F5F5F5F5F5F5F5F5F5F5F5F5F5F5F5F5E2F5E2E2E2F5E2F5F5F5F5F5F5F5F5F5F5F5F5F5F5F5F5F59FF5F5F5F5F5F5F5F5F5F5F5F5F5F5F5F5F5F5F5F5F5F5F5F5F5F5F5F5F5F5F5F5F5F5F5F5F5F5F5F5F5
310
F5F5F5F5F5F5F5F5F5F5F5F5F5F5F5F5E2F5F5F5E2F5F5F5F5E2E2E2E2E2F5F5F5F5F5F5F5F5F5F5F5F5F5F5F5F5F5F5F5F5F5F5F5F5F5F5F5F5F5F59FF5F5F5F5F5F5F5F5F5F5F5F5F5F5E2F5F5F5F5F5F5F5F5F5F5F5E2F5F5F5F5E2E2F5F59FF5F5F5F5F5F5F5F5F5F5F5F5F5F5F5F5F5E2F5E2E2E2F5E2F5F5F5F5F5F5
310
F5F5F5F5F5F5F5F5F5F5F59FF5F5F5F5F5F5F5F5F5F5F5F5F5F5F5F5F5F5F5F5F5F5F5F5F5F5F5F5F5F5F5F5F5F5F5F5F5F5F5F5F5F5F5F5F5F5F5F5F5F5F5F5F5F5F5F5F5E2F5F5F5E2F5F5E2E2F5F5F5F5F5F5F5F5F5F5F5F5F5F5F5F5F5F5F5F5F5F5F5F5F5F5F5F5F5F5F5F5F5F5F59FF5F5F5F5F5F5F5F5F5F5F5F5F5
310
F5E2F5F5F5F5F5F5F5F5F5F5F5E2F5F5F5F5E2E2F5F59FF5F5F5F5F5F5F5F5F5F5F5F5F5F5F5F5F5E2F5E2E2E2F5E2F5F5F5F5F5F5F5F5F5F5F5F5F5F5F5F5F59FF5F5F5F5F5F5F5F5F5F5F5F5F5F5F5F5F5F5F5F5F5F5F5F5F5F5F5F5F5F5F5F5F5F5F5F5F5F5F5F5F5F5F5F5F5F5F5F5F5F5F5F5F5F5F5F5F5E2F5F5F5E2
310
F5E2F5F5F5F5F5BEF5BEBEF5BEBEF5BEBEBEBEF5BEBEF5BEBEF5BEBEBEBEF5BEBEF5BEBEF5BEBE9FBEF5BEBEF5BEBEF5BEBEF5F5F5F5E2F5F5F5F5F5F5F5F5F5F5F5E2F5F5F5F5E2E2F5F59FF5F5F5F5F5F5F5F5F5F5F5F5F5F5F5F5F5E2F5E2E2E2F5E2F5F5F5F5F5F5F5F5F5F5F5F5F5F5F5F5F59FF5F5F5F5F5F5F5F5F5
310
F5F5F5F5F5F5F5F5F5F5F5F5F5F5F5F5F5F5F5F5F5F5F5F5F5F5F5F5F5F5F5F5F5F5F5F5F5F5F5F5F5F5F5F5F5F5F5F5E2F5F5F5E2F5E2F5F5F5BEBEBEBEBEBEBEBEBEBEBEBEBEBEBEBEBEBEBEBEBEBEBEBEBEBEBEBEBEBEBEBEBEBE9FBEBEBEBEBEBEBEBEBEBEBEF5F5F5E2F5F5F5F5F5F5F5F5F5F5F5F5E2F5F5F5E2E2F5
310
F59FF5F5F5F5F5F5F5F5F5F5F5F5F5F5F5F5F5E2F5E2E2E2F5E2F5F5F5F5F5F5F5F5F5F5F5F5F5F5F5F5F59FF5F5F5F5F5F5F5F5F5F5F5F5F5F5F5F5F5F5F5F5F5F5F5F5F5F5F5F5F5F5F5F5F5F5F5F5F5F5F5F5F5F5F5F5F5F5F5F5F5F5F5F5F5F5F5F5F5E2F5F5F5E2F5E2F5F5BEBEBEBEBEBEBEBEBEBEBEBEBEBEBEBEBE
310
BEBEBEBEBEBEBEBEBEBEBEBEBEBEBEBEBEBE9FBEBEBEBEBEBEBEBEBEBEBEBEF5F5F5E2F5F5F5F5F5F5F5F5F5F5F5E2F5F5F5E2E2F5F59FF5F5F5F5F5F5F5F5F5F5F5F5F5F5F5F5F5E2F5E2E2E2F5E2F5F5F5F5F5F5F5F5F5F5F5F5F5F5F5F5F59FF5F5F5F5F5F5F5F5F5F5F5F5F5F5F5F5F5F5F5F5F5F5F5F5F5F5F5F5F5F5
310
F5F5F5F5F5F5F5F5F5F5F5F5F5F5F5F5F5F5F5F5F5F5F5F5F5F5F5E2F5F5F5E2E2F5F5F5BEBEBEBEBEBEBEBEBEBEBEBEBEBEBEBEBEBEBEBEBEBEBEBEBEBEBEBEBEBEBEBEBEBEBE9FBEBEBEBEBEBEBEBEBEBEBEBEBEBEF5E2F5F5F5F5F5F5F5F5F5F5F5E2F5F5F5E2E2F5F59FF5F5F5F5F5F5F5F5F5F5F5F5F5F5F5F5F5E2F5
310
E2E2E2F5E2F5F5F5F5F5F5F5F5F5F5F5F5F5F5F5F5F59FF5F5F5F5F5F5F5F5F5F5F5F5F5F5F5F5F5F5F5F5F5F5F5F5F5F5F5F5F5F5F5F5F5F5F5F5F5F5F5F5F5F5F5F5F5F5F5F5F5F5F5F5F5F5F5F5F5E2F5F5F5E2E2F5F5F5BEBEBEBEBEBEBEBEBEBEBEBEBEBEBEBEBEBEBEBEBEBEBEBEBEBEBEBEBEBEBEBEBEBEBE9FBEBE
310
BEBEBEBEBEBEBEBEBEBEBEBEF5E2F5F5F5F5F5F5F5F5F5F5F5E2F5F5F5E2E2F5F59FF5F5F5F5F5F5F5F5F5F5F5F5F5F5F5F5F5E2F5E2E2E2F5E2F5F5F5F5F5F5F5F5F5F5F5F5F5F5F5F5F59FF5F5F5F5F5F5F5F5F5F5F5F5F5F5F5F5F5F5F5F5F5F5F5F5F5F5F5F5F5F5F5F5F5F5F5F5F5F5F5F5F5F5F5F5F5F5F5F5F5F5F5
310
F5F5F5F5F5F5E2F5F5F5E2E2F5F5F5BE9FBEBEBEBEBEBEBEBEBEBEBEBEBEBEBEBEBEBEBEBEBEBEBEBEBEBEBEBEBEBEBEBEBE9FBEBEBEBEBEBEBEBEBEBEBEBEBEBEF5E2F5F5F5F5F5F5F5F5F5F5F5E2F5F5F5E2E2F5F59FF5F5F5F5F5F5F5F5F5F5F5F5F5F5F5F5F5E2F5E2E2E2F5E2F5F5F5F5F5F5F5F5F5F5F5F5F5F5F5F5
310
F59FF5F5F5F5F5F5F5F5F5F5F5F5F5F5F5F5F5F5F5F5F5F5F5F5F5F5F5F5F5F5F5F5F5F5F5F5F5F5F5F5F5F5F5F5F5F5F5F5F5F5F5F5F5F5F5F5F5E2F5F5E2F5E2F5F5F5F59FF5F5BEBEBEBEBEBEBEBEBEBEBEBEBEBEBEBEBEBEBEBEBEBEBEBEBEBEBEBEBEBEBE9FBEBEBEBEBEBEBEBEBEBEBEBEBEBEF5E2F5F5F5F5F5F5F5
310
F5F5F5F5E2F5F5F5E2E2F5F59FF5F5F5F5F5F5F5F5F5F5F5F5F5F5F5F5F5E2F5E2E2E2F5E2F5F5F5F5F5F5F5F5F5F5F5F5F5F5F5F5F59FF5F5F5F5F5F5F5F5F5F5F5F5F5F5F5F5F5F5F5F5F5F5F5F5F5F5F5F5F5F5F5F5F5F5F5F5F5F5F5F5F5F5F5F5F5F5F5F5F5F5F5F5F5F5F5F5F5E2F5F5E2F5E2F5F5F5E29FE2F5F5BE
310
BEBEBEBEBEBEBEBEBEBEBEBEBEBEBEBEBEBEBEBEBEBEBEBEBEBEBEBEBE9FBEBEBEBEBEBEBEBEBEBEBEBEBEBEF5E2F5F5F5F5F5F5F5F5F5F5F5E2F5F5F5E2E2F5F59FF5F5F5F5F5F5F5F5F5F5F5F5F5F5F5F5F5E2F5E2E2E2F5E2F5F5F5F5F5F5F5F5F5F5F5F5F5F5F5F5F59FF5F5F5F5F5F5F5F5F5F5F5F5F5F5F5F5F5F5F5
310
F5F5F5F5F5F5F5F5F5F5F5F5F5F5F5F5F5F5F5F5F5F5F5F5F5F5F5F5F5F5F5F5F5F5F5F5F5F5E2F5F5E2F5E2F5F5E2E29FE2E2F5BEBEBEBEBEBEBEBEBEBEBEBEBEBEBEBEBEBEBEBEBEBEBEBEBEBEBEBEBEBE9FBEBEBEBEBEBEBEBEBEBEBEBEBEBEF5E2F5F5F5F5F5F5F5F5F5F5F5E2F5F5F5E2E2F5F59FF5F5F5F5F5F5F5F5
310
F5F5F5F5F5F5F5F5F5E2F5E2E2E2F5E2F5F5F5F5F5F5F5F5F5F5F5F5F5F5F5F5F59FF5F5F5F5F5F5F5F5F5F5F5F5F5F5F5F5F5F5F5F5F5F5F5F5F5F5F5F5F5F5F5F5F5F5F5F5F5F5F5F5F5F5F5F5F5F5F5F5F5F5F5F5F5F59F9F9FE29F9FE29FE29F9F9F9F9F9F9F9F9F9F9F9F9F9F9F9F9F9FBEBEBEBEBEBEBEBEBE9F9F9F
310
9F9F9F9F9F9F9F9F9FBEBEBEBEBEBEBEBEBE9F9F9F9F9F9FE29F9F9F9F9F9F9F9F9F9F9FE29F9F9FE2E29F9F9FF5F5F5F5F5F5F5F5F5F5F5F5F5F5F5F5F5E2F5E2E2E2F5E2F5F5F5F5F5F5F5F5F5F5F5F5F5F5F5F5F59FF5F5F5F5F5F5F5F5F5F5F5F5F5F5F5F5F5F5F5F5F5F5F5F5F5F5F5F5F5F5F5F5F5F5F5F5F5F5F5F5
310
F5F5F5F5F5F5F5F5F5F5F5F5F5F5F5F5F5E2F5F5E2F5E2F5F5E2E29FE2E2F5BEBEBEBEBEBEBEBEBEBEBEBEBEBEBEBEBEBEBEBEBEBEBEBEBEBEBEBEBEBE9FBEBEBEBEBEBEBEBEBEBEBEBEBEBEF5E2F5F5F5F5F5F5F5F5F5F5F5E2F5F5F5E2E2F5F59FF5F5F5F5F5F5F5F5F5F5F5F5F5F5F5F5F5E2F5E2E2E2F5E2F5F5F5F5F5
310
F5F5F5F5F5F5F5F5F5F5F5F59FF5F5F5F5F5F5F5F5F5F5F5F5F5F5F5F5F5F5F5F5F5F5F5F5F5F5F5F5F5F5F5F5F5F5F5F5F5F5F5F5F5F5F5F5F5F5F5F5F5F5F5F5F5F5F5F5F5E2F5F5E2F5E2F5F5F5E29FE2F5F5BEBEBEBEBEBEBEBEBEBEBEBEBEBEBEBEBEBEBEBEBEBEBEBEBEBEBEBEBEBE9FBEBEBEBEBEBEBEBEBEBEBEBE
310
BEBEF5E2F5F5F5F5F5F5F5F5F5F5F5E2F5F5F5E2E2F5F59FF5F5F5F5F5F5F5F5F5F5F5F5F5F5F5F5F5E2F5E2E2E2F5F5F5F5F5F5F5F5F5F5F5F5F5F5F5F5F5F5F59FF5F5F5F5F5F5F5F5F5F5F5F5F5F5F5F5F5F5F5F5F5F5F5F5F5F5F5F5F5F5F5F5F5F5F5F5F5F5F5F5F5F5F5F5F5F5F5F5F5F5F5F5F5F5F5F5F5E2F5F5E2
310
F5E2F5F5F5F59FF5F5BEBEBEBEBEBEBEBEBEBEBEBEBEBEBEBEBEBEBEBEBEBEBEBEBEBEBEBEBEBEBE9FBEBEBEBEBEBEBEBEBEBEBEBEBEBEF5E2F5F5F5F5F5F5F5F5F5F5F5E2F5F5F5E2E2F5F59FF5F5F5F5F5F5F5F5F5F5F5F5F5F5F5F5F5F5F5E2E2E2F5F5F5F5F5F5F5F5F5F5F5F5F5F5F5F5F5F5F59FF5F5F5F5F5F5F5F5
310
F5F5F5F5F5F5F5F5F5F5F5F5F5F5F5F5F5F5F5F5F5F5F5F5F5F5F5F5F5F5F5F5F5F5F5F5F5F5F5F5F5F5F5F5F5F5F5F5F5E2F5F5F5E2E2F5F5F5BE9FBEBEBEBEBEBEBEBEBEBEBEBEBEBEBEBEBEBEBEBEBEBEBEBEBEBEBEBEBEBEBEBEBE9FBEBEBEBEBEBEBEBEBEBEBEBEBEBEF5E2F5F5F5F5F5F5F5F5F5F5F5E2F5F5F5E2E2
310
F5F59FF5F5F5F5F5F5F5F5F5F5F5F5F5F5F5F5F5F5F5E2E2E2F5F5F5F5F5F5F5F5F5F5F5F5F5F5F5F5F5F5F59FF5F5F5F5F5F5F5F5F5F5F5F5F5F5F5F5F5F5F5F5F5F5F5F5F5F5F5F5F5F5F5F5F5F5F5F5F5F5F5F5F5F5F5F5F5F5F5F5F5F5F5F5F5F5F5F5F5E2F5F5F5E2E2F5F5F5BEBEBEBEBEBEBEBEBEBEBEBEBEBEBEBE
310
BEBEBEBEBEBEBEBEBEBEBEBEBEBEBEBEBEBEBE9FBEBEBEBEBEBEBEBEBEBEBEBEBEBEF5E2F5F5F5F5F5F5F5F5F5F5F5E2F5F5F5E2E2F5F59FF5F5F5F5F5F5F5F5F5F5F5F5F5F5F5F5F5F5F5E2E2E2F5F5F5F5F5F5F5F5F5F5F5F5F5F5F5F5F5F5F59FF5F5F5F5F5F5F5F5F5F5F5F5F5F5F5F5F5F5F5F5F5F5F5F5F5F5F5F5F5
310
F5F5F5F5F5F5F5F5F5F5F5F5F5F5F5F5F5F5F5F5F5F5F5F5F5F5F5F5E2F5F5F5E2E2F5F5F5BEBEBEBEBEBEBEBEBEBEBEBEBEBEBEBEBEBEBEBEBEBEBEBEBEBEBEBEBEBEBEBEBEBEBE9FBEBEBEBEBEBEBEBEBEBEBEBEBEBEF5E2F5F5F5F5F5F5F5F5F5F5F5E2F5F5F5E2E2F5F59FF5F5F5F5F5F5F5F5F5F5F5F5F5F5F5F5F5F5
310
F5E2E2E2F5F5F5F5F5F5F5F5F5F5F5F5F5F5F5F5F5F5F59FF5F5F5F5F5F5F5F5F5F5F5F5F5F5F5F5F5F5F5F5F5F5F5F5F5F5F5F5F5F5F5F5F5F5F5F5F5F5F5F5F5F5F5F5F5F5F5F5F5F5F5F5F5F5F5F5F5E2F5F5F5E2F5E2F5F5BEBEBEBEBEBEBEBEBEBEBEBEBEBEBEBEBEBEBEBEBEBEBEBEBEBEBEBEBEBEBEBEBEBEBE9FBE
310
BEBEBEBEBEBEBEBEBEBEBEBEF5F5E2F5F5F5F5F5F5F5F5F5F5F5E2F5F5F5E2E2F5F59FF5F5F5F5F5F5F5F5F5F5F5F5F5F5F5F5F5F5F5E2E2E2F5F5F5F5F5F5F5F5F5F5F5F5F5F5F5F5F5F5F59FF5F5F5F5F5F5F5F5F5F5F5F5F5F5F5F5F5F5F5F5F5F5F5F5F5F5F5F5F5F5F5F5F5F5F5F5F5F5F5F5F5F5F5F5F5F5F5F5F5F5
310
F5F5F5F5F5F5F5E2F5F5F5E2F5E2F5F5F5BEBEBEBEBEBEBEBEBEBEBEBEBEBEBEBEBEBEBEBEBEBEBEBEBEBEBEBEBEBEBEBEBEBE9FBEBEBEBEBEBEBEBEBEBEBEF5F5F5E2F5F5F5F5F5F5F5F5F5F5F5F5E2F5F5F5E2E2F5F59FF5F5F5F5F5F5F5F5F5F5F5F5F5F5F5F5F5F5F5E2E2E2F5F5F5F5F5F5F5F5F5F5F5F5F5F5F5F5F5
310
F5F59FF5F5F5F5F5F5F5F5F5F5F5F5F5F5F5F5F5F5F5F5F5F5F5F5F5F5F5F5F5F5F5F5F5F5F5F5F5F5F5F5F5F5F5F5F5F5F5F5F5F5F5F5F5F5F5F5F5E2F5F5F5E2F5E2F5F5F5F5F5BEF5BEBEF5BEBEF5BEBEBEBEF5BEBEF5BEBEF5BEBEBEBEF5BEBEF5BEBEF5BEBE9FBEF5BEBEF5BEBEF5BEBEF5F5F5F5E2F5F5F5F5F5F5F5
310
F5F5F5F5E2F5F5F5F5E2E2F5F59FF5F5F5F5F5F5F5F5F5F5F5F5F5F5F5F5F5F5F5E2E2E2F5F5F5F5F5F5F5F5F5F5F5F5F5F5F5F5F5F5F59FF5F5F5F5F5F5F5F5F5F5F5F5F5F5F5F5F5F5F5F5F5F5F5F5F5F5F5F5F5F5F5F5F5F5F5F5F5F5F5F5F5F5F5F5F5F5F5F5F5F5F5F5F5F5F5F5F5E2F5F5F5E2F5F5E2F5F5F5F5F5F5
310
F5F5F5F5F5F5F5F5F5F5F5F5F5F5F5F5F5F5F5F5F5F5F5F5F5F5F5F5F5F59FF5F5F5F5F5F5F5F5F5F5F5F5F5F5E2F5F5F5F5F5F5F5F5F5F5F5E2F5F5F5F5E2E2F5F59FF5F5F5F5F5F5F5F5F5F5F5F5F5F5F5F5F5F5F5E2E2E2F5F5F5F5F5F5F5F5F5F5F5F5F5F5F5F5F5F5F59FF5F5F5F5F5F5F5F5F5F5F5F5F5F5F5F5F5F5
310
F5F5F5F5F5F5F5F5F5F5F5F5F5F5F5F5F5F5F5F5F5F5F5F5F5F5F5F5F5F5F5F5F5F5F5F5F5F5F5E2F5F5F5E2F5F5E2E2E2E2E2E2F5F5F5F5F5F5F5F5F5F5F5F5F5F5F5F5F5F5F5F5F5F5F5F5F5F5F5F5F5F5F59FF5F5F5F5F5F5F5F5F5F5F5F5F5F5E2F5F5F5F5F5F5F5F5F5F5F5E2F5F5F5F5E2E2F5F59FF5F5F5F5F5F5F5
310
F5F5F5F5F5F5F5F5F5F5F5F5E2E2E2F5F5F5F5F5F5F5F5F5F5F5F5F5F5F5F5F5F5F59FF5F5F5F5F5F5F5F5F5F5F5F5F5F5F5F5F5F5F5F5F5F5F5F5F5F5F5F5F5F5F5F5F5F5F5F5F5F5F5F5F5F5F5F5F5F5F5F5F5F5F5F5F5F5F5F5F5E2F5F5F5F5E2F5F5F5F5F5F5F5E2E2E2E2E2E2E2E2E2E2E2E2F5F5F5F5F5F5F5F5F5F5
310
F5F5F5F5F5F5F5F5F59FF5F5F5F5F5F5F5F5F5F5F5F5F5E2F5F5F5F5F5F5F5F5F5F5F5E2F5F5F5F5F5E2E2F5F59FF5F5F5F5F5F5F5F5F5F5F5F5F5F5F5F5F5F5F5E2E2E2F5E2F5F5F5F5F5F5F5F5F5F5F5F5F5F5F5F5F59FF5F5F5F5F5F5F5F5F5F5F5F5F5F5F5F5F5F5F5F5F5F5F5F5F5F5F5F5F5F5F5F5F5F5F5F5F5F5F5
310
F5F5F5F5F5F5F5F5F5F5F5F5F5F5F5F5F5F5E2F5F5F5F5E2F5F5F5F5F5F5F5F5F5F5F5F5F5F5F5F5F5F5F5E2E2E2E2E2E2E2E2E2E2E2E2E2E2F5F5F5F5F59FF5F5F5F5F5F5E2E2E2E2E2E2E2F5F5F5F5F5F5F5F5F5F5F5E2F5F5F5F5F5F5E2E2F5F59FF5F5F5F5F5F5F5F5F5F5F5F5F5F5F5F5F5E2F5E2E2E2F5E2F5F5F5F5
310
F5F5F5F5F5F5F5F5F5F5F5F5F59FF5F5F5F5F5F5F5F5F5F5F5F5F5F5F5F5F5F5F5F5F5F5F5F5F5F5F5F5F5F5F5F5F5F5F5F5F5F5F5F5F5F5F5F5F5F5F5F5F5F5F5F5F5F5F5F5F5E2F5F5F5F5F5E2E2E2E2E2E2E2E2E2E2F5F5F5F5F5F5F5F5F5F5F5F5F5F5F5F5F5F5F5F5F5F5F5E2E2E2E2E29FE2E2E2E2E2E2F5F5F5E2E2
310
E2E2E2E2E2E2E2E2E2F5F5F5E2F5F5F5F5F5F5F5E2E2F5F59FF5F5F5F5F5F5F5F5F5F5F5F5F5F5F5F5F5E2F5E2E2E2F5E2F5F5F5F5F5F5F5F5F5F5F5F5F5F5F5F5F59FF5F5F5F5F5F5F5F5F5F5F5F5F5F5F5F5F5F5F5F5F5F5F5F5F5F5F5F5F5F5F5F5F5F5F5F5F5F5F5F5F5F5F5F5F5F5F5F5F5F5F5F5F5F5F5F5F5E2F5F5
310
F5F5F5F5F5F5F5E2E2E2E2E2E2E2E2E2E2E2E2E2E2E2E2E2E2E2E2E2E2E2E2E2E2E2E2E2E2E2E2E2E29FE2E2E2E2E2E2E2E2E2F5F5F5F5F5F5F5F5F5F5F5F5E2E2F5F5F5F5F5F5F5F5E2E2F5F59FF5F5F5F5F5F5F5F5F5F5F5F5F5F5F5F5F5E2F5E2E2E2F5E2F5F5F5F5F5F5F5F5F5F5F5F5F5F5F5F5F59FF5F5F5F5F5F5F5
310
F5F5F5F5F5F5F5F5F5F5F5F5F5F5F5F5F5F5F5F5F5F5F5F5F5F5F5F5F5F5F5F5F5F5F5F5F5F5F5F5F5F5F5F5F5F5F5F5F5F5E2F5F5F5F5F5F5F5F5F5F5F5F5F5F5F5F5F5F5F5E2E2E2E2E2E2E2E2E2E2E2E2E2E2F5F5F5F5F5F5F5F5F5F59FF5F5F5F5F5F5F5F5F5F5F5F5F5F5F5E2E2E2E2E2E2F5F5F5F5F5F5F5F5F5F5E2
310
E2F5F59FF5F5F5F5F5F5F5F5F5F5F5F5F5F5F5F5F5E2F5E2E2E2F5E2F5F5F5F5F5F5F5F5F5F5F5F5F5F5F5F5F59FF5F5F5F5F5F5F5F5F5F5F5F5F5F5F5F5F5F5F5F5F5F5F5F5F5F5F5F5F5F5F5F5F5F5F5F5F5F5F5F5F5F5F5F5F5F5F5F5F5F5F5F5F5F5F5F5F5E2F5F5F5F5F5F5F5F5F5F5F5F5F5F5F5F5F5F5F5F5F5F5F5
310
F5F5F5F5F5F5F5F5F5F5E2E2E2E2E2E2E2E2E2E29FE2E2E2E2E2E2E2E2E2E2E2E2E2E2E2F5F5F5F5F5F5F5F5F5F5F5F5F5F5F5F5E2E2F5F59FF5F5F5F5F5F5F5F5F5F5F5F5F5F5F5F5F5E2F5E2E2E2F5E2F5F5F5F5F5F5F5F5F5F5F5F5F5F5F5F5F59FF5F5F5F5F5F5F5F5F5F5F5F5F5F5F5F5F5F5F5F5F5F5F5F5F5F5F5F5
310
F5F5F5F5F5F5F5F5F5F5F5F5F5F5F5F5F5F5F5F5F5F5F5F5F5F5F5F5F5E2F5F5F5F5F5F5F5F5F5F5F5F5F5F5F5F5F5F5F5F5F5F5F5F5F5F5F5F5F5F5F5F5F5F5F5F5F5F5F5F5F5F5F59FF5F5F5F5F5F5F5F5F5F5F5F5F5F5F5F5F5F5F5F5F5F5F5F5F5F5F5F5F5F5F5E2E2F5F59FF5F5F5F5F5F5F5F5F5F5F5F5F5F5F5F5F5
310
E2F5E2E2E2F5E2F5F5F5F5F5F5F5F5F5F5F5F5F5F5F5F5F59FF5F5F5F5F5F5F5F5F5F5F5F5F5F5F5F5F5F5F5F5F5F5F5F5F5F5F5F5F5F5F5F5F5F5F5F5F5F5F5F5F5F5F5F5F5F5F5F5F5F5F5F5F5F5F5F5F5E2F5F5F5F5F5F5F5F5F5F5F5F5F5F5F5F5F5F5F5F5F5F5F5F5F5F5F5F5F5F5F5F5F5F5F5F5F5F5F5F5F5F5F59F
310
F5F5F5F5F5F5F5F5F5F5F5F5F5F5F5F5F5F5F5F5F5F5F5F5F5F5F5F5F5F5F5E2E2F5F59FF5F5F5F5F5F5F5F5F5F5F5F5F5F5F5F5F5E2F5E2E2E2F5E2F5F5F5F5F5F5F5F5F5F5F5F5F5F5F5F5F59FF5F5F5F5F5F5F5F5F5F5F5F5F5F5F5F5F5F5F5F5F5F5F5F5F5F5F5F5F5F5F5F5F5F5F5F5F5F5F5F5F5F5F5F5F5F5F5F5F5
310
F5F5F5F5F5F5F5F5E2E2E2E2E2E2E2E2E2E2E2E2E2E2E2E2E2E2E2E2E2E2E2E2E2E2E2E2E2E2E2E2E2E2E2E2E2E2E2E2E2E2E2E29FE2E2E2E2E2E2E2E2E2E2E2E2E2E2E2E2E2E2E2E2E2E2E2E2E2E2E2E2E2E2E2E2E2F5F59FF5F5F5F5F5F5F5F5F5F5F5F5F5F5F5F5F5E2F5E2E2E2F5E2F5F5F5F5F5F5F5F5F5F5F5F5F5F5
310
F5F5F59FF5F5F5F5F5F5F5F5F5F5F5F5F5F5F5F5F5F5F5F5F5F5F5F5F5F5F5F5F5F5F5F5F5F5F5F5F5F5F5F5F5F5F5F5F5F5F5F5F5F5F5F5F5F5F5F5F5E2E2E2E2E2E2E2E2E2E2E2E2E2E2E2E2E2E2E2E2E2E2E2E2E2E2E2E2E2E2E2E2E2E2E2E2E2E2E2E2E2E2E2E2E2E2E2E2E2E2E2E2E2E2E2E2E2E2E2E2E2E2E2E2E2E2
310
E2E2E2E2E2E2E2E2E2E2E2E2F5F59FF5F5F5F5F5F5F5F5F5F5F5F5F5F5F5F5F5E2F5E2E2E2F5E2F5F5F5F5F5F5F5F5F5F5F5F5F5F5F5F5F59FF5F5F5F5F5F5F5F5F5F5F5F5F5F5F5F5F5F5F5F5F5F5F5F5F5F5F5F5F5F5F5F5F5F5F5F5F5F5F5F5F5F5F5F5F5F5F5F5F5F5F5F5F5F5F5F5F5F5F5F5F5F5F5F5F5F5F5F5F5F5
310
F5F5F5F5F5F5F5F5F5F5F5F5F5F5F5F5F5F5F5F5F5F5F5F5F5F5F5F5F5F5F59FF5F5F5F5F5F5F5F5F5F5F5F5F5F5F5F5F5F5F5F5F5F5F5F5F5F5F5F5F5F5F5F5F5F5F59FF5F5F5F5F5F5F5F5F5F5F5F5F5F5F5F5F5E2F5E2E2E2F5E2F5F5F5F5F5F5F5F5F5F5F5F5F5F5F5F5F59FF5F5F5F5F5F5F5F5F5F5F5F5F5F5F5F5F5
310
F5F5F5F5F5F5F5F5F5F5F5F5F5F5F5F5F5F5F5F5F5F5F5F5F5F5F5F5F5F5F5F5F5F5F5F5F5F5F5F5F5F5F5F5F5F5F5F5F5F5F5F5F5F5F5F5F5F5F5F5F5F5F5F5F5F5F5F5F5F5F5F5F5F5F5F5F5F5F5F5F5F5F5F59FF5F5F5F5F5F5F5F5F5F5F5F5F5F5F5F5F5F5F5F5F5F5F5F5F5F5F5F5F5F5F5F5F5F5F59FF5F5F5F5F5F5
310
F5F5F5F5F5F5F5F5F5F5F5E2F5E2E2E2F5E2F5F5F5F5F5F5F5F5F5F5F5F5F5F5F5F5F59FF5F5F5F5F5F5F5F5F5F5F5F5F5F5F5F5F5F5F5F5F5F5F5F5F5F5F5F5F5F5F5F5F5F5F5F5F5F5F5F5F5F5F5F5F5F5F5F5F5F5F5F5F5F5F5F5F5F5F5F5F5F5F5F5F5F5F5F5F5F5F5F5F5F5F5F5F5F5F5F5F5F5F5F5F5F5F5F5F5F5F5
310
F5F5F5F5F5F5F5F5F5F5F5F5F5F5F5F5F5F5F5F5F5F5F5F5F5F5F5F5F5F5F5F5F5F5F5F5F5F5F5F5F5F5F5F5F5F59FF5F5F5F5F5F5F5F5F5F5F5F5F5F5F5F5F5E2F5E2E2E2F5E2F5F5F5F5F5F5F5F5F5F5F5F5F5F5F5F5F59FF5F5F5F5F5F5F5F5F5F5F5F5F5F5F5F5F5F5F5F5F5F5F5F5F5F5F5F5F5F5F5F5F5F5F5F5F5F5
310
F5F5F5F5F5F5F5F5F5F5F5F5F5F5F5F5F5F5F5F5F5F5F5F5F5F5F5F5F5F5F5F5F5F5F5F5F5F5F5F5F5F5F5F5F5F5F5F5F5F5F5F5F5F5F5F5F5F5F5F5F5F5F5F5F5F5F5F5F5F5F5F5F5F5F5F5F5F5F5F5F5F5F5F5F5F5F5F5F5F5F5F5F5F5F5F5F5F5F59FF5F5F5F5F5F5F5F5F5F5F5F5F5F5F5F5F5E2F5E2E2E2F5E2F5F5F5
310
F5F5F5F5F5F5F5F5F5F5F5F5F5F59FF5F5F5F5F5F5F5F5F5F5F5F5F5F5F5F5F5F5F5F5F5F5F5F5F5F5F5F5F5F5F5F5F5F5F5F5F5F5F5F5F5F5F5F5F5F5F5F5F5F5F5F5F5F5F5F5F5F5F5F5F5F5F5F5F5F5F5F5F5F5F5F5F5F5F5F5F5F5F5F5F5F5F5F5F5F5F5F5F5F5F5F5F5F5F5F5F5F5F5F5F5F5F5F5F5F5F5F5F5F5F5F5
310
F5F5F5F5F5F5F5F5F5F5F5F5F5F5F5F5F5F5F5F5F5F5F5F5F59FF5F5F5F5F5F5F5F5F5F5F5F5F5F5F5F5F5E2F5E2E2E2F5E2F5F5F5F5F5F5F5F5F5F5F5F5F5F5F5F5F59FF5F5F5F5F5F5F5F5F5F5F5F5F5F5F5F5F5F5F5F5F5F5F5F5F5F5F5F5F5F5F5F5F5F5F5F5F5F5F5F5F5F5F5F5F5F5F5F5F5F5F5F5F5F5F5F5F5F5F5
310
F5F5F5F5F5F5F5F5F5F5F5F5F5F5F5F5F5F5F5F5F5F5F5F5F5F5F5F5F5F5F5F5F5F5F5F5F5F5F5F5F5F5F5F5F5F5F5F5F5F5F5F5F5F5F5F5F5F5F5F5F5F5F5F5F5F5F5F5F5F5F5F5F5F5F5F5F5F59FF5F5F5F5F5F5F5F5F5F5F5F5F5F5F5F5F5E2F5E2E2E2F5E2F5F5F5F5F5F5F5F5F5F5F5F5F5F5F5F5F59FF5F5F5F5F5F5
310
F5F5F5F5F5F5F5F5F5F5F5F5F5F5F5F5F5F5F5F5F5F5F5F5F5F5F5F5F5F5F5F5F5F5F5F5F5F5F5F5F5F5F5F5F5F5F5F5F5F5F5F5F5F5F5F5F5F5F5F5F5F5F5F5F5F5F5F5F5F5F5F5F5F5F5F5F5F5F5F5F5F5F5F5F5F5F5F5F5F5F5F5F5F5F5F5F5F5F5F5F5F5F5F5F5F5F5F5F5F5F5F5F5F5F5F5F5F5F5F5F5F5F5F5F5F5F5
310
F5F5F5F59FF5F5F5F5F5F5F5F5F5F5F5F5F5F5F5F5F5E2F5E2E2E2F5E2F5F5F5F5F5F5F5F5F5F5F5F5F5F5F5F5F59FF5F5F5F5F5F5F5F5F5F5F5F5F5F5F5F5F5F5F5F5F5F5F5F5F5F5F5F5F5F5F5F5F5F5F5F5F5F5F5F5F5F5F5F5F5F5F5F5F5F5F5F5F5F5F5F5F5F5F5F5F5F5F5F5F5F5F5F5F5F5F5F5F5F5F5F5F5F5F5F5
310
F5F5F5F5F5F5F5F5F5F5F5F5F5F5F5F5F5F5F5F5F5F5F5F5F5F5F5F5F5F5F5F5F5F5F5F5F5F5F5F5F5F5F5F5F5F5F5F5F5F5F5F5F5F5F5F5F59FF5F5F5F5F5F5F5F5F5F5F5F5F5F5F5F5F5E2F5E2E2E2F5F5F5F5F5F5F5F5F5F5F5F5F5F5F5F5F5F5F59FF5F5F5F5F5F5F5F5F5F5F5F5F5F5F5F5F5F5F5F5F5F5F5F5F5F5F5
310
F5F5F5F5F5F5F5F5F5F5F5F5F5F5F5F5F5F5F5F5F5F5F5F5F5F5F5F5F5F5F5F5F5F5F5F5F5F5F5F5F5F5F5F5F5F5F5F5F5F5F5F5F5F5F5F5F5F5F5F5F5F5F5F5F5F5F5F5F5F5F5F5F5F5F5F5F5F5F5F5F5F5F5F5F5F5F5F5F5F5F5F5F5F5F5F5F5F5F5F5F5F5F5F5F5F5F5F5F5F59FF5F5F5F5F5F5F5F5F5F5F5F5F5F5F5F5
310
F5F5F5E2E2E2F5F5F5F5F5F5F5F5F5F5F5F5F5F5F5F5F5F5F59FF5F5F5F5F5F5F5F5F5F5F5F5F5F5F5F5F5F5F5F5F5F5F5F5F5F5F5F5F5F5F5F5F5F5F5F5F5F5F5F5F5F5F5F5F5F5F5F5F5F5F5F5F5F5F5F5F5F5F5F5F5F5F5F5F5F5F5F5F5F5F5F5F5F5F5F5F5F5F5F5F5F5F5F5F5F5F5F5F5F5F5F5F5F5F5F5F5F5F5F5F5
310
F5F5F5F5F5F5F5F5F5F5F5F5F5F5F5F5F5F5F5F5F5F5F5F5F5F5F5F5F5F5F5F5F5F5F5F59FF5F5F5F5F5F5F5F5F5F5F5F5F5F5F5F5F5F5F5E2E2E2F5F5F5F5F5F5F5F5F5F5F5F5F5F5F5F5F5F5F59FF5F5F5F5F5F5F5F5F5F5F5F5F5F5F5F5F5F5F5F5F5F5F5F5F5F5F5F5F5F5F5F5F5F5F5F5F5F5F5F5F5F5F5F5F5F5F5F5
310
F5F5F5F5F5F5F5F5F5F5F5F5F5F5F5F5F5F5F5F5F5F5F5F5F5F5F5F5F5F5F5F5F5F5F5F5F5F5F5F5F5F5F5F5F5F5F5F5F5F5F5F5F5F5F5F5F5F5F5F5F5F5F5F5F5F5F5F5F5F5F5F5F5F5F5F5F5F5F5F5F5F5F5F5F5F5F5F5F59FF5F5F5F5F5F5F5F5F5F5F5F5F5F5F5F5F5F5F5E2E2E2F5F5F5F5F5F5F5F5F5F5F5F5F5F5F5
310
F5F5F5F59FF5F5F5F5F5F5F5F5F5F5F5F5F5F5F5F5F5F5F5F5F5F5F5F5F5F5F5F5F5F5F5F5F5F5F5F5F5F5F5F5F5F5F5F5F5F5F5F5F5F5F5F5F5F5F5F5F5F5F5F5F5F5F5F5F5F5F5F5F5F5F5F5F5F5F5F5F5F5F5F5F5F5F5F5F5F5F5F5F5F5F5F5F5F5F5F5F5F5F5F5F5F5F5F5F5F5F5F5F5F5F5F5F5F5F5F5F5F5F5F5F5F5
310
F5F5F5F5F5F5F5F5F5F5F5F5F5F5F59FF5F5F5F5F5F5F5F5F5F5F5F5F5F5F5F5F5F5F5E2E2E2F5F5F5F5F5F5F5F5F5F5F5F5F5F5F5F5F5F5F59F9F9F9F9F9F9F9F9F9F9F9F9F9F9F9F9F9F9F9F9F9F9F9F9F9F9F9F9F9F9F9F9F9F9F9F9F9F9F9F9F9F9F9F9F9F9F9F9F9F9F9F9F9F9F9F9F9F9F9F9F9F9F9F9F9F9F9F9F9F
310
9F9F9F9F9F9F9F9F9F9F9F9F9F9F9F9F9F9F9F9F9F9F9F9F9F9F9F9F9F9F9F9F9F9F9F9F9F9F9F9F9F9F9F9F9F9F9F9F9F9F9F9F9F9F9F9F9F9F9F9F9F9F9F9F9F9F9F9F9FF5F5F5F5F5F5F5F5F5F5F5F5F5F5F5F5F5F5F5E2E2E2F5F5F5F5F5F5F5F5F5F5F5F5F5F5F5F5F5F5F5F5F5F5F5F5F5F5F5F5F5F5F5F5F5F5F5F5
310
F5F5F5F5F5F5F5F5F5F5F5F5F5F5F5F5F5F5F5F5F5F5F5F5F5F5F5F5F5F5F5F5F5F5F5F5F5F5F5F5F5F5F5F5F5F5F5F5F5F5F5F5F5F5F5F5F5F5F5F5F5F5F5F5F5F5F5F5F5F5F5F5F5F5F5F5F5F5F5F5F5F5F5F5F5F5F5F5F5F5F5F5F5F5F5F5F5F5F5F5F5F5F5F5F5F5F5F5F5F5F5F5F5F5F5F5F5F5F5F5F5F5F5F5F5F5F5
310
F5F5F5F5F5F5F5F5F5F5F5F5F5F5E2E2E2F5F5F5F5F5F5F5F5F5F5F5F5F5F5F5F5F5F5F5F5F5F5F5F5F5F5F5F5F5F5F5F5F5F5F5F5F5F5F5F5F5F5F5F5F5F5F5F5F5F5F5F5F5F5F5F5F5F5F5F5F5F5F5F5F5F5F5F5F5F5F5F5F5F5F5F5F5F5F5F5F5F5F5F5F5F5F5F5F5F5F5F5F5F5F5F5F5F5F5F5F5F5F5F5F5F5F5F5F5F5
310
F5F5F5F5F5F5F5F5F5F5F5F5F5F5F5F5F5F5F5F5F5F5F5F5F5F5F5F5F5F5F5F5F5F5F5F5F5F5F5F5F5F5F5F5F5F5F5F5F5F5F5F5F5F5F5F5F5F5F5F5F5F5F5F5F5F5F5E2E2E2F5F5F5F5F5F5F5F5F5F5F5F5F5F5F5F5F5F5F5F5F5F5F5F5F5F5F5F5F5F5F5F5F5F5F5F5F5F5F5F5F5F5F5F5F5F5F5F5F5F5F5F5F5F5F5F5F5
310
F5F5F5F5F5F5F5F5F5F5F5F5F5F5F5F5F5F5F5F5F5F5F5F5F5F5F5F5F5F5F5F5F5F5F5F5F5F5F5F5F5F5F5F5F5F5F5F5F5F5F5F5F5F5F5F5F5F5F5F5F5F5F5F5F5F5F5F5F5F5F5F5E2E2E2E2E2E2E2E2E2E2E2E2E2E2E2E2E2E2E2E2E2E2E2E2E2E2E2E2E2F5F5F5F5F5F5F5F5F5F5F5F5F5F5F5F5F5F5F5E2E2E2F5F5F5F5
310
F5F5F5F5F5F5F5F5F5F5F5F5F5F5F5F5F5F5F5F5F5F5F5F5F5F5F5F5F5F5F5F5F5F5F5F5F5F5F5F5F5F5F5F5F5F5F5F5F5F5F5F5F5F5F5F5F5F5F5F5F5F5F5F5F5F5F5F5F5F5F5F5F5F5F5F5F5F5F5F5F5F5F5F5F5F5F5F5F5F5F5F5F5F5F5F5F5F5F5F5F5F5F5F5F5F5F5F5F5F5F5F5F5F5F5F5F5F5F5F5F5F5F5F5F5E2E2
310
E2E2E2E2E2E2E2E2E2E2E2E2E2E2E2E2E2E2E2E2E2E2E2E2E2E2E2F5F5F5F5F5F5F5F5F5F5F5F5F5F5F5F5F5F5F5E2E2E2F5F5F5F5F5F5F5F5F5F5F5F5F5F5F5F5F5F5F5F5F5F5F5F5F5F5F5F5F5F5F5F5F5F5F5F5F5F5F5F5F5F5F5F5F5F5F5F5F5F5F5F5F5F5F5F5F5F5F5F5F5F5F5F5F5F5F5F5F5F5F5F5F5F5F5F5F5F5
310
F5F5F5F5F5F5F5F5F5F5F5F5F5F5F5F5F5F5F5F5F5F5F5F5F5F5F5F5F5F5F5F5F5F5F5F5F5F5F5F5F5F5F5F5F5F5F5F5F5F5F5E2E2E2E2E2E2E2E2E2E2E2E2E2E2E2E2E2E2E2E2E2E2E2E2E2E2E2E2E2F5F5F5F5F5F5F5F5F5F5F5F5F5F5F5F5F5F5F5E2E2E2F5E2F5F5F5F5F5F5F5F5F5F5F5F5F5F5F5F5F5F5F5F5F5F5F5
310
F5F5F5F5F5F5F5F5F5F5F5F5F5F5F5F5F5F5F5F5F5F5F5F5F5F5F5F5F5F5F5F5F5F5F5F5F5F5F5F5F5F5F5F5F5F5F5F5F5F5F5F5F5F5F5F5F5F5F5F5F5F5F5F5F5F5F5F5F5F5F5F5F5F5F5F5F5F5F5F5F5F5F5F5F5F5F5F5F5F5F5F5F5F5F5F5F5F5F5F5F5F5F5F5E2E2E2E2E2E2E2E2E2E2E2E2E2E2E2E2E2E2E2E2E2E2E2
310
E2E2E2E2E2E2F5F5F5F5F5F5F5F5F5F5F5F5F5F5F5F5F5E2F5E2E2E2F5E2F5F5F5F5F5F5F5F5F5F5F5F5F5F5F5F5F5F5F5F5F5F5F5F5F5F5F5F5F5F5F5F5F5F5F5F5F5F5F5F5F5F5F5F5F5F5F5F5F5F5F5F5F5F5F5F5F5F5F5F5F5F5F5F5F5F5F5F5F5F5F5F5F5F5F5F5F5F5F5F5F5F5F5F5F5F5F5F5F5F5F5F5F5F5F5F5F5
310
F5F5F5F5F5F5F5F5F5F5F5F5F5F5F5F5F5F5F5F5F5F5F5F5F5F5F5F5F5F5F5F5F5F5F5F5F5F5F5F5F5F5F5F5F5F5F5F5F5F5F5F5F5F5F5F5F5F5F5F5F5F5F5F5F5F5F5F5F5F5F5F5F5F5F5F5E2F5E2E2E2F5E2F5F5F5F5F5F5F5F5F5F5F5F5F5F5F5F5F5F5F5F5F5F5F5F5F5F5F5F5F5F5F5F5F5F5F5F5F5F5F5F5F5F5F5F5
310
F5F5F5F5F5F5F5F5F5F5F5F5F5F5F5F5F5F5F5F5F5F5F5F5F5F5F5F5F5F5F5F5F5F5F5F5F5F5F5F5F5F5F5F5F5F5F5F5F5F5F5F5F5F5F5F5F5F5F5F5F5F5F5F5F5F5F5F5F5F5F5F5F5F5F5F5F5F5F5F5F5F5F5F5F5F5F5F5F5F5F5F5F5F5F5F5F5F5F5F5F5F5F5F5F5F5F5F5F5F5F5F5F5F5F5F5F5F5F5F5F5F5F5F5F5F5F5
310
F5F5E2F5E2E2E2F5E2F5F5F5F5F5F5F5F5F5F5F5F5F5F5F5F5F5F5F5F5F5F5F5F5F5F5F5F5F5F5F5F5F5F5F5F5F5F5F5F5F5F5F5F5F5F5F5F5F5F5F5F5F5F5F5F5F5F5F5F5F5F5F5F5F5F5F5F5F5F5F5F5F5F5F5F5F5F5F5F5F5F5F5F5F5F5F5F5F5F5F5F5F5F5F5F5F5F5F5F5F5F5F5F5F5F5F5F5F5F5F5F5F5F5F5F5F5F5
310
F5F5F5F5F5F5F5F5F5F5F5F5F5F5F5F5F5F5F5F5F5F5F5F5F5F5F5F5F5F5F5F5F5F5F5F5F5F5F5F5F5F5F5F5F5F5F5F5F5F5F5F5F5F5F5E2F5E2E2E2F5E2F5F5F5F5F5F5F5F5F5F5F5F5F5F5F5F5F5F5F5F5F5F5F5F5F5F5F5F5F5F5F5F5F5F5F5F5F5F5F5F5F5F5F5F5F5F5F5F5F5F5F5F5F5F5F5F5F5F5F5F5F5F5F5F5F5
310
F5F5F5F5F5F5F5F5F5F5F5F5F5F5F5F5F5F5F5F5F5F5F5F5F5F5F5F5F5F5F5F5F5F5F5F5F5F5F5F5F5F5F5F5F5F5F5F5F5F5F5F5F5F5F5F5F5F5F5F5F5F5F5F5F5F5F5F5F5F5F5F5F5F5F5F5F5F5F5F5F5F5F5F5F5F5F5F5F5F5F5F5F5F5F5F5F5F5F5F5F5F5F5F5F5F5F5F5E2F5E2E2E2F5E2F5F5F5F5F5F5F5F5F5F5F5F5
310
F5F5F5F5F5F5F5F5F5F5F5F5F5F5F5F5F5F5F5F5F5F5F5F5F5F5F5F5F5F5F5F5F5F5F5F5F5F5F5F5F5F5F5F5F5F5F5F5F5F5F5F5F5F5F5F5F5F5F5F5F5F5F5F5F5F5F5F5F5F5F5F5F5F5F5F5F5F5F5F5F5F5F5F5F5F5F5F5F5F5F5F5F5F5F5F5F5F5F5F5F5F5F5F5F5F5F5F5F5F5F5F5F5F5F5F5F5F5F5F5F5F5F5F5F5F5F5
310
F5F5F5F5F5F5F5F5F5F5F5F5F5F5F5F5F5F5F5F5F5F5F5F5F5F5F5F5F5F5F5F5F5F5E2F5E2E2E2F5E2F5F5F5F5F5F5F5F5F5F5F5F5F5F5F5F5F5F5F5F5F5F5F5F5F5F5F5F5F5F5F5F5F5F5F5F5F5F5F5F5F5F5F5F5F5F5F5F5F5F5F5F5F5F5F5F5F5F5F5F5F5F5F5F5F5F5F5F5F5F5F5F5F5F5F5F5F5F5F5F5F5F5F5F5F5F5
310
F5F5F5F5F5F5F5F5F5F5F5F5F5F5F5F5F5F5F5F5F5F5F5F5F5F5F5F5F5F5F5F5F5F5F5F5F5F5F5F5F5F5F5F5F5F5F5F5F5F5F5F5F5F5F5F5F5F5F5F5F5F5F5F5F5F5F5F5F5F5F5F5F5F5F5F5F5F5F5F5F5F5F5F5F5F5F5E2F5E2E2E2F5E2F5F5F5F5F5F5F5F5F5F5F5F5F5F5F5F5F5F5F5F5F5F5F5F5F5F5F5F5F5F5F5F5F5
310
F5F5F5F5F5F5F5F5F5F5F5F5F5F5F5F5F5F5F5F5F5F5F5F5F5F5F5F5F5F5F5F5F5F5F5F5F5F5F5F5F5F5F5F5F5F5F5F5F5F5F5F5F5F5F5F5F5F5F5F5F5F5F5F5F5F5F5F5F5F5F5F5F5F5F5F5F5F5F5F5F5F5F5F5F5F5F5F5F5F5F5F5F5F5F5F5F5F5F5F5F5F5F5F5F5F5F5F5F5F5F5F5F5F5F5F5F5F5F5F5F5F5F5F5F5F5F5
310
F5F5F5F5F5F5F5F5F5F5F5F5F5E2F5E2E2E2F5E2E2E2E2E2E2E2E2F5F5F5F5F5F5F5F5F5E2E2E2E2E2E2E2E2E2E2E2E2E2E2E2E2F5F5F5F5F5F5F5F5F5E2E2E2E2E2E2E2E2E2E2E2E2E2E2E2E2F5F5F5F5F5F5F5F5F5E2E2E2E2E2E2E2E2E2E2E2E2E2E2E2E2F5F5F5F5F5F5F5F5F5E2E2E2E2E2E2E2E2E2E2E2E2E2E2E2E2
310
F5F5F5F5F5F5F5F5F5E2E2E2E2E2E2E2E2E2E2E2E2E2E2E2E2F5F5F5F5F5F5F5F5F5E2E2E2E2E2E2E2E2E2E2E2E2E2E2E2E2F5F5F5F5F5F5F5F5F5E2E2E2E2E2E2E2E2F5E2EFE2F5F5F5F5F5F5F5F5F5F5F5F5F5F5F5F5F5F5F5F5F5F5F5F5F5F5F5F5F5F5F5F5F5F5F5F5F5F5F5F5F5F5F5F5F5F5F5F5F5F5F5F5F5F5F5F5
310
F5F5F5F5F5F5F5F5F5F5F5F5F5F5F5F5F5F5F5F5F5F5F5F5F5F5F5F5F5F5F5F5F5F5F5F5F5F5F5F5F5F5F5F5F5F5F5F5F5F5F5F5F5F5F5F5F5F5F5F5F5F5F5F5F5F5F5F5F5F5F5F5F5F5F5F5F5F5F5F5F5F5F5F5F5F5F5F5F5F5F5F5F5F5F5F5F5F5F5F5F5F5F5F5F5F5F5F5F5F5F5F5F5F5F5F5F5F5F5F5F5E2EFE2E2E2E2
310
E2E2E2E2E2E2E2E2E2E2E2E2E2E2E2E2E2E2E2E2E2E2E2E2E2E2E2E2E2E2E2E2E2E2E2E2E2E2E2E2E2E2E2E2E2E2E2E2E2E2E2E2E2E2E2E2E2E2E2E2E2E2E2E2E2E2E2E2E2E2E2E2E2E2E2E2E2E2E2E2E2E2E2E2E2E2E2E2E2E2E2E2E2E2E2E2E2E2E2E2E2E2E2E2E2E2E2E2E2E2E2E2E2E2E2E2E2E2E2E2E2E2E2E2E2E2E2
310
E2E2E2E2E2E2E2E2E2E2E2E2E2E2E2E2E2E2E2E2E2E2E2E2E2E2E2E2E2E2E2E2E2E2E2E2E2E2E2E2E2E2E2E2E2E2E2E2EF
  0
XRECORD
  5
BF29
102
{ACAD_REACTORS
330
BF28
102
}
330
BF28
100
AcDbXrecord
280
     1
102
SHADEPLOT
 70
     0
102
SHADEPLOTRESLEVEL
 70
     2
102
SHADEPLOTCUSTOMDPI
 70
   300
  0
XRECORD
  5
BF2D
102
{ACAD_REACTORS
330
BF2C
102
}
330
BF2C
100
AcDbXrecord
280
     1
102
MATERIAL
148
0.0
149
0.0
149
0.0
 93
        0
 94
       63
282
     0
 72
     1
 77
     1
171
     1
175
     1
179
     1
273
     0
  0
XRECORD
  5
BF2B
102
{ACAD_REACTORS
330
BF2A
102
}
330
BF2A
100
AcDbXrecord
280
     1
102
MATERIAL
148
0.0
149
0.0
149
0.0
 93
        0
 94
       63
282
     0
 72
     1
 77
     1
171
     1
175
     1
179
     1
273
     0
  0
XRECORD
  5
BF2F
102
{ACAD_REACTORS
330
BF2E
102
}
330
BF2E
100
AcDbXrecord
280
     1
102
MATERIAL
148
0.0
149
0.0
149
0.0
 93
        0
 94
       63
282
     0
 72
     1
 77
     1
171
     1
175
     1
179
     1
273
     0
  0
XRECORD
  5
BF31
102
{ACAD_REACTORS
330
BF30
102
}
330
BF30
100
AcDbXrecord
280
     1
102
ACAD_ROUNDTRIP_PRE2007_TABLESTYLE
 90
      512
 91
        0
  1

 92
      512
 93
        0
  2

 94
      512
 95
        0
  3

  0
ENDSEC
  0
EOF
