  0
SECTION
  2
HEADER
  9
$ACADVER
  1
AC1015
  9
$ACADMAINTVER
 70
    20
  9
$DWGCODEPAGE
  3
ANSI_1252
  9
$INSBASE
 10
0.0
 20
0.0
 30
0.0
  9
$EXTMIN
 10
19.93181359560894
 20
21.72502481766042
 30
0.0
  9
$EXTMAX
 10
135.9092793942689
 20
91.91697411018052
 30
0.0
  9
$LIMMIN
 10
0.0
 20
0.0
  9
$LIMMAX
 10
420.0
 20
297.0
  9
$ORTHOMODE
 70
     0
  9
$REGENMODE
 70
     1
  9
$FILLMODE
 70
     1
  9
$QTEXTMODE
 70
     0
  9
$MIRRTEXT
 70
     0
  9
$LTSCALE
 40
1.0
  9
$ATTMODE
 70
     1
  9
$TEXTSIZE
 40
2.5
  9
$TRACEWID
 40
1.0
  9
$TEXTSTYLE
  7
Standard
  9
$CLAYER
  8
0\U+7EC6
  9
$CELTYPE
  6
ByLayer
  9
$CECOLOR
 62
     7
  9
$CELTSCALE
 40
1.0
  9
$DISPSILH
 70
     0
  9
$DIMSCALE
 40
1.0
  9
$DIMASZ
 40
2.5
  9
$DIMEXO
 40
0.625
  9
$DIMDLI
 40
3.75
  9
$DIMRND
 40
0.0
  9
$DIMDLE
 40
0.0
  9
$DIMEXE
 40
1.25
  9
$DIMTP
 40
0.0
  9
$DIMTM
 40
0.0
  9
$DIMTXT
 40
2.5
  9
$DIMCEN
 40
2.5
  9
$DIMTSZ
 40
0.0
  9
$DIMTOL
 70
     0
  9
$DIMLIM
 70
     0
  9
$DIMTIH
 70
     0
  9
$DIMTOH
 70
     0
  9
$DIMSE1
 70
     0
  9
$DIMSE2
 70
     0
  9
$DIMTAD
 70
     1
  9
$DIMZIN
 70
     8
  9
$DIMBLK
  1

  9
$DIMASO
 70
     1
  9
$DIMSHO
 70
     1
  9
$DIMPOST
  1

  9
$DIMAPOST
  1

  9
$DIMALT
 70
     0
  9
$DIMALTD
 70
     3
  9
$DIMALTF
 40
0.03937007874016
  9
$DIMLFAC
 40
1.0
  9
$DIMTOFL
 70
     1
  9
$DIMTVP
 40
0.0
  9
$DIMTIX
 70
     0
  9
$DIMSOXD
 70
     0
  9
$DIMSAH
 70
     0
  9
$DIMBLK1
  1

  9
$DIMBLK2
  1

  9
$DIMSTYLE
  2
ISO-25
  9
$DIMCLRD
 70
     0
  9
$DIMCLRE
 70
     0
  9
$DIMCLRT
 70
     0
  9
$DIMTFAC
 40
1.0
  9
$DIMGAP
 40
0.625
  9
$DIMJUST
 70
     0
  9
$DIMSD1
 70
     0
  9
$DIMSD2
 70
     0
  9
$DIMTOLJ
 70
     0
  9
$DIMTZIN
 70
     8
  9
$DIMALTZ
 70
     0
  9
$DIMALTTZ
 70
     0
  9
$DIMUPT
 70
     0
  9
$DIMDEC
 70
     2
  9
$DIMTDEC
 70
     2
  9
$DIMALTU
 70
     2
  9
$DIMALTTD
 70
     3
  9
$DIMTXSTY
  7
Standard
  9
$DIMAUNIT
 70
     0
  9
$DIMADEC
 70
     0
  9
$DIMALTRND
 40
0.0
  9
$DIMAZIN
 70
     0
  9
$DIMDSEP
 70
    44
  9
$DIMATFIT
 70
     3
  9
$DIMFRAC
 70
     0
  9
$DIMLDRBLK
  1

  9
$DIMLUNIT
 70
     2
  9
$DIMLWD
 70
    -2
  9
$DIMLWE
 70
    -2
  9
$DIMTMOVE
 70
     0
  9
$LUNITS
 70
     2
  9
$LUPREC
 70
     4
  9
$SKETCHINC
 40
1.0
  9
$FILLETRAD
 40
4.0
  9
$AUNITS
 70
     0
  9
$AUPREC
 70
     0
  9
$MENU
  1
.
  9
$ELEVATION
 40
0.0
  9
$PELEVATION
 40
0.0
  9
$THICKNESS
 40
0.0
  9
$LIMCHECK
 70
     0
  9
$CHAMFERA
 40
0.0
  9
$CHAMFERB
 40
0.0
  9
$CHAMFERC
 40
0.0
  9
$CHAMFERD
 40
0.0
  9
$SKPOLY
 70
     0
  9
$TDCREATE
 40
2453791.070907477
  9
$TDUCREATE
 40
2453791.362574143
  9
$TDUPDATE
 40
2454922.452726366
  9
$TDUUPDATE
 40
2454922.744393033
  9
$TDINDWG
 40
0.1351508218
  9
$TDUSRTIMER
 40
0.1351508218
  9
$USRTIMER
 70
     1
  9
$ANGBASE
 50
0.0
  9
$ANGDIR
 70
     0
  9
$PDMODE
 70
     0
  9
$PDSIZE
 40
0.0
  9
$PLINEWID
 40
0.0
  9
$SPLFRAME
 70
     0
  9
$SPLINETYPE
 70
     6
  9
$SPLINESEGS
 70
     8
  9
$HANDSEED
  5
F216
  9
$SURFTAB1
 70
     6
  9
$SURFTAB2
 70
     6
  9
$SURFTYPE
 70
     6
  9
$SURFU
 70
     6
  9
$SURFV
 70
     6
  9
$UCSBASE
  2

  9
$UCSNAME
  2

  9
$UCSORG
 10
0.0
 20
0.0
 30
0.0
  9
$UCSXDIR
 10
1.0
 20
0.0
 30
0.0
  9
$UCSYDIR
 10
0.0
 20
1.0
 30
0.0
  9
$UCSORTHOREF
  2

  9
$UCSORTHOVIEW
 70
     0
  9
$UCSORGTOP
 10
0.0
 20
0.0
 30
0.0
  9
$UCSORGBOTTOM
 10
0.0
 20
0.0
 30
0.0
  9
$UCSORGLEFT
 10
0.0
 20
0.0
 30
0.0
  9
$UCSORGRIGHT
 10
0.0
 20
0.0
 30
0.0
  9
$UCSORGFRONT
 10
0.0
 20
0.0
 30
0.0
  9
$UCSORGBACK
 10
0.0
 20
0.0
 30
0.0
  9
$PUCSBASE
  2

  9
$PUCSNAME
  2

  9
$PUCSORG
 10
0.0
 20
0.0
 30
0.0
  9
$PUCSXDIR
 10
1.0
 20
0.0
 30
0.0
  9
$PUCSYDIR
 10
0.0
 20
1.0
 30
0.0
  9
$PUCSORTHOREF
  2

  9
$PUCSORTHOVIEW
 70
     0
  9
$PUCSORGTOP
 10
0.0
 20
0.0
 30
0.0
  9
$PUCSORGBOTTOM
 10
0.0
 20
0.0
 30
0.0
  9
$PUCSORGLEFT
 10
0.0
 20
0.0
 30
0.0
  9
$PUCSORGRIGHT
 10
0.0
 20
0.0
 30
0.0
  9
$PUCSORGFRONT
 10
0.0
 20
0.0
 30
0.0
  9
$PUCSORGBACK
 10
0.0
 20
0.0
 30
0.0
  9
$USERI1
 70
     0
  9
$USERI2
 70
     0
  9
$USERI3
 70
     0
  9
$USERI4
 70
     0
  9
$USERI5
 70
     0
  9
$USERR1
 40
0.0
  9
$USERR2
 40
0.0
  9
$USERR3
 40
0.0
  9
$USERR4
 40
0.0
  9
$USERR5
 40
0.0
  9
$WORLDVIEW
 70
     1
  9
$SHADEDGE
 70
     3
  9
$SHADEDIF
 70
    70
  9
$TILEMODE
 70
     0
  9
$MAXACTVP
 70
    64
  9
$PINSBASE
 10
0.0
 20
0.0
 30
0.0
  9
$PLIMCHECK
 70
     0
  9
$PEXTMIN
 10
0.5935832316461074
 20
0.4999974936603167
 30
0.0
  9
$PEXTMAX
 10
10.10293457298485
 20
7.991628212528459
 30
0.0
  9
$PLIMMIN
 10
-0.1249995194082185
 20
-0.1249999981226884
  9
$PLIMMAX
 10
10.87500024029589
 20
8.37499976158142
  9
$UNITMODE
 70
     0
  9
$VISRETAIN
 70
     1
  9
$PLINEGEN
 70
     0
  9
$PSLTSCALE
 70
     1
  9
$TREEDEPTH
 70
  3020
  9
$CMLSTYLE
  2
Standard
  9
$CMLJUST
 70
     0
  9
$CMLSCALE
 40
20.0
  9
$PROXYGRAPHICS
 70
     1
  9
$MEASUREMENT
 70
     1
  9
$CELWEIGHT
370
    -1
  9
$ENDCAPS
280
     0
  9
$JOINSTYLE
280
     0
  9
$LWDISPLAY
290
     0
  9
$INSUNITS
 70
     4
  9
$HYPERLINKBASE
  1

  9
$STYLESHEET
  1
monochrome.ctb
  9
$XEDIT
290
     1
  9
$CEPSNTYPE
380
     0
  9
$PSTYLEMODE
290
     1
  9
$FINGERPRINTGUID
  2
{FDEAD578-A652-11D2-9A35-0060089B3A3F}
  9
$VERSIONGUID
  2
{C54890C5-0477-4C89-9AE2-3CD12FD84004}
  9
$EXTNAMES
290
     1
  9
$PSVPSCALE
 40
0.0
  9
$OLESTARTUP
290
     0
  0
ENDSEC
  0
SECTION
  2
CLASSES
  0
CLASS
  1
ACDBDICTIONARYWDFLT
  2
AcDbDictionaryWithDefault
  3
ObjectDBX Classes
 90
        0
280
     0
281
     0
  0
CLASS
  1
ACDBPLACEHOLDER
  2
AcDbPlaceHolder
  3
ObjectDBX Classes
 90
        0
280
     0
281
     0
  0
CLASS
  1
LAYOUT
  2
AcDbLayout
  3
ObjectDBX Classes
 90
        0
280
     0
281
     0
  0
CLASS
  1
DICTIONARYVAR
  2
AcDbDictionaryVar
  3
ObjectDBX Classes
 90
        0
280
     0
281
     0
  0
CLASS
  1
DIMASSOC
  2
AcDbDimAssoc
  3
"AcDbDimAssoc|Product Desc:     AcDim ARX App For Dimension|Company:          Autodesk, Inc.|WEB Address:      www.autodesk.com"
 90
    32768
280
     0
281
     0
  0
CLASS
  1
MATERIAL
  2
AcDbMaterial
  3
ObjectDBX Classes
 90
     1024
280
     0
281
     0
  0
CLASS
  1
VISUALSTYLE
  2
AcDbVisualStyle
  3
ObjectDBX Classes
 90
     4095
280
     0
281
     0
  0
CLASS
  1
TABLESTYLE
  2
AcDbTableStyle
  3
ObjectDBX Classes
 90
     4095
280
     0
281
     0
  0
ENDSEC
  0
SECTION
  2
TABLES
  0
TABLE
  2
VPORT
  5
8
102
{ACAD_XDICTIONARY
360
F12B
102
}
330
0
100
AcDbSymbolTable
 70
     1
  0
VPORT
  5
F0E6
330
8
100
AcDbSymbolTableRecord
100
AcDbViewportTableRecord
  2
*Active
 70
     0
 10
0.0
 20
0.0
 11
1.0
 21
1.0
 12
77.91687094131123
 22
56.8204656726686
 13
0.0
 23
0.0
 14
10.0
 24
10.0
 15
10.0
 25
10.0
 16
0.0
 26
0.0
 36
1.0
 17
0.0
 27
0.0
 37
0.0
 40
70.79203184993741
 41
1.646976090014064
 42
50.0
 43
0.0
 44
0.0
 50
0.0
 51
0.0
 71
     0
 72
  1000
 73
     1
 74
     3
 75
     0
 76
     0
 77
     0
 78
     0
281
     0
 65
     1
110
0.0
120
0.0
130
0.0
111
1.0
121
0.0
131
0.0
112
0.0
122
1.0
132
0.0
 79
     0
146
0.0
  0
ENDTAB
  0
TABLE
  2
LTYPE
  5
5
330
0
100
AcDbSymbolTable
 70
     3
  0
LTYPE
  5
14
330
5
100
AcDbSymbolTableRecord
100
AcDbLinetypeTableRecord
  2
ByBlock
 70
     0
  3

 72
    65
 73
     0
 40
0.0
  0
LTYPE
  5
15
330
5
100
AcDbSymbolTableRecord
100
AcDbLinetypeTableRecord
  2
ByLayer
 70
     0
  3

 72
    65
 73
     0
 40
0.0
  0
LTYPE
  5
16
330
5
100
AcDbSymbolTableRecord
100
AcDbLinetypeTableRecord
  2
Continuous
 70
     0
  3
Solid line
 72
    65
 73
     0
 40
0.0
  0
LTYPE
  5
16D
330
5
100
AcDbSymbolTableRecord
100
AcDbLinetypeTableRecord
  2
CENTER
 70
     0
  3
--- - --- - --- - --- - --- - 
 72
    65
 73
     4
 40
6.0
 49
3.0
 74
     0
 49
-1.0
 74
     0
 49
1.0
 74
     0
 49
-1.0
 74
     0
  0
LTYPE
  5
22DC
330
5
100
AcDbSymbolTableRecord
100
AcDbLinetypeTableRecord
  2
CENTERX2
 70
     0
  3
Center (2x) ________  __  ________  __  _____
 72
    65
 73
     4
 40
101.6
 49
63.5
 74
     0
 49
-12.7
 74
     0
 49
12.7
 74
     0
 49
-12.7
 74
     0
  0
ENDTAB
  0
TABLE
  2
LAYER
  5
2
102
{ACAD_XDICTIONARY
360
B188
102
}
330
0
100
AcDbSymbolTable
 70
     4
  0
LAYER
  5
10
330
2
100
AcDbSymbolTableRecord
100
AcDbLayerTableRecord
  2
0
 70
     0
 62
     7
  6
Continuous
370
    -3
390
F
  0
LAYER
  5
170
330
2
100
AcDbSymbolTableRecord
100
AcDbLayerTableRecord
  2
0\U+7EC6
 70
     0
 62
    60
  6
Continuous
370
    -3
390
F
1001
AcadStringInfo
1000
MIFCodePage
1070
     5
  0
LAYER
  5
171
330
2
100
AcDbSymbolTableRecord
100
AcDbLayerTableRecord
  2
\U+56F3
 70
     0
 62
     7
  6
Continuous
370
    -3
390
F
1001
AcadStringInfo
1000
MIFCodePage
1070
     5
  0
LAYER
  5
173
330
2
100
AcDbSymbolTableRecord
100
AcDbLayerTableRecord
  2
\U+9762\U+76C6
 70
     0
 62
     1
  6
Continuous
370
    -3
390
F
1001
AcadStringInfo
1000
MIFCodePage
1070
     5
  0
ENDTAB
  0
TABLE
  2
STYLE
  5
3
330
0
100
AcDbSymbolTable
 70
     1
  0
STYLE
  5
11
330
3
100
AcDbSymbolTableRecord
100
AcDbTextStyleTableRecord
  2
Standard
 70
     0
 40
0.0
 41
1.0
 50
0.0
 71
     0
 42
2.5
  3
txt
  4

  0
ENDTAB
  0
TABLE
  2
VIEW
  5
6
330
0
100
AcDbSymbolTable
 70
     4
  0
ENDTAB
  0
TABLE
  2
UCS
  5
7
330
0
100
AcDbSymbolTable
 70
     0
  0
ENDTAB
  0
TABLE
  2
APPID
  5
9
330
0
100
AcDbSymbolTable
 70
     4
  0
APPID
  5
12
330
9
100
AcDbSymbolTableRecord
100
AcDbRegAppTableRecord
  2
ACAD
 70
     0
  0
APPID
  5
F0FE
330
9
100
AcDbSymbolTableRecord
100
AcDbRegAppTableRecord
  2
AcadStringInfo
 70
     0
  0
APPID
  5
F10E
330
9
100
AcDbSymbolTableRecord
100
AcDbRegAppTableRecord
  2
ACAD_PSEXT
 70
     0
  0
APPID
  5
F11A
330
9
100
AcDbSymbolTableRecord
100
AcDbRegAppTableRecord
  2
ACAD_EXEMPT_FROM_CAD_STANDARDS
 70
     0
  0
ENDTAB
  0
TABLE
  2
DIMSTYLE
  5
A
330
0
100
AcDbSymbolTable
 70
     1
100
AcDbDimStyleTable
 71
     1
340
27
  0
DIMSTYLE
105
27
330
A
100
AcDbSymbolTableRecord
100
AcDbDimStyleTableRecord
  2
ISO-25
 70
     0
 41
2.5
 42
0.625
 43
3.75
 44
1.25
 73
     0
 74
     0
 77
     1
 78
     8
140
2.5
141
2.5
143
0.03937007874016
147
0.625
171
     3
172
     1
271
     2
272
     2
274
     3
278
    44
283
     0
284
     8
340
11
  0
ENDTAB
  0
TABLE
  2
BLOCK_RECORD
  5
1
330
0
100
AcDbSymbolTable
 70
     1
  0
BLOCK_RECORD
  5
1F
330
1
100
AcDbSymbolTableRecord
100
AcDbBlockTableRecord
  2
*Model_Space
340
22
  0
BLOCK_RECORD
  5
F106
330
1
100
AcDbSymbolTableRecord
100
AcDbBlockTableRecord
  2
*Paper_Space
340
F107
  0
BLOCK_RECORD
  5
F084
330
1
100
AcDbSymbolTableRecord
100
AcDbBlockTableRecord
  2
A$C63C967E0
340
0
102
{BLKREFS
331
F0E3
102
}
  0
ENDTAB
  0
ENDSEC
  0
SECTION
  2
BLOCKS
  0
BLOCK
  5
20
330
1F
100
AcDbEntity
  8
0
100
AcDbBlockBegin
  2
*Model_Space
 70
     0
 10
0.0
 20
0.0
 30
0.0
  3
*Model_Space
  1

  0
ENDBLK
  5
21
330
1F
100
AcDbEntity
  8
0
100
AcDbBlockEnd
  0
BLOCK
  5
F108
330
F106
100
AcDbEntity
 67
     1
  8
0
100
AcDbBlockBegin
  2
*Paper_Space
 70
     0
 10
0.0
 20
0.0
 30
0.0
  3
*Paper_Space
  1

  0
ENDBLK
  5
F109
330
F106
100
AcDbEntity
 67
     1
  8
0
100
AcDbBlockEnd
  0
BLOCK
  5
F085
330
F084
100
AcDbEntity
  8
0
100
AcDbBlockBegin
  2
A$C63C967E0
 70
     0
 10
0.0
 20
0.0
 30
0.0
  3
A$C63C967E0
  1

  0
LINE
  5
F086
330
F084
100
AcDbEntity
  8
0
  6
CENTERX2
 62
     6
 48
2.0
370
     5
100
AcDbLine
 10
75.82339981193491
 20
11.83362997729307
 30
0.0
 11
-0.0000018214091142
 21
11.9070403071895
 31
0.0
  0
ELLIPSE
  5
F087
330
F084
100
AcDbEntity
  8
0
 62
     0
100
AcDbEllipse
 10
37.1559288794715
 20
11.83362997729307
 30
0.0
 11
-35.0
 21
0.0
 31
0.0
210
0.0
220
0.0
230
1.0
 40
0.2857142857142857
 41
0.0
 42
6.283185307179586
  0
LINE
  5
F088
330
F084
100
AcDbEntity
  8
0
  6
CENTERX2
 62
     6
 48
2.0
370
     5
100
AcDbLine
 10
37.97397631038484
 20
22.84923718801633
 30
0.0
 11
37.97397631038484
 21
0.0000014094466678
 31
0.0
  0
ARC
  5
F089
330
F084
100
AcDbEntity
  8
0
  6
ByBlock
 62
     0
100
AcDbCircle
 10
31.7961714812086
 20
12.07948220087485
 30
0.0
 40
3.924065853200835
100
AcDbArc
 50
112.8802094440705
 51
156.2327987859933
  0
ARC
  5
F08A
330
F084
100
AcDbEntity
  8
0
  6
ByBlock
 62
     0
100
AcDbCircle
 10
33.06474820261292
 20
11.86805274730727
 30
0.0
 40
5.180021612403894
100
AcDbArc
 50
159.7497832534273
 51
180.0
  0
ARC
  5
F08B
330
F084
100
AcDbEntity
  8
0
  6
ByBlock
 62
     0
100
AcDbCircle
 10
33.06474820261292
 20
11.86805274730727
 30
0.0
 40
5.180021612403578
100
AcDbArc
 50
180.0
 51
204.1421994485606
  0
HATCH
  5
F08C
330
F084
100
AcDbEntity
  8
0
 62
     0
100
AcDbHatch
 10
0.0
 20
0.0
 30
0.0
210
0.0
220
0.0
230
1.0
  2
ANSI31
 70
     0
 71
     0
 91
        2
 92
        7
 72
     1
 73
     1
 93
       12
 10
36.97619309361153
 20
11.86805274730704
 42
0.0885889023229442
 10
36.6560160954009
 20
13.66096496793284
 42
0.1914503145481132
 10
34.5904475302882
 20
15.69480160333364
 42
0.0933877341389949
 10
32.4304598418571
 20
16.09664181865719
 42
0.0933877341332411
 10
30.27047215356061
 20
15.69480160334387
 42
0.1914503145521546
 10
28.2049035884088
 20
13.66096496790146
 42
0.0885889023212891
 10
27.88472659020954
 20
11.86805274730704
 42
0.1057315925842807
 10
28.33780657502984
 20
9.74941007937582
 42
0.1880454605811504
 10
30.66859945548094
 20
7.898049874600928
 42
0.0729934230499638
 10
32.43045984191076
 20
7.639463675957131
 42
0.0729934230481066
 10
34.19232022829829
 20
7.898049874587741
 42
0.188045460584072
 10
36.5231131087935
 20
9.749410079376275
 42
0.1057315925842561
 97
        0
 92
       22
 72
     1
 73
     1
 93
        6
 10
34.63425803940118
 20
10.40303816918754
 42
-0.3529094187998684
 10
32.43045984191076
 20
8.62626793554773
 42
-0.3529094187997992
 10
30.22666164442171
 20
10.40303816918913
 42
-0.1072781365871425
 10
30.22666164442035
 20
13.3330673254261
 42
-0.3529094188000263
 10
32.43045984191076
 20
15.10983755906659
 42
-0.352909418799869
 10
34.63425803940118
 20
13.33306732542542
 42
-0.107278136587167
 97
        0
 75
     0
 76
     1
 52
0.0
 41
1.5416625
 77
     0
 78
     1
 53
45.0
 43
-3571.959034985422
 44
-1276.779618944408
 45
-0.1362650010063757
 46
0.1362650010063757
 79
     0
 47
0.0552920880445791
 98
        2
 10
36.13677169044513
 20
11.14454388710192
 10
36.13677169044513
 20
11.14454388710192
  0
HATCH
  5
F08D
330
F084
100
AcDbEntity
  8
0
 62
     0
100
AcDbHatch
 10
0.0
 20
0.0
 30
0.0
210
0.0
220
0.0
230
1.0
  2
ANSI31
 70
     0
 71
     0
 91
        2
 92
        7
 72
     1
 73
     1
 93
       22
 10
22.03517837484196
 20
9.542328758064513
 42
-0.4142135623730951
 10
21.47136649866206
 20
8.978516881884615
 42
0.0
 10
20.34374274630181
 20
8.978516881884615
 42
0.0
 10
20.34374274630181
 20
7.991846098569453
 42
0.0
 10
25.6999555700113
 20
7.991846098569453
 42
0.0
 10
25.6999555700113
 20
8.978516881884615
 42
0.0
 10
24.57233181765196
 20
8.978516881884615
 42
-0.4142135623733314
 10
24.00851994147024
 20
9.542328758065877
 42
0.0
 10
24.00851994147024
 20
14.75758861272948
 42
0.0
 10
24.9162519177221
 20
14.75758861272948
 42
-0.2778692914635337
 10
26.04088354066016
 20
14.08151422981609
 42
-0.1163458644689902
 10
26.26376744619256
 20
13.13662946871159
 42
0.0
 10
26.26376744619256
 20
12.78424704610006
 42
0.0
 10
27.25043822950647
 20
12.78424704609995
 42
0.0
 10
27.25043822950647
 20
15.74425939604487
 42
0.0
 10
18.79326008680664
 20
15.74425939604475
 42
0.0
 10
18.79326008680664
 20
12.78424704610006
 42
0.0
 10
19.77993087012191
 20
12.78424704610017
 42
0.0
 10
19.77993087012191
 20
13.13662946871136
 42
-0.1163458644724423
 10
20.00281477566614
 20
14.08151422984167
 42
-0.2778692913050596
 10
21.12744639787115
 20
14.75758861272948
 42
0.0
 10
22.03517837484196
 20
14.75758861272948
 42
0.0
 97
        0
 92
        7
 72
     1
 73
     1
 93
       22
 10
42.8257413089791
 20
14.75758861272948
 42
0.0
 10
43.7334732848999
 20
14.75758861272948
 42
-0.2778692915249729
 10
44.85810490814947
 20
14.08151422985134
 42
-0.1163458644737675
 10
45.08098881369915
 20
13.13662946871159
 42
0.0
 10
45.08098881369915
 20
12.78424704610006
 42
0.0
 10
46.06765959701442
 20
12.78424704610006
 42
0.0
 10
46.06765959701442
 20
15.74425939604464
 42
0.0
 10
37.61048145431278
 20
15.74425939604487
 42
0.0
 10
37.61048145431232
 20
12.78424704610006
 42
0.0
 10
38.59715223762942
 20
12.78424704610006
 42
0.0
 10
38.59715223762942
 20
13.13662946871227
 42
-0.1163458644617602
 10
38.82003614313317
 20
14.081514229763
 42
-0.2778692913123255
 10
39.944667765325
 20
14.75758861272948
 42
0.0
 10
40.85239974234946
 20
14.75758861272948
 42
0.0
 10
40.85239974234946
 20
9.542328758064513
 42
-0.4142135623730951
 10
40.28858786616956
 20
8.978516881884615
 42
0.0
 10
39.1609641138084
 20
8.978516881884615
 42
0.0
 10
39.1609641138084
 20
7.991846098569453
 42
0.0
 10
44.5171769375197
 20
7.991846098569453
 42
0.0
 10
44.5171769375188
 20
8.978516881884615
 42
0.0
 10
43.38955318515809
 20
8.978516881884615
 42
-0.4142135623731543
 10
42.8257413089791
 20
9.542328758063604
 42
0.0
 97
        0
 75
     0
 76
     1
 52
0.0
 41
1.5416625
 77
     0
 78
     1
 53
45.0
 43
-3571.959034985424
 44
-1276.779618944408
 45
-0.1362650010063757
 46
0.1362650010063757
 79
     0
 47
0.0859211430199762
 98
        2
 10
22.79247127943972
 20
10.52584168097905
 10
41.88109998611889
 20
12.11537856636982
  0
LINE
  5
F08E
330
F084
100
AcDbEntity
  8
0
  6
ByBlock
 62
     0
100
AcDbLine
 10
26.26376744619256
 20
13.13662946871216
 30
0.0
 11
26.26376744619256
 21
12.78424704610006
 31
0.0
  0
LINE
  5
F08F
330
F084
100
AcDbEntity
  8
0
  6
ByBlock
 62
     0
100
AcDbLine
 10
27.25043822950647
 20
12.78424704610006
 30
0.0
 11
26.26376744619256
 21
12.78424704610006
 31
0.0
  0
LINE
  5
F090
330
F084
100
AcDbEntity
  8
0
  6
ByBlock
 62
     0
100
AcDbLine
 10
27.25043822950647
 20
15.74425939604475
 30
0.0
 11
27.25043822950647
 21
12.78424704610006
 31
0.0
  0
LINE
  5
F091
330
F084
100
AcDbEntity
  8
0
  6
ByBlock
 62
     0
100
AcDbLine
 10
25.6999555700113
 20
7.991846098569453
 30
0.0
 11
20.34374274630181
 21
7.991846098569453
 31
0.0
  0
LINE
  5
F092
330
F084
100
AcDbEntity
  8
0
  6
ByBlock
 62
     0
100
AcDbLine
 10
18.79326008680664
 20
12.78424704610006
 30
0.0
 11
18.79326008680664
 21
15.74425939604475
 31
0.0
  0
LINE
  5
F093
330
F084
100
AcDbEntity
  8
0
  6
ByBlock
 62
     0
100
AcDbLine
 10
19.77993087012191
 20
12.78424704610006
 30
0.0
 11
18.79326008680664
 21
12.78424704610006
 31
0.0
  0
LINE
  5
F094
330
F084
100
AcDbEntity
  8
0
  6
ByBlock
 62
     0
100
AcDbLine
 10
19.77993087012191
 20
12.78424704610006
 30
0.0
 11
19.77993087012191
 21
13.13662946871216
 31
0.0
  0
ARC
  5
F095
330
F084
100
AcDbEntity
  8
0
  6
ByBlock
 62
     0
100
AcDbCircle
 10
21.89422540579699
 20
13.13662946871216
 30
0.0
 40
2.114294535675774
100
AcDbArc
 50
153.4548376560565
 51
180.0
  0
ARC
  5
F096
330
F084
100
AcDbEntity
  8
0
  6
ByBlock
 62
     0
100
AcDbCircle
 10
21.12643206133316
 20
13.48584145702204
 30
0.0
 40
1.271747560221124
100
AcDbArc
 50
90.04569867662183
 51
152.0702157965911
  0
LINE
  5
F097
330
F084
100
AcDbEntity
  8
0
  6
ByBlock
 62
     0
100
AcDbLine
 10
21.12541772528903
 20
14.75758861272948
 30
0.0
 11
22.03517837484196
 21
14.75758861272948
 31
0.0
  0
LINE
  5
F098
330
F084
100
AcDbEntity
  8
0
  6
ByBlock
 62
     0
100
AcDbLine
 10
22.03517837484196
 20
9.542328758064513
 30
0.0
 11
22.03517837484196
 21
14.75758861272948
 31
0.0
  0
ARC
  5
F099
330
F084
100
AcDbEntity
  8
0
  6
ByBlock
 62
     0
100
AcDbCircle
 10
21.47136649866206
 20
9.542328758064513
 30
0.0
 40
0.5638118761799546
100
AcDbArc
 50
270.0
 51
0.0
  0
LINE
  5
F09A
330
F084
100
AcDbEntity
  8
0
  6
ByBlock
 62
     0
100
AcDbLine
 10
20.34374274630181
 20
8.978516881884615
 30
0.0
 11
21.47136649866206
 21
8.978516881884615
 31
0.0
  0
LINE
  5
F09B
330
F084
100
AcDbEntity
  8
0
  6
ByBlock
 62
     0
100
AcDbLine
 10
20.34374274630181
 20
7.991846098569453
 30
0.0
 11
20.34374274630181
 21
8.978516881884615
 31
0.0
  0
LINE
  5
F09C
330
F084
100
AcDbEntity
  8
0
  6
ByBlock
 62
     0
100
AcDbLine
 10
24.00851994147024
 20
14.75758861272948
 30
0.0
 11
24.91828059102272
 21
14.75758861272948
 31
0.0
  0
LINE
  5
F09D
330
F084
100
AcDbEntity
  8
0
  6
ByBlock
 62
     0
100
AcDbLine
 10
25.6999555700113
 20
8.978516881884615
 30
0.0
 11
25.6999555700113
 21
7.991846098569453
 31
0.0
  0
LINE
  5
F09E
330
F084
100
AcDbEntity
  8
0
  6
ByBlock
 62
     0
100
AcDbLine
 10
25.6999555700113
 20
8.978516881884615
 30
0.0
 11
24.57233181765196
 21
8.978516881884615
 31
0.0
  0
ARC
  5
F09F
330
F084
100
AcDbEntity
  8
0
  6
ByBlock
 62
     0
100
AcDbCircle
 10
24.57233181765196
 20
9.542328758064513
 30
0.0
 40
0.5638118761812235
100
AcDbArc
 50
180.0
 51
270.0
  0
LINE
  5
F0A0
330
F084
100
AcDbEntity
  8
0
  6
ByBlock
 62
     0
100
AcDbLine
 10
24.00851994147024
 20
9.542328758064513
 30
0.0
 11
24.00851994147024
 21
14.75758861272948
 31
0.0
  0
LINE
  5
F0A1
330
F084
100
AcDbEntity
  8
0
  6
ByBlock
 62
     0
100
AcDbLine
 10
18.79326008680664
 20
15.74425939604475
 30
0.0
 11
27.25043822950647
 21
15.74425939604475
 31
0.0
  0
ARC
  5
F0A2
330
F084
100
AcDbEntity
  8
0
  6
ByBlock
 62
     0
100
AcDbCircle
 10
24.91726625497904
 20
13.48584145702204
 30
0.0
 40
1.271747560221766
100
AcDbArc
 50
27.92978420337938
 51
89.95430132337817
  0
ARC
  5
F0A3
330
F084
100
AcDbEntity
  8
0
  6
ByBlock
 62
     0
100
AcDbCircle
 10
24.14947291051567
 20
13.13662946871216
 30
0.0
 40
2.114294535676348
100
AcDbArc
 50
0.0
 51
26.54516234393184
  0
HATCH
  5
F0A4
330
F084
100
AcDbEntity
  8
0
 62
     0
100
AcDbHatch
 10
0.0
 20
0.0
 30
0.0
210
0.0
220
0.0
230
1.0
  2
ANSI31
 70
     0
 71
     0
 91
        2
 92
        7
 72
     1
 73
     1
 93
       12
 10
55.79341446111858
 20
11.86805274730704
 42
0.0885889023229442
 10
55.47323746290794
 20
13.66096496793284
 42
0.1914503145481132
 10
53.40766889779525
 20
15.69480160333364
 42
0.0933877341389949
 10
51.24768120936415
 20
16.09664181865719
 42
0.0933877341332411
 10
49.08769352106765
 20
15.69480160334387
 42
0.1914503145521546
 10
47.02212495591584
 20
13.66096496790146
 42
0.0885889023212891
 10
46.70194795771658
 20
11.86805274730704
 42
0.1057315925842807
 10
47.15502794253689
 20
9.74941007937582
 42
0.1880454605811504
 10
49.48582082298798
 20
7.898049874600928
 42
0.0729934230499638
 10
51.2476812094178
 20
7.639463675957131
 42
0.0729934230481066
 10
53.00954159580533
 20
7.898049874587741
 42
0.188045460584072
 10
55.34033447630054
 20
9.749410079376275
 42
0.1057315925842561
 97
        0
 92
       22
 72
     1
 73
     1
 93
        6
 10
53.45147940690821
 20
10.40303816918754
 42
-0.3529094187998684
 10
51.2476812094178
 20
8.62626793554773
 42
-0.3529094187997992
 10
49.04388301192875
 20
10.40303816918913
 42
-0.1072781365871425
 10
49.04388301192739
 20
13.3330673254261
 42
-0.3529094188000263
 10
51.2476812094178
 20
15.10983755906659
 42
-0.352909418799869
 10
53.45147940690821
 20
13.33306732542542
 42
-0.107278136587167
 97
        0
 75
     0
 76
     1
 52
0.0
 41
1.5416625
 77
     0
 78
     1
 53
45.0
 43
-3553.141813617916
 44
-1276.779618944408
 45
-0.1362650010063757
 46
0.1362650010063757
 79
     0
 47
0.0552920880445791
 98
        2
 10
54.95399305795217
 20
11.14454388710192
 10
54.95399305795217
 20
11.14454388710192
  0
ARC
  5
F0A5
330
F084
100
AcDbEntity
  8
0
  6
ByBlock
 62
     0
100
AcDbCircle
 10
31.7961714812086
 20
11.86805274730727
 30
0.0
 40
5.180021612402577
100
AcDbArc
 50
0.0
 51
20.25021674657265
  0
ARC
  5
F0A6
330
F084
100
AcDbEntity
  8
0
  6
ByBlock
 62
     0
100
AcDbCircle
 10
33.06474820261292
 20
12.07948220087485
 30
0.0
 40
3.924065853201529
100
AcDbArc
 50
23.76720121400673
 51
67.11979055592947
  0
ARC
  5
F0A7
330
F084
100
AcDbEntity
  8
0
  6
ByBlock
 62
     0
100
AcDbCircle
 10
32.44410470986941
 20
10.16383980287708
 30
0.0
 40
5.932817706694669
100
AcDbArc
 50
68.79077895123417
 51
90.1317744912915
  0
ARC
  5
F0A8
330
F084
100
AcDbEntity
  8
0
  6
ByBlock
 62
     0
100
AcDbCircle
 10
32.4168149739512
 20
10.16383980287708
 30
0.0
 40
5.932817706694298
100
AcDbArc
 50
89.86822550870849
 51
111.2092210487634
  0
ARC
  5
F0A9
330
F084
100
AcDbEntity
  8
0
  6
ByBlock
 62
     0
100
AcDbCircle
 10
31.87748803484647
 20
11.81286553556651
 30
0.0
 40
4.097217745819958
100
AcDbArc
 50
210.2400248829626
 51
252.8393987677325
  0
ARC
  5
F0AA
330
F084
100
AcDbEntity
  8
0
  6
ByBlock
 62
     0
100
AcDbCircle
 10
32.43045984191076
 20
13.77091782941465
 30
0.0
 40
6.131454153457315
100
AcDbArc
 50
253.3007557660083
 51
270.0
  0
ARC
  5
F0AB
330
F084
100
AcDbEntity
  8
0
  6
ByBlock
 62
     0
100
AcDbCircle
 10
32.43045984191076
 20
13.77091782941465
 30
0.0
 40
6.131454153457265
100
AcDbArc
 50
270.0
 51
286.6992442339649
  0
ARC
  5
F0AC
330
F084
100
AcDbEntity
  8
0
  6
ByBlock
 62
     0
100
AcDbCircle
 10
32.9834316489746
 20
11.81286553556651
 30
0.0
 40
4.097217745819771
100
AcDbArc
 50
287.1606012322675
 51
329.7599751170374
  0
ARC
  5
F0AD
330
F084
100
AcDbEntity
  8
0
  6
ByBlock
 62
     0
100
AcDbCircle
 10
31.7961714812086
 20
11.86805274730727
 30
0.0
 40
5.180021612403242
100
AcDbArc
 50
335.8578005514394
 51
0.0
  0
ARC
  5
F0AE
330
F084
100
AcDbEntity
  8
0
  6
ByBlock
 62
     0
100
AcDbCircle
 10
32.43045984191076
 20
10.881381963992
 30
0.0
 40
2.255114028444262
100
AcDbArc
 50
270.0
 51
347.7536671403296
  0
ARC
  5
F0AF
330
F084
100
AcDbEntity
  8
0
  6
ByBlock
 62
     0
100
AcDbCircle
 10
32.43045984191076
 20
10.881381963992
 30
0.0
 40
2.255114028444903
100
AcDbArc
 50
192.2463328596703
 51
270.0
  0
ARC
  5
F0B0
330
F084
100
AcDbEntity
  8
0
  6
ByBlock
 62
     0
100
AcDbCircle
 10
36.97619309361062
 20
11.86805274730727
 30
0.0
 40
6.906695483204177
100
AcDbArc
 50
167.7536671403233
 51
192.246332859683
  0
ARC
  5
F0B1
330
F084
100
AcDbEntity
  8
0
  6
ByBlock
 62
     0
100
AcDbCircle
 10
32.43045984191076
 20
12.85472353062232
 30
0.0
 40
2.255114028444262
100
AcDbArc
 50
90.0
 51
167.7536671403296
  0
ARC
  5
F0B2
330
F084
100
AcDbEntity
  8
0
  6
ByBlock
 62
     0
100
AcDbCircle
 10
32.43045984191076
 20
12.85472353062232
 30
0.0
 40
2.255114028444867
100
AcDbArc
 50
12.24633285967034
 51
90.0
  0
ARC
  5
F0B3
330
F084
100
AcDbEntity
  8
0
  6
ByBlock
 62
     0
100
AcDbCircle
 10
27.88472659020909
 20
11.86805274730727
 30
0.0
 40
6.906695483205052
100
AcDbArc
 50
347.7536671403233
 51
12.2463328596767
  0
ARC
  5
F0B4
330
F084
100
AcDbEntity
  8
0
  6
ByBlock
 62
     0
100
AcDbCircle
 10
51.88196957012087
 20
12.07948220087485
 30
0.0
 40
3.924065853201529
100
AcDbArc
 50
23.76720121400673
 51
67.11979055592947
  0
ARC
  5
F0B5
330
F084
100
AcDbEntity
  8
0
  6
ByBlock
 62
     0
100
AcDbCircle
 10
51.26132607737736
 20
10.16383980287708
 30
0.0
 40
5.932817706694307
100
AcDbArc
 50
68.79077895123652
 51
90.1317744912915
  0
ARC
  5
F0B6
330
F084
100
AcDbEntity
  8
0
  6
ByBlock
 62
     0
100
AcDbCircle
 10
51.23403634145825
 20
10.16383980287708
 30
0.0
 40
5.932817706694299
100
AcDbArc
 50
89.86822550870849
 51
111.2092210487658
  0
ARC
  5
F0B7
330
F084
100
AcDbEntity
  8
0
  6
ByBlock
 62
     0
100
AcDbCircle
 10
50.61339284871519
 20
12.07948220087485
 30
0.0
 40
3.924065853201226
100
AcDbArc
 50
112.880209444097
 51
156.2327987859933
  0
ARC
  5
F0B8
330
F084
100
AcDbEntity
  8
0
  6
ByBlock
 62
     0
100
AcDbCircle
 10
51.88196957012087
 20
11.86805274730727
 30
0.0
 40
5.180021612404082
100
AcDbArc
 50
159.7497832534273
 51
180.0
  0
ARC
  5
F0B9
330
F084
100
AcDbEntity
  8
0
  6
ByBlock
 62
     0
100
AcDbCircle
 10
51.88196957012087
 20
11.86805274730727
 30
0.0
 40
5.180021612403646
100
AcDbArc
 50
180.0
 51
204.1421994485606
  0
ARC
  5
F0BA
330
F084
100
AcDbEntity
  8
0
  6
ByBlock
 62
     0
100
AcDbCircle
 10
50.69470940235442
 20
11.81286553556651
 30
0.0
 40
4.097217745819843
100
AcDbArc
 50
210.2400248829626
 51
252.8393987677325
  0
ARC
  5
F0BB
330
F084
100
AcDbEntity
  8
0
  6
ByBlock
 62
     0
100
AcDbCircle
 10
51.2476812094178
 20
13.77091782941465
 30
0.0
 40
6.131454153457394
100
AcDbArc
 50
253.3007557660083
 51
270.0
  0
ARC
  5
F0BC
330
F084
100
AcDbEntity
  8
0
  6
ByBlock
 62
     0
100
AcDbCircle
 10
51.2476812094178
 20
13.77091782941465
 30
0.0
 40
6.131454153457265
100
AcDbArc
 50
270.0
 51
286.6992442339917
  0
ARC
  5
F0BD
330
F084
100
AcDbEntity
  8
0
  6
ByBlock
 62
     0
100
AcDbCircle
 10
51.8006530164821
 20
11.81286553556651
 30
0.0
 40
4.097217745820146
100
AcDbArc
 50
287.1606012322675
 51
329.7599751170318
  0
ARC
  5
F0BE
330
F084
100
AcDbEntity
  8
0
  6
ByBlock
 62
     0
100
AcDbCircle
 10
50.61339284871519
 20
11.86805274730727
 30
0.0
 40
5.180021612402207
100
AcDbArc
 50
335.8578005514334
 51
0.0
  0
ARC
  5
F0BF
330
F084
100
AcDbEntity
  8
0
  6
ByBlock
 62
     0
100
AcDbCircle
 10
50.61339284871519
 20
11.86805274730727
 30
0.0
 40
5.180021612403646
100
AcDbArc
 50
0.0
 51
20.25021674657265
  0
LINE
  5
F0C0
330
F084
100
AcDbEntity
  8
0
  6
ByBlock
 62
     0
100
AcDbLine
 10
42.8257413089791
 20
14.75758861272948
 30
0.0
 11
43.73550195853158
 21
14.75758861272948
 31
0.0
  0
ARC
  5
F0C1
330
F084
100
AcDbEntity
  8
0
  6
ByBlock
 62
     0
100
AcDbCircle
 10
43.73448762248608
 20
13.48584145702204
 30
0.0
 40
1.271747560222002
100
AcDbArc
 50
27.92978420337938
 51
89.95430132332606
  0
ARC
  5
F0C2
330
F084
100
AcDbEntity
  8
0
  6
ByBlock
 62
     0
100
AcDbCircle
 10
42.96669427802408
 20
13.13662946871216
 30
0.0
 40
2.114294535675213
100
AcDbArc
 50
0.0
 51
26.5451623439435
  0
LINE
  5
F0C3
330
F084
100
AcDbEntity
  8
0
  6
ByBlock
 62
     0
100
AcDbLine
 10
45.08098881369915
 20
13.13662946871216
 30
0.0
 11
45.08098881369915
 21
12.78424704610006
 31
0.0
  0
LINE
  5
F0C4
330
F084
100
AcDbEntity
  8
0
  6
ByBlock
 62
     0
100
AcDbLine
 10
46.06765959701442
 20
12.78424704610006
 30
0.0
 11
45.08098881369915
 21
12.78424704610006
 31
0.0
  0
LINE
  5
F0C5
330
F084
100
AcDbEntity
  8
0
  6
ByBlock
 62
     0
100
AcDbLine
 10
46.06765959701442
 20
15.74425939604475
 30
0.0
 11
46.06765959701442
 21
12.78424704610006
 31
0.0
  0
LINE
  5
F0C6
330
F084
100
AcDbEntity
  8
0
  6
ByBlock
 62
     0
100
AcDbLine
 10
37.61048145431278
 20
15.74425939604475
 30
0.0
 11
46.06765959701442
 21
15.74425939604475
 31
0.0
  0
LINE
  5
F0C7
330
F084
100
AcDbEntity
  8
0
  6
ByBlock
 62
     0
100
AcDbLine
 10
37.61048145431278
 20
12.78424704610006
 30
0.0
 11
37.61048145431278
 21
15.74425939604475
 31
0.0
  0
LINE
  5
F0C8
330
F084
100
AcDbEntity
  8
0
  6
ByBlock
 62
     0
100
AcDbLine
 10
38.59715223762942
 20
12.78424704610006
 30
0.0
 11
37.61048145431278
 21
12.78424704610006
 31
0.0
  0
LINE
  5
F0C9
330
F084
100
AcDbEntity
  8
0
  6
ByBlock
 62
     0
100
AcDbLine
 10
38.59715223762942
 20
12.78424704610006
 30
0.0
 11
38.59715223762942
 21
13.13662946871216
 31
0.0
  0
ARC
  5
F0CA
330
F084
100
AcDbEntity
  8
0
  6
ByBlock
 62
     0
100
AcDbCircle
 10
40.71144677330448
 20
13.13662946871216
 30
0.0
 40
2.114294535675835
100
AcDbArc
 50
153.4548376560565
 51
180.0
  0
ARC
  5
F0CB
330
F084
100
AcDbEntity
  8
0
  6
ByBlock
 62
     0
100
AcDbCircle
 10
39.94365342884203
 20
13.48584145702204
 30
0.0
 40
1.271747560221124
100
AcDbArc
 50
90.04569867664786
 51
152.0702157966206
  0
LINE
  5
F0CC
330
F084
100
AcDbEntity
  8
0
  6
ByBlock
 62
     0
100
AcDbLine
 10
39.94263909279698
 20
14.75758861272948
 30
0.0
 11
40.85239974234946
 21
14.75758861272948
 31
0.0
  0
LINE
  5
F0CD
330
F084
100
AcDbEntity
  8
0
  6
ByBlock
 62
     0
100
AcDbLine
 10
40.85239974234946
 20
9.542328758064513
 30
0.0
 11
40.85239974234946
 21
14.75758861272948
 31
0.0
  0
ARC
  5
F0CE
330
F084
100
AcDbEntity
  8
0
  6
ByBlock
 62
     0
100
AcDbCircle
 10
40.28858786616956
 20
9.542328758064513
 30
0.0
 40
0.5638118761799546
100
AcDbArc
 50
270.0
 51
0.0
  0
LINE
  5
F0CF
330
F084
100
AcDbEntity
  8
0
  6
ByBlock
 62
     0
100
AcDbLine
 10
39.16096411380886
 20
8.978516881884615
 30
0.0
 11
40.28858786616956
 21
8.978516881884615
 31
0.0
  0
LINE
  5
F0D0
330
F084
100
AcDbEntity
  8
0
  6
ByBlock
 62
     0
100
AcDbLine
 10
39.16096411380886
 20
7.991846098569453
 30
0.0
 11
39.16096411380886
 21
8.978516881884615
 31
0.0
  0
LINE
  5
F0D1
330
F084
100
AcDbEntity
  8
0
  6
ByBlock
 62
     0
100
AcDbLine
 10
44.51717693751925
 20
7.991846098569453
 30
0.0
 11
39.16096411380886
 21
7.991846098569453
 31
0.0
  0
LINE
  5
F0D2
330
F084
100
AcDbEntity
  8
0
  6
ByBlock
 62
     0
100
AcDbLine
 10
44.51717693751925
 20
8.978516881884615
 30
0.0
 11
44.51717693751925
 21
7.991846098569453
 31
0.0
  0
LINE
  5
F0D3
330
F084
100
AcDbEntity
  8
0
  6
ByBlock
 62
     0
100
AcDbLine
 10
44.51717693751925
 20
8.978516881884615
 30
0.0
 11
43.38955318515809
 21
8.978516881884615
 31
0.0
  0
ARC
  5
F0D4
330
F084
100
AcDbEntity
  8
0
  6
ByBlock
 62
     0
100
AcDbCircle
 10
43.38955318515809
 20
9.542328758064513
 30
0.0
 40
0.5638118761788866
100
AcDbArc
 50
180.0
 51
270.0
  0
LINE
  5
F0D5
330
F084
100
AcDbEntity
  8
0
  6
ByBlock
 62
     0
100
AcDbLine
 10
42.8257413089791
 20
9.542328758064513
 30
0.0
 11
42.8257413089791
 21
14.75758861272948
 31
0.0
  0
ARC
  5
F0D6
330
F084
100
AcDbEntity
  8
0
  6
ByBlock
 62
     0
100
AcDbCircle
 10
51.2476812094178
 20
12.85472353062232
 30
0.0
 40
2.255114028444801
100
AcDbArc
 50
12.24633285967034
 51
90.0
  0
ARC
  5
F0D7
330
F084
100
AcDbEntity
  8
0
  6
ByBlock
 62
     0
100
AcDbCircle
 10
46.70194795771658
 20
11.86805274730727
 30
0.0
 40
6.906695483205118
100
AcDbArc
 50
347.7536671403233
 51
12.2463328596767
  0
ARC
  5
F0D8
330
F084
100
AcDbEntity
  8
0
  6
ByBlock
 62
     0
100
AcDbCircle
 10
51.2476812094178
 20
10.881381963992
 30
0.0
 40
2.255114028444262
100
AcDbArc
 50
270.0
 51
347.7536671403296
  0
ARC
  5
F0D9
330
F084
100
AcDbEntity
  8
0
  6
ByBlock
 62
     0
100
AcDbCircle
 10
55.79341446111858
 20
11.86805274730727
 30
0.0
 40
6.906695483205218
100
AcDbArc
 50
167.7536671403233
 51
192.2463328596767
  0
ARC
  5
F0DA
330
F084
100
AcDbEntity
  8
0
  6
ByBlock
 62
     0
100
AcDbCircle
 10
51.2476812094178
 20
12.85472353062232
 30
0.0
 40
2.255114028444262
100
AcDbArc
 50
90.0
 51
167.7536671403296
  0
ARC
  5
F0DB
330
F084
100
AcDbEntity
  8
0
  6
ByBlock
 62
     0
100
AcDbCircle
 10
51.2476812094178
 20
10.881381963992
 30
0.0
 40
2.255114028445164
100
AcDbArc
 50
192.2463328596703
 51
270.0
  0
ENDBLK
  5
F0DC
330
F084
100
AcDbEntity
  8
0
100
AcDbBlockEnd
  0
ENDSEC
  0
SECTION
  2
ENTITIES
  0
LINE
  5
429
330
1F
100
AcDbEntity
  8
0
100
AcDbLine
 10
109.0333983119652
 20
28.23487947619908
 30
0.0
 11
107.2331937629224
 21
42.12791600602683
 31
0.0
  0
LINE
  5
42D
330
1F
100
AcDbEntity
  8
0
100
AcDbLine
 10
105.0343415382842
 20
42.91531600602683
 30
0.0
 11
135.2676641995183
 21
42.91531600602683
 31
0.0
  0
LINE
  5
42E
330
1F
100
AcDbEntity
  8
0
100
AcDbLine
 10
135.9092793942689
 20
42.12791600602683
 30
0.0
 11
103.9014693942689
 21
42.12791600602683
 31
0.0
  0
ARC
  5
438
330
1F
100
AcDbEntity
  8
0
100
AcDbCircle
 10
64.08896090823612
 20
56.95473204707703
 30
0.0
 40
39.64559000000001
100
AcDbArc
 50
202.8800108584917
 51
218.349951986881
  0
ARC
  5
439
330
1F
100
AcDbEntity
  8
0
100
AcDbCircle
 10
43.16166265389748
 20
198.0331160060268
 30
0.0
 40
157.48
100
AcDbArc
 50
264.7067192003866
 51
270.0
  0
LINE
  5
43A
330
1F
100
AcDbEntity
  8
0
100
AcDbLine
 10
23.47666265389748
 20
42.12791600602683
 30
0.0
 11
43.16166265389748
 21
42.12791600602683
 31
0.0
  0
LINE
  5
43C
330
1F
100
AcDbEntity
  8
0
100
AcDbLine
 10
24.11827784864792
 20
42.91531600602683
 30
0.0
 11
88.81916745914704
 21
42.91531600602683
 31
0.0
  0
ARC
  5
43E
330
1F
100
AcDbEntity
  8
0
100
AcDbCircle
 10
26.00292838276603
 20
40.88221797121316
 30
0.0
 40
1.69291
100
AcDbArc
 50
22.88001085849175
 51
47.37760001563555
  0
ARC
  5
43F
330
1F
100
AcDbEntity
  8
0
100
AcDbCircle
 10
24.11827784864792
 20
42.32476600602683
 30
0.0
 40
0.59055
100
AcDbArc
 50
90.0
 51
168.6900675259693
  0
LINE
  5
440
330
1F
100
AcDbEntity
  8
0
100
AcDbLine
 10
23.53919593061863
 20
42.44058238963268
 30
0.0
 11
23.47666265389748
 21
42.12791600602683
 31
0.0
  0
LINE
  5
441
330
1F
100
AcDbEntity
  8
0
100
AcDbLine
 10
86.41053617461945
 20
41.91554056244494
 30
0.0
 11
85.61685793849408
 21
28.26427490108852
 31
0.0
  0
LINE
  5
442
330
1F
100
AcDbEntity
  8
0\U+7EC6
  6
CENTER
100
AcDbLine
 10
80.95686265389756
 20
24.51892175201705
 30
0.0
 11
80.95686265389756
 21
44.86957818121289
 31
0.0
  0
LINE
  5
443
330
1F
100
AcDbEntity
  8
0
100
AcDbLine
 10
86.59186391772156
 20
39.94715905645817
 30
0.0
 11
85.89198334057087
 21
28.24827923817703
 31
0.0
  0
LINE
  5
446
330
1F
100
AcDbEntity
  8
0\U+7EC6
  6
CENTER
100
AcDbLine
 10
43.16166265389748
 20
44.3607436674857
 30
0.0
 11
43.16166265389741
 21
26.70525979356782
 31
0.0
  0
LINE
  5
447
330
1F
100
AcDbEntity
  8
0
100
AcDbLine
 10
43.16166265389748
 20
26.98092589951818
 30
0.0
 11
83.31942348346734
 21
26.03709965954957
 31
0.0
  0
LINE
  5
448
330
1F
100
AcDbEntity
  8
0
100
AcDbLine
 10
38.57490855397705
 20
26.81306209096586
 30
0.0
 11
78.72231074492693
 21
25.86947930966466
 31
0.0
  0
LINE
  5
44A
330
1F
100
AcDbEntity
  8
0
 48
10.0
100
AcDbLine
 10
43.24656719632455
 20
26.70326428551706
 30
0.0
 11
43.13677298851539
 21
24.60826600602683
 31
0.0
  0
LINE
  5
44B
330
1F
100
AcDbEntity
  8
0
 48
10.0
100
AcDbLine
 10
42.8713320113694
 20
24.60826600602683
 30
0.0
 11
42.76093964481384
 21
26.71467797035654
 31
0.0
  0
LINE
  5
44C
330
1F
100
AcDbEntity
  8
0
 48
10.0
100
AcDbLine
 10
43.80147761034151
 20
24.79458970174098
 30
0.0
 11
43.90286179451241
 21
26.68783941993386
 31
0.0
  0
LINE
  5
44D
330
1F
100
AcDbEntity
  8
0
 48
10.0
100
AcDbLine
 10
42.20687583163439
 20
24.79481367366866
 30
0.0
 11
42.10545262529623
 21
26.73008385545072
 31
0.0
  0
LINE
  5
44E
330
1F
100
AcDbEntity
  8
0
 48
10.0
100
AcDbLine
 10
43.60490925221118
 20
24.60826600602683
 30
0.0
 11
42.40345605558363
 21
24.60826600602683
 31
0.0
  0
ARC
  5
44F
330
1F
100
AcDbEntity
  8
0
 48
10.0
100
AcDbCircle
 10
43.60490925221118
 20
24.80511600602683
 30
0.0
 40
0.19685
100
AcDbArc
 50
270.0
 51
356.9347187837393
  0
ARC
  5
450
330
1F
100
AcDbEntity
  8
0
 48
10.0
100
AcDbCircle
 10
42.40345605558363
 20
24.80511600602683
 30
0.0
 40
0.19685
100
AcDbArc
 50
182.9999998168976
 51
270.0
  0
ARC
  5
451
330
1F
100
AcDbEntity
  8
0
100
AcDbCircle
 10
23.95099188395971
 20
25.19881600602683
 30
0.0
 40
11.53541
100
AcDbArc
 50
21.71561728324816
 51
38.34995198688094
  0
ARC
  5
452
330
1F
100
AcDbEntity
  8
0
100
AcDbCircle
 10
38.58138394645756
 20
31.02557600602683
 30
0.0
 40
4.21259
100
AcDbArc
 50
201.7156172832482
 51
270.0
  0
LINE
  5
453
330
1F
100
AcDbEntity
  8
0
 48
10.0
100
AcDbLine
 10
76.3358320113694
 20
24.60826600602683
 30
0.0
 11
76.26670997053112
 21
25.92719319604391
 31
0.0
  0
LINE
  5
454
330
1F
100
AcDbEntity
  8
0
 48
10.0
100
AcDbLine
 10
75.67137583163439
 20
24.79481367366866
 30
0.0
 11
75.61122295101366
 21
25.94259908113808
 31
0.0
  0
LINE
  5
455
330
1F
100
AcDbEntity
  8
0
 48
10.0
100
AcDbLine
 10
76.66989841132103
 20
25.91771707431279
 30
0.0
 11
76.60127298851539
 21
24.60826600602683
 31
0.0
  0
LINE
  5
456
330
1F
100
AcDbEntity
  8
0
 48
10.0
100
AcDbLine
 10
77.26597761034151
 20
24.79458970174098
 30
0.0
 11
77.3252965949941
 21
25.90231327712392
 31
0.0
  0
ARC
  5
457
330
1F
100
AcDbEntity
  8
0
 48
10.0
100
AcDbCircle
 10
77.06940925221118
 20
24.80511600602683
 30
0.0
 40
0.19685
100
AcDbArc
 50
270.0
 51
356.9347187837393
  0
LINE
  5
458
330
1F
100
AcDbEntity
  8
0
 48
10.0
100
AcDbLine
 10
77.06940925221118
 20
24.60826600602683
 30
0.0
 11
75.86795605558363
 21
24.60826600602683
 31
0.0
  0
ARC
  5
459
330
1F
100
AcDbEntity
  8
0
 48
10.0
100
AcDbCircle
 10
75.86795605558363
 20
24.80511600602683
 30
0.0
 40
0.19685
100
AcDbArc
 50
182.9999998168976
 51
270.0
  0
ARC
  5
45A
330
1F
100
AcDbEntity
  8
0
 48
10.0
100
AcDbCircle
 10
78.69446840113593
 20
25.23496188463268
 30
0.0
 40
0.6299200078740001
100
AcDbArc
 50
21.17394910999752
 51
88.77639270000653
  0
ARC
  5
45C
330
1F
100
AcDbEntity
  8
0
100
AcDbCircle
 10
83.25864020640549
 20
28.40138058318665
 30
0.0
 40
2.63779
100
AcDbArc
 50
268.653627465901
 51
356.6725957582808
  0
ARC
  5
45D
330
1F
100
AcDbEntity
  8
0
 48
10.0
100
AcDbCircle
 10
78.73663467113395
 20
25.15530328804471
 30
0.0
 40
0.9842500118109999
100
AcDbArc
 50
44.00000000001169
 51
88.77639271001397
  0
ARC
  5
45E
330
1F
100
AcDbEntity
  8
0
 48
10.0
100
AcDbCircle
 10
78.69446840113593
 20
25.23496188463268
 30
0.0
 40
0.6299200078740001
100
AcDbArc
 50
14.56850462001427
 51
21.17394910999752
  0
ARC
  5
45F
330
1F
100
AcDbEntity
  8
0
 48
10.0
100
AcDbCircle
 10
78.45447324726904
 20
24.5973598685007
 30
0.0
 40
1.574800019685
100
AcDbArc
 50
33.13170343002968
 51
33.3230033699733
  0
ARC
  5
460
330
1F
100
AcDbEntity
  8
0
 48
10.0
100
AcDbCircle
 10
78.45447324726904
 20
24.5973598685007
 30
0.0
 40
1.574800019685
100
AcDbArc
 50
33.3230033699733
 51
44.00000000996175
  0
LINE
  5
461
330
1F
100
AcDbEntity
  8
0
 48
10.0
100
AcDbLine
 10
79.58728958399411
 20
25.69130788532471
 30
0.0
 11
79.44464488109506
 21
25.83902079855971
 31
0.0
  0
ARC
  5
462
330
1F
100
AcDbEntity
  8
0
 48
10.0
100
AcDbCircle
 10
79.41844744136412
 20
25.42311939020669
 30
0.0
 40
0.11811
100
AcDbArc
 50
194.5685046200143
 51
270.0
  0
LINE
  5
463
330
1F
100
AcDbEntity
  8
0
 48
10.0
100
AcDbLine
 10
79.77323663729606
 20
25.3050093862697
 30
0.0
 11
79.77323663729606
 21
25.4580910919167
 31
0.0
  0
ARC
  5
464
330
1F
100
AcDbEntity
  8
0
100
AcDbCircle
 10
83.00519467625729
 20
25.34099719170644
 30
0.0
 40
0.7086600000000001
100
AcDbArc
 50
85.2658553073898
 51
136.0000002394044
  0
ARC
  5
465
330
1F
100
AcDbEntity
  8
0
 48
10.0
100
AcDbCircle
 10
83.37331708278995
 20
24.47534560071871
 30
0.0
 40
1.574800019685
100
AcDbArc
 50
141.182813779965
 51
141.8184160400201
  0
LINE
  5
466
330
1F
100
AcDbEntity
  8
0
 48
10.0
100
AcDbLine
 10
82.23843920688102
 20
25.56715479504868
 30
0.0
 11
82.49542733129253
 21
25.83327379038609
 31
0.0
  0
ARC
  5
467
330
1F
100
AcDbEntity
  8
0
 48
10.0
100
AcDbCircle
 10
83.37331708278995
 20
24.47534560071871
 30
0.0
 40
1.574800019685
100
AcDbArc
 50
135.8905436899936
 51
141.182813779965
  0
ARC
  5
468
330
1F
100
AcDbEntity
  8
0
 48
10.0
100
AcDbCircle
 10
82.49527786643097
 20
25.42311939020669
 30
0.0
 40
0.11811
100
AcDbArc
 50
270.0
 51
342.6683146200089
  0
ARC
  5
469
330
1F
100
AcDbEntity
  8
0
 48
10.0
100
AcDbCircle
 10
83.20934447372804
 20
25.20027913510071
 30
0.0
 40
0.6299200078740001
100
AcDbArc
 50
155.4013351399855
 51
162.6683146200089
  0
LINE
  5
46A
330
1F
100
AcDbEntity
  8
0
 48
10.0
100
AcDbLine
 10
82.13543667272904
 20
25.3050093862697
 30
0.0
 11
82.13543667272904
 21
25.44881732699971
 31
0.0
  0
ARC
  5
46B
330
1F
100
AcDbEntity
  8
0
 48
10.0
100
AcDbCircle
 10
83.06621514525076
 20
25.31206966396459
 30
0.0
 40
0.4551942912663807
100
AcDbArc
 50
88.38616255004719
 51
160.7038062513976
  0
LINE
  5
46C
330
1F
100
AcDbEntity
  8
\U+56F3
 48
0.5
100
AcDbLine
 10
79.41844744136412
 20
25.30500939020669
 30
0.0
 11
80.95686265389756
 21
25.30494370598793
 31
0.0
  0
LINE
  5
46D
330
1F
100
AcDbEntity
  8
\U+56F3
 48
0.5
100
AcDbLine
 10
79.57891265389756
 20
25.3050093862697
 30
0.0
 11
80.95686265389756
 21
25.3050093862697
 31
0.0
  0
LINE
  5
46E
330
1F
100
AcDbEntity
  8
\U+56F3
 48
0.5
100
AcDbLine
 10
82.49527786643097
 20
25.30500939020669
 30
0.0
 11
80.95686265389756
 21
25.30494370598793
 31
0.0
  0
LINE
  5
46F
330
1F
100
AcDbEntity
  8
\U+56F3
 48
0.5
100
AcDbLine
 10
82.33481265389755
 20
25.3050093862697
 30
0.0
 11
80.95686265389756
 21
25.3050093862697
 31
0.0
  0
LINE
  5
470
330
1F
100
AcDbEntity
  8
\U+56F3
 48
0.4
100
AcDbLine
 10
82.33481265389755
 20
25.3050093862697
 30
0.0
 11
82.33481265389762
 21
25.30494370598793
 31
0.0
  0
LINE
  5
471
330
1F
100
AcDbEntity
  8
\U+56F3
 48
0.5
100
AcDbLine
 10
82.33481265389748
 20
25.30494370598793
 30
0.0
 11
82.33481265389755
 21
25.3050093862697
 31
0.0
  0
LINE
  5
472
330
1F
100
AcDbEntity
  8
\U+56F3
 48
0.4
100
AcDbLine
 10
79.57891265389756
 20
25.3050093862697
 30
0.0
 11
79.57891265389756
 21
25.30494370598793
 31
0.0
  0
LINE
  5
473
330
1F
100
AcDbEntity
  8
\U+56F3
 48
0.5
100
AcDbLine
 10
79.57891265389749
 20
25.30494370598793
 30
0.0
 11
79.57891265389756
 21
25.3050093862697
 31
0.0
  0
LINE
  5
474
330
1F
100
AcDbEntity
  8
\U+56F3
 48
0.5
100
AcDbLine
 10
79.48048765389756
 20
25.89549370598792
 30
0.0
 11
79.46080265389756
 21
25.88171012059823
 31
0.0
  0
LINE
  5
475
330
1F
100
AcDbEntity
  8
\U+56F3
 48
0.5
100
AcDbLine
 10
79.48048765389756
 20
25.89549370598792
 30
0.0
 11
79.46080265389756
 21
25.88171012059823
 31
0.0
  0
ARC
  5
476
330
1F
100
AcDbEntity
  8
0
100
AcDbCircle
 10
83.25864020640549
 20
28.40138058318665
 30
0.0
 40
2.3622
100
AcDbArc
 50
265.2658553073897
 51
356.6725957582808
  0
LINE
  5
477
330
1F
100
AcDbEntity
  8
0
100
AcDbLine
 10
83.07903480611397
 20
25.76708339902858
 30
0.0
 11
83.19666144980615
 21
25.76431882474595
 31
0.0
  0
ARC
  5
478
330
1F
100
AcDbEntity
  8
0
100
AcDbCircle
 10
43.16166265389748
 20
158.6631160060268
 30
0.0
 40
118.11
100
AcDbArc
 50
270.0
 51
276.8117639710833
  0
ARC
  5
479
330
1F
100
AcDbEntity
  8
0
100
AcDbCircle
 10
63.00742321604319
 20
-7.478283993973172
 30
0.0
 40
49.2125
100
AcDbArc
 50
90.0
 51
96.81176397108332
  0
LINE
  5
47A
330
1F
100
AcDbEntity
  8
0
100
AcDbLine
 10
63.00742321604319
 20
41.73421600602683
 30
0.0
 11
66.29406069928906
 21
41.73421600602683
 31
0.0
  0
ARC
  5
47C
330
1F
100
AcDbEntity
  8
0
100
AcDbCircle
 10
88.2901159403066
 20
41.85232600602683
 30
0.0
 40
0.7874000000000001
100
AcDbArc
 50
24.14773991702379
 51
93.95860077483741
  0
LINE
  5
47D
330
1F
100
AcDbEntity
  8
0
100
AcDbLine
 10
88.23562725983169
 20
42.91531600602683
 30
0.0
 11
88.81916745914704
 21
42.91531600602683
 31
0.0
  0
LINE
  5
481
330
1F
100
AcDbEntity
  8
0
100
AcDbLine
 10
88.23562725983169
 20
42.63972600602683
 30
0.0
 11
88.26603897290103
 21
42.63972600602683
 31
0.0
  0
LINE
  5
482
330
1F
100
AcDbEntity
  8
0
100
AcDbLine
 10
86.68566157669639
 20
41.89954489953348
 30
0.0
 11
86.6607757283568
 21
41.47150830809173
 31
0.0
  0
ARC
  5
483
330
1F
100
AcDbEntity
  8
0
100
AcDbCircle
 10
87.39312689632303
 20
41.85841319490402
 30
0.0
 40
0.9842500000000001
100
AcDbArc
 50
99.85738850431157
 51
176.6725957582807
  0
ARC
  5
484
330
1F
100
AcDbEntity
  8
0
100
AcDbCircle
 10
87.39312689632303
 20
41.85841319490402
 30
0.0
 40
0.7086600000000001
100
AcDbArc
 50
99.85738850431157
 51
176.6725957582807
  0
LINE
  5
485
330
1F
100
AcDbEntity
  8
\U+56F3
 48
0.5
100
AcDbLine
 10
86.29699114226951
 20
39.96256600602683
 30
0.0
 11
86.37940980616077
 21
41.53520779735834
 31
0.0
1001
ACAD
1000
ASC_BOUNDS
1002
{
1070
    19
1002
}
  0
LINE
  5
486
330
1F
100
AcDbEntity
  8
\U+56F3
 48
0.5
100
AcDbLine
 10
86.59186391772156
 20
39.94715905645817
 30
0.0
 11
86.67172161315422
 21
41.47093465857717
 31
0.0
1001
ACAD
1000
ASC_BOUNDS
1002
{
1070
    19
1005
0
1002
}
  0
LINE
  5
488
330
1F
100
AcDbEntity
  8
\U+56F3
 48
0.5
100
AcDbLine
 10
86.35094796924837
 20
40.99212359685012
 30
0.0
 11
86.36866798198505
 21
41.33024158198641
 31
0.0
  0
ARC
  5
48A
330
1F
100
AcDbEntity
  8
0
100
AcDbCircle
 10
88.23562725983169
 20
37.00981600602683
 30
0.0
 40
5.62991
100
AcDbArc
 50
90.0
 51
99.85738850441405
  0
ARC
  5
48B
330
1F
100
AcDbEntity
  8
0
100
AcDbCircle
 10
88.23562725983169
 20
37.00981600602683
 30
0.0
 40
5.905499999999999
100
AcDbArc
 50
90.0
 51
99.85738850441405
  0
ARC
  5
48C
330
1F
100
AcDbEntity
  8
0
100
AcDbCircle
 10
88.81916745914704
 20
42.32476600602683
 30
0.0
 40
0.59055
100
AcDbArc
 50
11.30993247403067
 51
90.0
  0
LINE
  5
48D
330
1F
100
AcDbEntity
  8
0
100
AcDbLine
 10
86.73771311069069
 20
42.12791600602683
 30
0.0
 11
89.46078265389749
 21
42.12791600602683
 31
0.0
  0
LINE
  5
48E
330
1F
100
AcDbEntity
  8
0
100
AcDbLine
 10
89.39824937717634
 20
42.44058238963268
 30
0.0
 11
89.46078265389749
 21
42.12791600602683
 31
0.0
  0
ARC
  5
48F
330
1F
100
AcDbEntity
  8
0
100
AcDbCircle
 10
89.080463174565
 20
42.20665600602683
 30
0.0
 40
0.07874
100
AcDbArc
 50
204.1477399170001
 51
270.0
  0
ARC
  5
490
330
1F
100
AcDbEntity
  8
0
100
AcDbCircle
 10
104.5430845890195
 20
42.32476600602683
 30
0.0
 40
0.59055
100
AcDbArc
 50
90.0
 51
168.6900675259693
  0
LINE
  5
491
330
1F
100
AcDbEntity
  8
0
100
AcDbLine
 10
104.5430845890195
 20
42.91531600602683
 30
0.0
 11
105.0343415382842
 21
42.91531600602683
 31
0.0
  0
LINE
  5
492
330
1F
100
AcDbEntity
  8
0
100
AcDbLine
 10
103.9014693942689
 20
42.12791600602683
 30
0.0
 11
103.9640026709902
 21
42.44058238963268
 31
0.0
  0
LINE
  5
4AA
330
1F
100
AcDbEntity
  8
0
100
AcDbLine
 10
130.7773504765726
 20
28.23487947619908
 30
0.0
 11
132.5775550256154
 21
42.12791600602683
 31
0.0
  0
LINE
  5
4AB
330
1F
100
AcDbEntity
  8
0\U+7EC6
  6
CENTER
100
AcDbLine
 10
119.9053743942689
 20
44.04951120969846
 30
0.0
 11
119.9053743942689
 21
21.72502481766042
 31
0.0
  0
LINE
  5
4AC
330
1F
100
AcDbEntity
  8
0
 48
10.0
100
AcDbLine
 10
129.954631216532
 20
24.79481367366866
 30
0.0
 11
130.0577785854623
 21
26.76298283955641
 31
0.0
  0
LINE
  5
4AD
330
1F
100
AcDbEntity
  8
0
 48
10.0
100
AcDbLine
 10
129.290175036797
 20
24.60826600602683
 30
0.0
 11
129.3773436508848
 21
26.27154234802168
 31
0.0
  0
LINE
  5
4AE
330
1F
100
AcDbEntity
  8
0
 48
10.0
100
AcDbLine
 10
128.9463343932732
 20
26.10422075128683
 30
0.0
 11
129.024734059651
 21
24.60826600602683
 31
0.0
  0
LINE
  5
4AF
330
1F
100
AcDbEntity
  8
0
 48
10.0
100
AcDbLine
 10
128.3600294378249
 20
24.79458970174098
 30
0.0
 11
128.2953657386773
 21
26.0021205527253
 31
0.0
  0
LINE
  5
4B0
330
1F
100
AcDbEntity
  8
0
 48
10.0
100
AcDbLine
 10
109.8561175720058
 20
24.79481367366866
 30
0.0
 11
109.7529702030755
 21
26.76298283955641
 31
0.0
  0
LINE
  5
4B1
330
1F
100
AcDbEntity
  8
0
 48
10.0
100
AcDbLine
 10
111.4507193507129
 20
24.79458970174098
 30
0.0
 11
111.5153830498602
 21
26.0021205527253
 31
0.0
  0
LINE
  5
4B2
330
1F
100
AcDbEntity
  8
0
 48
10.0
100
AcDbLine
 10
110.8644143952648
 20
26.10422075128679
 30
0.0
 11
110.7860147288868
 21
24.60826600602683
 31
0.0
  0
LINE
  5
4B3
330
1F
100
AcDbEntity
  8
0
 48
10.0
100
AcDbLine
 10
110.5205737517408
 20
24.60826600602683
 30
0.0
 11
110.433405137653
 21
26.27154234802168
 31
0.0
  0
LINE
  5
4B6
330
1F
100
AcDbEntity
  8
0
 48
10.0
100
AcDbLine
 10
111.2541509925826
 20
24.60826600602683
 30
0.0
 11
110.0526977959551
 21
24.60826600602683
 31
0.0
  0
ARC
  5
4B7
330
1F
100
AcDbEntity
  8
0
 48
10.0
100
AcDbCircle
 10
110.0526977959551
 20
24.80511600602683
 30
0.0
 40
0.19685
100
AcDbArc
 50
182.9999998168976
 51
270.0
  0
ARC
  5
4B8
330
1F
100
AcDbEntity
  8
0
 48
10.0
100
AcDbCircle
 10
111.2541509925826
 20
24.80511600602683
 30
0.0
 40
0.19685
100
AcDbArc
 50
270.0
 51
356.9347187837393
  0
ARC
  5
4B9
330
1F
100
AcDbEntity
  8
0
 48
10.0
100
AcDbCircle
 10
129.7580509925827
 20
24.80511600602683
 30
0.0
 40
0.19685
100
AcDbArc
 50
270.0
 51
357.0000001831024
  0
ARC
  5
4BA
330
1F
100
AcDbEntity
  8
0
 48
10.0
100
AcDbCircle
 10
128.5565977959552
 20
24.80511600602683
 30
0.0
 40
0.19685
100
AcDbArc
 50
183.0652812162606
 51
270.0
  0
LINE
  5
4BB
330
1F
100
AcDbEntity
  8
0
 48
10.0
100
AcDbLine
 10
128.5565977959552
 20
24.60826600602683
 30
0.0
 11
129.7580509925827
 21
24.60826600602683
 31
0.0
  0
ARC
  5
4BC
330
1F
100
AcDbEntity
  8
0
100
AcDbCircle
 10
119.9053743942689
 20
144.0900368053583
 30
0.0
 40
118.38559
100
AcDbArc
 50
270.0
 51
274.1262062181501
  0
ARC
  5
4BD
330
1F
100
AcDbEntity
  8
0
100
AcDbCircle
 10
119.9053743942689
 20
144.0900368053583
 30
0.0
 40
118.38559
100
AcDbArc
 50
265.8737937818499
 51
270.0
  0
ARC
  5
4BE
330
1F
100
AcDbEntity
  8
0
100
AcDbCircle
 10
111.5712319491094
 20
28.56372188933839
 30
0.0
 40
2.55905
100
AcDbArc
 50
187.3830229755649
 51
265.8737937818499
  0
LINE
  5
4BF
330
1F
100
AcDbEntity
  8
\U+56F3
 48
0.5
100
AcDbLine
 10
121.283324394269
 20
25.32462870598793
 30
0.0
 11
119.9053743942689
 21
25.32462870598793
 31
0.0
  0
ARC
  5
4C0
330
1F
100
AcDbEntity
  8
0
 48
10.0
100
AcDbCircle
 10
121.9861597629271
 20
25.25719936302369
 30
0.0
 40
0.4551942912663807
100
AcDbArc
 50
88.38616255004719
 51
160.7038062513976
  0
ARC
  5
4C1
330
1F
100
AcDbEntity
  8
0
 48
10.0
100
AcDbCircle
 10
121.4437896068023
 20
25.44280438626969
 30
0.0
 40
0.11811
100
AcDbArc
 50
270.0
 51
342.6683146200089
  0
LINE
  5
4C2
330
1F
100
AcDbEntity
  8
0
 48
10.0
100
AcDbLine
 10
120.7912650745504
 20
25.3246943862697
 30
0.0
 11
121.4437896068024
 21
25.3246943862697
 31
0.0
  0
ARC
  5
4C3
330
1F
100
AcDbEntity
  8
0
 48
10.0
100
AcDbCircle
 10
117.6429801415072
 20
25.25464688463272
 30
0.0
 40
0.6299200078740001
100
AcDbArc
 50
14.56850462001427
 51
21.17394910999752
  0
ARC
  5
4C4
330
1F
100
AcDbEntity
  8
0
 48
10.0
100
AcDbCircle
 10
118.3669591817354
 20
25.44280439020673
 30
0.0
 40
0.11811
100
AcDbArc
 50
194.5685046200143
 51
270.0
  0
ARC
  5
4C5
330
1F
100
AcDbEntity
  8
0
 48
10.0
100
AcDbCircle
 10
117.7104662753515
 20
25.1265114267569
 30
0.0
 40
0.6299200078740001
100
AcDbArc
 50
34.37563499321249
 51
77.74483461476954
  0
LINE
  5
4C6
330
1F
100
AcDbEntity
  8
\U+56F3
 48
0.5
100
AcDbLine
 10
118.5274243942691
 20
25.32462870598793
 30
0.0
 11
119.9053743942689
 21
25.32462870598793
 31
0.0
  0
LINE
  5
4C7
330
1F
100
AcDbEntity
  8
\U+56F3
 48
0.5
100
AcDbLine
 10
118.5274243942691
 20
25.3246943862697
 30
0.0
 11
119.0196150745507
 21
25.3246943862697
 31
0.0
  0
LINE
  5
4C8
330
1F
100
AcDbEntity
  8
0
 48
10.0
100
AcDbLine
 10
118.3669591817354
 20
25.3246943862697
 30
0.0
 11
119.0196150745508
 21
25.3246943862697
 31
0.0
  0
ARC
  5
4C9
330
1F
100
AcDbEntity
  8
0
100
AcDbCircle
 10
128.2395168394284
 20
28.56372188933839
 30
0.0
 40
2.55905
100
AcDbArc
 50
274.1262062181501
 51
352.6169770244351
  0
CIRCLE
  5
4CB
330
1F
100
AcDbEntity
  8
0
100
AcDbCircle
 10
119.9053743942689
 20
40.15941600602682
 30
0.0
 40
1.1811
  0
LINE
  5
4CD
330
1F
100
AcDbEntity
  8
0\U+7EC6
100
AcDbLine
 10
119.9053743942689
 20
36.97985851089138
 30
0.0
 11
119.9053743942689
 21
42.20674672716556
 31
0.0
  0
LINE
  5
4CE
330
1F
100
AcDbEntity
  8
0\U+7EC6
  6
CENTER
100
AcDbLine
 10
122.5487250829853
 20
40.16165642878666
 30
0.0
 11
117.2550209960227
 21
40.16165642878666
 31
0.0
  0
ARC
  5
4CF
330
1F
100
AcDbEntity
  8
0
100
AcDbCircle
 10
135.2676641995183
 20
42.32476600602683
 30
0.0
 40
0.59055
100
AcDbArc
 50
11.30993247403067
 51
90.0
  0
LINE
  5
4D0
330
1F
100
AcDbEntity
  8
0
100
AcDbLine
 10
135.9092793942689
 20
42.12791600602683
 30
0.0
 11
135.8467461175476
 21
42.44058238963268
 31
0.0
  0
LINE
  5
4D1
330
1F
100
AcDbEntity
  8
0
100
AcDbLine
 10
135.2676641995183
 20
42.91531600602683
 30
0.0
 11
134.7764072502536
 21
42.91531600602683
 31
0.0
  0
ARC
  5
4D4
330
1F
100
AcDbEntity
  8
0
100
AcDbCircle
 10
33.51601265389748
 20
80.22598511426021
 30
0.0
 40
4.92125
100
AcDbArc
 50
86.66865817869584
 51
142.0946565483665
  0
ARC
  5
4D5
330
1F
100
AcDbEntity
  8
0
100
AcDbCircle
 10
33.12231265389748
 20
82.2604060127659
 30
0.0
 40
4.92125
100
AcDbArc
 50
100.3812628722901
 51
159.9075425828864
  0
ARC
  5
4D6
330
1F
100
AcDbEntity
  8
0
100
AcDbCircle
 10
33.12231265389748
 20
65.6068960127659
 30
0.0
 40
4.92125
100
AcDbArc
 50
200.0924574171136
 51
259.6187371277099
  0
ARC
  5
4D7
330
1F
100
AcDbEntity
  8
0
100
AcDbCircle
 10
33.51601265389748
 20
67.64131691127158
 30
0.0
 40
4.92125
100
AcDbArc
 50
217.9053434516335
 51
273.3313418213041
  0
LINE
  5
4D8
330
1F
100
AcDbEntity
  8
0
100
AcDbLine
 10
24.26406265389748
 20
89.93755601276589
 30
0.0
 11
88.67338265389742
 21
89.93755601276589
 31
0.0
  0
LINE
  5
4D9
330
1F
100
AcDbEntity
  8
0
100
AcDbLine
 10
24.26406265389748
 20
57.9297460127659
 30
0.0
 11
88.67338265389749
 21
57.9297460127659
 31
0.0
  0
LINE
  5
4DA
330
1F
100
AcDbEntity
  8
0\U+7EC6
  6
CENTER
100
AcDbLine
 10
19.93181359560894
 20
73.93365101276589
 30
0.0
 11
94.29346082760785
 21
73.93365101276604
 31
0.0
  0
ARC
  5
4DC
330
1F
100
AcDbEntity
  8
0
100
AcDbCircle
 10
125.8386626538975
 20
73.93365101276589
 30
0.0
 40
98.42500000000001
100
AcDbArc
 50
176.6883116125965
 51
183.1946009147783
  0
LINE
  5
4DD
330
1F
100
AcDbEntity
  8
0
100
AcDbLine
 10
23.47666265389748
 20
89.15015601276591
 30
0.0
 11
23.47666265389748
 21
58.7171460127659
 31
0.0
  0
ARC
  5
4E0
330
1F
100
AcDbEntity
  8
0
100
AcDbCircle
 10
43.29014106573784
 20
69.32627512087936
 30
0.0
 40
15.748
100
AcDbArc
 50
183.1946009147783
 51
200.0924574171136
  0
ARC
  5
4E1
330
1F
100
AcDbEntity
  8
0
100
AcDbCircle
 10
24.26406265389748
 20
58.7171460127659
 30
0.0
 40
0.7874000000000001
100
AcDbArc
 50
180.0
 51
270.0
  0
ARC
  5
4E2
330
1F
100
AcDbEntity
  8
0
100
AcDbCircle
 10
43.29014106573784
 20
78.54102690465244
 30
0.0
 40
15.748
100
AcDbArc
 50
159.9075425828864
 51
176.8053990852216
  0
ARC
  5
4E4
330
1F
100
AcDbEntity
  8
0
100
AcDbCircle
 10
24.26406265389748
 20
89.15015601276591
 30
0.0
 40
0.7874000000000001
100
AcDbArc
 50
90.0
 51
180.0
  0
ARC
  5
4E5
330
1F
100
AcDbEntity
  8
\U+9762\U+76C6
100
AcDbCircle
 10
80.95686265389756
 20
73.93365101276597
 30
0.0
 40
3.1496
100
AcDbArc
 50
160.5242606398477
 51
172.9946995297555
  0
ARC
  5
4E6
330
1F
100
AcDbEntity
  8
\U+9762\U+76C6
100
AcDbCircle
 10
78.27970265389756
 20
74.56357101276612
 30
0.0
 40
0.51181
100
AcDbArc
 50
124.8179481224137
 51
208.701012047219
  0
CIRCLE
  5
4E7
330
1F
100
AcDbEntity
  8
\U+9762\U+76C6
100
AcDbCircle
 10
77.21671265389756
 20
75.19349101276612
 30
0.0
 40
0.51181
  0
CIRCLE
  5
4E8
330
1F
100
AcDbEntity
  8
\U+9762\U+76C6
100
AcDbCircle
 10
76.15372265389756
 20
74.56357101276612
 30
0.0
 40
0.51181
  0
CIRCLE
  5
4E9
330
1F
100
AcDbEntity
  8
\U+9762\U+76C6
100
AcDbCircle
 10
72.96475265389755
 20
75.19349101276612
 30
0.0
 40
0.51181
  0
CIRCLE
  5
4EA
330
1F
100
AcDbEntity
  8
\U+9762\U+76C6
100
AcDbCircle
 10
71.90176265389755
 20
74.56357101276612
 30
0.0
 40
0.51181
  0
CIRCLE
  5
4EB
330
1F
100
AcDbEntity
  8
\U+9762\U+76C6
100
AcDbCircle
 10
74.02774265389756
 20
74.56357101276612
 30
0.0
 40
0.51181
  0
CIRCLE
  5
4EC
330
1F
100
AcDbEntity
  8
\U+9762\U+76C6
100
AcDbCircle
 10
75.09073265389756
 20
75.19349101276612
 30
0.0
 40
0.51181
  0
CIRCLE
  5
4ED
330
1F
100
AcDbEntity
  8
\U+9762\U+76C6
100
AcDbCircle
 10
68.71279265389755
 20
75.19349101276612
 30
0.0
 40
0.51181
  0
CIRCLE
  5
4EE
330
1F
100
AcDbEntity
  8
\U+9762\U+76C6
100
AcDbCircle
 10
66.58681265389756
 20
75.19349101276612
 30
0.0
 40
0.51181
  0
CIRCLE
  5
4EF
330
1F
100
AcDbEntity
  8
\U+9762\U+76C6
100
AcDbCircle
 10
64.46083265389756
 20
75.19349101276612
 30
0.0
 40
0.51181
  0
CIRCLE
  5
4F0
330
1F
100
AcDbEntity
  8
\U+9762\U+76C6
100
AcDbCircle
 10
65.52382265389756
 20
74.56357101276612
 30
0.0
 40
0.51181
  0
CIRCLE
  5
4F1
330
1F
100
AcDbEntity
  8
\U+9762\U+76C6
100
AcDbCircle
 10
67.64980265389755
 20
74.56357101276612
 30
0.0
 40
0.51181
  0
CIRCLE
  5
4F2
330
1F
100
AcDbEntity
  8
\U+9762\U+76C6
100
AcDbCircle
 10
62.33485265389756
 20
75.19349101276612
 30
0.0
 40
0.51181
  0
CIRCLE
  5
4F3
330
1F
100
AcDbEntity
  8
\U+9762\U+76C6
100
AcDbCircle
 10
63.39784265389756
 20
74.56357101276612
 30
0.0
 40
0.51181
  0
CIRCLE
  5
4F4
330
1F
100
AcDbEntity
  8
\U+9762\U+76C6
100
AcDbCircle
 10
69.77578265389755
 20
74.56357101276612
 30
0.0
 40
0.51181
  0
CIRCLE
  5
4F5
330
1F
100
AcDbEntity
  8
\U+9762\U+76C6
100
AcDbCircle
 10
70.83877265389755
 20
75.19349101276612
 30
0.0
 40
0.51181
  0
LINE
  5
4F6
330
1F
100
AcDbEntity
  8
\U+9762\U+76C6
  6
CENTER
 48
20.0
100
AcDbLine
 10
80.95686265389756
 20
77.38964199007118
 30
0.0
 11
80.95686265389756
 21
70.72993767873564
 31
0.0
  0
CIRCLE
  5
4F7
330
1F
100
AcDbEntity
  8
\U+9762\U+76C6
100
AcDbCircle
 10
57.01990265389755
 20
74.56357101276612
 30
0.0
 40
0.51181
  0
CIRCLE
  5
4F8
330
1F
100
AcDbEntity
  8
\U+9762\U+76C6
100
AcDbCircle
 10
55.95691265389755
 20
75.19349101276612
 30
0.0
 40
0.51181
  0
CIRCLE
  5
4F9
330
1F
100
AcDbEntity
  8
\U+9762\U+76C6
100
AcDbCircle
 10
52.76794265389756
 20
74.56357101276612
 30
0.0
 40
0.51181
  0
CIRCLE
  5
4FA
330
1F
100
AcDbEntity
  8
\U+9762\U+76C6
100
AcDbCircle
 10
53.83093265389756
 20
75.19349101276612
 30
0.0
 40
0.51181
  0
CIRCLE
  5
4FB
330
1F
100
AcDbEntity
  8
\U+9762\U+76C6
100
AcDbCircle
 10
54.89392265389755
 20
74.56357101276612
 30
0.0
 40
0.51181
  0
CIRCLE
  5
4FC
330
1F
100
AcDbEntity
  8
\U+9762\U+76C6
100
AcDbCircle
 10
60.20887265389756
 20
75.19349101276612
 30
0.0
 40
0.51181
  0
CIRCLE
  5
4FD
330
1F
100
AcDbEntity
  8
\U+9762\U+76C6
100
AcDbCircle
 10
58.08289265389755
 20
75.19349101276612
 30
0.0
 40
0.51181
  0
CIRCLE
  5
4FE
330
1F
100
AcDbEntity
  8
\U+9762\U+76C6
100
AcDbCircle
 10
59.14588265389755
 20
74.56357101276612
 30
0.0
 40
0.51181
  0
CIRCLE
  5
4FF
330
1F
100
AcDbEntity
  8
\U+9762\U+76C6
100
AcDbCircle
 10
44.26402265389755
 20
74.56357101276612
 30
0.0
 40
0.51181
  0
CIRCLE
  5
500
330
1F
100
AcDbEntity
  8
\U+9762\U+76C6
100
AcDbCircle
 10
43.20103265389755
 20
75.19349101276612
 30
0.0
 40
0.51181
  0
CIRCLE
  5
501
330
1F
100
AcDbEntity
  8
\U+9762\U+76C6
100
AcDbCircle
 10
49.57897265389755
 20
75.19349101276612
 30
0.0
 40
0.51181
  0
CIRCLE
  5
502
330
1F
100
AcDbEntity
  8
\U+9762\U+76C6
100
AcDbCircle
 10
50.64196265389755
 20
74.56357101276612
 30
0.0
 40
0.51181
  0
CIRCLE
  5
503
330
1F
100
AcDbEntity
  8
\U+9762\U+76C6
100
AcDbCircle
 10
48.51598265389755
 20
74.56357101276612
 30
0.0
 40
0.51181
  0
CIRCLE
  5
504
330
1F
100
AcDbEntity
  8
\U+9762\U+76C6
100
AcDbCircle
 10
45.32701265389755
 20
75.19349101276612
 30
0.0
 40
0.51181
  0
CIRCLE
  5
505
330
1F
100
AcDbEntity
  8
\U+9762\U+76C6
100
AcDbCircle
 10
46.39000265389755
 20
74.56357101276612
 30
0.0
 40
0.51181
  0
CIRCLE
  5
506
330
1F
100
AcDbEntity
  8
\U+9762\U+76C6
100
AcDbCircle
 10
47.45299265389755
 20
75.19349101276612
 30
0.0
 40
0.51181
  0
CIRCLE
  5
507
330
1F
100
AcDbEntity
  8
\U+9762\U+76C6
100
AcDbCircle
 10
51.70495265389756
 20
75.19349101276612
 30
0.0
 40
0.51181
  0
CIRCLE
  5
508
330
1F
100
AcDbEntity
  8
\U+9762\U+76C6
100
AcDbCircle
 10
41.07505265389755
 20
75.19349101276612
 30
0.0
 40
0.51181
  0
CIRCLE
  5
509
330
1F
100
AcDbEntity
  8
\U+9762\U+76C6
100
AcDbCircle
 10
42.13804265389756
 20
74.56357101276612
 30
0.0
 40
0.51181
  0
CIRCLE
  5
50A
330
1F
100
AcDbEntity
  8
\U+9762\U+76C6
100
AcDbCircle
 10
61.27186265389756
 20
74.56357101276612
 30
0.0
 40
0.51181
  0
CIRCLE
  5
50B
330
1F
100
AcDbEntity
  8
0
100
AcDbCircle
 10
80.95686265389756
 20
73.93365101276597
 30
0.0
 40
1.082675
  0
CIRCLE
  5
50D
330
1F
100
AcDbEntity
  8
0
100
AcDbCircle
 10
80.95686265389749
 20
73.93365101276604
 30
0.0
 40
1.830705
  0
ARC
  5
50E
330
1F
100
AcDbEntity
  8
0
100
AcDbCircle
 10
-71.01133734610252
 20
73.93365101276589
 30
0.0
 40
157.48
100
AcDbArc
 50
358.2580819816211
 51
1.741918018378916
  0
LINE
  5
50F
330
1F
100
AcDbEntity
  8
0
100
AcDbLine
 10
89.46078265389742
 20
89.15015601276591
 30
0.0
 11
89.46078265389749
 21
58.7171460127659
 31
0.0
  0
ARC
  5
511
330
1F
100
AcDbEntity
  8
0
100
AcDbCircle
 10
-71.01133734610252
 20
73.93365101276589
 30
0.0
 40
156.49575
100
AcDbArc
 50
358.0627792471752
 51
1.937220752824756
  0
LINE
  5
512
330
1F
100
AcDbEntity
  8
0\U+7EC6
  6
CENTER
100
AcDbLine
 10
80.95686265389742
 20
77.38964199007111
 30
0.0
 11
80.95686265389742
 21
70.72993767873557
 31
0.0
  0
ARC
  5
515
330
1F
100
AcDbEntity
  8
0
100
AcDbCircle
 10
195.9172626538975
 20
73.93365101276589
 30
0.0
 40
157.48
100
AcDbArc
 50
177.5536217994287
 51
182.4463782005713
  0
LINE
  5
516
330
1F
100
AcDbEntity
  8
0\U+7EC6
  6
CENTER
100
AcDbLine
 10
43.16166265389748
 20
91.91697411018052
 30
0.0
 11
43.16166265389748
 21
56.02809219185932
 31
0.0
  0
CIRCLE
  5
518
330
1F
100
AcDbEntity
  8
\U+9762\U+76C6
100
AcDbCircle
 10
68.71279265389755
 20
73.93365101276611
 30
0.0
 40
0.51181
  0
CIRCLE
  5
519
330
1F
100
AcDbEntity
  8
\U+9762\U+76C6
100
AcDbCircle
 10
68.71279265389755
 20
71.41397101276611
 30
0.0
 40
0.51181
  0
CIRCLE
  5
51A
330
1F
100
AcDbEntity
  8
\U+9762\U+76C6
100
AcDbCircle
 10
68.71279265389755
 20
70.15413101276611
 30
0.0
 40
0.51181
  0
CIRCLE
  5
51B
330
1F
100
AcDbEntity
  8
\U+9762\U+76C6
100
AcDbCircle
 10
68.71279265389755
 20
67.63445101276611
 30
0.0
 40
0.51181
  0
CIRCLE
  5
51C
330
1F
100
AcDbEntity
  8
\U+9762\U+76C6
100
AcDbCircle
 10
68.71279265389755
 20
68.89429101276611
 30
0.0
 40
0.51181
  0
CIRCLE
  5
51D
330
1F
100
AcDbEntity
  8
\U+9762\U+76C6
100
AcDbCircle
 10
68.71279265389755
 20
72.67381101276611
 30
0.0
 40
0.51181
  0
ARC
  5
51E
330
1F
100
AcDbEntity
  8
0
100
AcDbCircle
 10
43.16166265389741
 20
375.4487960127657
 30
0.0
 40
312.9915
100
AcDbArc
 50
273.6449699024614
 51
277.1184893189047
  0
ARC
  5
51F
330
1F
100
AcDbEntity
  8
0
100
AcDbCircle
 10
43.16166265389748
 20
375.0550960127659
 30
0.0
 40
314.96
100
AcDbArc
 50
269.2033403448004
 51
275.7123340127805
  0
ARC
  5
520
330
1F
100
AcDbEntity
  8
0
100
AcDbCircle
 10
42.51420075540815
 20
67.37976291727147
 30
0.0
 40
3.937
100
AcDbArc
 50
182.4463782005453
 51
269.7846254419027
  0
ARC
  5
521
330
1F
100
AcDbEntity
  8
0
100
AcDbCircle
 10
43.16166265389748
 20
-55.65270398723432
 30
0.0
 40
118.11
100
AcDbArc
 50
81.66625016938361
 51
90.0
  0
ARC
  5
522
330
1F
100
AcDbEntity
  8
0
100
AcDbCircle
 10
43.16166265389748
 20
-75.33770398723404
 30
0.0
 40
138.77925
100
AcDbArc
 50
86.07422398135296
 51
90.0
  0
LINE
  5
525
330
1F
100
AcDbEntity
  8
0
100
AcDbLine
 10
47.15140035410805
 20
57.9297460127659
 30
0.0
 11
43.16166265389741
 21
57.9297460127659
 31
0.0
  0
ARC
  5
527
330
1F
100
AcDbEntity
  8
0
100
AcDbCircle
 10
43.16166265389741
 20
239.6222960127657
 30
0.0
 40
177.165
100
AcDbArc
 50
266.9720861494852
 51
270.0
  0
ARC
  5
528
330
1F
100
AcDbEntity
  8
0
100
AcDbCircle
 10
39.32989071585847
 20
99.49173556037406
 30
0.0
 40
39.37000000000001
100
AcDbArc
 50
259.6187371277099
 51
269.2033403448004
  0
ARC
  5
529
330
1F
100
AcDbEntity
  8
0
100
AcDbCircle
 10
43.16166265389741
 20
239.622296012766
 30
0.0
 40
176.18075
100
AcDbArc
 50
269.7846254419027
 51
270.0
  0
ARC
  5
52A
330
1F
100
AcDbEntity
  8
0
100
AcDbCircle
 10
58.05392633437418
 20
141.6711543642942
 30
0.0
 40
78.74000000000001
100
AcDbArc
 50
266.074223981353
 51
273.6449699024614
  0
ARC
  5
52B
330
1F
100
AcDbEntity
  8
0
100
AcDbCircle
 10
64.56010191406296
 20
90.42583038205282
 30
0.0
 40
29.5275
100
AcDbArc
 50
261.6662501693836
 51
266.7634081582571
  0
CIRCLE
  5
52C
330
1F
100
AcDbEntity
  8
\U+9762\U+76C6
100
AcDbCircle
 10
49.57897265389755
 20
73.93365101276611
 30
0.0
 40
0.51181
  0
CIRCLE
  5
52D
330
1F
100
AcDbEntity
  8
\U+9762\U+76C6
100
AcDbCircle
 10
49.57897265389755
 20
71.41397101276611
 30
0.0
 40
0.51181
  0
CIRCLE
  5
52E
330
1F
100
AcDbEntity
  8
\U+9762\U+76C6
100
AcDbCircle
 10
49.57897265389755
 20
70.15413101276611
 30
0.0
 40
0.51181
  0
CIRCLE
  5
52F
330
1F
100
AcDbEntity
  8
\U+9762\U+76C6
100
AcDbCircle
 10
49.57897265389755
 20
67.63445101276611
 30
0.0
 40
0.51181
  0
CIRCLE
  5
530
330
1F
100
AcDbEntity
  8
\U+9762\U+76C6
100
AcDbCircle
 10
49.57897265389755
 20
68.89429101276611
 30
0.0
 40
0.51181
  0
CIRCLE
  5
531
330
1F
100
AcDbEntity
  8
\U+9762\U+76C6
100
AcDbCircle
 10
49.57897265389755
 20
72.67381101276611
 30
0.0
 40
0.51181
  0
CIRCLE
  5
532
330
1F
100
AcDbEntity
  8
\U+9762\U+76C6
100
AcDbCircle
 10
44.26402265389755
 20
69.52421101276612
 30
0.0
 40
0.51181
  0
CIRCLE
  5
533
330
1F
100
AcDbEntity
  8
\U+9762\U+76C6
100
AcDbCircle
 10
43.20103265389755
 20
70.15413101276611
 30
0.0
 40
0.51181
  0
CIRCLE
  5
534
330
1F
100
AcDbEntity
  8
\U+9762\U+76C6
100
AcDbCircle
 10
48.51598265389755
 20
69.52421101276612
 30
0.0
 40
0.51181
  0
CIRCLE
  5
535
330
1F
100
AcDbEntity
  8
\U+9762\U+76C6
100
AcDbCircle
 10
46.39000265389755
 20
69.52421101276612
 30
0.0
 40
0.51181
  0
CIRCLE
  5
536
330
1F
100
AcDbEntity
  8
\U+9762\U+76C6
100
AcDbCircle
 10
45.32701265389755
 20
70.15413101276611
 30
0.0
 40
0.51181
  0
CIRCLE
  5
537
330
1F
100
AcDbEntity
  8
\U+9762\U+76C6
100
AcDbCircle
 10
47.45299265389755
 20
70.15413101276611
 30
0.0
 40
0.51181
  0
CIRCLE
  5
538
330
1F
100
AcDbEntity
  8
\U+9762\U+76C6
100
AcDbCircle
 10
41.07505265389755
 20
70.15413101276611
 30
0.0
 40
0.51181
  0
CIRCLE
  5
539
330
1F
100
AcDbEntity
  8
\U+9762\U+76C6
100
AcDbCircle
 10
42.13804265389756
 20
69.52421101276612
 30
0.0
 40
0.51181
  0
CIRCLE
  5
53A
330
1F
100
AcDbEntity
  8
\U+9762\U+76C6
100
AcDbCircle
 10
44.26402265389755
 20
68.2643710127661
 30
0.0
 40
0.51181
  0
CIRCLE
  5
53B
330
1F
100
AcDbEntity
  8
\U+9762\U+76C6
100
AcDbCircle
 10
43.20103265389755
 20
67.63445101276611
 30
0.0
 40
0.51181
  0
CIRCLE
  5
53C
330
1F
100
AcDbEntity
  8
\U+9762\U+76C6
100
AcDbCircle
 10
43.20103265389755
 20
68.89429101276611
 30
0.0
 40
0.51181
  0
CIRCLE
  5
53D
330
1F
100
AcDbEntity
  8
\U+9762\U+76C6
100
AcDbCircle
 10
45.32701265389755
 20
67.63445101276611
 30
0.0
 40
0.51181
  0
CIRCLE
  5
53E
330
1F
100
AcDbEntity
  8
\U+9762\U+76C6
100
AcDbCircle
 10
47.45299265389755
 20
67.63445101276611
 30
0.0
 40
0.51181
  0
CIRCLE
  5
53F
330
1F
100
AcDbEntity
  8
\U+9762\U+76C6
100
AcDbCircle
 10
45.32701265389755
 20
68.89429101276611
 30
0.0
 40
0.51181
  0
CIRCLE
  5
540
330
1F
100
AcDbEntity
  8
\U+9762\U+76C6
100
AcDbCircle
 10
47.45299265389755
 20
68.89429101276611
 30
0.0
 40
0.51181
  0
CIRCLE
  5
541
330
1F
100
AcDbEntity
  8
\U+9762\U+76C6
100
AcDbCircle
 10
48.51598265389755
 20
68.2643710127661
 30
0.0
 40
0.51181
  0
CIRCLE
  5
542
330
1F
100
AcDbEntity
  8
\U+9762\U+76C6
100
AcDbCircle
 10
46.39000265389755
 20
68.2643710127661
 30
0.0
 40
0.51181
  0
CIRCLE
  5
543
330
1F
100
AcDbEntity
  8
\U+9762\U+76C6
100
AcDbCircle
 10
44.26402265389755
 20
67.00453101276611
 30
0.0
 40
0.51181
  0
CIRCLE
  5
544
330
1F
100
AcDbEntity
  8
\U+9762\U+76C6
100
AcDbCircle
 10
48.51598265389755
 20
67.00453101276611
 30
0.0
 40
0.51181
  0
CIRCLE
  5
545
330
1F
100
AcDbEntity
  8
\U+9762\U+76C6
100
AcDbCircle
 10
46.39000265389755
 20
67.00453101276611
 30
0.0
 40
0.51181
  0
CIRCLE
  5
546
330
1F
100
AcDbEntity
  8
\U+9762\U+76C6
100
AcDbCircle
 10
41.07505265389755
 20
68.89429101276611
 30
0.0
 40
0.51181
  0
CIRCLE
  5
547
330
1F
100
AcDbEntity
  8
\U+9762\U+76C6
100
AcDbCircle
 10
42.13804265389756
 20
68.2643710127661
 30
0.0
 40
0.51181
  0
CIRCLE
  5
548
330
1F
100
AcDbEntity
  8
\U+9762\U+76C6
100
AcDbCircle
 10
44.26402265389755
 20
73.3037310127661
 30
0.0
 40
0.51181
  0
CIRCLE
  5
549
330
1F
100
AcDbEntity
  8
\U+9762\U+76C6
100
AcDbCircle
 10
43.20103265389755
 20
73.93365101276611
 30
0.0
 40
0.51181
  0
CIRCLE
  5
54A
330
1F
100
AcDbEntity
  8
\U+9762\U+76C6
100
AcDbCircle
 10
48.51598265389755
 20
73.3037310127661
 30
0.0
 40
0.51181
  0
CIRCLE
  5
54B
330
1F
100
AcDbEntity
  8
\U+9762\U+76C6
100
AcDbCircle
 10
46.39000265389755
 20
73.3037310127661
 30
0.0
 40
0.51181
  0
CIRCLE
  5
54C
330
1F
100
AcDbEntity
  8
\U+9762\U+76C6
100
AcDbCircle
 10
45.32701265389755
 20
73.93365101276611
 30
0.0
 40
0.51181
  0
CIRCLE
  5
54D
330
1F
100
AcDbEntity
  8
\U+9762\U+76C6
100
AcDbCircle
 10
47.45299265389755
 20
73.93365101276611
 30
0.0
 40
0.51181
  0
CIRCLE
  5
54E
330
1F
100
AcDbEntity
  8
\U+9762\U+76C6
100
AcDbCircle
 10
41.07505265389755
 20
73.93365101276611
 30
0.0
 40
0.51181
  0
CIRCLE
  5
54F
330
1F
100
AcDbEntity
  8
\U+9762\U+76C6
100
AcDbCircle
 10
42.13804265389756
 20
73.3037310127661
 30
0.0
 40
0.51181
  0
CIRCLE
  5
550
330
1F
100
AcDbEntity
  8
\U+9762\U+76C6
100
AcDbCircle
 10
44.26402265389755
 20
70.78405101276612
 30
0.0
 40
0.51181
  0
CIRCLE
  5
551
330
1F
100
AcDbEntity
  8
\U+9762\U+76C6
100
AcDbCircle
 10
43.20103265389755
 20
71.41397101276611
 30
0.0
 40
0.51181
  0
CIRCLE
  5
552
330
1F
100
AcDbEntity
  8
\U+9762\U+76C6
100
AcDbCircle
 10
48.51598265389755
 20
70.78405101276612
 30
0.0
 40
0.51181
  0
CIRCLE
  5
553
330
1F
100
AcDbEntity
  8
\U+9762\U+76C6
100
AcDbCircle
 10
45.32701265389755
 20
71.41397101276611
 30
0.0
 40
0.51181
  0
CIRCLE
  5
554
330
1F
100
AcDbEntity
  8
\U+9762\U+76C6
100
AcDbCircle
 10
46.39000265389755
 20
70.78405101276612
 30
0.0
 40
0.51181
  0
CIRCLE
  5
555
330
1F
100
AcDbEntity
  8
\U+9762\U+76C6
100
AcDbCircle
 10
47.45299265389755
 20
71.41397101276611
 30
0.0
 40
0.51181
  0
CIRCLE
  5
556
330
1F
100
AcDbEntity
  8
\U+9762\U+76C6
100
AcDbCircle
 10
41.07505265389755
 20
71.41397101276611
 30
0.0
 40
0.51181
  0
CIRCLE
  5
557
330
1F
100
AcDbEntity
  8
\U+9762\U+76C6
100
AcDbCircle
 10
42.13804265389756
 20
70.78405101276612
 30
0.0
 40
0.51181
  0
CIRCLE
  5
558
330
1F
100
AcDbEntity
  8
\U+9762\U+76C6
100
AcDbCircle
 10
44.26402265389755
 20
72.04389101276611
 30
0.0
 40
0.51181
  0
CIRCLE
  5
559
330
1F
100
AcDbEntity
  8
\U+9762\U+76C6
100
AcDbCircle
 10
42.13804265389756
 20
72.04389101276611
 30
0.0
 40
0.51181
  0
CIRCLE
  5
55A
330
1F
100
AcDbEntity
  8
\U+9762\U+76C6
100
AcDbCircle
 10
43.20103265389755
 20
72.67381101276611
 30
0.0
 40
0.51181
  0
CIRCLE
  5
55B
330
1F
100
AcDbEntity
  8
\U+9762\U+76C6
100
AcDbCircle
 10
41.07505265389755
 20
72.67381101276611
 30
0.0
 40
0.51181
  0
CIRCLE
  5
55C
330
1F
100
AcDbEntity
  8
\U+9762\U+76C6
100
AcDbCircle
 10
48.51598265389755
 20
72.04389101276611
 30
0.0
 40
0.51181
  0
CIRCLE
  5
55D
330
1F
100
AcDbEntity
  8
\U+9762\U+76C6
100
AcDbCircle
 10
46.39000265389755
 20
72.04389101276611
 30
0.0
 40
0.51181
  0
CIRCLE
  5
55E
330
1F
100
AcDbEntity
  8
\U+9762\U+76C6
100
AcDbCircle
 10
45.32701265389755
 20
72.67381101276611
 30
0.0
 40
0.51181
  0
CIRCLE
  5
55F
330
1F
100
AcDbEntity
  8
\U+9762\U+76C6
100
AcDbCircle
 10
47.45299265389755
 20
72.67381101276611
 30
0.0
 40
0.51181
  0
CIRCLE
  5
560
330
1F
100
AcDbEntity
  8
\U+9762\U+76C6
100
AcDbCircle
 10
65.52382265389756
 20
69.52421101276612
 30
0.0
 40
0.51181
  0
CIRCLE
  5
561
330
1F
100
AcDbEntity
  8
\U+9762\U+76C6
100
AcDbCircle
 10
67.64980265389755
 20
69.52421101276612
 30
0.0
 40
0.51181
  0
CIRCLE
  5
562
330
1F
100
AcDbEntity
  8
\U+9762\U+76C6
100
AcDbCircle
 10
64.46083265389756
 20
70.15413101276611
 30
0.0
 40
0.51181
  0
CIRCLE
  5
563
330
1F
100
AcDbEntity
  8
\U+9762\U+76C6
100
AcDbCircle
 10
66.58681265389756
 20
70.15413101276611
 30
0.0
 40
0.51181
  0
CIRCLE
  5
564
330
1F
100
AcDbEntity
  8
\U+9762\U+76C6
100
AcDbCircle
 10
62.33485265389756
 20
70.15413101276611
 30
0.0
 40
0.51181
  0
CIRCLE
  5
565
330
1F
100
AcDbEntity
  8
\U+9762\U+76C6
100
AcDbCircle
 10
63.39784265389756
 20
69.52421101276612
 30
0.0
 40
0.51181
  0
CIRCLE
  5
566
330
1F
100
AcDbEntity
  8
\U+9762\U+76C6
100
AcDbCircle
 10
57.01990265389755
 20
69.52421101276612
 30
0.0
 40
0.51181
  0
CIRCLE
  5
567
330
1F
100
AcDbEntity
  8
\U+9762\U+76C6
100
AcDbCircle
 10
55.95691265389755
 20
70.15413101276611
 30
0.0
 40
0.51181
  0
CIRCLE
  5
568
330
1F
100
AcDbEntity
  8
\U+9762\U+76C6
100
AcDbCircle
 10
52.76794265389756
 20
69.52421101276612
 30
0.0
 40
0.51181
  0
CIRCLE
  5
569
330
1F
100
AcDbEntity
  8
\U+9762\U+76C6
100
AcDbCircle
 10
54.89392265389755
 20
69.52421101276612
 30
0.0
 40
0.51181
  0
CIRCLE
  5
56A
330
1F
100
AcDbEntity
  8
\U+9762\U+76C6
100
AcDbCircle
 10
53.83093265389756
 20
70.15413101276611
 30
0.0
 40
0.51181
  0
CIRCLE
  5
56B
330
1F
100
AcDbEntity
  8
\U+9762\U+76C6
100
AcDbCircle
 10
59.14588265389755
 20
69.52421101276612
 30
0.0
 40
0.51181
  0
CIRCLE
  5
56C
330
1F
100
AcDbEntity
  8
\U+9762\U+76C6
100
AcDbCircle
 10
58.08289265389755
 20
70.15413101276611
 30
0.0
 40
0.51181
  0
CIRCLE
  5
56D
330
1F
100
AcDbEntity
  8
\U+9762\U+76C6
100
AcDbCircle
 10
60.20887265389756
 20
70.15413101276611
 30
0.0
 40
0.51181
  0
CIRCLE
  5
56E
330
1F
100
AcDbEntity
  8
\U+9762\U+76C6
100
AcDbCircle
 10
50.64196265389755
 20
69.52421101276612
 30
0.0
 40
0.51181
  0
CIRCLE
  5
56F
330
1F
100
AcDbEntity
  8
\U+9762\U+76C6
100
AcDbCircle
 10
51.70495265389756
 20
70.15413101276611
 30
0.0
 40
0.51181
  0
CIRCLE
  5
570
330
1F
100
AcDbEntity
  8
\U+9762\U+76C6
100
AcDbCircle
 10
61.27186265389756
 20
69.52421101276612
 30
0.0
 40
0.51181
  0
CIRCLE
  5
571
330
1F
100
AcDbEntity
  8
\U+9762\U+76C6
100
AcDbCircle
 10
59.14588265389755
 20
68.2643710127661
 30
0.0
 40
0.51181
  0
CIRCLE
  5
572
330
1F
100
AcDbEntity
  8
\U+9762\U+76C6
100
AcDbCircle
 10
59.14588265389755
 20
67.00453101276611
 30
0.0
 40
0.51181
  0
CIRCLE
  5
573
330
1F
100
AcDbEntity
  8
\U+9762\U+76C6
100
AcDbCircle
 10
57.01990265389755
 20
68.2643710127661
 30
0.0
 40
0.51181
  0
CIRCLE
  5
574
330
1F
100
AcDbEntity
  8
\U+9762\U+76C6
100
AcDbCircle
 10
55.95691265389755
 20
67.63445101276611
 30
0.0
 40
0.51181
  0
CIRCLE
  5
575
330
1F
100
AcDbEntity
  8
\U+9762\U+76C6
100
AcDbCircle
 10
55.95691265389755
 20
68.89429101276611
 30
0.0
 40
0.51181
  0
CIRCLE
  5
576
330
1F
100
AcDbEntity
  8
\U+9762\U+76C6
100
AcDbCircle
 10
53.83093265389756
 20
67.63445101276611
 30
0.0
 40
0.51181
  0
CIRCLE
  5
577
330
1F
100
AcDbEntity
  8
\U+9762\U+76C6
100
AcDbCircle
 10
53.83093265389756
 20
68.89429101276611
 30
0.0
 40
0.51181
  0
CIRCLE
  5
578
330
1F
100
AcDbEntity
  8
\U+9762\U+76C6
100
AcDbCircle
 10
54.89392265389755
 20
68.2643710127661
 30
0.0
 40
0.51181
  0
CIRCLE
  5
579
330
1F
100
AcDbEntity
  8
\U+9762\U+76C6
100
AcDbCircle
 10
52.76794265389756
 20
68.2643710127661
 30
0.0
 40
0.51181
  0
CIRCLE
  5
57A
330
1F
100
AcDbEntity
  8
\U+9762\U+76C6
100
AcDbCircle
 10
58.08289265389755
 20
67.63445101276611
 30
0.0
 40
0.51181
  0
CIRCLE
  5
57B
330
1F
100
AcDbEntity
  8
\U+9762\U+76C6
100
AcDbCircle
 10
58.08289265389755
 20
68.89429101276611
 30
0.0
 40
0.51181
  0
CIRCLE
  5
57C
330
1F
100
AcDbEntity
  8
\U+9762\U+76C6
100
AcDbCircle
 10
50.64196265389755
 20
68.2643710127661
 30
0.0
 40
0.51181
  0
CIRCLE
  5
57D
330
1F
100
AcDbEntity
  8
\U+9762\U+76C6
100
AcDbCircle
 10
51.70495265389756
 20
67.63445101276611
 30
0.0
 40
0.51181
  0
CIRCLE
  5
57E
330
1F
100
AcDbEntity
  8
\U+9762\U+76C6
100
AcDbCircle
 10
51.70495265389756
 20
68.89429101276611
 30
0.0
 40
0.51181
  0
CIRCLE
  5
57F
330
1F
100
AcDbEntity
  8
\U+9762\U+76C6
100
AcDbCircle
 10
57.01990265389755
 20
67.00453101276611
 30
0.0
 40
0.51181
  0
CIRCLE
  5
580
330
1F
100
AcDbEntity
  8
\U+9762\U+76C6
100
AcDbCircle
 10
54.89392265389755
 20
67.00453101276611
 30
0.0
 40
0.51181
  0
CIRCLE
  5
581
330
1F
100
AcDbEntity
  8
\U+9762\U+76C6
100
AcDbCircle
 10
52.76794265389756
 20
67.00453101276611
 30
0.0
 40
0.51181
  0
CIRCLE
  5
582
330
1F
100
AcDbEntity
  8
\U+9762\U+76C6
100
AcDbCircle
 10
50.64196265389755
 20
67.00453101276611
 30
0.0
 40
0.51181
  0
CIRCLE
  5
583
330
1F
100
AcDbEntity
  8
\U+9762\U+76C6
100
AcDbCircle
 10
64.46083265389756
 20
67.63445101276611
 30
0.0
 40
0.51181
  0
CIRCLE
  5
584
330
1F
100
AcDbEntity
  8
\U+9762\U+76C6
100
AcDbCircle
 10
66.58681265389756
 20
67.63445101276611
 30
0.0
 40
0.51181
  0
CIRCLE
  5
585
330
1F
100
AcDbEntity
  8
\U+9762\U+76C6
100
AcDbCircle
 10
62.33485265389756
 20
67.63445101276611
 30
0.0
 40
0.51181
  0
CIRCLE
  5
586
330
1F
100
AcDbEntity
  8
\U+9762\U+76C6
100
AcDbCircle
 10
66.58681265389756
 20
68.89429101276611
 30
0.0
 40
0.51181
  0
CIRCLE
  5
587
330
1F
100
AcDbEntity
  8
\U+9762\U+76C6
100
AcDbCircle
 10
64.46083265389756
 20
68.89429101276611
 30
0.0
 40
0.51181
  0
CIRCLE
  5
588
330
1F
100
AcDbEntity
  8
\U+9762\U+76C6
100
AcDbCircle
 10
62.33485265389756
 20
68.89429101276611
 30
0.0
 40
0.51181
  0
CIRCLE
  5
589
330
1F
100
AcDbEntity
  8
\U+9762\U+76C6
100
AcDbCircle
 10
67.64980265389755
 20
68.2643710127661
 30
0.0
 40
0.51181
  0
CIRCLE
  5
58A
330
1F
100
AcDbEntity
  8
\U+9762\U+76C6
100
AcDbCircle
 10
65.52382265389756
 20
68.2643710127661
 30
0.0
 40
0.51181
  0
CIRCLE
  5
58B
330
1F
100
AcDbEntity
  8
\U+9762\U+76C6
100
AcDbCircle
 10
63.39784265389756
 20
68.2643710127661
 30
0.0
 40
0.51181
  0
CIRCLE
  5
58C
330
1F
100
AcDbEntity
  8
\U+9762\U+76C6
100
AcDbCircle
 10
67.64980265389755
 20
67.00453101276611
 30
0.0
 40
0.51181
  0
CIRCLE
  5
58D
330
1F
100
AcDbEntity
  8
\U+9762\U+76C6
100
AcDbCircle
 10
65.52382265389756
 20
67.00453101276611
 30
0.0
 40
0.51181
  0
CIRCLE
  5
58E
330
1F
100
AcDbEntity
  8
\U+9762\U+76C6
100
AcDbCircle
 10
63.39784265389756
 20
67.00453101276611
 30
0.0
 40
0.51181
  0
CIRCLE
  5
58F
330
1F
100
AcDbEntity
  8
\U+9762\U+76C6
100
AcDbCircle
 10
60.20887265389756
 20
67.63445101276611
 30
0.0
 40
0.51181
  0
CIRCLE
  5
590
330
1F
100
AcDbEntity
  8
\U+9762\U+76C6
100
AcDbCircle
 10
60.20887265389756
 20
68.89429101276611
 30
0.0
 40
0.51181
  0
CIRCLE
  5
591
330
1F
100
AcDbEntity
  8
\U+9762\U+76C6
100
AcDbCircle
 10
61.27186265389756
 20
67.00453101276611
 30
0.0
 40
0.51181
  0
CIRCLE
  5
592
330
1F
100
AcDbEntity
  8
\U+9762\U+76C6
100
AcDbCircle
 10
61.27186265389756
 20
68.2643710127661
 30
0.0
 40
0.51181
  0
CIRCLE
  5
593
330
1F
100
AcDbEntity
  8
\U+9762\U+76C6
100
AcDbCircle
 10
59.14588265389755
 20
73.3037310127661
 30
0.0
 40
0.51181
  0
CIRCLE
  5
594
330
1F
100
AcDbEntity
  8
\U+9762\U+76C6
100
AcDbCircle
 10
59.14588265389755
 20
70.78405101276612
 30
0.0
 40
0.51181
  0
CIRCLE
  5
595
330
1F
100
AcDbEntity
  8
\U+9762\U+76C6
100
AcDbCircle
 10
59.14588265389755
 20
72.04389101276611
 30
0.0
 40
0.51181
  0
CIRCLE
  5
596
330
1F
100
AcDbEntity
  8
\U+9762\U+76C6
100
AcDbCircle
 10
57.01990265389755
 20
73.3037310127661
 30
0.0
 40
0.51181
  0
CIRCLE
  5
597
330
1F
100
AcDbEntity
  8
\U+9762\U+76C6
100
AcDbCircle
 10
55.95691265389755
 20
73.93365101276611
 30
0.0
 40
0.51181
  0
CIRCLE
  5
598
330
1F
100
AcDbEntity
  8
\U+9762\U+76C6
100
AcDbCircle
 10
52.76794265389756
 20
73.3037310127661
 30
0.0
 40
0.51181
  0
CIRCLE
  5
599
330
1F
100
AcDbEntity
  8
\U+9762\U+76C6
100
AcDbCircle
 10
54.89392265389755
 20
73.3037310127661
 30
0.0
 40
0.51181
  0
CIRCLE
  5
59A
330
1F
100
AcDbEntity
  8
\U+9762\U+76C6
100
AcDbCircle
 10
53.83093265389756
 20
73.93365101276611
 30
0.0
 40
0.51181
  0
CIRCLE
  5
59B
330
1F
100
AcDbEntity
  8
\U+9762\U+76C6
100
AcDbCircle
 10
58.08289265389755
 20
73.93365101276611
 30
0.0
 40
0.51181
  0
CIRCLE
  5
59C
330
1F
100
AcDbEntity
  8
\U+9762\U+76C6
100
AcDbCircle
 10
50.64196265389755
 20
73.3037310127661
 30
0.0
 40
0.51181
  0
CIRCLE
  5
59D
330
1F
100
AcDbEntity
  8
\U+9762\U+76C6
100
AcDbCircle
 10
51.70495265389756
 20
73.93365101276611
 30
0.0
 40
0.51181
  0
CIRCLE
  5
59E
330
1F
100
AcDbEntity
  8
\U+9762\U+76C6
100
AcDbCircle
 10
57.01990265389755
 20
70.78405101276612
 30
0.0
 40
0.51181
  0
CIRCLE
  5
59F
330
1F
100
AcDbEntity
  8
\U+9762\U+76C6
100
AcDbCircle
 10
55.95691265389755
 20
71.41397101276611
 30
0.0
 40
0.51181
  0
CIRCLE
  5
5A0
330
1F
100
AcDbEntity
  8
\U+9762\U+76C6
100
AcDbCircle
 10
53.83093265389756
 20
71.41397101276611
 30
0.0
 40
0.51181
  0
CIRCLE
  5
5A1
330
1F
100
AcDbEntity
  8
\U+9762\U+76C6
100
AcDbCircle
 10
52.76794265389756
 20
70.78405101276612
 30
0.0
 40
0.51181
  0
CIRCLE
  5
5A2
330
1F
100
AcDbEntity
  8
\U+9762\U+76C6
100
AcDbCircle
 10
54.89392265389755
 20
70.78405101276612
 30
0.0
 40
0.51181
  0
CIRCLE
  5
5A3
330
1F
100
AcDbEntity
  8
\U+9762\U+76C6
100
AcDbCircle
 10
58.08289265389755
 20
71.41397101276611
 30
0.0
 40
0.51181
  0
CIRCLE
  5
5A4
330
1F
100
AcDbEntity
  8
\U+9762\U+76C6
100
AcDbCircle
 10
50.64196265389755
 20
70.78405101276612
 30
0.0
 40
0.51181
  0
CIRCLE
  5
5A5
330
1F
100
AcDbEntity
  8
\U+9762\U+76C6
100
AcDbCircle
 10
51.70495265389756
 20
71.41397101276611
 30
0.0
 40
0.51181
  0
CIRCLE
  5
5A6
330
1F
100
AcDbEntity
  8
\U+9762\U+76C6
100
AcDbCircle
 10
57.01990265389755
 20
72.04389101276611
 30
0.0
 40
0.51181
  0
CIRCLE
  5
5A7
330
1F
100
AcDbEntity
  8
\U+9762\U+76C6
100
AcDbCircle
 10
52.76794265389756
 20
72.04389101276611
 30
0.0
 40
0.51181
  0
CIRCLE
  5
5A8
330
1F
100
AcDbEntity
  8
\U+9762\U+76C6
100
AcDbCircle
 10
50.64196265389755
 20
72.04389101276611
 30
0.0
 40
0.51181
  0
CIRCLE
  5
5A9
330
1F
100
AcDbEntity
  8
\U+9762\U+76C6
100
AcDbCircle
 10
51.70495265389756
 20
72.67381101276611
 30
0.0
 40
0.51181
  0
CIRCLE
  5
5AA
330
1F
100
AcDbEntity
  8
\U+9762\U+76C6
100
AcDbCircle
 10
54.89392265389755
 20
72.04389101276611
 30
0.0
 40
0.51181
  0
CIRCLE
  5
5AB
330
1F
100
AcDbEntity
  8
\U+9762\U+76C6
100
AcDbCircle
 10
55.95691265389755
 20
72.67381101276611
 30
0.0
 40
0.51181
  0
CIRCLE
  5
5AC
330
1F
100
AcDbEntity
  8
\U+9762\U+76C6
100
AcDbCircle
 10
53.83093265389756
 20
72.67381101276611
 30
0.0
 40
0.51181
  0
CIRCLE
  5
5AD
330
1F
100
AcDbEntity
  8
\U+9762\U+76C6
100
AcDbCircle
 10
58.08289265389755
 20
72.67381101276611
 30
0.0
 40
0.51181
  0
CIRCLE
  5
5AE
330
1F
100
AcDbEntity
  8
\U+9762\U+76C6
100
AcDbCircle
 10
65.52382265389756
 20
73.3037310127661
 30
0.0
 40
0.51181
  0
CIRCLE
  5
5AF
330
1F
100
AcDbEntity
  8
\U+9762\U+76C6
100
AcDbCircle
 10
67.64980265389755
 20
73.3037310127661
 30
0.0
 40
0.51181
  0
CIRCLE
  5
5B0
330
1F
100
AcDbEntity
  8
\U+9762\U+76C6
100
AcDbCircle
 10
64.46083265389756
 20
73.93365101276611
 30
0.0
 40
0.51181
  0
CIRCLE
  5
5B1
330
1F
100
AcDbEntity
  8
\U+9762\U+76C6
100
AcDbCircle
 10
66.58681265389756
 20
73.93365101276611
 30
0.0
 40
0.51181
  0
CIRCLE
  5
5B2
330
1F
100
AcDbEntity
  8
\U+9762\U+76C6
100
AcDbCircle
 10
62.33485265389756
 20
73.93365101276611
 30
0.0
 40
0.51181
  0
CIRCLE
  5
5B3
330
1F
100
AcDbEntity
  8
\U+9762\U+76C6
100
AcDbCircle
 10
63.39784265389756
 20
73.3037310127661
 30
0.0
 40
0.51181
  0
CIRCLE
  5
5B4
330
1F
100
AcDbEntity
  8
\U+9762\U+76C6
100
AcDbCircle
 10
64.46083265389756
 20
71.41397101276611
 30
0.0
 40
0.51181
  0
CIRCLE
  5
5B5
330
1F
100
AcDbEntity
  8
\U+9762\U+76C6
100
AcDbCircle
 10
66.58681265389756
 20
71.41397101276611
 30
0.0
 40
0.51181
  0
CIRCLE
  5
5B6
330
1F
100
AcDbEntity
  8
\U+9762\U+76C6
100
AcDbCircle
 10
65.52382265389756
 20
70.78405101276612
 30
0.0
 40
0.51181
  0
CIRCLE
  5
5B7
330
1F
100
AcDbEntity
  8
\U+9762\U+76C6
100
AcDbCircle
 10
67.64980265389755
 20
70.78405101276612
 30
0.0
 40
0.51181
  0
CIRCLE
  5
5B8
330
1F
100
AcDbEntity
  8
\U+9762\U+76C6
100
AcDbCircle
 10
62.33485265389756
 20
71.41397101276611
 30
0.0
 40
0.51181
  0
CIRCLE
  5
5B9
330
1F
100
AcDbEntity
  8
\U+9762\U+76C6
100
AcDbCircle
 10
63.39784265389756
 20
70.78405101276612
 30
0.0
 40
0.51181
  0
CIRCLE
  5
5BA
330
1F
100
AcDbEntity
  8
\U+9762\U+76C6
100
AcDbCircle
 10
65.52382265389756
 20
72.04389101276611
 30
0.0
 40
0.51181
  0
CIRCLE
  5
5BB
330
1F
100
AcDbEntity
  8
\U+9762\U+76C6
100
AcDbCircle
 10
63.39784265389756
 20
72.04389101276611
 30
0.0
 40
0.51181
  0
CIRCLE
  5
5BC
330
1F
100
AcDbEntity
  8
\U+9762\U+76C6
100
AcDbCircle
 10
64.46083265389756
 20
72.67381101276611
 30
0.0
 40
0.51181
  0
CIRCLE
  5
5BD
330
1F
100
AcDbEntity
  8
\U+9762\U+76C6
100
AcDbCircle
 10
62.33485265389756
 20
72.67381101276611
 30
0.0
 40
0.51181
  0
CIRCLE
  5
5BE
330
1F
100
AcDbEntity
  8
\U+9762\U+76C6
100
AcDbCircle
 10
67.64980265389755
 20
72.04389101276611
 30
0.0
 40
0.51181
  0
CIRCLE
  5
5BF
330
1F
100
AcDbEntity
  8
\U+9762\U+76C6
100
AcDbCircle
 10
66.58681265389756
 20
72.67381101276611
 30
0.0
 40
0.51181
  0
CIRCLE
  5
5C0
330
1F
100
AcDbEntity
  8
\U+9762\U+76C6
100
AcDbCircle
 10
60.20887265389756
 20
73.93365101276611
 30
0.0
 40
0.51181
  0
CIRCLE
  5
5C1
330
1F
100
AcDbEntity
  8
\U+9762\U+76C6
100
AcDbCircle
 10
60.20887265389756
 20
71.41397101276611
 30
0.0
 40
0.51181
  0
CIRCLE
  5
5C2
330
1F
100
AcDbEntity
  8
\U+9762\U+76C6
100
AcDbCircle
 10
60.20887265389756
 20
72.67381101276611
 30
0.0
 40
0.51181
  0
CIRCLE
  5
5C3
330
1F
100
AcDbEntity
  8
\U+9762\U+76C6
100
AcDbCircle
 10
61.27186265389756
 20
73.3037310127661
 30
0.0
 40
0.51181
  0
CIRCLE
  5
5C4
330
1F
100
AcDbEntity
  8
\U+9762\U+76C6
100
AcDbCircle
 10
61.27186265389756
 20
70.78405101276612
 30
0.0
 40
0.51181
  0
CIRCLE
  5
5C5
330
1F
100
AcDbEntity
  8
\U+9762\U+76C6
100
AcDbCircle
 10
61.27186265389756
 20
72.04389101276611
 30
0.0
 40
0.51181
  0
ARC
  5
5C6
330
1F
100
AcDbEntity
  8
0
100
AcDbCircle
 10
81.98048265389749
 20
66.7879960127659
 30
0.0
 40
3.937
100
AcDbArc
 50
281.8078184931807
 51
339.8093006265776
  0
ARC
  5
5C7
330
1F
100
AcDbEntity
  8
0
100
AcDbCircle
 10
81.4602202375087
 20
68.77648807273534
 30
0.0
 40
3.937
100
AcDbArc
 50
277.1184893189047
 51
358.0627792471752
  0
ARC
  5
5C9
330
1F
100
AcDbEntity
  8
0
100
AcDbCircle
 10
66.67357284024504
 20
140.0081252188628
 30
0.0
 40
78.74000000000001
100
AcDbArc
 50
275.7123340127805
 51
281.8078184931807
  0
ARC
  5
5CA
330
1F
100
AcDbEntity
  8
0
100
AcDbCircle
 10
88.67338265389749
 20
58.7171460127659
 30
0.0
 40
0.7874000000000001
100
AcDbArc
 50
270.0
 51
0.0
  0
CIRCLE
  5
5CB
330
1F
100
AcDbEntity
  8
\U+9762\U+76C6
100
AcDbCircle
 10
81.46867265389756
 20
70.15413101276611
 30
0.0
 40
0.51181
  0
CIRCLE
  5
5CC
330
1F
100
AcDbEntity
  8
\U+9762\U+76C6
100
AcDbCircle
 10
80.40568265389756
 20
69.52421101276612
 30
0.0
 40
0.51181
  0
CIRCLE
  5
5CD
330
1F
100
AcDbEntity
  8
\U+9762\U+76C6
100
AcDbCircle
 10
78.27970265389756
 20
69.52421101276612
 30
0.0
 40
0.51181
  0
CIRCLE
  5
5CE
330
1F
100
AcDbEntity
  8
\U+9762\U+76C6
100
AcDbCircle
 10
76.15372265389756
 20
69.52421101276612
 30
0.0
 40
0.51181
  0
CIRCLE
  5
5CF
330
1F
100
AcDbEntity
  8
\U+9762\U+76C6
100
AcDbCircle
 10
71.90176265389755
 20
69.52421101276612
 30
0.0
 40
0.51181
  0
CIRCLE
  5
5D0
330
1F
100
AcDbEntity
  8
\U+9762\U+76C6
100
AcDbCircle
 10
74.02774265389756
 20
69.52421101276612
 30
0.0
 40
0.51181
  0
CIRCLE
  5
5D1
330
1F
100
AcDbEntity
  8
\U+9762\U+76C6
100
AcDbCircle
 10
72.96475265389755
 20
70.15413101276611
 30
0.0
 40
0.51181
  0
CIRCLE
  5
5D2
330
1F
100
AcDbEntity
  8
\U+9762\U+76C6
100
AcDbCircle
 10
77.21671265389756
 20
70.15413101276611
 30
0.0
 40
0.51181
  0
CIRCLE
  5
5D3
330
1F
100
AcDbEntity
  8
\U+9762\U+76C6
100
AcDbCircle
 10
75.09073265389756
 20
70.15413101276611
 30
0.0
 40
0.51181
  0
CIRCLE
  5
5D4
330
1F
100
AcDbEntity
  8
\U+9762\U+76C6
100
AcDbCircle
 10
79.34269265389755
 20
70.15413101276611
 30
0.0
 40
0.51181
  0
CIRCLE
  5
5D5
330
1F
100
AcDbEntity
  8
\U+9762\U+76C6
100
AcDbCircle
 10
69.77578265389755
 20
69.52421101276612
 30
0.0
 40
0.51181
  0
CIRCLE
  5
5D6
330
1F
100
AcDbEntity
  8
\U+9762\U+76C6
100
AcDbCircle
 10
70.83877265389755
 20
70.15413101276611
 30
0.0
 40
0.51181
  0
CIRCLE
  5
5D7
330
1F
100
AcDbEntity
  8
\U+9762\U+76C6
100
AcDbCircle
 10
78.27970265389756
 20
68.2643710127661
 30
0.0
 40
0.51181
  0
CIRCLE
  5
5D8
330
1F
100
AcDbEntity
  8
\U+9762\U+76C6
100
AcDbCircle
 10
78.27970265389756
 20
67.00453101276611
 30
0.0
 40
0.51181
  0
CIRCLE
  5
5D9
330
1F
100
AcDbEntity
  8
\U+9762\U+76C6
100
AcDbCircle
 10
77.21671265389756
 20
67.63445101276611
 30
0.0
 40
0.51181
  0
CIRCLE
  5
5DA
330
1F
100
AcDbEntity
  8
\U+9762\U+76C6
100
AcDbCircle
 10
72.96475265389755
 20
67.63445101276611
 30
0.0
 40
0.51181
  0
CIRCLE
  5
5DB
330
1F
100
AcDbEntity
  8
\U+9762\U+76C6
100
AcDbCircle
 10
75.09073265389756
 20
67.63445101276611
 30
0.0
 40
0.51181
  0
CIRCLE
  5
5DC
330
1F
100
AcDbEntity
  8
\U+9762\U+76C6
100
AcDbCircle
 10
77.21671265389756
 20
68.89429101276611
 30
0.0
 40
0.51181
  0
CIRCLE
  5
5DD
330
1F
100
AcDbEntity
  8
\U+9762\U+76C6
100
AcDbCircle
 10
75.09073265389756
 20
68.89429101276611
 30
0.0
 40
0.51181
  0
CIRCLE
  5
5DE
330
1F
100
AcDbEntity
  8
\U+9762\U+76C6
100
AcDbCircle
 10
72.96475265389755
 20
68.89429101276611
 30
0.0
 40
0.51181
  0
CIRCLE
  5
5DF
330
1F
100
AcDbEntity
  8
\U+9762\U+76C6
100
AcDbCircle
 10
76.15372265389756
 20
68.2643710127661
 30
0.0
 40
0.51181
  0
CIRCLE
  5
5E0
330
1F
100
AcDbEntity
  8
\U+9762\U+76C6
100
AcDbCircle
 10
74.02774265389756
 20
68.2643710127661
 30
0.0
 40
0.51181
  0
CIRCLE
  5
5E1
330
1F
100
AcDbEntity
  8
\U+9762\U+76C6
100
AcDbCircle
 10
71.90176265389755
 20
68.2643710127661
 30
0.0
 40
0.51181
  0
CIRCLE
  5
5E2
330
1F
100
AcDbEntity
  8
\U+9762\U+76C6
100
AcDbCircle
 10
69.77578265389755
 20
68.2643710127661
 30
0.0
 40
0.51181
  0
CIRCLE
  5
5E3
330
1F
100
AcDbEntity
  8
\U+9762\U+76C6
100
AcDbCircle
 10
70.83877265389755
 20
68.89429101276611
 30
0.0
 40
0.51181
  0
CIRCLE
  5
5E4
330
1F
100
AcDbEntity
  8
\U+9762\U+76C6
100
AcDbCircle
 10
70.83877265389755
 20
67.63445101276611
 30
0.0
 40
0.51181
  0
CIRCLE
  5
5E5
330
1F
100
AcDbEntity
  8
\U+9762\U+76C6
100
AcDbCircle
 10
76.15372265389756
 20
67.00453101276611
 30
0.0
 40
0.51181
  0
CIRCLE
  5
5E6
330
1F
100
AcDbEntity
  8
\U+9762\U+76C6
100
AcDbCircle
 10
74.02774265389756
 20
67.00453101276611
 30
0.0
 40
0.51181
  0
CIRCLE
  5
5E7
330
1F
100
AcDbEntity
  8
\U+9762\U+76C6
100
AcDbCircle
 10
71.90176265389755
 20
67.00453101276611
 30
0.0
 40
0.51181
  0
CIRCLE
  5
5E8
330
1F
100
AcDbEntity
  8
\U+9762\U+76C6
100
AcDbCircle
 10
69.77578265389755
 20
67.00453101276611
 30
0.0
 40
0.51181
  0
CIRCLE
  5
5E9
330
1F
100
AcDbEntity
  8
\U+9762\U+76C6
100
AcDbCircle
 10
81.46867265389756
 20
68.89429101276611
 30
0.0
 40
0.51181
  0
CIRCLE
  5
5EA
330
1F
100
AcDbEntity
  8
\U+9762\U+76C6
100
AcDbCircle
 10
79.34269265389755
 20
67.63445101276611
 30
0.0
 40
0.51181
  0
CIRCLE
  5
5EB
330
1F
100
AcDbEntity
  8
\U+9762\U+76C6
100
AcDbCircle
 10
79.34269265389755
 20
68.89429101276611
 30
0.0
 40
0.51181
  0
CIRCLE
  5
5EC
330
1F
100
AcDbEntity
  8
\U+9762\U+76C6
100
AcDbCircle
 10
80.40568265389756
 20
68.2643710127661
 30
0.0
 40
0.51181
  0
ARC
  5
5ED
330
1F
100
AcDbEntity
  8
0
100
AcDbCircle
 10
74.59034734394413
 20
69.50567445227602
 30
0.0
 40
11.811
100
AcDbArc
 50
338.0446242920556
 51
358.2580819816211
  0
CIRCLE
  5
5EE
330
1F
100
AcDbEntity
  8
\U+9762\U+76C6
100
AcDbCircle
 10
78.27970265389756
 20
70.78405101276612
 30
0.0
 40
0.51181
  0
ARC
  5
5EF
330
1F
100
AcDbEntity
  8
\U+9762\U+76C6
100
AcDbCircle
 10
79.34269265389755
 20
71.41397101276611
 30
0.0
 40
0.51181
100
AcDbArc
 50
160.6369598978664
 51
314.0737598323111
  0
ARC
  5
5F0
330
1F
100
AcDbEntity
  8
\U+9762\U+76C6
100
AcDbCircle
 10
78.27970265389756
 20
72.04389101276611
 30
0.0
 40
0.51181
100
AcDbArc
 50
106.4292028061786
 51
324.0059831301893
  0
ARC
  5
5F1
330
1F
100
AcDbEntity
  8
\U+9762\U+76C6
100
AcDbCircle
 10
80.95686265389756
 20
73.93365101276597
 30
0.0
 40
3.1496
100
AcDbArc
 50
187.0053004702185
 51
199.4757393601523
  0
ARC
  5
5F2
330
1F
100
AcDbEntity
  8
\U+9762\U+76C6
100
AcDbCircle
 10
78.27970265389756
 20
73.3037310127661
 30
0.0
 40
0.51181
100
AcDbArc
 50
151.2989879528032
 51
235.1820518775707
  0
CIRCLE
  5
5F3
330
1F
100
AcDbEntity
  8
\U+9762\U+76C6
100
AcDbCircle
 10
76.15372265389756
 20
73.3037310127661
 30
0.0
 40
0.51181
  0
CIRCLE
  5
5F4
330
1F
100
AcDbEntity
  8
\U+9762\U+76C6
100
AcDbCircle
 10
71.90176265389755
 20
73.3037310127661
 30
0.0
 40
0.51181
  0
CIRCLE
  5
5F5
330
1F
100
AcDbEntity
  8
\U+9762\U+76C6
100
AcDbCircle
 10
74.02774265389756
 20
73.3037310127661
 30
0.0
 40
0.51181
  0
CIRCLE
  5
5F6
330
1F
100
AcDbEntity
  8
\U+9762\U+76C6
100
AcDbCircle
 10
72.96475265389755
 20
73.93365101276611
 30
0.0
 40
0.51181
  0
CIRCLE
  5
5F7
330
1F
100
AcDbEntity
  8
\U+9762\U+76C6
100
AcDbCircle
 10
77.21671265389756
 20
73.93365101276611
 30
0.0
 40
0.51181
  0
CIRCLE
  5
5F8
330
1F
100
AcDbEntity
  8
\U+9762\U+76C6
100
AcDbCircle
 10
75.09073265389756
 20
73.93365101276611
 30
0.0
 40
0.51181
  0
CIRCLE
  5
5F9
330
1F
100
AcDbEntity
  8
\U+9762\U+76C6
100
AcDbCircle
 10
69.77578265389755
 20
73.3037310127661
 30
0.0
 40
0.51181
  0
CIRCLE
  5
5FA
330
1F
100
AcDbEntity
  8
\U+9762\U+76C6
100
AcDbCircle
 10
70.83877265389755
 20
73.93365101276611
 30
0.0
 40
0.51181
  0
CIRCLE
  5
5FB
330
1F
100
AcDbEntity
  8
\U+9762\U+76C6
100
AcDbCircle
 10
77.21671265389756
 20
71.41397101276611
 30
0.0
 40
0.51181
  0
CIRCLE
  5
5FC
330
1F
100
AcDbEntity
  8
\U+9762\U+76C6
100
AcDbCircle
 10
72.96475265389755
 20
71.41397101276611
 30
0.0
 40
0.51181
  0
CIRCLE
  5
5FD
330
1F
100
AcDbEntity
  8
\U+9762\U+76C6
100
AcDbCircle
 10
75.09073265389756
 20
71.41397101276611
 30
0.0
 40
0.51181
  0
CIRCLE
  5
5FE
330
1F
100
AcDbEntity
  8
\U+9762\U+76C6
100
AcDbCircle
 10
71.90176265389755
 20
70.78405101276612
 30
0.0
 40
0.51181
  0
CIRCLE
  5
5FF
330
1F
100
AcDbEntity
  8
\U+9762\U+76C6
100
AcDbCircle
 10
76.15372265389756
 20
70.78405101276612
 30
0.0
 40
0.51181
  0
CIRCLE
  5
600
330
1F
100
AcDbEntity
  8
\U+9762\U+76C6
100
AcDbCircle
 10
74.02774265389756
 20
70.78405101276612
 30
0.0
 40
0.51181
  0
CIRCLE
  5
601
330
1F
100
AcDbEntity
  8
\U+9762\U+76C6
100
AcDbCircle
 10
69.77578265389755
 20
70.78405101276612
 30
0.0
 40
0.51181
  0
CIRCLE
  5
602
330
1F
100
AcDbEntity
  8
\U+9762\U+76C6
100
AcDbCircle
 10
70.83877265389755
 20
71.41397101276611
 30
0.0
 40
0.51181
  0
ARC
  5
603
330
1F
100
AcDbEntity
  8
\U+9762\U+76C6
100
AcDbCircle
 10
80.95686265389756
 20
73.93365101276597
 30
0.0
 40
3.1496
100
AcDbArc
 50
206.3680021705659
 51
224.0671837658317
  0
CIRCLE
  5
604
330
1F
100
AcDbEntity
  8
\U+9762\U+76C6
100
AcDbCircle
 10
76.15372265389756
 20
72.04389101276611
 30
0.0
 40
0.51181
  0
CIRCLE
  5
605
330
1F
100
AcDbEntity
  8
\U+9762\U+76C6
100
AcDbCircle
 10
74.02774265389756
 20
72.04389101276611
 30
0.0
 40
0.51181
  0
CIRCLE
  5
606
330
1F
100
AcDbEntity
  8
\U+9762\U+76C6
100
AcDbCircle
 10
71.90176265389755
 20
72.04389101276611
 30
0.0
 40
0.51181
  0
CIRCLE
  5
607
330
1F
100
AcDbEntity
  8
\U+9762\U+76C6
100
AcDbCircle
 10
69.77578265389755
 20
72.04389101276611
 30
0.0
 40
0.51181
  0
CIRCLE
  5
608
330
1F
100
AcDbEntity
  8
\U+9762\U+76C6
100
AcDbCircle
 10
72.96475265389755
 20
72.67381101276611
 30
0.0
 40
0.51181
  0
CIRCLE
  5
609
330
1F
100
AcDbEntity
  8
\U+9762\U+76C6
100
AcDbCircle
 10
70.83877265389755
 20
72.67381101276611
 30
0.0
 40
0.51181
  0
CIRCLE
  5
60A
330
1F
100
AcDbEntity
  8
\U+9762\U+76C6
100
AcDbCircle
 10
77.21671265389756
 20
72.67381101276611
 30
0.0
 40
0.51181
  0
CIRCLE
  5
60B
330
1F
100
AcDbEntity
  8
\U+9762\U+76C6
100
AcDbCircle
 10
75.09073265389756
 20
72.67381101276611
 30
0.0
 40
0.51181
  0
LINE
  5
60C
330
1F
100
AcDbEntity
  8
\U+9762\U+76C6
  6
CENTER
100
AcDbLine
 10
80.95686265389756
 20
73.93365101276611
 30
0.0
 11
80.95686265389756
 21
73.93365101276597
 31
0.0
  0
ARC
  5
60D
330
1F
100
AcDbEntity
  8
\U+9762\U+76C6
100
AcDbCircle
 10
80.95686265389756
 20
73.93365101276597
 30
0.0
 40
3.1496
100
AcDbArc
 50
250.8637259590361
 51
269.2837830276035
  0
ARC
  5
60E
330
1F
100
AcDbEntity
  8
\U+9762\U+76C6
100
AcDbCircle
 10
80.95686265389756
 20
73.93365101276597
 30
0.0
 40
3.1496
100
AcDbArc
 50
228.2556211785793
 51
246.4550985515457
  0
ARC
  5
60F
330
1F
100
AcDbEntity
  8
\U+9762\U+76C6
100
AcDbCircle
 10
80.40568265389756
 20
70.78405101276612
 30
0.0
 40
0.51181
100
AcDbArc
 50
160.1199617789205
 51
0.0275472077826363
  0
LINE
  5
610
330
1F
100
AcDbEntity
  8
0\U+7EC6
  6
CENTER
100
AcDbLine
 10
80.95686265389742
 20
73.93365101276604
 30
0.0
 11
80.95686265389749
 21
73.93365101276589
 31
0.0
  0
CIRCLE
  5
611
330
1F
100
AcDbEntity
  8
\U+9762\U+76C6
100
AcDbCircle
 10
68.71279265389755
 20
80.23285101276611
 30
0.0
 40
0.51181
  0
CIRCLE
  5
612
330
1F
100
AcDbEntity
  8
\U+9762\U+76C6
100
AcDbCircle
 10
68.71279265389755
 20
78.9730110127661
 30
0.0
 40
0.51181
  0
CIRCLE
  5
613
330
1F
100
AcDbEntity
  8
\U+9762\U+76C6
100
AcDbCircle
 10
68.71279265389755
 20
76.45333101276611
 30
0.0
 40
0.51181
  0
CIRCLE
  5
614
330
1F
100
AcDbEntity
  8
\U+9762\U+76C6
100
AcDbCircle
 10
68.71279265389755
 20
77.71317101276611
 30
0.0
 40
0.51181
  0
ARC
  5
615
330
1F
100
AcDbEntity
  8
0
100
AcDbCircle
 10
43.16166265389741
 20
-227.5814939872339
 30
0.0
 40
312.9915
100
AcDbArc
 50
82.88151068109533
 51
86.35503009753854
  0
ARC
  5
616
330
1F
100
AcDbEntity
  8
0
100
AcDbCircle
 10
43.16166265389748
 20
-227.1877939872341
 30
0.0
 40
314.96
100
AcDbArc
 50
84.28766598721956
 51
90.79665965519954
  0
ARC
  5
617
330
1F
100
AcDbEntity
  8
0
100
AcDbCircle
 10
58.05392633437418
 20
6.196147661237575
 30
0.0
 40
78.74000000000001
100
AcDbArc
 50
86.35503009753854
 51
93.92577601864701
  0
ARC
  5
618
330
1F
100
AcDbEntity
  8
0
100
AcDbCircle
 10
42.51420075540815
 20
80.48753910826034
 30
0.0
 40
3.937
100
AcDbArc
 50
90.21537455809717
 51
177.5536217994547
  0
CIRCLE
  5
619
330
1F
100
AcDbEntity
  8
\U+9762\U+76C6
100
AcDbCircle
 10
49.57897265389755
 20
80.23285101276611
 30
0.0
 40
0.51181
  0
CIRCLE
  5
61A
330
1F
100
AcDbEntity
  8
\U+9762\U+76C6
100
AcDbCircle
 10
49.57897265389755
 20
78.9730110127661
 30
0.0
 40
0.51181
  0
CIRCLE
  5
61B
330
1F
100
AcDbEntity
  8
\U+9762\U+76C6
100
AcDbCircle
 10
49.57897265389755
 20
76.45333101276611
 30
0.0
 40
0.51181
  0
CIRCLE
  5
61C
330
1F
100
AcDbEntity
  8
\U+9762\U+76C6
100
AcDbCircle
 10
49.57897265389755
 20
77.71317101276611
 30
0.0
 40
0.51181
  0
ARC
  5
61D
330
1F
100
AcDbEntity
  8
0
100
AcDbCircle
 10
43.16166265389748
 20
223.2050060127658
 30
0.0
 40
138.77925
100
AcDbArc
 50
270.0
 51
273.925776018647
  0
CIRCLE
  5
61E
330
1F
100
AcDbEntity
  8
\U+9762\U+76C6
100
AcDbCircle
 10
44.26402265389755
 20
79.60293101276611
 30
0.0
 40
0.51181
  0
CIRCLE
  5
61F
330
1F
100
AcDbEntity
  8
\U+9762\U+76C6
100
AcDbCircle
 10
43.20103265389755
 20
80.23285101276611
 30
0.0
 40
0.51181
  0
CIRCLE
  5
620
330
1F
100
AcDbEntity
  8
\U+9762\U+76C6
100
AcDbCircle
 10
45.32701265389755
 20
80.23285101276611
 30
0.0
 40
0.51181
  0
CIRCLE
  5
621
330
1F
100
AcDbEntity
  8
\U+9762\U+76C6
100
AcDbCircle
 10
47.45299265389755
 20
80.23285101276611
 30
0.0
 40
0.51181
  0
CIRCLE
  5
622
330
1F
100
AcDbEntity
  8
\U+9762\U+76C6
100
AcDbCircle
 10
46.39000265389755
 20
79.60293101276611
 30
0.0
 40
0.51181
  0
CIRCLE
  5
623
330
1F
100
AcDbEntity
  8
\U+9762\U+76C6
100
AcDbCircle
 10
48.51598265389755
 20
79.60293101276611
 30
0.0
 40
0.51181
  0
CIRCLE
  5
624
330
1F
100
AcDbEntity
  8
\U+9762\U+76C6
100
AcDbCircle
 10
42.13804265389756
 20
79.60293101276611
 30
0.0
 40
0.51181
  0
CIRCLE
  5
625
330
1F
100
AcDbEntity
  8
\U+9762\U+76C6
100
AcDbCircle
 10
43.20103265389755
 20
78.9730110127661
 30
0.0
 40
0.51181
  0
CIRCLE
  5
626
330
1F
100
AcDbEntity
  8
\U+9762\U+76C6
100
AcDbCircle
 10
45.32701265389755
 20
78.9730110127661
 30
0.0
 40
0.51181
  0
CIRCLE
  5
627
330
1F
100
AcDbEntity
  8
\U+9762\U+76C6
100
AcDbCircle
 10
47.45299265389755
 20
78.9730110127661
 30
0.0
 40
0.51181
  0
CIRCLE
  5
628
330
1F
100
AcDbEntity
  8
\U+9762\U+76C6
100
AcDbCircle
 10
44.26402265389755
 20
77.08325101276611
 30
0.0
 40
0.51181
  0
CIRCLE
  5
629
330
1F
100
AcDbEntity
  8
\U+9762\U+76C6
100
AcDbCircle
 10
44.26402265389755
 20
75.82341101276611
 30
0.0
 40
0.51181
  0
CIRCLE
  5
62A
330
1F
100
AcDbEntity
  8
\U+9762\U+76C6
100
AcDbCircle
 10
43.20103265389755
 20
76.45333101276611
 30
0.0
 40
0.51181
  0
CIRCLE
  5
62B
330
1F
100
AcDbEntity
  8
\U+9762\U+76C6
100
AcDbCircle
 10
48.51598265389755
 20
77.08325101276611
 30
0.0
 40
0.51181
  0
CIRCLE
  5
62C
330
1F
100
AcDbEntity
  8
\U+9762\U+76C6
100
AcDbCircle
 10
46.39000265389755
 20
77.08325101276611
 30
0.0
 40
0.51181
  0
CIRCLE
  5
62D
330
1F
100
AcDbEntity
  8
\U+9762\U+76C6
100
AcDbCircle
 10
45.32701265389755
 20
76.45333101276611
 30
0.0
 40
0.51181
  0
CIRCLE
  5
62E
330
1F
100
AcDbEntity
  8
\U+9762\U+76C6
100
AcDbCircle
 10
47.45299265389755
 20
76.45333101276611
 30
0.0
 40
0.51181
  0
CIRCLE
  5
62F
330
1F
100
AcDbEntity
  8
\U+9762\U+76C6
100
AcDbCircle
 10
48.51598265389755
 20
75.82341101276611
 30
0.0
 40
0.51181
  0
CIRCLE
  5
630
330
1F
100
AcDbEntity
  8
\U+9762\U+76C6
100
AcDbCircle
 10
46.39000265389755
 20
75.82341101276611
 30
0.0
 40
0.51181
  0
CIRCLE
  5
631
330
1F
100
AcDbEntity
  8
\U+9762\U+76C6
100
AcDbCircle
 10
48.51598265389755
 20
78.34309101276611
 30
0.0
 40
0.51181
  0
CIRCLE
  5
632
330
1F
100
AcDbEntity
  8
\U+9762\U+76C6
100
AcDbCircle
 10
44.26402265389755
 20
78.34309101276611
 30
0.0
 40
0.51181
  0
CIRCLE
  5
633
330
1F
100
AcDbEntity
  8
\U+9762\U+76C6
100
AcDbCircle
 10
46.39000265389755
 20
78.34309101276611
 30
0.0
 40
0.51181
  0
CIRCLE
  5
634
330
1F
100
AcDbEntity
  8
\U+9762\U+76C6
100
AcDbCircle
 10
43.20103265389755
 20
77.71317101276611
 30
0.0
 40
0.51181
  0
CIRCLE
  5
635
330
1F
100
AcDbEntity
  8
\U+9762\U+76C6
100
AcDbCircle
 10
45.32701265389755
 20
77.71317101276611
 30
0.0
 40
0.51181
  0
CIRCLE
  5
636
330
1F
100
AcDbEntity
  8
\U+9762\U+76C6
100
AcDbCircle
 10
47.45299265389755
 20
77.71317101276611
 30
0.0
 40
0.51181
  0
CIRCLE
  5
637
330
1F
100
AcDbEntity
  8
\U+9762\U+76C6
100
AcDbCircle
 10
41.07505265389755
 20
78.9730110127661
 30
0.0
 40
0.51181
  0
CIRCLE
  5
638
330
1F
100
AcDbEntity
  8
\U+9762\U+76C6
100
AcDbCircle
 10
41.07505265389755
 20
76.45333101276611
 30
0.0
 40
0.51181
  0
CIRCLE
  5
639
330
1F
100
AcDbEntity
  8
\U+9762\U+76C6
100
AcDbCircle
 10
41.07505265389755
 20
77.71317101276611
 30
0.0
 40
0.51181
  0
CIRCLE
  5
63A
330
1F
100
AcDbEntity
  8
\U+9762\U+76C6
100
AcDbCircle
 10
42.13804265389756
 20
78.34309101276611
 30
0.0
 40
0.51181
  0
CIRCLE
  5
63B
330
1F
100
AcDbEntity
  8
\U+9762\U+76C6
100
AcDbCircle
 10
42.13804265389756
 20
77.08325101276611
 30
0.0
 40
0.51181
  0
CIRCLE
  5
63C
330
1F
100
AcDbEntity
  8
\U+9762\U+76C6
100
AcDbCircle
 10
42.13804265389756
 20
75.82341101276611
 30
0.0
 40
0.51181
  0
CIRCLE
  5
63D
330
1F
100
AcDbEntity
  8
\U+9762\U+76C6
100
AcDbCircle
 10
44.26402265389755
 20
80.86277101276612
 30
0.0
 40
0.51181
  0
CIRCLE
  5
63E
330
1F
100
AcDbEntity
  8
\U+9762\U+76C6
100
AcDbCircle
 10
48.51598265389755
 20
80.86277101276612
 30
0.0
 40
0.51181
  0
CIRCLE
  5
63F
330
1F
100
AcDbEntity
  8
\U+9762\U+76C6
100
AcDbCircle
 10
46.39000265389755
 20
80.86277101276612
 30
0.0
 40
0.51181
  0
ARC
  5
640
330
1F
100
AcDbEntity
  8
0
100
AcDbCircle
 10
43.16166265389741
 20
-91.75499398723419
 30
0.0
 40
176.18075
100
AcDbArc
 50
90.0
 51
90.21537455809717
  0
CIRCLE
  5
641
330
1F
100
AcDbEntity
  8
\U+9762\U+76C6
100
AcDbCircle
 10
64.46083265389756
 20
80.23285101276611
 30
0.0
 40
0.51181
  0
CIRCLE
  5
642
330
1F
100
AcDbEntity
  8
\U+9762\U+76C6
100
AcDbCircle
 10
66.58681265389756
 20
80.23285101276611
 30
0.0
 40
0.51181
  0
CIRCLE
  5
643
330
1F
100
AcDbEntity
  8
\U+9762\U+76C6
100
AcDbCircle
 10
62.33485265389756
 20
80.23285101276611
 30
0.0
 40
0.51181
  0
CIRCLE
  5
644
330
1F
100
AcDbEntity
  8
\U+9762\U+76C6
100
AcDbCircle
 10
65.52382265389756
 20
79.60293101276611
 30
0.0
 40
0.51181
  0
CIRCLE
  5
645
330
1F
100
AcDbEntity
  8
\U+9762\U+76C6
100
AcDbCircle
 10
63.39784265389756
 20
79.60293101276611
 30
0.0
 40
0.51181
  0
CIRCLE
  5
646
330
1F
100
AcDbEntity
  8
\U+9762\U+76C6
100
AcDbCircle
 10
67.64980265389755
 20
79.60293101276611
 30
0.0
 40
0.51181
  0
CIRCLE
  5
647
330
1F
100
AcDbEntity
  8
\U+9762\U+76C6
100
AcDbCircle
 10
57.01990265389755
 20
79.60293101276611
 30
0.0
 40
0.51181
  0
CIRCLE
  5
648
330
1F
100
AcDbEntity
  8
\U+9762\U+76C6
100
AcDbCircle
 10
55.95691265389755
 20
80.23285101276611
 30
0.0
 40
0.51181
  0
CIRCLE
  5
649
330
1F
100
AcDbEntity
  8
\U+9762\U+76C6
100
AcDbCircle
 10
53.83093265389756
 20
80.23285101276611
 30
0.0
 40
0.51181
  0
CIRCLE
  5
64A
330
1F
100
AcDbEntity
  8
\U+9762\U+76C6
100
AcDbCircle
 10
52.76794265389756
 20
79.60293101276611
 30
0.0
 40
0.51181
  0
CIRCLE
  5
64B
330
1F
100
AcDbEntity
  8
\U+9762\U+76C6
100
AcDbCircle
 10
54.89392265389755
 20
79.60293101276611
 30
0.0
 40
0.51181
  0
CIRCLE
  5
64C
330
1F
100
AcDbEntity
  8
\U+9762\U+76C6
100
AcDbCircle
 10
60.20887265389756
 20
80.23285101276611
 30
0.0
 40
0.51181
  0
CIRCLE
  5
64D
330
1F
100
AcDbEntity
  8
\U+9762\U+76C6
100
AcDbCircle
 10
58.08289265389755
 20
80.23285101276611
 30
0.0
 40
0.51181
  0
CIRCLE
  5
64E
330
1F
100
AcDbEntity
  8
\U+9762\U+76C6
100
AcDbCircle
 10
59.14588265389755
 20
79.60293101276611
 30
0.0
 40
0.51181
  0
CIRCLE
  5
64F
330
1F
100
AcDbEntity
  8
\U+9762\U+76C6
100
AcDbCircle
 10
50.64196265389755
 20
79.60293101276611
 30
0.0
 40
0.51181
  0
CIRCLE
  5
650
330
1F
100
AcDbEntity
  8
\U+9762\U+76C6
100
AcDbCircle
 10
51.70495265389756
 20
80.23285101276611
 30
0.0
 40
0.51181
  0
CIRCLE
  5
651
330
1F
100
AcDbEntity
  8
\U+9762\U+76C6
100
AcDbCircle
 10
61.27186265389756
 20
79.60293101276611
 30
0.0
 40
0.51181
  0
CIRCLE
  5
652
330
1F
100
AcDbEntity
  8
\U+9762\U+76C6
100
AcDbCircle
 10
59.14588265389755
 20
77.08325101276611
 30
0.0
 40
0.51181
  0
CIRCLE
  5
653
330
1F
100
AcDbEntity
  8
\U+9762\U+76C6
100
AcDbCircle
 10
59.14588265389755
 20
75.82341101276611
 30
0.0
 40
0.51181
  0
CIRCLE
  5
654
330
1F
100
AcDbEntity
  8
\U+9762\U+76C6
100
AcDbCircle
 10
59.14588265389755
 20
78.34309101276611
 30
0.0
 40
0.51181
  0
CIRCLE
  5
655
330
1F
100
AcDbEntity
  8
\U+9762\U+76C6
100
AcDbCircle
 10
55.95691265389755
 20
78.9730110127661
 30
0.0
 40
0.51181
  0
CIRCLE
  5
656
330
1F
100
AcDbEntity
  8
\U+9762\U+76C6
100
AcDbCircle
 10
53.83093265389756
 20
78.9730110127661
 30
0.0
 40
0.51181
  0
CIRCLE
  5
657
330
1F
100
AcDbEntity
  8
\U+9762\U+76C6
100
AcDbCircle
 10
58.08289265389755
 20
78.9730110127661
 30
0.0
 40
0.51181
  0
CIRCLE
  5
658
330
1F
100
AcDbEntity
  8
\U+9762\U+76C6
100
AcDbCircle
 10
51.70495265389756
 20
78.9730110127661
 30
0.0
 40
0.51181
  0
CIRCLE
  5
659
330
1F
100
AcDbEntity
  8
\U+9762\U+76C6
100
AcDbCircle
 10
57.01990265389755
 20
77.08325101276611
 30
0.0
 40
0.51181
  0
CIRCLE
  5
65A
330
1F
100
AcDbEntity
  8
\U+9762\U+76C6
100
AcDbCircle
 10
57.01990265389755
 20
75.82341101276611
 30
0.0
 40
0.51181
  0
CIRCLE
  5
65B
330
1F
100
AcDbEntity
  8
\U+9762\U+76C6
100
AcDbCircle
 10
55.95691265389755
 20
76.45333101276611
 30
0.0
 40
0.51181
  0
CIRCLE
  5
65C
330
1F
100
AcDbEntity
  8
\U+9762\U+76C6
100
AcDbCircle
 10
52.76794265389756
 20
77.08325101276611
 30
0.0
 40
0.51181
  0
CIRCLE
  5
65D
330
1F
100
AcDbEntity
  8
\U+9762\U+76C6
100
AcDbCircle
 10
53.83093265389756
 20
76.45333101276611
 30
0.0
 40
0.51181
  0
CIRCLE
  5
65E
330
1F
100
AcDbEntity
  8
\U+9762\U+76C6
100
AcDbCircle
 10
54.89392265389755
 20
77.08325101276611
 30
0.0
 40
0.51181
  0
CIRCLE
  5
65F
330
1F
100
AcDbEntity
  8
\U+9762\U+76C6
100
AcDbCircle
 10
52.76794265389756
 20
75.82341101276611
 30
0.0
 40
0.51181
  0
CIRCLE
  5
660
330
1F
100
AcDbEntity
  8
\U+9762\U+76C6
100
AcDbCircle
 10
54.89392265389755
 20
75.82341101276611
 30
0.0
 40
0.51181
  0
CIRCLE
  5
661
330
1F
100
AcDbEntity
  8
\U+9762\U+76C6
100
AcDbCircle
 10
58.08289265389755
 20
76.45333101276611
 30
0.0
 40
0.51181
  0
CIRCLE
  5
662
330
1F
100
AcDbEntity
  8
\U+9762\U+76C6
100
AcDbCircle
 10
50.64196265389755
 20
77.08325101276611
 30
0.0
 40
0.51181
  0
CIRCLE
  5
663
330
1F
100
AcDbEntity
  8
\U+9762\U+76C6
100
AcDbCircle
 10
50.64196265389755
 20
75.82341101276611
 30
0.0
 40
0.51181
  0
CIRCLE
  5
664
330
1F
100
AcDbEntity
  8
\U+9762\U+76C6
100
AcDbCircle
 10
51.70495265389756
 20
76.45333101276611
 30
0.0
 40
0.51181
  0
CIRCLE
  5
665
330
1F
100
AcDbEntity
  8
\U+9762\U+76C6
100
AcDbCircle
 10
57.01990265389755
 20
78.34309101276611
 30
0.0
 40
0.51181
  0
CIRCLE
  5
666
330
1F
100
AcDbEntity
  8
\U+9762\U+76C6
100
AcDbCircle
 10
52.76794265389756
 20
78.34309101276611
 30
0.0
 40
0.51181
  0
CIRCLE
  5
667
330
1F
100
AcDbEntity
  8
\U+9762\U+76C6
100
AcDbCircle
 10
54.89392265389755
 20
78.34309101276611
 30
0.0
 40
0.51181
  0
CIRCLE
  5
668
330
1F
100
AcDbEntity
  8
\U+9762\U+76C6
100
AcDbCircle
 10
50.64196265389755
 20
78.34309101276611
 30
0.0
 40
0.51181
  0
CIRCLE
  5
669
330
1F
100
AcDbEntity
  8
\U+9762\U+76C6
100
AcDbCircle
 10
55.95691265389755
 20
77.71317101276611
 30
0.0
 40
0.51181
  0
CIRCLE
  5
66A
330
1F
100
AcDbEntity
  8
\U+9762\U+76C6
100
AcDbCircle
 10
51.70495265389756
 20
77.71317101276611
 30
0.0
 40
0.51181
  0
CIRCLE
  5
66B
330
1F
100
AcDbEntity
  8
\U+9762\U+76C6
100
AcDbCircle
 10
53.83093265389756
 20
77.71317101276611
 30
0.0
 40
0.51181
  0
CIRCLE
  5
66C
330
1F
100
AcDbEntity
  8
\U+9762\U+76C6
100
AcDbCircle
 10
58.08289265389755
 20
77.71317101276611
 30
0.0
 40
0.51181
  0
CIRCLE
  5
66D
330
1F
100
AcDbEntity
  8
\U+9762\U+76C6
100
AcDbCircle
 10
64.46083265389756
 20
78.9730110127661
 30
0.0
 40
0.51181
  0
CIRCLE
  5
66E
330
1F
100
AcDbEntity
  8
\U+9762\U+76C6
100
AcDbCircle
 10
66.58681265389756
 20
78.9730110127661
 30
0.0
 40
0.51181
  0
CIRCLE
  5
66F
330
1F
100
AcDbEntity
  8
\U+9762\U+76C6
100
AcDbCircle
 10
62.33485265389756
 20
78.9730110127661
 30
0.0
 40
0.51181
  0
CIRCLE
  5
670
330
1F
100
AcDbEntity
  8
\U+9762\U+76C6
100
AcDbCircle
 10
65.52382265389756
 20
77.08325101276611
 30
0.0
 40
0.51181
  0
CIRCLE
  5
671
330
1F
100
AcDbEntity
  8
\U+9762\U+76C6
100
AcDbCircle
 10
64.46083265389756
 20
76.45333101276611
 30
0.0
 40
0.51181
  0
CIRCLE
  5
672
330
1F
100
AcDbEntity
  8
\U+9762\U+76C6
100
AcDbCircle
 10
66.58681265389756
 20
76.45333101276611
 30
0.0
 40
0.51181
  0
CIRCLE
  5
673
330
1F
100
AcDbEntity
  8
\U+9762\U+76C6
100
AcDbCircle
 10
67.64980265389755
 20
77.08325101276611
 30
0.0
 40
0.51181
  0
CIRCLE
  5
674
330
1F
100
AcDbEntity
  8
\U+9762\U+76C6
100
AcDbCircle
 10
62.33485265389756
 20
76.45333101276611
 30
0.0
 40
0.51181
  0
CIRCLE
  5
675
330
1F
100
AcDbEntity
  8
\U+9762\U+76C6
100
AcDbCircle
 10
63.39784265389756
 20
77.08325101276611
 30
0.0
 40
0.51181
  0
CIRCLE
  5
676
330
1F
100
AcDbEntity
  8
\U+9762\U+76C6
100
AcDbCircle
 10
67.64980265389755
 20
75.82341101276611
 30
0.0
 40
0.51181
  0
CIRCLE
  5
677
330
1F
100
AcDbEntity
  8
\U+9762\U+76C6
100
AcDbCircle
 10
65.52382265389756
 20
75.82341101276611
 30
0.0
 40
0.51181
  0
CIRCLE
  5
678
330
1F
100
AcDbEntity
  8
\U+9762\U+76C6
100
AcDbCircle
 10
63.39784265389756
 20
75.82341101276611
 30
0.0
 40
0.51181
  0
CIRCLE
  5
679
330
1F
100
AcDbEntity
  8
\U+9762\U+76C6
100
AcDbCircle
 10
65.52382265389756
 20
78.34309101276611
 30
0.0
 40
0.51181
  0
CIRCLE
  5
67A
330
1F
100
AcDbEntity
  8
\U+9762\U+76C6
100
AcDbCircle
 10
67.64980265389755
 20
78.34309101276611
 30
0.0
 40
0.51181
  0
CIRCLE
  5
67B
330
1F
100
AcDbEntity
  8
\U+9762\U+76C6
100
AcDbCircle
 10
63.39784265389756
 20
78.34309101276611
 30
0.0
 40
0.51181
  0
CIRCLE
  5
67C
330
1F
100
AcDbEntity
  8
\U+9762\U+76C6
100
AcDbCircle
 10
64.46083265389756
 20
77.71317101276611
 30
0.0
 40
0.51181
  0
CIRCLE
  5
67D
330
1F
100
AcDbEntity
  8
\U+9762\U+76C6
100
AcDbCircle
 10
66.58681265389756
 20
77.71317101276611
 30
0.0
 40
0.51181
  0
CIRCLE
  5
67E
330
1F
100
AcDbEntity
  8
\U+9762\U+76C6
100
AcDbCircle
 10
62.33485265389756
 20
77.71317101276611
 30
0.0
 40
0.51181
  0
CIRCLE
  5
67F
330
1F
100
AcDbEntity
  8
\U+9762\U+76C6
100
AcDbCircle
 10
60.20887265389756
 20
78.9730110127661
 30
0.0
 40
0.51181
  0
CIRCLE
  5
680
330
1F
100
AcDbEntity
  8
\U+9762\U+76C6
100
AcDbCircle
 10
60.20887265389756
 20
76.45333101276611
 30
0.0
 40
0.51181
  0
CIRCLE
  5
681
330
1F
100
AcDbEntity
  8
\U+9762\U+76C6
100
AcDbCircle
 10
60.20887265389756
 20
77.71317101276611
 30
0.0
 40
0.51181
  0
CIRCLE
  5
682
330
1F
100
AcDbEntity
  8
\U+9762\U+76C6
100
AcDbCircle
 10
61.27186265389756
 20
78.34309101276611
 30
0.0
 40
0.51181
  0
CIRCLE
  5
683
330
1F
100
AcDbEntity
  8
\U+9762\U+76C6
100
AcDbCircle
 10
61.27186265389756
 20
77.08325101276611
 30
0.0
 40
0.51181
  0
CIRCLE
  5
684
330
1F
100
AcDbEntity
  8
\U+9762\U+76C6
100
AcDbCircle
 10
61.27186265389756
 20
75.82341101276611
 30
0.0
 40
0.51181
  0
CIRCLE
  5
685
330
1F
100
AcDbEntity
  8
\U+9762\U+76C6
100
AcDbCircle
 10
59.14588265389755
 20
80.86277101276612
 30
0.0
 40
0.51181
  0
CIRCLE
  5
686
330
1F
100
AcDbEntity
  8
\U+9762\U+76C6
100
AcDbCircle
 10
57.01990265389755
 20
80.86277101276612
 30
0.0
 40
0.51181
  0
CIRCLE
  5
687
330
1F
100
AcDbEntity
  8
\U+9762\U+76C6
100
AcDbCircle
 10
54.89392265389755
 20
80.86277101276612
 30
0.0
 40
0.51181
  0
CIRCLE
  5
688
330
1F
100
AcDbEntity
  8
\U+9762\U+76C6
100
AcDbCircle
 10
52.76794265389756
 20
80.86277101276612
 30
0.0
 40
0.51181
  0
CIRCLE
  5
689
330
1F
100
AcDbEntity
  8
\U+9762\U+76C6
100
AcDbCircle
 10
50.64196265389755
 20
80.86277101276612
 30
0.0
 40
0.51181
  0
CIRCLE
  5
68A
330
1F
100
AcDbEntity
  8
\U+9762\U+76C6
100
AcDbCircle
 10
67.64980265389755
 20
80.86277101276612
 30
0.0
 40
0.51181
  0
CIRCLE
  5
68B
330
1F
100
AcDbEntity
  8
\U+9762\U+76C6
100
AcDbCircle
 10
65.52382265389756
 20
80.86277101276612
 30
0.0
 40
0.51181
  0
CIRCLE
  5
68C
330
1F
100
AcDbEntity
  8
\U+9762\U+76C6
100
AcDbCircle
 10
63.39784265389756
 20
80.86277101276612
 30
0.0
 40
0.51181
  0
CIRCLE
  5
68D
330
1F
100
AcDbEntity
  8
\U+9762\U+76C6
100
AcDbCircle
 10
61.27186265389756
 20
80.86277101276612
 30
0.0
 40
0.51181
  0
ARC
  5
68E
330
1F
100
AcDbEntity
  8
0
100
AcDbCircle
 10
43.16166265389748
 20
203.5200060127661
 30
0.0
 40
118.11
100
AcDbArc
 50
270.0
 51
278.3337498306164
  0
ARC
  5
691
330
1F
100
AcDbEntity
  8
0
100
AcDbCircle
 10
43.16166265389741
 20
-91.7549939872339
 30
0.0
 40
177.165
100
AcDbArc
 50
90.0
 51
93.02791385051479
  0
ARC
  5
692
330
1F
100
AcDbEntity
  8
0
100
AcDbCircle
 10
39.32989071585847
 20
48.37556646515774
 30
0.0
 40
39.37000000000001
100
AcDbArc
 50
90.79665965519954
 51
100.3812628722901
  0
ARC
  5
694
330
1F
100
AcDbEntity
  8
0
100
AcDbCircle
 10
64.56010191406296
 20
57.44147164347897
 30
0.0
 40
29.5275
100
AcDbArc
 50
93.23659184174287
 51
98.33374983061638
  0
ARC
  5
695
330
1F
100
AcDbEntity
  8
0
100
AcDbCircle
 10
81.98048265389749
 20
81.0793060127659
 30
0.0
 40
3.937
100
AcDbArc
 50
20.19069937342244
 51
78.19218150681926
  0
CIRCLE
  5
697
330
1F
100
AcDbEntity
  8
\U+9762\U+76C6
100
AcDbCircle
 10
77.21671265389756
 20
80.23285101276611
 30
0.0
 40
0.51181
  0
CIRCLE
  5
698
330
1F
100
AcDbEntity
  8
\U+9762\U+76C6
100
AcDbCircle
 10
72.96475265389755
 20
80.23285101276611
 30
0.0
 40
0.51181
  0
CIRCLE
  5
699
330
1F
100
AcDbEntity
  8
\U+9762\U+76C6
100
AcDbCircle
 10
75.09073265389756
 20
80.23285101276611
 30
0.0
 40
0.51181
  0
CIRCLE
  5
69A
330
1F
100
AcDbEntity
  8
\U+9762\U+76C6
100
AcDbCircle
 10
79.34269265389755
 20
80.23285101276611
 30
0.0
 40
0.51181
  0
CIRCLE
  5
69B
330
1F
100
AcDbEntity
  8
\U+9762\U+76C6
100
AcDbCircle
 10
71.90176265389755
 20
79.60293101276611
 30
0.0
 40
0.51181
  0
CIRCLE
  5
69C
330
1F
100
AcDbEntity
  8
\U+9762\U+76C6
100
AcDbCircle
 10
78.27970265389756
 20
79.60293101276611
 30
0.0
 40
0.51181
  0
CIRCLE
  5
69D
330
1F
100
AcDbEntity
  8
\U+9762\U+76C6
100
AcDbCircle
 10
76.15372265389756
 20
79.60293101276611
 30
0.0
 40
0.51181
  0
CIRCLE
  5
69E
330
1F
100
AcDbEntity
  8
\U+9762\U+76C6
100
AcDbCircle
 10
74.02774265389756
 20
79.60293101276611
 30
0.0
 40
0.51181
  0
CIRCLE
  5
69F
330
1F
100
AcDbEntity
  8
\U+9762\U+76C6
100
AcDbCircle
 10
80.40568265389756
 20
79.60293101276611
 30
0.0
 40
0.51181
  0
CIRCLE
  5
6A0
330
1F
100
AcDbEntity
  8
\U+9762\U+76C6
100
AcDbCircle
 10
69.77578265389755
 20
79.60293101276611
 30
0.0
 40
0.51181
  0
CIRCLE
  5
6A1
330
1F
100
AcDbEntity
  8
\U+9762\U+76C6
100
AcDbCircle
 10
70.83877265389755
 20
80.23285101276611
 30
0.0
 40
0.51181
  0
ARC
  5
6A2
330
1F
100
AcDbEntity
  8
0
100
AcDbCircle
 10
74.59034734394413
 20
78.36162757325578
 30
0.0
 40
11.811
100
AcDbArc
 50
1.741918018378916
 51
21.95537570794436
  0
ARC
  5
6A3
330
1F
100
AcDbEntity
  8
0
100
AcDbCircle
 10
81.4602202375087
 20
79.09081395279646
 30
0.0
 40
3.937
100
AcDbArc
 50
1.937220752824756
 51
82.88151068109533
  0
CIRCLE
  5
6A4
330
1F
100
AcDbEntity
  8
\U+9762\U+76C6
100
AcDbCircle
 10
78.27970265389756
 20
77.08325101276611
 30
0.0
 40
0.51181
  0
ARC
  5
6A5
330
1F
100
AcDbEntity
  8
\U+9762\U+76C6
100
AcDbCircle
 10
79.34269265389755
 20
76.45333101276611
 30
0.0
 40
0.51181
100
AcDbArc
 50
45.92624016768894
 51
199.3630401021336
  0
ARC
  5
6A6
330
1F
100
AcDbEntity
  8
\U+9762\U+76C6
100
AcDbCircle
 10
78.27970265389756
 20
75.82341101276611
 30
0.0
 40
0.51181
100
AcDbArc
 50
35.99401686981071
 51
253.5707971938214
  0
CIRCLE
  5
6A7
330
1F
100
AcDbEntity
  8
\U+9762\U+76C6
100
AcDbCircle
 10
78.27970265389756
 20
78.34309101276611
 30
0.0
 40
0.51181
  0
CIRCLE
  5
6A8
330
1F
100
AcDbEntity
  8
\U+9762\U+76C6
100
AcDbCircle
 10
77.21671265389756
 20
78.9730110127661
 30
0.0
 40
0.51181
  0
CIRCLE
  5
6A9
330
1F
100
AcDbEntity
  8
\U+9762\U+76C6
100
AcDbCircle
 10
72.96475265389755
 20
78.9730110127661
 30
0.0
 40
0.51181
  0
CIRCLE
  5
6AA
330
1F
100
AcDbEntity
  8
\U+9762\U+76C6
100
AcDbCircle
 10
75.09073265389756
 20
78.9730110127661
 30
0.0
 40
0.51181
  0
CIRCLE
  5
6AB
330
1F
100
AcDbEntity
  8
\U+9762\U+76C6
100
AcDbCircle
 10
70.83877265389755
 20
78.9730110127661
 30
0.0
 40
0.51181
  0
ARC
  5
6AC
330
1F
100
AcDbEntity
  8
\U+9762\U+76C6
100
AcDbCircle
 10
80.95686265389756
 20
73.93365101276597
 30
0.0
 40
3.1496
100
AcDbArc
 50
135.9328162341682
 51
153.6319978294341
  0
CIRCLE
  5
6AD
330
1F
100
AcDbEntity
  8
\U+9762\U+76C6
100
AcDbCircle
 10
77.21671265389756
 20
76.45333101276611
 30
0.0
 40
0.51181
  0
CIRCLE
  5
6AE
330
1F
100
AcDbEntity
  8
\U+9762\U+76C6
100
AcDbCircle
 10
76.15372265389756
 20
77.08325101276611
 30
0.0
 40
0.51181
  0
CIRCLE
  5
6AF
330
1F
100
AcDbEntity
  8
\U+9762\U+76C6
100
AcDbCircle
 10
72.96475265389755
 20
76.45333101276611
 30
0.0
 40
0.51181
  0
CIRCLE
  5
6B0
330
1F
100
AcDbEntity
  8
\U+9762\U+76C6
100
AcDbCircle
 10
71.90176265389755
 20
77.08325101276611
 30
0.0
 40
0.51181
  0
CIRCLE
  5
6B1
330
1F
100
AcDbEntity
  8
\U+9762\U+76C6
100
AcDbCircle
 10
74.02774265389756
 20
77.08325101276611
 30
0.0
 40
0.51181
  0
CIRCLE
  5
6B2
330
1F
100
AcDbEntity
  8
\U+9762\U+76C6
100
AcDbCircle
 10
75.09073265389756
 20
76.45333101276611
 30
0.0
 40
0.51181
  0
CIRCLE
  5
6B3
330
1F
100
AcDbEntity
  8
\U+9762\U+76C6
100
AcDbCircle
 10
76.15372265389756
 20
75.82341101276611
 30
0.0
 40
0.51181
  0
CIRCLE
  5
6B4
330
1F
100
AcDbEntity
  8
\U+9762\U+76C6
100
AcDbCircle
 10
74.02774265389756
 20
75.82341101276611
 30
0.0
 40
0.51181
  0
CIRCLE
  5
6B5
330
1F
100
AcDbEntity
  8
\U+9762\U+76C6
100
AcDbCircle
 10
71.90176265389755
 20
75.82341101276611
 30
0.0
 40
0.51181
  0
CIRCLE
  5
6B6
330
1F
100
AcDbEntity
  8
\U+9762\U+76C6
100
AcDbCircle
 10
69.77578265389755
 20
77.08325101276611
 30
0.0
 40
0.51181
  0
CIRCLE
  5
6B7
330
1F
100
AcDbEntity
  8
\U+9762\U+76C6
100
AcDbCircle
 10
69.77578265389755
 20
75.82341101276611
 30
0.0
 40
0.51181
  0
CIRCLE
  5
6B8
330
1F
100
AcDbEntity
  8
\U+9762\U+76C6
100
AcDbCircle
 10
70.83877265389755
 20
76.45333101276611
 30
0.0
 40
0.51181
  0
CIRCLE
  5
6B9
330
1F
100
AcDbEntity
  8
\U+9762\U+76C6
100
AcDbCircle
 10
76.15372265389756
 20
78.34309101276611
 30
0.0
 40
0.51181
  0
CIRCLE
  5
6BA
330
1F
100
AcDbEntity
  8
\U+9762\U+76C6
100
AcDbCircle
 10
74.02774265389756
 20
78.34309101276611
 30
0.0
 40
0.51181
  0
CIRCLE
  5
6BB
330
1F
100
AcDbEntity
  8
\U+9762\U+76C6
100
AcDbCircle
 10
71.90176265389755
 20
78.34309101276611
 30
0.0
 40
0.51181
  0
CIRCLE
  5
6BC
330
1F
100
AcDbEntity
  8
\U+9762\U+76C6
100
AcDbCircle
 10
69.77578265389755
 20
78.34309101276611
 30
0.0
 40
0.51181
  0
CIRCLE
  5
6BD
330
1F
100
AcDbEntity
  8
\U+9762\U+76C6
100
AcDbCircle
 10
72.96475265389755
 20
77.71317101276611
 30
0.0
 40
0.51181
  0
CIRCLE
  5
6BE
330
1F
100
AcDbEntity
  8
\U+9762\U+76C6
100
AcDbCircle
 10
77.21671265389756
 20
77.71317101276611
 30
0.0
 40
0.51181
  0
CIRCLE
  5
6BF
330
1F
100
AcDbEntity
  8
\U+9762\U+76C6
100
AcDbCircle
 10
75.09073265389756
 20
77.71317101276611
 30
0.0
 40
0.51181
  0
CIRCLE
  5
6C0
330
1F
100
AcDbEntity
  8
\U+9762\U+76C6
100
AcDbCircle
 10
70.83877265389755
 20
77.71317101276611
 30
0.0
 40
0.51181
  0
CIRCLE
  5
6C1
330
1F
100
AcDbEntity
  8
\U+9762\U+76C6
100
AcDbCircle
 10
81.46867265389756
 20
78.9730110127661
 30
0.0
 40
0.51181
  0
CIRCLE
  5
6C2
330
1F
100
AcDbEntity
  8
\U+9762\U+76C6
100
AcDbCircle
 10
81.46867265389756
 20
77.71317101276611
 30
0.0
 40
0.51181
  0
CIRCLE
  5
6C3
330
1F
100
AcDbEntity
  8
\U+9762\U+76C6
100
AcDbCircle
 10
79.34269265389755
 20
78.9730110127661
 30
0.0
 40
0.51181
  0
ARC
  5
6C4
330
1F
100
AcDbEntity
  8
\U+9762\U+76C6
100
AcDbCircle
 10
80.95686265389756
 20
73.93365101276597
 30
0.0
 40
3.1496
100
AcDbArc
 50
113.5449014484543
 51
131.7443788214207
  0
ARC
  5
6C5
330
1F
100
AcDbEntity
  8
\U+9762\U+76C6
100
AcDbCircle
 10
80.95686265389756
 20
73.93365101276597
 30
0.0
 40
3.1496
100
AcDbArc
 50
90.71621697239651
 51
109.1362740409638
  0
ARC
  5
6C6
330
1F
100
AcDbEntity
  8
\U+9762\U+76C6
100
AcDbCircle
 10
80.40568265389756
 20
77.08325101276611
 30
0.0
 40
0.51181
100
AcDbArc
 50
359.9724527922174
 51
199.8800382210794
  0
CIRCLE
  5
6C7
330
1F
100
AcDbEntity
  8
\U+9762\U+76C6
100
AcDbCircle
 10
80.40568265389756
 20
78.34309101276611
 30
0.0
 40
0.51181
  0
CIRCLE
  5
6C8
330
1F
100
AcDbEntity
  8
\U+9762\U+76C6
100
AcDbCircle
 10
79.34269265389755
 20
77.71317101276611
 30
0.0
 40
0.51181
  0
CIRCLE
  5
6C9
330
1F
100
AcDbEntity
  8
\U+9762\U+76C6
100
AcDbCircle
 10
78.27970265389756
 20
80.86277101276612
 30
0.0
 40
0.51181
  0
CIRCLE
  5
6CA
330
1F
100
AcDbEntity
  8
\U+9762\U+76C6
100
AcDbCircle
 10
76.15372265389756
 20
80.86277101276612
 30
0.0
 40
0.51181
  0
CIRCLE
  5
6CB
330
1F
100
AcDbEntity
  8
\U+9762\U+76C6
100
AcDbCircle
 10
74.02774265389756
 20
80.86277101276612
 30
0.0
 40
0.51181
  0
CIRCLE
  5
6CC
330
1F
100
AcDbEntity
  8
\U+9762\U+76C6
100
AcDbCircle
 10
71.90176265389755
 20
80.86277101276612
 30
0.0
 40
0.51181
  0
CIRCLE
  5
6CD
330
1F
100
AcDbEntity
  8
\U+9762\U+76C6
100
AcDbCircle
 10
69.77578265389755
 20
80.86277101276612
 30
0.0
 40
0.51181
  0
ARC
  5
6CE
330
1F
100
AcDbEntity
  8
0
100
AcDbCircle
 10
66.67357284024504
 20
7.859176806668978
 30
0.0
 40
78.74000000000001
100
AcDbArc
 50
78.19218150681926
 51
84.28766598721956
  0
ARC
  5
6CF
330
1F
100
AcDbEntity
  8
0
100
AcDbCircle
 10
88.67338265389742
 20
89.15015601276591
 30
0.0
 40
0.7874000000000001
100
AcDbArc
 50
0.0
 51
90.0
  0
INSERT
  5
F0E3
330
1F
100
AcDbEntity
  8
0
100
AcDbBlockReference
  2
A$C63C967E0
 10
87.61549991349024
 20
75.42868646010574
 30
0.0
 41
0.03937
 42
0.03937
 43
0.03937
 50
270.0
  0
VIEWPORT
  5
F10D
102
{ACAD_XDICTIONARY
360
F212
102
}
330
F106
100
AcDbEntity
 67
     1
  8
0
100
AcDbViewport
 10
5.351760419763934
 20
4.245559170604138
 30
0.0
 40
12.44654634056576
 41
7.557211313528828
 68
     1
 69
     1
 12
5.351760419763934
 22
4.245559170604138
 13
0.0
 23
0.0
 14
0.5
 24
0.5
 15
0.5
 25
0.5
 16
0.0
 26
0.0
 36
1.0
 17
0.0
 27
0.0
 37
0.0
 42
50.0
 43
0.0
 44
0.0
 45
7.557211313528828
 50
0.0
 51
0.0
 72
  1000
 90
   557088
  1

281
     0
 71
     1
 74
     0
110
0.0
120
0.0
130
0.0
111
1.0
121
0.0
131
0.0
112
0.0
122
1.0
132
0.0
 79
     0
146
0.0
  0
VIEWPORT
  5
F1D1
102
{ACAD_XDICTIONARY
360
F214
102
}
330
F106
100
AcDbEntity
 67
     1
  8
0\U+7EC6
100
AcDbViewport
 10
5.348258902315478
 20
4.060840528293908
 30
0.0
 40
9.509351341338742
 41
7.121686069267184
 68
     2
 69
     3
 12
77.92054649493895
 22
56.82099946392047
 13
0.0
 23
0.0
 14
10.0
 24
10.0
 15
10.0
 25
10.0
 16
0.0
 26
0.0
 36
1.0
 17
0.0
 27
0.0
 37
0.0
 42
50.0
 43
0.0
 44
0.0
 45
87.44401698906434
 50
0.0
 51
0.0
 72
  1000
 90
   819296
  1

281
     0
 71
     1
 74
     0
110
0.0
120
0.0
130
0.0
111
1.0
121
0.0
131
0.0
112
0.0
122
1.0
132
0.0
 79
     0
146
0.0
  0
MTEXT
  5
F1D2
330
F106
100
AcDbEntity
 67
     1
  8
0\U+7EC6
 62
     7
100
AcDbMText
 10
7.131474493655559
 20
7.991628212528459
 30
0.0
 40
0.15
 41
21.12386699711883
 71
     1
 72
     1
  1
AD-00163, FBY1700, V.01
 73
     1
 44
1.0
1001
ACAD
1000
MTEXTBEGIN
1070
    73
1070
     1
1070
    44
1040
1.0
1070
    74
1070
     0
1000
MTEXTEND
  0
ENDSEC
  0
SECTION
  2
OBJECTS
  0
DICTIONARY
  5
C
330
0
100
AcDbDictionary
281
     1
  3
ACAD_COLOR
350
6B
  3
ACAD_GROUP
350
D
  3
ACAD_LAYOUT
350
1A
  3
ACAD_MATERIAL
350
6A
  3
ACAD_MLINESTYLE
350
17
  3
ACAD_PLOTSETTINGS
350
19
  3
ACAD_PLOTSTYLENAME
350
E
  3
ACAD_TABLESTYLE
350
F0FC
  3
ACAD_VISUALSTYLE
350
F0EB
  3
AcDbVariableDictionary
350
5E
  3
DWGPROPS
350
F206
  0
DICTIONARY
  5
F12B
330
8
100
AcDbDictionary
280
     1
281
     1
  0
DICTIONARY
  5
B188
330
2
100
AcDbDictionary
280
     1
281
     1
  3
ACAD_LAYERSTATES
360
B189
  0
DICTIONARY
  5
F212
330
F10D
100
AcDbDictionary
280
     1
281
     1
  3
ACAD_XREC_ROUNDTRIP
360
F213
  0
DICTIONARY
  5
F214
330
F1D1
100
AcDbDictionary
280
     1
281
     1
  3
ACAD_XREC_ROUNDTRIP
360
F215
  0
DICTIONARY
  5
6B
102
{ACAD_REACTORS
330
C
102
}
330
C
100
AcDbDictionary
281
     1
  0
DICTIONARY
  5
D
102
{ACAD_REACTORS
330
C
102
}
330
C
100
AcDbDictionary
281
     1
  0
DICTIONARY
  5
1A
102
{ACAD_REACTORS
330
C
102
}
330
C
100
AcDbDictionary
281
     1
  3
Layout1
350
F107
  3
Model
350
22
1001
AcadStringInfo
1000
MIFCodePage
1070
     5
  0
DICTIONARY
  5
6A
102
{ACAD_REACTORS
330
C
102
}
330
C
100
AcDbDictionary
281
     1
  3
ByBlock
350
F0E9
  3
ByLayer
350
F0E8
  3
Global
350
F0EA
  0
DICTIONARY
  5
17
102
{ACAD_REACTORS
330
C
102
}
330
C
100
AcDbDictionary
281
     1
  3
Standard
350
18
  0
DICTIONARY
  5
19
102
{ACAD_REACTORS
330
C
102
}
330
C
100
AcDbDictionary
281
     1
  0
ACDBDICTIONARYWDFLT
  5
E
102
{ACAD_REACTORS
330
C
102
}
330
C
100
AcDbDictionary
281
     1
  3
Normal
350
F
100
AcDbDictionaryWithDefault
340
F
  0
DICTIONARY
  5
F0FC
102
{ACAD_REACTORS
330
C
102
}
330
C
100
AcDbDictionary
281
     1
  3
Standard
350
F0FD
  0
DICTIONARY
  5
F0EB
102
{ACAD_REACTORS
330
C
102
}
330
C
100
AcDbDictionary
281
     1
  3
2dWireframe
350
F0F1
  3
3D Hidden
350
F122
  3
3dWireframe
350
F121
  3
Basic
350
F0F0
  3
Brighten
350
F0F7
  3
ColorChange
350
F0FB
  3
Conceptual
350
F123
  3
Dim
350
F0F6
  3
Facepattern
350
F0FA
  3
Flat
350
F0EC
  3
FlatWithEdges
350
F0ED
  3
Gouraud
350
F0EE
  3
GouraudWithEdges
350
F0EF
  3
Linepattern
350
F0F9
  3
Realistic
350
F124
  3
Thicken
350
F0F8
  0
DICTIONARY
  5
5E
102
{ACAD_REACTORS
330
C
102
}
330
C
100
AcDbDictionary
281
     1
  3
CTABLESTYLE
350
F118
  3
DIMASSOC
350
5F
  3
HIDETEXT
350
63
  3
INDEXCTL
350
F1C4
  3
SORTENTS
350
F1C3
  0
XRECORD
  5
F206
102
{ACAD_REACTORS
330
C
102
}
330
C
100
AcDbXrecord
280
     1
  1
DWGPROPS COOKIE
  2

  3

  4

  6

  7

  8
nnguyen
  9

300
=
301
=
302
=
303
=
304
=
305
=
306
=
307
=
308
=
309
=
 40
0.1351508217592593
 41
2453791.070907477
 42
2454922.452726366
  1

 90
        0
  0
DICTIONARY
  5
B189
102
{ACAD_REACTORS
330
B188
102
}
330
B188
100
AcDbDictionary
281
     1
  0
XRECORD
  5
F213
102
{ACAD_REACTORS
330
F212
102
}
330
F212
100
AcDbXrecord
280
     1
102
SHADEPLOT
 70
     0
  0
XRECORD
  5
F215
102
{ACAD_REACTORS
330
F214
102
}
330
F214
100
AcDbXrecord
280
     1
102
SHADEPLOT
 70
     0
  0
LAYOUT
  5
F107
102
{ACAD_XDICTIONARY
360
F115
102
}
102
{ACAD_REACTORS
330
1A
102
}
330
1A
100
AcDbPlotSettings
  1

  2
Fax
  4
Letter
  6

 40
3.174999952316284
 41
3.174999952316284
 42
3.175003051757812
 43
3.17498779296875
 44
215.8999938964844
 45
279.3999938964844
 46
0.0
 47
0.0
 48
0.0
 49
0.0
140
0.0
141
0.0
142
1.0
143
1.0
 70
   672
 72
     0
 73
     1
 74
     5
  7
monochrome.ctb
 75
    16
147
0.0393700787401575
148
0.0
149
0.0
100
AcDbLayout
  1
Layout1
 70
     1
 71
     1
 10
-0.1249995194082185
 20
-0.1249999981226884
 11
10.87500024029589
 21
8.37499976158142
 12
0.0
 22
0.0
 32
0.0
 14
0.5935832316461074
 24
0.4999974936603167
 34
0.0
 15
10.10293457298485
 25
7.991628212528459
 35
0.0
146
0.0
 13
0.0
 23
0.0
 33
0.0
 16
1.0
 26
0.0
 36
0.0
 17
0.0
 27
1.0
 37
0.0
 76
     0
330
F106
331
F10D
1001
ACAD_PSEXT
1000
Fax
1000
Microsoft Shared Fax Driver
1000
SHRFAX:
1000

1070
     0
  0
LAYOUT
  5
22
102
{ACAD_XDICTIONARY
360
F207
102
}
102
{ACAD_REACTORS
330
1A
102
}
330
1A
100
AcDbPlotSettings
  1

  2
Adobe PDF
  4
Letter
  6

 40
3.174999952316284
 41
3.174999952316284
 42
3.175003051757812
 43
3.17498779296875
 44
215.8999938964844
 45
279.3999938964844
 46
22.15366264519212
 47
0.0
 48
0.0
 49
0.0
140
0.0
141
0.0
142
1.0
143
10.79044758009878
 70
 11956
 72
     0
 73
     1
 74
     1
  7
monochrome.ctb
 75
     0
147
0.0926745616969899
148
-505.9226328492209
149
-551.7186674985548
100
AcDbLayout
  1
Model
 70
     1
 71
     0
 10
0.0
 20
0.0
 11
12.0
 21
9.0
 12
0.0
 22
0.0
 32
0.0
 14
0.0
 24
0.0
 34
0.0
 15
0.0
 25
0.0
 35
0.0
146
0.0
 13
0.0
 23
0.0
 33
0.0
 16
1.0
 26
0.0
 36
0.0
 17
0.0
 27
1.0
 37
0.0
 76
     0
330
1F
331
F0E6
1001
ACAD_PSEXT
1000
Adobe PDF
1000
Adobe PDF Converter
1000
My Documents
1000

1070
     0
  0
MATERIAL
  5
F0E9
102
{ACAD_XDICTIONARY
360
F20B
102
}
102
{ACAD_REACTORS
330
6A
102
}
330
6A
100
AcDbMaterial
  1
ByBlock
  0
MATERIAL
  5
F0E8
102
{ACAD_XDICTIONARY
360
F209
102
}
102
{ACAD_REACTORS
330
6A
102
}
330
6A
100
AcDbMaterial
  1
ByLayer
  0
MATERIAL
  5
F0EA
102
{ACAD_XDICTIONARY
360
F20D
102
}
102
{ACAD_REACTORS
330
6A
102
}
330
6A
100
AcDbMaterial
  1
Global
  0
MLINESTYLE
  5
18
102
{ACAD_REACTORS
330
17
102
}
330
17
100
AcDbMlineStyle
  2
STANDARD
 70
     0
  3

 62
   256
 51
90.0
 52
90.0
 71
     2
 49
0.5
 62
   256
  6
BYLAYER
 49
-0.5
 62
   256
  6
BYLAYER
  0
ACDBPLACEHOLDER
  5
F
102
{ACAD_REACTORS
330
E
102
}
330
E
  0
TABLESTYLE
  5
F0FD
102
{ACAD_XDICTIONARY
360
F20F
102
}
102
{ACAD_REACTORS
330
F0FC
102
}
330
F0FC
100
AcDbTableStyle
  3
Standard
 70
     0
 71
     0
 40
1.5
 41
1.5
280
     0
281
     0
  7
Standard
140
4.5
170
     2
 62
     0
 63
     7
283
     0
274
    -2
284
     1
 64
     0
275
    -2
285
     1
 65
     0
276
    -2
286
     1
 66
     0
277
    -2
287
     1
 67
     0
278
    -2
288
     1
 68
     0
279
    -2
289
     1
 69
     0
  7
Standard
140
6.0
170
     5
 62
     0
 63
     7
283
     0
274
    -2
284
     1
 64
     0
275
    -2
285
     1
 65
     0
276
    -2
286
     1
 66
     0
277
    -2
287
     1
 67
     0
278
    -2
288
     1
 68
     0
279
    -2
289
     1
 69
     0
  7
Standard
140
4.5
170
     5
 62
     0
 63
     7
283
     0
274
    -2
284
     1
 64
     0
275
    -2
285
     1
 65
     0
276
    -2
286
     1
 66
     0
277
    -2
287
     1
 67
     0
278
    -2
288
     1
 68
     0
279
    -2
289
     1
 69
     0
  0
VISUALSTYLE
  5
F0F1
102
{ACAD_REACTORS
330
F0EB
102
}
330
F0EB
100
AcDbVisualStyle
  2
2dWireframe
 70
     4
 71
     0
 72
     2
 73
     0
 90
        0
 40
-0.6
 41
-30.0
 62
     5
 63
     7
 74
     1
 91
        4
 64
     7
 65
   257
 75
     1
175
     1
 42
1.0
 92
        0
 66
   257
 43
1.0
 76
     1
 77
     6
 78
     2
 67
     7
 79
     5
170
     0
171
     0
290
     0
174
     0
 93
        1
 44
0.0
173
     0
291
     0
 45
0.0
1001
ACAD
1000
AcDbSavedByObjectVersion
1070
     0
  0
VISUALSTYLE
  5
F122
102
{ACAD_REACTORS
330
F0EB
102
}
330
F0EB
100
AcDbVisualStyle
  2
3D Hidden
 70
     6
 71
     1
 72
     2
 73
     2
 90
        0
 40
-0.6
 41
-30.0
 62
     5
 63
     7
 74
     2
 91
        2
 64
     7
 65
   257
 75
     2
175
     1
 42
40.0
 92
        0
 66
   257
 43
1.0
 76
     1
 77
     6
 78
     2
 67
     7
 79
     3
170
     0
171
     0
290
     0
174
     0
 93
        1
 44
0.0
173
     0
291
     0
 45
0.0
1001
ACAD
1000
AcDbSavedByObjectVersion
1070
     0
  0
VISUALSTYLE
  5
F121
102
{ACAD_REACTORS
330
F0EB
102
}
330
F0EB
100
AcDbVisualStyle
  2
3dWireframe
 70
     5
 71
     0
 72
     2
 73
     0
 90
        0
 40
-0.6
 41
-30.0
 62
     5
 63
     7
 74
     1
 91
        4
 64
     7
 65
   257
 75
     1
175
     1
 42
1.0
 92
        0
 66
   257
 43
1.0
 76
     1
 77
     6
 78
     2
 67
     7
 79
     5
170
     0
171
     0
290
     0
174
     0
 93
        1
 44
0.0
173
     0
291
     0
 45
0.0
1001
ACAD
1000
AcDbSavedByObjectVersion
1070
     0
  0
VISUALSTYLE
  5
F0F0
102
{ACAD_REACTORS
330
F0EB
102
}
330
F0EB
100
AcDbVisualStyle
  2
Basic
 70
     7
 71
     1
 72
     0
 73
     1
 90
        0
 40
-0.6
 41
-30.0
 62
     5
 63
     7
 74
     0
 91
        4
 64
     7
 65
   257
 75
     1
175
     1
 42
1.0
 92
        8
 66
     7
 43
1.0
 76
     1
 77
     6
 78
     2
 67
     7
 79
     5
170
     0
171
     0
290
     0
174
     0
 93
        1
 44
0.0
173
     0
291
     1
 45
0.0
1001
ACAD
1000
AcDbSavedByObjectVersion
1070
     0
  0
VISUALSTYLE
  5
F0F7
102
{ACAD_REACTORS
330
F0EB
102
}
330
F0EB
100
AcDbVisualStyle
  2
Brighten
 70
    12
 71
     2
 72
     2
 73
     0
 90
        0
 40
-0.6
 41
-30.0
 62
     5
 63
     7
 74
     1
 91
        4
 64
     7
 65
   257
 75
     1
175
     1
 42
1.0
 92
        8
 66
     7
 43
1.0
 76
     1
 77
     6
 78
     2
 67
     7
 79
     5
170
     0
171
     0
290
     0
174
     0
 93
        1
 44
50.0
173
     0
291
     1
 45
0.0
1001
ACAD
1000
AcDbSavedByObjectVersion
1070
     0
  0
VISUALSTYLE
  5
F0FB
102
{ACAD_REACTORS
330
F0EB
102
}
330
F0EB
100
AcDbVisualStyle
  2
ColorChange
 70
    16
 71
     2
 72
     2
 73
     3
 90
        0
 40
-0.6
 41
-30.0
 62
     5
 63
     8
 74
     1
 91
        4
 64
     7
 65
   257
 75
     1
175
     1
 42
1.0
 92
        8
 66
     8
 43
1.0
 76
     1
 77
     6
 78
     2
 67
     7
 79
     5
170
     0
171
     0
290
     0
174
     0
 93
        1
 44
0.0
173
     0
291
     1
 45
0.0
1001
ACAD
1000
AcDbSavedByObjectVersion
1070
     0
  0
VISUALSTYLE
  5
F123
102
{ACAD_REACTORS
330
F0EB
102
}
330
F0EB
100
AcDbVisualStyle
  2
Conceptual
 70
     9
 71
     3
 72
     2
 73
     0
 90
        0
 40
-0.6
 41
-30.0
 62
     5
 63
     7
 74
     2
 91
        2
 64
     7
 65
   257
 75
     1
175
     1
 42
40.0
 92
        8
 66
     7
 43
1.0
 76
     1
 77
     6
 78
     2
 67
     7
 79
     3
170
     0
171
     0
290
     0
174
     0
 93
        1
 44
0.0
173
     0
291
     0
 45
0.0
1001
ACAD
1000
AcDbSavedByObjectVersion
1070
     0
  0
VISUALSTYLE
  5
F0F6
102
{ACAD_REACTORS
330
F0EB
102
}
330
F0EB
100
AcDbVisualStyle
  2
Dim
 70
    11
 71
     2
 72
     2
 73
     0
 90
        0
 40
-0.6
 41
-30.0
 62
     5
 63
     7
 74
     1
 91
        4
 64
     7
 65
   257
 75
     1
175
     1
 42
1.0
 92
        8
 66
     7
 43
1.0
 76
     1
 77
     6
 78
     2
 67
     7
 79
     5
170
     0
171
     0
290
     0
174
     0
 93
        1
 44
-50.0
173
     0
291
     1
 45
0.0
1001
ACAD
1000
AcDbSavedByObjectVersion
1070
     0
  0
VISUALSTYLE
  5
F0FA
102
{ACAD_REACTORS
330
F0EB
102
}
330
F0EB
100
AcDbVisualStyle
  2
Facepattern
 70
    15
 71
     2
 72
     2
 73
     0
 90
        0
 40
-0.6
 41
-30.0
 62
     5
 63
     7
 74
     1
 91
        4
 64
     7
 65
   257
 75
     1
175
     1
 42
1.0
 92
        8
 66
     7
 43
1.0
 76
     1
 77
     6
 78
     2
 67
     7
 79
     5
170
     0
171
     0
290
     0
174
     0
 93
        1
 44
0.0
173
     0
291
     1
 45
0.0
1001
ACAD
1000
AcDbSavedByObjectVersion
1070
     0
  0
VISUALSTYLE
  5
F0EC
102
{ACAD_REACTORS
330
F0EB
102
}
330
F0EB
100
AcDbVisualStyle
  2
Flat
 70
     0
 71
     2
 72
     1
 73
     1
 90
        2
 40
-0.6
 41
30.0
 62
     5
 63
     7
 74
     0
 91
        4
 64
     7
 65
   257
 75
     1
175
     1
 42
1.0
 92
        8
 66
     7
 43
1.0
 76
     1
 77
     6
 78
     2
 67
     7
 79
     5
170
     0
171
     0
290
     0
174
     0
 93
       13
 44
0.0
173
     0
291
     1
 45
0.0
1001
ACAD
1000
AcDbSavedByObjectVersion
1070
     0
  0
VISUALSTYLE
  5
F0ED
102
{ACAD_REACTORS
330
F0EB
102
}
330
F0EB
100
AcDbVisualStyle
  2
FlatWithEdges
 70
     1
 71
     2
 72
     1
 73
     1
 90
        2
 40
-0.6
 41
30.0
 62
     5
 63
     7
 74
     1
 91
        4
 64
     7
 65
   257
 75
     1
175
     1
 42
1.0
 92
        0
 66
   257
 43
1.0
 76
     1
 77
     6
 78
     2
 67
     7
 79
     5
170
     0
171
     0
290
     0
174
     0
 93
       13
 44
0.0
173
     0
291
     1
 45
0.0
1001
ACAD
1000
AcDbSavedByObjectVersion
1070
     0
  0
VISUALSTYLE
  5
F0EE
102
{ACAD_REACTORS
330
F0EB
102
}
330
F0EB
100
AcDbVisualStyle
  2
Gouraud
 70
     2
 71
     2
 72
     2
 73
     1
 90
        2
 40
-0.6
 41
30.0
 62
     5
 63
     7
 74
     0
 91
        4
 64
     7
 65
   257
 75
     1
175
     1
 42
1.0
 92
        0
 66
     7
 43
1.0
 76
     1
 77
     6
 78
     2
 67
     7
 79
     5
170
     0
171
     0
290
     0
174
     0
 93
       13
 44
0.0
173
     0
291
     1
 45
0.0
1001
ACAD
1000
AcDbSavedByObjectVersion
1070
     0
  0
VISUALSTYLE
  5
F0EF
102
{ACAD_REACTORS
330
F0EB
102
}
330
F0EB
100
AcDbVisualStyle
  2
GouraudWithEdges
 70
     3
 71
     2
 72
     2
 73
     1
 90
        2
 40
-0.6
 41
30.0
 62
     5
 63
     7
 74
     1
 91
        4
 64
     7
 65
   257
 75
     1
175
     1
 42
1.0
 92
        0
 66
   257
 43
1.0
 76
     1
 77
     6
 78
     2
 67
     7
 79
     5
170
     0
171
     0
290
     0
174
     0
 93
       13
 44
0.0
173
     0
291
     1
 45
0.0
1001
ACAD
1000
AcDbSavedByObjectVersion
1070
     0
  0
VISUALSTYLE
  5
F0F9
102
{ACAD_REACTORS
330
F0EB
102
}
330
F0EB
100
AcDbVisualStyle
  2
Linepattern
 70
    14
 71
     2
 72
     2
 73
     0
 90
        0
 40
-0.6
 41
-30.0
 62
     5
 63
     7
 74
     1
 91
        4
 64
     7
 65
   257
 75
     7
175
     7
 42
1.0
 92
        8
 66
     7
 43
1.0
 76
     1
 77
     6
 78
     2
 67
     7
 79
     5
170
     0
171
     0
290
     0
174
     0
 93
        1
 44
0.0
173
     0
291
     1
 45
0.0
1001
ACAD
1000
AcDbSavedByObjectVersion
1070
     0
  0
VISUALSTYLE
  5
F124
102
{ACAD_REACTORS
330
F0EB
102
}
330
F0EB
100
AcDbVisualStyle
  2
Realistic
 70
     8
 71
     2
 72
     2
 73
     0
 90
        0
 40
-0.6
 41
-30.0
 62
     5
 63
     7
 74
     1
 91
        0
 64
     7
 65
   257
 75
     1
175
     1
 42
1.0
 92
        8
 66
     8
 43
1.0
 76
     1
 77
     6
 78
     2
 67
     7
 79
     5
170
     0
171
     0
290
     0
174
     0
 93
       13
 44
0.0
173
     0
291
     0
 45
0.0
1001
ACAD
1000
AcDbSavedByObjectVersion
1070
     0
  0
VISUALSTYLE
  5
F0F8
102
{ACAD_REACTORS
330
F0EB
102
}
330
F0EB
100
AcDbVisualStyle
  2
Thicken
 70
    13
 71
     2
 72
     2
 73
     0
 90
        0
 40
-0.6
 41
-30.0
 62
     5
 63
     7
 74
     1
 91
        4
 64
     7
 65
   257
 75
     1
175
     1
 42
1.0
 92
       12
 66
     7
 43
1.0
 76
     1
 77
     6
 78
     2
 67
     7
 79
     5
170
     0
171
     0
290
     0
174
     0
 93
        1
 44
0.0
173
     0
291
     1
 45
0.0
1001
ACAD
1000
AcDbSavedByObjectVersion
1070
     0
  0
DICTIONARYVAR
  5
F118
102
{ACAD_REACTORS
330
5E
102
}
330
5E
100
DictionaryVariables
280
     0
  1
STANDARD
  0
DICTIONARYVAR
  5
5F
102
{ACAD_REACTORS
330
5E
102
}
330
5E
100
DictionaryVariables
280
     0
  1
2
  0
DICTIONARYVAR
  5
63
102
{ACAD_REACTORS
330
5E
102
}
330
5E
100
DictionaryVariables
280
     0
  1
1
  0
DICTIONARYVAR
  5
F1C4
102
{ACAD_REACTORS
330
5E
102
}
330
5E
100
DictionaryVariables
280
     0
  1
0
  0
DICTIONARYVAR
  5
F1C3
102
{ACAD_REACTORS
330
5E
102
}
330
5E
100
DictionaryVariables
280
     0
  1
127
  0
DICTIONARY
  5
F115
330
F107
100
AcDbDictionary
280
     1
281
     1
  3
ACAD_XREC_ROUNDTRIP
360
F211
  3
ADSK_XREC_LAYOUTTHUMBNAIL
360
F116
  0
DICTIONARY
  5
F207
330
22
100
AcDbDictionary
280
     1
281
     1
  3
ACAD_XREC_ROUNDTRIP
360
F208
  0
DICTIONARY
  5
F20B
330
F0E9
100
AcDbDictionary
280
     1
281
     1
  3
ACAD_XREC_ROUNDTRIP
360
F20C
  0
DICTIONARY
  5
F209
330
F0E8
100
AcDbDictionary
280
     1
281
     1
  3
ACAD_XREC_ROUNDTRIP
360
F20A
  0
DICTIONARY
  5
F20D
330
F0EA
100
AcDbDictionary
280
     1
281
     1
  3
ACAD_XREC_ROUNDTRIP
360
F20E
  0
DICTIONARY
  5
F20F
330
F0FD
100
AcDbDictionary
280
     1
281
     1
  3
ACAD_XREC_ROUNDTRIP
360
F210
  0
XRECORD
  5
F211
102
{ACAD_REACTORS
330
F115
102
}
330
F115
100
AcDbXrecord
280
     1
102
SHADEPLOT
 70
     0
102
SHADEPLOTRESLEVEL
 70
     2
102
SHADEPLOTCUSTOMDPI
 70
   300
  0
XRECORD
  5
F116
102
{ACAD_REACTORS
330
F115
102
}
330
F115
100
AcDbXrecord
280
     1
310
28000000B40000008A0000000100080000000000086100000000000000000000000100000000000000000000000000007F7F00000000000000000000000000000000000000000000000000000000000000000000330000006600000099000000CC000000FF00000000330000333300006633000099330000CC330000FF3300
310
0000660000336600006666000099660000CC660000FF66000000990000339900006699000099990000CC990000FF99000000CC000033CC000066CC000099CC0000CCCC0000FFCC000000FF000033FF000066FF000099FF0000CCFF0000FFFF000000003300330033006600330099003300CC003300FF003300003333003333
310
33006633330099333300CC333300FF33330000663300336633006666330099663300CC663300FF66330000993300339933006699330099993300CC993300FF99330000CC330033CC330066CC330099CC3300CCCC3300FFCC330000FF330033FF330066FF330099FF3300CCFF3300FFFF330000006600330066006600660099
310
006600CC006600FF00660000336600333366006633660099336600CC336600FF33660000666600336666006666660099666600CC666600FF66660000996600339966006699660099996600CC996600FF99660000CC660033CC660066CC660099CC6600CCCC6600FFCC660000FF660033FF660066FF660099FF6600CCFF6600
310
FFFF660000009900330099006600990099009900CC009900FF00990000339900333399006633990099339900CC339900FF33990000669900336699006666990099669900CC669900FF66990000999900339999006699990099999900CC999900FF99990000CC990033CC990066CC990099CC9900CCCC9900FFCC990000FF99
310
0033FF990066FF990099FF9900CCFF9900FFFF99000000CC003300CC006600CC009900CC00CC00CC00FF00CC000033CC003333CC006633CC009933CC00CC33CC00FF33CC000066CC003366CC006666CC009966CC00CC66CC00FF66CC000099CC003399CC006699CC009999CC00CC99CC00FF99CC0000CCCC0033CCCC0066CC
310
CC0099CCCC00CCCCCC00FFCCCC0000FFCC0033FFCC0066FFCC0099FFCC00CCFFCC00FFFFCC000000FF003300FF006600FF009900FF00CC00FF00FF00FF000033FF003333FF006633FF009933FF00CC33FF00FF33FF000066FF003366FF006666FF009966FF00CC66FF00FF66FF000099FF003399FF006699FF009999FF00CC
310
99FF00FF99FF0000CCFF0033CCFF0066CCFF0099CCFF00CCCCFF00FFCCFF0000FFFF0033FFFF0066FFFF0099FFFF00CCFFFF00FFFFFF00000000000D0D0D001A1A1A00282828003535350043434300505050005D5D5D006B6B6B00787878008686860093939300A1A1A100AEAEAE00BBBBBB00C9C9C900D6D6D600E4E4E400
310
F1F1F100FFFFFF0000000000000000000000000000000000000000000000000000000000000000000000000000000000F5F5F5F5F5F5F5F5F5F5F5F5F5F5F5F5F5F5F5F5F5F5F5F5F5F5F5F5F5F5F5F5F5F5F5F5F5F5F5F5F5F5F5F5F5F5F5F5F5F5F5F5F5F5F5F5F5F5F5F5F5F5F5F5F5F5F5F5F5F5F5F5F5F5F5F5F5F5F5
310
F5F5F5F5F5F5F5F5F5F5F5F5F5F5F5F5F5F5F5F5F5F5F5F5F5F5F5F5F5F5F5F5F5F5F5F5F5F5F5F5F5F5F5F5F5F5F5F5F5F5F5F5F5F5F5F5F5F5F5F5F5F5F5F5F5F5F5F5F5F5F5F5F5F5F5F5F5F5F5F5F5F5F5F5F5F5F5F5F5F5F5F5F5F5F5F5F5F5F5EFEFF5E2E2E2E2E2E2E2E2E2E2E2E2E2E2E2E2E2E2E2E2E2E2E2E2E2
310
E2E2E2E2E2E2E2E2E2E2E2E2E2E2E2E2E2E2E2E2E2E2E2E2E2E2E2E2E2E2E2E2E2E2E2E2E2E2E2E2E2E2E2E2E2E2E2E2E2E2E2E2E2E2E2E2E2E2E2E2E2E2E2E2E2E2E2E2E2E2E2E2E2E2E2E2E2E2E2E2E2E2E2E2E2E2E2E2E2E2E2E2E2E2E2E2E2E2E2E2E2E2E2E2E2E2E2E2E2E2E2E2E2E2E2E2E2E2E2E2E2E2E2E2E2E2E2
310
E2E2E2E2E2E2E2E2E2E2E2E2E2E2E2E2E2E2E2E2E2E2E2F5F5EFEFF5E2F5F5F5F5F5F5F5F5E2E2E2E2E2E2E2E2E2F5F5F5F5F5F5F5F5F5F5F5F5F5F5F5F5E2E2E2E2E2E2E2E2E2F5F5F5F5F5F5F5F5F5F5F5F5F5F5F5F5E2E2E2E2E2E2E2E2F5F5F5F5F5F5F5F5F5F5F5F5F5F5F5F5E2E2E2E2E2E2E2E2E2F5F5F5F5F5F5F5
310
F5F5F5F5F5F5F5F5F5E2E2E2E2E2E2E2E2F5F5F5F5F5F5F5F5F5F5F5F5F5F5F5F5E2E2E2E2E2E2E2E2E2F5F5F5F5F5F5F5F5F5F5F5F5F5F5F5F5E2E2E2E2E2E2E2E2E2F5F5F5F5F5F5F5F5E2F5F5EFEFF5E2F5E2E2E2E2E2E2E2E2E2E2E2E2E2E2E2E2E2E2E2E2E2E2E2E2E2E2E2E2E2E2E2E2E2E2E2E2E2E2E2E2E2E2E2E2
310
E2E2E2E2E2E2E2E2E2E2E2E2E2E2E2E2E2E2E2E2E2E2E2E2E2E2E2E2E2E2E2E2E2E2E2E2E2E2E2E2E2E2E2E2E2E2E2E2E2E2E2E2E2E2E2E2E2E2E2E2E2E2E2E2E2E2E2E2E2E2E2E2E2E2E2E2E2E2E2E2E2E2E2E2E2E2E2E2E2E2E2E2E2E2E2E2E2E2E2E2E2E2E2E2E2E2E2E2E2E2E2E2E2E2E2E2E2E2E2E2E2E2E2E2E2E2E2
310
F5E2F5F5EFEFF5E2F5E2E2E2E2E2E2E2E2E2E2E2E2E2E2E2E2E2E2E2E2E2E2E2E2E2E2E2E2E2E2E2E2E2E2E2E2E2E2E2E2E2E2E2E2E2E2E2E2E2E2E2E2E2E2E2E2E2E2E2E2E2E2E2E2E2E2E2E2E2E2E2E2E2E2E2E2E2E2E2E2E2E2E2E2E2E2E2E2E2E2E2E2E2E2E2E2E2E2E2E2E2E2E2E2E2E2E2E2E2E2E2E2E2E2E2E2E2E2
310
E2E2E2E2E2E2E2E2E2E2E2E2E2E2E2E2E2E2E2E2E2E2E2E2E2E2E2E2E2E2E2E2E2E2E2E2E2E2E2E2E2E2E2E2E2E2E2E2E2E2E2E2E2F5E2F5F5EFEFF5E2F5E2E2E2E2E2E2E2E2E2E2E2E2E2E2E2E2E2E2E2E2E2E2E2E2E2E2E2E2E2E2E2E2E2E2E2E2E2E2E2E2E2E2E2E2E2E2E2E2E2E2E2E2E2E2E2E2E2E2E2E2E2E2E2E2E2
310
E2E2E2E2E2E2E2E2E2E2E2E2E2E2E2E2E2E2E2E2E2E2E2E2E2E2E2E2E2E2E2E2E2E2E2E2E2E2E2E2E2E2E2E2E2E2E2E2E2E2E2E2E2E2E2E2E2E2E2E2E2E2E2E2E2E2E2E2E2E2E2E2E2E2E2E2E2E2E2E2E2E2E2E2E2E2E2E2E2E2E2E2E2E2E2E2E2E2E2E2E2E2E2E2E2E2F5E2F5F5EFEFF5E2F5E2E2E2E2E2E2E2E2E2E2E2E2
310
E2E2E2E2E2E2E2E2E2E2E2E2E2E2E2E2E2E2E2E2E2E2E2E2E2E2E2E2E2E2E2E2E2E2E2E2E2E2E2E2E2E2E2E2E2E2E2E2E2E2E2E2E2E2E2E2E2E2E2E2E2E2E2E2E2E2E2E2E2E2E2E2E2E2E2E2E2E2E2E2E2E2E2E2E2E2E2E2E2E2E2E2E2E2E2E2E2E2E2E2E2E2E2E2E2E2E2E2E2E2E2E2E2E2E2E2E2E2E2E2E2E2E2E2E2E2E2
310
E2E2E2E2E2E2E2E2E2E2E2E2E2E2E2E2E2E2E2E2E2E2E2E2E2E2E2E2E2E2E2E2F5E2F5F5EFEFF5E2F5E2E2E2E2E2E2E2E2E2E2E2E2E2E2E2E2E2E2E2E2E2E2E2E2E2E2E2E2E2E2E2E2E2E2E2E2E2E2E2E2E2E2E2E2E2E2E2E2E2E2E2E2E2E2E2E2E2E2E2E2E2E2E2E2E2E2E2E2E2E2E2E2E2E2E2E2E2E2E2E2E2E2E2E2E2E2
310
E2E2E2E2E2E2E2E2E2E2E2E2E2E2E2E2E2E2E2E2E2E2E2E2E2E2E2E2E2E2E2E2E2E2E2E2E2E2E2E2E2E2E2E2E2E2E2E2E2E2E2E2E2E2E2E2E2E2E2E2E2E2E2E2E2E2E2E2E2E2E2E2E2E2E2E2E2E2E2E2E2E2E2E2E2F5E2F5F5EFEFF5E2F5E2E2E2E2E2E2E2E2E2E2E2E2E2E2E2E2E2E2E2E2E2E2E2E2E2E2E2E2E2E2E2E2E2
310
E2E2E2E2E2E2E2E2E2E2E2E2E2E2E2E2E2E2E2E2E2E2E2E2E2E2E2E2E2E2E2E2E2E2E2E2E2E2E2E2E2E2E2E2E2E2E2E2E2E2E2E2E2E2E2E2E2E2E2E2E2E2E2E2E2E2E2E2E2E2E2E2E2E2E2E2E2E2E2E2E2E2E2E2E2E2E2E2E2E2E2E2E2E2E2E2E2E2E2E2E2E2E2E2E2E2E2E2E2E2E2E2E2E2E2E2E2E2E2E2E2E2E2E2E2E2E2
310
E2E2E2E2E2E2E2E2E2E2E2F5E2F5F5EFEFF5E2F5E2E2E2E2E2E2E2E2E2E2E2E2E2E2E2E2E2E2E2E2E2E2E2E2E2E2E2E2E2E2E2E2E2E2E2E2E2E2E2E2E2E2E2E2E2E2E2E2E2E2E2E2E2E2E2E2E2E2E2E2E2E2E2E2E2E2E2E2E2E2E2E2E2E2E2E2E2E2E2E2E2E2E2E2E2E2E2E2E2E2E2E2E2E2E2E2E2E2E2E2E2E2E2E2E2E2E2
310
E2E2E2E2E2E2E2E2E2E2E2E2E2E2E2E2E2E2E2E2E2E2E2E2E2E2E2E2E2E2E2E2E2E2E2E2E2E2E2E2E2E2E2E2E2E2E2E2E2E2E2E2E2E2E2E2E2E2E2E2E2E2E2E2F5E2F5F5EFEFF5E2F5E2E2E2E2E2E2E2E2B8B8B8B8B8B8B8B8B8B8B8B8B8B8B8B8B8B8B8B8B8B8B8B8B8B8B8B8B8B8B8B8B8B8B8B8B8B8B8B8B8B8B8B8B8B8
310
B8B8B8B8B8B8B8B8B8B8B8B8B8B8B8B8B8B8B8B8B8B8B8B8B8B8B8B8B8B8B8B8B8B8B8B8B8B8B8B8B8B8B8B8B8B8B8B8B8B8B8B8B8B8B8B8B8B8B8B8B8B8B8B8B8B8B8B8B8B8B8B8B8B8B8B8B8B8B8B8B8B8B8B8B8B8B8B8B8B8B8B8B8B8B8B8B8B8B8B8B8B8B8B8B8B8B8B8E2E2E2E2E2E2E2E2E2F5E2F5F5EFEFF5E2E2E2
310
E2E2E2E2E2E2E2B8E2E2E2E2E2E2E2E2E2E2E2E2E2E2E2E2E2E2E2E2E2E2E2E2E2E2E2E2E2E2E2E2E2E2E2E2E2E2E2E2E2E2E2E2E2E2E2E2E2E2E2E2E2E2E2E2E2E2E2E2E2E2E2E2E2E2E2E2E2E2E2E2E2E2E2E2E2E2E2E2E2E2E2E2E2E2E2E2E2E2E2E2E2E2E2E2E2E2E2E2E2E2E2E2E2E2E2E2E2E2E2E2E2E2E2E2E2E2E2
310
E2E2E2E2E2E2E2E2E2E2E2E2E2E2E2E2E2E2E2E2E2E2E2E2E2E2E2E2E2E2E2E2E2B8E2E2E2E2E2E2E2E2E2E2E2F5F5EFEFF5E2E2E2E2E2E2E2E2E2E2B8E2E2E2E2E2E2E2E2E2E2E2E2E2E2E2E2E2E2E2E2E2E2E2E2E2E2E2E2E2E2E2E2E2E2E2E2E2E2E2E2E2E2E2E2E2E2E2E2E2E2E2E2E2E2E2E2E2E2E2E2E2E2E2E2E2E2
310
E2E2E2E2E2E2E2E2E2E2E2E2E2E2E2E2E2E2E2E2E2E2E2E2E2E2E2E2E2E2E2E2E2E2E2E2E2E2E2E2E2E2E2E2E2E2E2E2E2E2E2E2E2E2E2E2E2E2E2E2E2E2E2E2E2E2E2E2E2E2E2E2E2E2E2E2E2E2E2E2E2E2E2E2E2E2B8E2E2E2E2E2E2E2E2E2E2E2F5F5EFEFF5E2E2E2E2E2E2E2E2E2E2B8E2E2E2E2E2E2E2E2E2E2E2E2E2
310
E2E2E2E2E2E2E2E2E2E2E2E2E2E2E2E2E2E2E2E2E2E2E2E2E2E2E2E2E2E2E2E2E2E2E2E2E2E2E2E2E2E2E2E2E2E2E2E2E2E2E2E2E2E2E2E2E2E2E2E2E2E2E2E2E2E2E2E2E2E2E2E2E2E2E2E2E2E2E2E2E2E2E2E2E2E2E2E2E2E2E2E2E2E2E2E2E2E2E2E2E2E2E2E2E2E2E2E2E2E2E2E2E2E2E2E2E2E2E2E2E2E2E2E2E2E2E2
310
E2E2E2E2E2E2E2E2E2E2E2E2B8E2E2E2E2E2E2E2E2E2E2E2F5F5EFEFF5E2E2E2E2E2E2E2E2E2E2B8E2E2E2E2E2E2E2E2E2E2E2E2E2E2E2E2E2E2E2E2E2E2E2E2E2E2E2E2E2E2E2E2E2E2E2E2E2E2E2E2E2E2E2E2E2E2E2E2E2E2E2E2E2E2E2E2E2E2E2E2E2E2E2E2E2E2E2E2E2E2E2E2E2E2E2E2E2E2E2E2E2E2E2E2E2E2E2
310
E2E2E2E2E2E2E2E2E2E2E2E2E2E2E2E2E2E2E2E2E2E2E2E2E2E2E2E2E2E2E2E2E2E2E2E2E2E2E2E2E2E2E2E2E2E2E2E2E2E2E2E2E2E2E2E2E2E2E2E2E2E2E2E2E2B8E2E2E2E2E2E2E2E2E2E2E2F5F5EFEFF5E2E2E2E2E2E2E2E2E2E2B8E2E2E2E2E2E2E2E2E2E2E2E2E2E2E2E2E2E2E2E2E2E2E2E2E2E2E2E2E2E2E2E2E2E2
310
E2E2E2E2E2E2E2E2E2E2E2E2E2E2E2E2E2E2E2E2E2E2E2E2E2E2E2E2E2E2E2E2E2E2E2E2E2E2E2E2E2E2E2E2E2E2E2E2E2E2E2E2E2E2E2E2E2E2E2E2E2E2E2E2E2E2E2E2E2E2E2E2E2E2E2E2E2E2E2E2E2E2E2E2E2E2E2E2E2E2E2E2E2E2E2E2E2E2E2E2E2E2E2E2E2E2E2E2E2E2E2E2E2E2E2E2E2E2B8E2E2E2E2E2E2E2E2
310
E2E2E2F5F5EFEFF5E2E2E2E2E2E2E2E2E2E2B8E2E2E2E2E2E2E2E2E2E2E2E2E2E2E2E2E2E2E2E2E2E2E2E2E2E2E2E2E2E2E2E2E2E2E2E2E2E2E2E2E2E2E2E2E2E2E2E2E2E2E2E2E2E2E2E2E2E2E2E2E2E2E2E2E2E2E2E2E2E2E2E2E2E2E2E2E2E2E2E2E2E2E2E2E2E2E2E2E2E2E2E2E2E2E2E2E2E2E2E2E2E2E2E2E2E2E2E2
310
E2E2E2E2E2E2E2E2E2E2E2E2E2E2E2E2E2E2E2E2E2E2E2E2E2E2E2E2E2E2E2E2E2E2E2E2E2E2E2E2E2E2E2E2B8E2E2E2E2E2E2E2E2E2E2E2F5F5EFEFF5E2E2E2E2E2E2E2E2E2E2B8E2E2E2E2E2E2E2E2E2E2E2E2E2E2E2E2E2E2E2E2E2E2E2E2E2E2E2E2E2E2E2E2E2E2E2E2E2E2E2E2E2E2E2E2E2E2E2E2E2E2E2E2E2E2E2
310
E2E2E2E2E2E2E2E2E2E2E2E2E2E2E2E2E2E2E2E2E2E2E2E2E2E2E2E2E2E2E2E2E2E2E2E2E2E2E2E2E2E2E2E2E2E2E2E2E2E2E2E2E2E2E2E2E2E2E2E2E2E2E2E2E2E2E2E2E2E2E2E2E2E2E2E2E2E2E2E2E2E2E2E2E2E2E2E2E2E2E2E2E2E2E2E2E2B8E2E2E2E2E2E2E2E2E2E2E2F5F5EFEFF5E2E2E2E2E2E2E2E2E2E2B8E2E2
310
E2E2E2E2E2E2E2E2E2E2E2E2E2E2E2E2E2E2E2E2E2E2E2E2E2E2E2E2E2E2E2E2E2E2E2E2E2E2E2E2E2E2E2E2E2E2E2E2E2E2E2E2E2E2E2E2E2E2E2E2E2E2E2E2E2E2E2E2E2E2E2E2E2E2E2E2E2E2E2E2E2E2E2E2E2E2E2E2E2E2E2E2E2E2E2E2E2E2E2E2E2E2E2E2E2E2E2E2E2E2E2E2E2E2E2E2E2E2E2E2E2E2E2E2E2E2E2
310
E2E2E2E2E2E2E2E2E2E2E2E2E2E2E2E2E2E2E2E2E2E2E2B8E2E2E2E2E2E2E2E2E2E2E2F5F5EFEFF5E2E2E2E2E2E2E2E2E2E2B8E2E2E2E2E2E2E2E2E2E2E2E2E2E2E2E2E2E2E2E2E2E2E2E2E2E2E2E2E2E2E2E2E2E2E2E2E2E2E2E2E2E2E2E2E2E2E2E2E2E2E2E2E2E2E2E2E2E2E2E2E2E2E2E2E2E2E2E2E2E2E2E2E2E2E2E2
310
E2E2E2E2E2E2E2E2E2E2E2E2E2E2E2E2E2E2E2E2E2E2E2E2E2E2E2E2E2E2E2E2E2E2E2E2E2E2E2E2E2E2E2E2E2E2E2E2E2E2E2E2E2E2E2E2E2E2E2E2E2E2E2E2E2E2E2E2E2E2E2E2E2E2E2E2B8E2E2E2E2E2E2E2E2E2E2E2F5F5EFEFF5E2E2E2E2E2E2E2E2E2E2B8E2E2E2E2E2E2E2E2E2E2E2E2E2E2E2E2E2E2E2E2E2E2E2
310
E2E2E2E2E2E2E2E2E2E2E2E2E2E2E2E2E2E2E2E2E2E2E2E2E2E2E2E2E2E2E2E2E2E2E2E2E2E2E2E2E2E2E2E2E2E2E2E2E2E2E2E2E2E2E2E2E2E2E2E2E2E2E2E2E2E2E2E2E2E2E2E2E2E2E2E2E2E2E2E2E2E2E2E2E2E2E2E2E2E2E2E2E2E2E2E2E2E2E2E2E2E2E2E2E2E2E2E2E2E2E2E2E2E2E2E2E2E2E2E2E2E2E2E2E2E2E2
310
E2E2B8E2E2E2E2E2E2E2E2E2E2E2F5F5EFEFF5E2F5E2E2E2E2E2E2E2E2B8E2E2E2E2E2E2E2E2E2E2E2E2E2E2E2E2E2E2E2E2E2E2E2E2E2E2E2E2E2E2E2E2E2E2E2E2E2E2E2E2E2E2E2E2E2E2E2E2E2E2E2E2E2E2E2E2E2E2E2E2E2E2E2E2E2E2E2E2E2E2E2E2E2E2E2E2E2E2E2E2E2E2E2E2E2E2E2E2E2E2E2E2E2E2E2E2E2
310
E2E2E2E2E2E2E2E2E2E2E2E2E2E2E2E2E2E2E2E2E2E2E2E2E2E2E2E2E2E2E2E2E2E2E2E2E2E2E2E2E2E2E2E2E2E2E2E2E2E2E2E2E2E2E2B8E2E2E2E2E2E2E2E2E2F5E2F5F5EFEFF5E2F5E2E2E2E2E2E2E2E2B8E2E2E2E2E2E2E2E2E2E2E2E2E2E2E2E2E2E2E2E2E2E2E2E2E2E2E2E2E2E2E2E2E2E2E2E2E2E2E2E2E2E2E2E2
310
E2E2E2E2E2E2E2E2E2E2E2E2E2E2E2E2E2E2E2E2E2E2E2E2E2E2E2E2E2E2E2E2E2E2E2E2E2E2E2E2E2E2E2E2E2E2E2E2E2E2E2E2E2E2E2E2E2E2E2E2E2E2E2E2E2E2E2E2E2E2E2E2E2E2E2E2E2E2E2E2E2E2E2E2E2E2E2B8E2E2E2E2E2E2E2E2E2E2E2E2E2E2E2E2E2E2E2E2B8E2E2E2E2E2E2E2E2E2F5E2F5F5EFEFF5E2F5
310
E2E2E2E2E2E2E2E2B8E2E2E2E2E2E2E2E2E2E2E2E2E2E2E2E2E2E2E2E2E2E2E2E2E2E2E2E2E2E2E2E2E2E2E2E2E2E2E2E2E2E2E2E2E2E2E2E2E2E2E2E2E2E2E2E2E2E2E2E2E2E2E2E2E2E2E2E2E2E2E2E2E2E2E2E2E2E2E2E2E2E2E2E2E2E2E2E2E2E2E2E2E2E2E2E2E2E2E2E2E2E2E2E2E2E2E2E2E2E2E2E2E2E2E2E2E2E2
310
E2E2E2E2E2E2E2E2E2E2E2E2E2B8E2E2E2E2E2E2E2E2E2E2E2E2E2E2E2E2E2E2E2E2B8E2E2E2E2E2E2E2E2E2F5E2F5F5EFEFF5E2F5E2E2E2E2E2E2E2E2B8E2E2E2E2E2E2E2E2E2E2E2E2E2E2E2E2E2E2E2E2E2E2E2E2E2E2E2E2E2E2E2E2E2E2E2E2E2E2E2E2E2E2E2E2E2E2E2E2E2E2E2E2E2E2E2E2E2E2E2E2E2E2E2E2E2
310
E2E2E2E2E2E2E2E2E2E2E2E2E2E2E2E2E2E2E2E2E2E2E2E2E2E2E2E2E2E2E2E2E2E2E2E2E2E2E2E2E2E2E2E2E2E2E2E2E2E2E2E2E2E2E2E2E2E2E2E2E2E2E2E2E2E2B8E2E2E2E2E2E2E2E2E2E2E2E2E2E2E2E2E2E2E2E2B8E2E2E2E2E2E2E2E2E2F5E2F5F5EFEFF5E2F5E2E2E2E2E2E2E2E2B8E2E2E2E2E2E2E2E2E2E2E2E2
310
E2E2E2E2E2E2E2E2E2E2E2E2E2E2E2E2E2E2E2E2E2E2E2E2E2E2E2E2E2E2E2E2E2E2E2E2E2E2E2E2E2E2E2E2E2E2E2E2E2E2E2E2E2E2E2E2E2E2E2E2E2E2E2E2E2E2E2E2E2E2E2E2E2E2E2E2E2E2E2E2E2E2E2E2E2E2E2E2E2E2E2E2E2E2E2E2E2E2E2E2E2E2E2E2E2E2E2E2E2E2E2E2E2E2E2E2E2E2E2B8E2E2E2E2E2E2E2
310
E2E2E2E2E2E2E2E2E2E2E2E2E2B8E2E2E2E2E2E2E2E2E2F5E2F5F5EFEFF5E2F5E2E2E2E2E2E2E2E2B8E2E2E2E2E2E2E2E2E2E2E2E2E2E2E2E2E2E2E2E2E2E2E2E2E2E2E2E2E2F5F5F5E2E2E2E2E2E2E2E2E2E2E2E2E2E2E2E2E2E2E2E2E2E2E2E2E2E2E2E2E2E2E2E2E2E2E2E2E2E2E2E2E2F5F5F5E2E2E2E2B8E2E2E2E2E2
310
E2E2E2E2E2E2E2E2E2E2E2E2E2E2E2E2E2E2E2E2E2E2E2E2E2E2E2E2E2E2E2E2F5F5F5E2E2E2E2E2E2E2E2E2E2B8E2E2E2E2E2E2E2E2E2E2F5F5F5E2E2E2E2E2E2E2B8E2E2E2E2E2E2E2E2E2F5E2F5F5EFEFF5E2F5E2E2E2E2E2E2E2E2B8E2E2E2E2E2E2E2E2E2E2E2E2E2E2E2E2E2E2E2E2E2E2E2E2E2E2E2E2E2F5F5F5F5
310
E2E2E2E2E2E2E2E2E2E2E2E2E2E2E2E2E2E2E2E2E2E2E2E2E2E2E2E2E2E2E2E2F5F5F5F5F5F5F5F5F5F5F5F5F5F5F5F5F5F5F5F5E2E2E2E2E2E2E2E2E2E2E2E2E2E2E2E2E2E2E2E2E2E2E2E2E2E2E2E2E2E2E2E2E2F5F5F5E2F5F5F5F5F5F5F5F5F5F5F5F5F5F5F5F5F5F5E2E2F5F5F5E2E2E2E2E2E2E2B8E2E2E2E2E2E2E2
310
E2E2F5E2F5F5EFEFF5E2F5E2E2E2E2E2E2E2E2B8E2E2E2E2E2E2E2E2E2E2E2E2E2E2E2E2E2E2E2E2E2E2E2E2E2E2E2E2E2F5F5F5F5E2E2E2E2E2E2F5F5F5F5F5F5F5F5F5F5F5F5F5F5F5F5F5F5F5F5F5F5F5F5F5F5F5F5F5F5F5F5F5F5F5F5F5F5F5F5F5F5F5F5F5F5F5E2E2E2E2E2E2E2E2E2E2E2E2E2E2E2E2E2E2E2E2E2
310
E2E2E2E2E2E2E2E2E2E2E2F5F5F5F5E2E2E2E2E2E2E2E2E2B8E2E2E2E2E2E2E2E2F5F5F5F5F5E2E2E2E2E2E2E2B8E2E2E2E2E2E2E2E2E2F5E2F5F5EFEFF5E2F5E2E2E2E2E2E2E2E2B8E2E2E2E2E2E2E2E2E2E2E2E2E2E2E2E2E2E2E2E2E2E2F5F5F5F5F5F5F5F5F5F5F5F5F5F5F5F5F5F5F5F5F5F5F5F5F5F5F5F5F5F5F5F5
310
F5F5F5F5E2E2E2E2E2E2E2E2E2E2E2E2E2E2E2E2E2E2E2E2E2E2B8E2E2E2E2F5F5E2E2E2E2E2E2E2E2E2E2E2E2E2E2E2E2E2E2E2E2E2E2E2E2E2E2E2E2E2E2F5F5E2E2E2E2E2E2E2E2E2E2E2E2B8E2E2E2E2E2E2E2E2E2E2E2E2F5F5E2E2E2E2E2E2B8E2E2E2E2E2E2E2E2E2F5E2F5F5EFEFF5E2F5E2E2E2E2E2E2E2E2B8E2
310
E2E2E2E2E2E2E2E2E2E2E2E2E2E2E2E2E2E2E2E2F5F5E2E2E2E2E2E2E2E2B8E2E2E2E2E2E2E2E2E2E2E2E2E2E2E2E2E2E2E2E2E2E2E2E2E2E2E2E2E2E2E2E2E2E2E2E2E2E2E2E2E2E2E2E2E2E2E2E2B8E2E2E2E2E2F5E2E2E2E2E2E2E2E2E2E2E2E2E2E2E2E2E2E2E2E2E2E2E2E2E2E2E2E2E2E2F5E2E2E2E2E2E2E2E2E2E2
310
E2E2E2B8E2E2E2E2E2E2E2E2E2E2E2E2E2F5E2E2E2E2E2E2B8E2E2E2E2E2E2E2E2E2F5E2F5F5EFEFF5E2F5E2E2E2E2E2E2E2E2B8E2E2E2E2E2E2E2E2E2E2E2E2E2E2E2E2E2E2E2E2F5E2E2E2E2E2E2E2E2E2E2B8E2E2E2E2E2E2E2E2E2E2E2E2E2E2E2E2E2E2E2E2E2E2E2E2E2E2E2E2E2E2E2E2E2E2E2E2E2E2E2E2E2E2E2
310
E2E2E2E2E2B8E2E2E2E2E2F5E2E2E2E2E2E2E2E2E2E2E2E2E2E2E2E2E2E2E2E2E2E2E2E2E2E2E2E2E2E2F5E2E2E2E2E2E2E2E2E2E2E2E2E2B8E2E2E2E2E2E2E2E2E2E2E2E2E2F5E2E2E2E2E2E2B8E2E2E2E2E2E2E2E2E2F5E2F5F5EFEFF5E2F5E2E2E2E2E2E2E2E2B8E2E2E2E2E2E2E2E2E2E2E2E2E2E2E2E2E2E2E2E2F5E2
310
E2E2E2E2E2E2E2E2E2B8E2E2E2E2E2E2E2E2E2E2E2E2E2E2E2E2E2E2E2E2E2E2E2E2E2E2E2E2E2E2E2E2E2E2E2E2E2E2E2E2E2E2E2E2E2E2E2E2B8E2E2E2E2E2F5E2E2E2E2E2E2E2E2E2E2E2E2E2E2E2E2E2E2E2E2E2E2E2E2E2E2E2E2E2E2F5E2E2E2E2E2E2E2E2E2E2E2E2E2B8E2E2E2E2E2E2E2E2E2E2E2E2E2F5E2E2E2
310
E2E2E2B8E2E2E2E2E2E2E2E2E2F5E2F5F5EFEFF5E2F5E2E2E2E2E2E2E2E2B8E2E2E2E2E2E2E2E2E2E2E2E2E2E2E2E2E2E2E2F5E2E2E2E2E2E2E2E2E2E2E2B8E2E2E2E2E2E2E2E2E2E2E2E2E2E2E2E2E2E2E2E2E2E2E2E2E2E2E2E2E2E2E2E2E2E2E2E2E2E2E2E2E2E2E2E2E2E2E2E2B8E2E2E2E2E2F5E2E2E2E2E2E2E2E2E2
310
E2E2E2E2E2E2E2E2E2E2E2E2E2E2E2E2E2E2E2E2E2F5E2E2E2E2E2E2E2E2E2E2E2E2E2B8E2E2E2E2E2E2E2E2E2E2E2E2E2F5E2E2E2E2E2E2B8E2E2E2E2E2E2E2E2E2F5E2F5F5EFEFF5E2F5E2E2E2E2E2E2E2E2B8E2E2E2E2E2E2E2E2E2E2E2E2E2E2E2E2E2E2E2F5E2E2E2E2E2E2E2E2E2E2E2B8E2E2E2E2E2E2E2E2E2E2E2
310
E2E2E2E2E2E2E2E2E2E2E2E2E2E2E2E2E2E2E2E2E2E2E2E2E2E2E2E2E2E2E2E2E2E2E2E2E2B8E2E2E2E2E2F5E2E2E2E2E2E2E2E2E2E2E2E2E2E2E2E2E2E2E2E2E2E2E2E2E2E2E2E2E2F5E2E2E2E2E2E2E2E2E2E2E2E2E2E2B8E2E2E2E2E2E2E2E2E2E2E2E2E2F5E2E2E2E2E2E2B8E2E2E2E2E2E2E2E2E2F5E2F5F5EFEFF5E2
310
F5E2E2E2E2E2E2E2E2B8E2E2E2E2E2E2E2E2E2E2E2E2E2E2E2E2E2E2F5E2E2E2E2E2E2E2E2E2E2E2E2B8E2E2E2E2E2E2E2E2E2E2E2E2E2E2E2E2E2E2E2E2E2E2E2E2E2E2E2E2E2E2E2E2E2E2E2E2E2E2E2E2E2E2E2E2E2E2E2E2B8E2E2E2E2E2F5E2E2E2E2E2E2E2E2E2E2E2E2E2E2E2E2E2E2E2E2E2E2E2E2E2E2E2E2E2F5
310
E2E2E2E2E2E2E2E2E2E2E2E2E2E2B8E2E2E2E2E2E2E2E2E2E2E2E2E2E2F5E2E2E2E2E2B8E2E2E2E2E2E2E2E2E2F5E2F5F5EFEFF5E2F5E2E2E2E2E2E2E2E2B8E2E2E2E2E2E2E2E2E2E2E2E2E2E2E2E2E2F5E2E2E2E2E2E2E2E2E2E2E2E2E2B8E2E2E2E2E2E2E2E2E2E2E2E2E2E2E2E2E2E2E2E2E2E2E2E2E2E2E2E2E2E2E2E2
310
E2E2E2E2E2E2E2E2E2E2E2E2E2E2E2E2B8E2E2E2E2E2F5E2E2E2E2E2E2E2E2E2E2E2E2E2E2E2E2E2E2E2E2E2E2E2E2E2E2E2E2E2F5E2E2E2E2E2E2E2E2E2E2E2E2E2E2B8E2E2E2E2E2E2E2E2E2E2E2E2E2E2F5E2E2E2E2E2B8E2E2E2E2E2E2E2E2E2F5E2F5F5EFEFF5E2F5E2E2E2E2E2E2E2E2B8E2E2E2E2E2E2E2E2E2E2E2
310
E2E2E2E2E2F5E2E2E2E2E2E2E2E2E2E2E2E2E2E2B8E2E2E2E2E2E2E2E2E2E2E2E2E2E2E2E2E2E2E2E2E2E2E2E2E2E2E2E2E2E2E2E2E2E2E2E2E2E2E2E2E2E2E2E2E2E2E2E2B8E2E2E2E2E2F5E2E2E2E2E2E2E2E2E2E2E2E2E2E2E2E2E2E2E2E2E2E2E2E2E2E2E2E2E2F5E2E2E2E2E2E2E2E2E2E2E2E2E2E2B8E2E2E2E2E2E2
310
E2E2E2E2E2E2E2E2F5E2E2E2E2E2B8E2E2E2E2E2E2E2E2E2F5E2F5F5EFEFF5E2E2E2E2E2E2E2E2E2E2B8E2E2E2E2E2E2E2E2E2E2E2E2E2E2E2E2F5E2E2E2E2E2E2E2E2E2E2E2E2E2E2B8E2E2E2E2E2E2E2E2E2E2E2E2E2E2E2E2E2E2E2E2E2E2E2E2E2E2E2E2E2E2E2E2E2E2E2E2E2E2E2E2E2E2E2E2E2E2E2E2B8E2E2E2E2
310
E2F5F5E2E2E2E2E2E2E2E2E2E2E2E2E2E2E2E2E2E2E2E2E2E2E2E2E2E2E2E2F5E2E2E2E2E2E2E2E2E2E2E2E2E2E2B8E2E2E2E2E2E2E2E2E2E2E2E2E2E2F5E2E2E2E2E2B8E2E2E2E2E2E2E2E2E2E2E2F5F5EFEFF5E2E2E2E2E2E2E2E2E2E2B8E2E2E2E2E2E2E2E2E2E2E2E2E2E2E2F5E2E2E2E2E2E2E2E2E2E2E2E2E2E2E2B8
310
E2E2E2E2E2E2E2E2E2E2E2E2E2E2E2E2E2E2E2E2E2E2E2E2E2E2E2E2E2E2E2E2E2E2E2E2E2E2E2E2E2E2E2E2E2E2E2E2B8E2E2E2E2E2F5F5E2E2E2E2E2E2E2E2E2E2E2E2E2E2E2E2E2E2E2E2E2E2E2E2E2E2E2E2F5E2E2E2E2E2E2E2E2E2E2E2E2E2E2B8E2E2E2E2E2E2E2E2E2E2E2E2E2E2F5E2E2E2E2E2B8E2E2E2E2E2E2
310
E2E2E2E2E2F5F5EFEFF5E2E2E2E2E2E2E2E2E2E2B8E2E2E2E2E2E2E2E2E2E2E2E2E2E2E2F5E2E2E2E2E2E2E2E2E2E2E2E2E2E2E2B8E2E2E2E2E2E2E2E2E2E2E2E2E2E2E2E2E2E2E2E2E2E2E2E2E2E2E2E2E2E2E2E2E2E2E2E2E2E2E2E2E2E2E2E2E2E2E2E2B8E2E2E2E2E2E2F5E2E2E2E2E2E2E2E2E2E2E2E2E2E2E2E2E2E2
310
E2E2E2E2E2E2E2E2E2F5E2E2E2E2E2E2E2E2E2E2E2E2E2E2E2B8E2E2E2E2E2E2E2E2E2E2E2E2E2E2F5E2E2E2E2E2B8E2E2E2E2E2E2E2E2E2E2E2F5F5EFEFF5E2E2E2E2E2E2E2E2E2E2B8E2E2E2E2E2E2E2E2E2E2E2E2E2E2F5E2E2E2E2E2E2E2E2E2E2E2E2E2E2E2E2B8E2E2E2E2E2E2E2E2E2E2E2E2E2E2E2E2E2E2E2E2E2
310
E2E2E2E2E2E2E2E2E2E2E2E2E2E2E2E2E2E2E2E2E2E2E2E2E2E2E2B8E2E2E2E2E2E2F5E2E2E2E2E2E2E2E2E2E2E2E2E2E2E2E2E2E2E2E2E2E2E2E2E2E2E2F5E2E2E2E2E2E2E2E2E2E2E2E2E2E2E2B8E2E2E2E2E2E2E2E2E2E2E2E2E2E2F5E2E2E2E2E2B8E2E2E2E2E2E2E2E2E2E2E2F5F5EFEFF5E2E2E2E2E2E2E2E2E2E2B8
310
E2E2E2E2E2E2E2E2E2E2E2E2E2F5E2E2E2E2E2E2E2E2E2E2E2E2E2E2E2E2E2B8E2E2E2E2E2E2E2E2E2E2E2E2E2E2E2E2E2E2E2E2E2E2E2E2E2E2E2E2E2E2E2E2E2E2E2E2E2E2E2E2E2E2E2E2E2E2E2E2B8E2E2E2E2E2E2F5E2E2E2E2E2E2E2E2E2E2E2E2E2E2E2E2E2E2E2E2E2E2E2E2E2E2E2F5E2E2E2E2E2E2E2E2E2E2E2
310
E2E2E2E2B8E2E2E2E2E2E2E2E2E2E2E2E2E2E2F5E2E2E2E2E2B8E2E2E2E2E2E2E2E2E2E2E2F5F5EFEFF5E2E2E2E2E2E2E2E2E2E2B8E2E2E2E2E2E2E2E2E2E2E2E2E2F5E2E2E2E2E2E2E2E2E2E2E2E2E2E2E2E2E2B8E2E2E2E2E2E2E2E2E2E2E2E2E2E2E2E2E2E2E2E2E2E2E2E2E2E2E2E2E2E2E2E2E2E2E2E2E2E2E2E2E2E2
310
E2E2E2E2E2E2B8E2E2E2E2E2E2F5E2E2E2E2E2E2E2E2E2E2E2E2E2E2E2E2E2E2E2E2E2E2E2E2E2E2E2F5E2E2E2E2E2E2E2E2E2E2E2E2E2E2E2B8E2E2E2E2E2E2E2E2E2E2E2E2E2E2F5E2E2E2E2E2B8E2E2E2E2E2E2E2E2E2E2E2F5F5EFEFF5E2E2E2E2E2E2E2E2E2E2B8E2E2E2E2E2E2E2E2E2E2E2E2F5E2E2E2E2E2E2E2E2
310
E2E2E2E2E2E2E2E2E2E2B8E2E2E2E2E2E2E2E2E2E2E2E2E2E2E2E2E2E2E2E2E2E2E2E2E2E2E2E2E2E2E2E2E2E2E2E2E2E2E2E2E2E2E2E2E2E2E2E2B8E2E2E2E2E2E2F5E2E2E2E2E2E2E2E2E2E2E2E2E2E2E2E2E2E2E2E2E2E2E2E2E2E2E2F5E2E2E2E2E2E2E2E2E2E2E2E2E2E2F5B8E2E2E2E2E2E2E2E2E2E2E2E2E2E2E2F5
310
E2E2E2E2B8E2E2E2E2E2E2E2E2E2E2E2F5F5EFEFF5E2E2E2E2E2E2E2E2E2E2B8E2E2E2E2E2E2E2E2E2E2E2E2F5E2E2E2E2E2E2E2E2E2E2E2E2E2E2E2E2E2E2B8E2E2E2E2E2E2E2E2E2E2E2E2E2E2E2E2E2E2E2E2E2E2E2E2E2E2E2E2E2E2E2E2E2E2E2E2E2E2E2E2E2E2E2E2E2E2E2E2B8E2E2E2E2E2E2F5E2E2E2E2E2E2E2
310
E2E2E2E2E2E2E2E2E2E2E2E2E2E2E2E2E2E2E2E2F5E2E2E2E2E2E2E2E2E2E2E2E2E2F5F5B8F5E2E2E2E2E2E2E2E2E2E2E2E2E2E2F5E2E2E2E2B8E2E2E2E2E2E2E2E2E2E2E2F5F5EFEFF5E2E2E2E2E2E2E2E2E2E2B8E2E2E2E2E2E2E2E2E2E2E2F5E2E2E2E2E2E2E2E2E2E2E2E2E2E2F5F5F5F5F5F5F5F5F5F5E2E2E2E2E2E2
310
E2E2E2E2E2E2E2E2E2E2E2E2E2E2E2E2E2E2E2E2E2E2E2E2E2E2E2E2E2E2E2E2E2E2E2E2E2E2B8E2E2E2E2E2E2F5E2E2E2E2E2E2E2E2E2E2E2E2E2E2E2E2E2E2E2E2E2E2E2E2E2E2F5E2E2E2E2E2E2E2E2E2E2E2E2B8B8B8B8B8B8B8B8E2E2E2E2E2E2E2E2E2E2E2E2F5E2E2E2E2B8E2E2E2E2E2E2E2E2E2E2E2F5F5EFEFF5
310
E2F5E2E2E2E2E2E2E2E2B8E2E2E2E2E2E2E2E2E2E2E2F5F5F5F5F5F5F5F5F5F5F5F5F5F5F5E2E2E2E2E2B8E2E2E2E2F5F5F5F5F5F5F5F5F5F5F5F5F5F5E2E2E2E2E2E2E2E2E2E2E2E2E2E2E2E2E2E2E2E2E2E2E2E2E2E2E2E2E2E2B8E2E2E2E2E2E2F5E2E2E2E2E2E2E2E2E2E2E2E2E2E2E2E2E2E2E2E2E2E2E2E2E2E2F5E2
310
E2E2E2E2E2E2E2E2E2E2E2E2E2F5F5B8F5E2E2E2E2E2E2E2E2E2E2E2E2E2E2F5E2E2E2E2B8E2E2E2E2E2E2E2E2E2F5E2F5F5EFEFF5E2F5E2E2E2E2E2E2E2E2B8E2E2E2E2E2F5F5F5F5F5F5F5F5F5F5F5F5F5F5F5F5F5F5F5F5F5F5F5F5F5F5B8E2E2E2E2E2E2E2E2E2E2E2E2E2E2E2E2E2E2F5F5F5F5F5F5F5F5F5F5F5F5E2
310
E2E2E2E2E2E2E2E2E2E2E2E2E2E2E2E2E2B8E2E2E2E2E2E2F5F5F5F5F5E2E2E2E2E2E2E2E2E2E2E2E2E2E2E2E2E2E2F5F5F5F5F5F5F5F5F5F5F5F5F5F5F5F5F5F5F5F5F5B8F5F5F5F5F5F5F5F5F5F5F5F5F5F5F5F5F5F5F5F5B8E2E2E2E2E2E2E2E2E2F5E2F5F5EFEFF5E2F5E2E2E2E2E2E2E2E2B8E2E2E2E2E2F5F5F5F5F5
310
F5F5F5F5F5F5F5F5F5F5F5F5F5F5F5F5F5F5F5F5F5B8F5F5F5F5F5F5F5F5F5F5F5F5F5F5F5F5F5F5F5F5F5F5F5F5F5F5F5F5F5F5F5F5F5F5F5F5F5F5F5F5F5F5F5F5F5F5F5F5B8F5F5F5F5F5F5F5F5F5F5F5E2E2E2E2E2E2E2E2E2E2E2E2E2E2E2E2E2E2F5F5F5F5F5F5F5F5F5F5F5F5F5F5F5F5F5F5F5F5F5B8F5F5F5F5F5
310
F5F5F5F5F5F5F5F5F5F5F5F5F5F5F5B8E2E2E2E2E2E2E2E2E2F5E2F5F5EFEFF5E2F5E2E2E2E2E2E2E2E2B8E2E2E2E2E2E2E2E2E2E2E2E2E2E2E2E2E2E2E2E2E2E2E2E2E2E2E2E2E2E2E2B8E2E2E2E2E2E2E2E2E2E2E2E2E2E2E2E2E2E2E2E2E2E2E2E2E2E2E2E2E2E2E2E2E2E2E2E2E2E2E2E2E2E2E2E2E2E2E2E2B8E2E2E2
310
E2E2E2E2E2E2E2E2E2E2E2E2E2E2E2E2E2E2E2E2E2E2E2E2E2E2E2E2E2E2E2E2E2E2E2E2E2E2E2E2E2E2E2E2E2E2E2B8E2E2E2E2E2E2E2E2E2E2E2E2E2E2E2E2E2E2E2E2B8E2E2E2E2E2E2E2E2E2F5E2F5F5EFEFF5E2F5E2E2E2E2E2E2E2E2B8E2E2E2E2E2E2E2E2E2E2E2E2E2E2E2E2E2E2E2E2E2E2E2E2E2E2E2E2E2E2E2
310
B8E2E2E2E2E2E2E2E2E2E2E2E2E2E2E2E2E2E2E2E2E2E2E2E2E2E2E2E2E2E2E2E2E2E2E2E2E2E2E2E2E2E2E2E2E2E2E2E2B8E2E2E2E2E2E2E2E2E2E2E2E2E2E2E2E2E2E2E2E2E2E2E2E2E2E2E2E2E2E2E2E2E2E2E2E2E2E2E2E2E2E2E2E2E2E2E2E2E2E2B8E2E2E2E2E2E2E2E2E2E2E2E2E2E2E2E2E2E2E2E2B8E2E2E2E2E2
310
E2E2E2E2F5E2F5F5EFEFF5E2F5E2E2E2E2E2E2E2E2B8E2E2E2E2E2E2E2E2E2E2E2E2E2E2E2E2E2E2E2E2E2E2E2E2E2E2E2E2E2E2E2E2E2E2E2E2E2E2E2E2E2E2E2E2E2E2E2E2E2E2E2E2E2E2E2E2E2E2E2E2E2E2E2E2E2E2E2E2E2E2E2E2E2E2E2E2E2E2E2E2B8E2E2E2E2E2E2E2E2E2E2E2E2E2E2E2E2E2E2E2E2E2E2E2E2
310
E2E2E2E2E2E2E2E2E2E2E2E2E2E2E2E2E2E2E2E2E2E2E2E2E2E2E2E2E2E2E2E2E2E2E2E2E2E2E2E2E2E2E2E2E2E2E2B8E2E2E2E2E2E2E2E2E2F5E2F5F5EFEFF5E2F5E2E2E2E2E2E2E2E2B8E2E2E2E2E2E2E2E2E2E2E2E2E2E2E2E2E2E2E2E2E2E2E2E2E2E2E2E2E2E2E2E2E2E2E2E2E2E2E2E2E2E2E2E2E2E2E2E2E2E2E2E2
310
E2E2E2E2E2E2E2E2E2E2E2E2E2E2E2E2E2E2E2E2E2E2E2E2E2E2E2E2E2E2E2E2E2E2E2E2E2E2E2E2E2E2E2E2E2E2E2E2E2E2E2E2E2E2E2E2E2E2E2E2E2E2E2E2E2E2E2E2E2E2E2E2E2E2E2E2E2E2E2E2E2E2E2E2E2E2E2E2E2E2E2E2E2E2E2E2E2E2E2E2B8E2E2E2E2E2E2E2E2E2F5E2F5F5EFEFF5E2F5E2E2E2E2E2E2E2E2
310
B8E2E2E2E2E2E2E2E2E2E2E2E2E2E2E2E2E2E2E2E2E2E2E2E2E2E2E2E2E2E2E2E2E2E2E2E2E2E2E2E2E2E2E2E2E2E2E2E2E2E2E2E2E2E2E2E2E2E2E2E2E2E2E2E2E2E2E2E2E2E2E2E2E2E2E2E2E2E2E2E2E2E2E2E2E2E2E2E2E2E2E2E2E2E2E2E2E2E2E2E2E2E2E2E2E2E2E2E2E2E2E2E2E2E2E2E2E2E2E2E2E2E2E2E2E2E2
310
E2E2E2E2E2E2E2E2E2E2E2E2E2E2E2E2E2E2E2E2E2E2E2E2E2E2B8E2E2E2E2E2E2E2E2E2F5E2F5F5EFEFF5E2F5E2E2E2E2E2E2E2E2B8E2E2E2E2E2E2E2E2E2E2E2E2E2E2E2E2E2E2E2E2E2E2E2E2E2E2E2E2E2E2E2E2E2E2E2E2E2E2E2E2E2E2E2E2E2E2E2E2E2E2E2E2E2E2E2E2E2E2E2E2E2E2E2E2E2E2E2E2E2E2E2E2E2
310
E2E2E2E2E2E2E2E2E2E2E2E2E2E2E2E2E2E2E2E2E2E2E2E2E2E2E2E2E2E2E2E2E2E2E2E2E2E2E2E2E2E2E2E2E2E2E2E2E2E2E2E2E2E2E2E2E2E2E2E2E2E2E2E2E2E2E2E2E2E2E2E2E2E2E2E2E2E2E2B8E2E2E2E2E2E2E2E2E2F5E2F5F5EFEFF5E2F5E2E2E2E2E2E2E2E2B8E2E2E2E2E2E2E2E2E2E2E2E2E2E2E2E2E2E2E2E2
310
E2E2E2E2E2E2E2E2E2E2E2E2E2E2E2E2E2E2E2E2E2E2E2E2E2E2E2E2E2E2E2E2E2E2E2E2E2E2E2E2E2E2E2E2E2E2E2E2E2E2E2E2E2E2E2E2E2E2E2E2E2E2E2E2E2E2E2E2E2E2E2E2E2E2E2E2E2E2E2E2E2E2E2E2E2E2E2E2E2E2E2E2E2E2E2E2E2E2E2E2E2E2E2E2E2E2E2E2E2E2E2E2E2E2E2E2E2E2E2E2E2E2E2E2E2E2E2
310
E2E2E2E2E2B8E2E2E2E2E2E2E2E2E2F5E2F5F5EFEFF5E2F5E2E2E2E2E2E2E2E2B8E2E2E2E2E2E2E2E2E2E2E2E2E2E2E2E2E2E2E2E2E2E2E2E2E2E2E2E2E2E2E2E2E2E2E2E2E2E2E2E2E2E2E2E2E2E2E2E2E2E2E2E2E2E2E2E2E2E2E2E2E2E2E2E2E2E2E2E2E2E2E2E2E2E2E2E2E2E2E2E2E2E2E2E2E2E2E2E2E2E2E2E2E2E2
310
E2E2E2E2E2E2E2E2E2E2E2E2E2E2E2E2E2E2E2E2E2E2E2E2E2E2E2E2E2E2E2E2E2E2E2E2E2E2E2E2E2E2E2E2E2E2E2E2E2E2E2E2E2E2E2E2E2E2B8E2E2E2E2E2E2E2E2E2F5E2F5F5EFEFF5E2F5E2E2E2E2E2E2E2E2B8E2E2E2E2E2E2E2E2E2E2E2E2E2E2E2E2E2E2E2E2E2E2E2E2E2E2E2E2E2E2E2E2E2E2E2E2E2E2E2E2E2
310
E2E2E2E2E2E2E2E2E2E2E2E2E2E2E2E2E2E2E2E2E2E2E2E2E2E2E2E2E2E2E2E2E2E2E2E2E2E2E2E2E2E2E2E2E2E2E2E2E2E2E2E2E2E2E2E2E2E2E2E2E2E2E2E2E2E2E2E2E2E2E2E2E2E2E2E2E2E2E2E2E2E2E2E2E2E2E2E2E2E2E2E2E2E2E2E2E2E2E2E2E2E2E2E2E2E2E2E2E2E2E2B8E2E2E2E2E2E2E2E2E2F5E2F5F5EFEF
310
F5E2F5E2E2E2E2E2E2E2E2B8E2E2E2E2E2E2E2E2E2E2E2E2E2E2E2E2E2E2E2E2E2E2E2E2E2E2E2E2E2E2E2E2E2E2E2E2E2E2E2E2E2E2E2E2E2E2E2E2E2E2E2E2E2E2E2E2E2E2E2E2E2E2E2E2E2E2E2E2E2E2E2E2E2E2E2E2E2E2E2E2E2E2E2E2E2E2E2E2E2E2E2E2E2E2E2E2E2E2E2E2E2E2E2E2E2E2E2E2E2E2E2E2E2E2E2
310
E2E2E2E2E2E2E2E2E2E2E2E2E2E2E2E2E2E2E2E2E2E2E2E2E2E2E2E2E2E2E2E2E2E2E2E2E2B8E2E2E2E2E2E2E2E2E2F5E2F5F5EFEFF5E2F5E2E2E2E2E2E2E2E2B8E2E2E2E2E2E2E2E2E2E2E2E2E2E2E2E2E2E2E2E2E2E2E2E2E2E2E2E2E2E2E2E2E2E2E2E2E2E2E2E2E2E2E2E2E2E2E2E2E2E2E2E2E2E2E2E2E2E2E2E2E2E2
310
E2E2E2E2E2E2E2E2E2E2E2E2E2E2E2E2E2E2E2E2E2E2E2E2E2E2E2E2E2E2E2E2E2E2E2E2E2E2E2E2E2E2E2E2E2E2E2E2E2E2E2E2E2E2E2E2E2E2E2E2E2E2E2E2E2E2E2E2E2E2E2E2E2E2E2E2E2E2E2E2E2E2E2E2E2E2E2E2E2E2B8E2E2E2E2E2E2E2E2E2F5E2F5F5EFEFF5E2F5E2E2E2E2E2E2E2E2B8E2E2E2E2E2E2E2E2E2
310
E2E2E2E2E2E2E2E2E2E2E2E2E2E2E2E2E2E2E2E2E2E2E2E2E2E2E2E2E2E2E2E2E2E2E2E2E2E2E2E2E2E2E2E2E2E2E2E2E2E2E2E2E2E2E2E2E2E2E2E2E2E2E2E2E2E2E2E2E2E2E2E2E2E2E2E2E2E2E2E2E2E2E2E2E2E2E2E2E2E2E2E2E2E2E2E2E2E2E2E2E2E2E2E2E2E2E2E2E2E2E2E2E2E2E2E2E2E2E2E2E2E2E2E2E2E2E2
310
E2E2E2E2E2E2E2E2E2E2E2E2E2E2E2E2B8E2E2E2E2E2E2E2E2E2F5E2F5F5EFEFF5E2F5E2E2E2E2E2E2E2E2B8E2E2E2E2E2E2E2E2E2E2E2E2E2E2E2E2E2E2E2E2E2E2E2E2E2E2E2E2E2E2E2E2E2E2E2E2E2E2E2E2E2E2E2E2E2E2E2E2E2E2E2E2E2E2E2E2E2E2E2E2E2E2E2E2E2E2E2E2E2E2E2E2E2E2E2E2E2E2E2E2E2E2E2
310
E2E2E2E2E2E2E2E2E2E2E2E2E2E2E2E2E2E2E2E2E2E2E2E2E2E2E2E2E2E2E2E2E2E2E2E2E2E2E2E2E2E2E2E2E2E2E2E2E2E2E2E2E2E2E2E2E2E2E2E2E2E2E2E2E2E2E2E2E2B8E2E2E2E2E2E2E2E2E2F5E2F5F5EFEFF5E2F5E2E2E2E2E2E2E2E2B8E2E2E2E2E2E2E2E2E2E2E2E2E2E2E2E2E2E2E2E2E2E2E2E2E2E2E2E2E2E2
310
E2E2E2E2E2E2E2E2E2E2E2E2E2E2E2E2E2E2E2E2E2E2E2E2E2E2E2E2E2E2E2E2E2E2E2E2E2E2E2E2E2E2E2E2E2E2E2E2E2E2E2E2E2E2E2E2E2E2E2E2E2E2E2E2E2E2E2E2E2E2E2E2E2E2E2E2E2E2E2E2E2E2E2E2E2E2E2E2E2E2E2E2E2E2E2E2E2E2E2E2E2E2E2E2E2E2E2E2E2E2E2E2E2E2E2E2E2E2E2E2E2E2B8E2E2E2E2
310
E2E2E2E2E2F5E2F5F5EFEFF5E2E2E2E2E2E2E2E2E2E2B8E2E2E2E2E2E2E2E2E2E2E2E2E2E2E2E2E2E2E2E2E2E2E2E2E2E2E2E2E2E2E2E2E2E2E2E2E2E2E2E2E2E2E2E2E2E2E2E2E2E2E2E2E2E2E2E2E2E2E2E2E2E2E2E2E2E2E2E2E2E2E2E2E2E2E2E2E2E2E2E2E2E2E2E2E2E2E2E2E2E2E2E2E2E2E2E2E2E2E2E2E2E2E2E2
310
E2E2E2E2E2E2E2E2E2E2E2E2E2E2E2E2E2E2E2E2E2E2E2E2E2E2E2E2E2E2E2E2E2E2E2E2E2E2E2E2E2E2E2E2E2E2E2E2B8E2E2E2E2E2E2E2E2E2E2E2F5F5EFEFF5E2E2E2E2E2E2E2E2E2E2B8E2E2E2E2E2E2E2E2E2E2E2E2E2E2E2E2E2E2E2E2E2E2E2E2E2E2E2E2E2E2E2E2E2E2E2E2E2E2E2E2E2E2E2E2E2E2E2E2E2E2E2
310
E2E2E2E2E2E2E2E2E2E2E2E2E2E2E2E2E2E2E2E2E2E2E2E2E2E2E2E2E2E2E2E2E2E2E2E2E2E2E2E2E2E2E2E2E2E2E2E2E2E2E2E2E2E2E2E2E2E2E2E2E2E2E2E2E2E2E2E2E2E2E2E2E2E2E2E2E2E2E2E2E2E2E2E2E2E2E2E2E2E2E2E2E2E2E2E2E2E2E2E2E2B8E2E2E2E2E2E2E2E2E2E2E2F5F5EFEFF5E2E2E2E2E2E2E2E2E2
310
E2B8E2E2E2E2E2E2E2E2E2E2E2E2E2E2E2E2E2E2E2E2E2E2E2E2E2E2E2E2E2E2E2B8E2E2E2E2E2E2E2E2E2E2E2E2E2E2E2E2E2E2E2E2E2E2E2E2E2E2E2E2E2E2E2E2E2E2E2E2E2E2E2E2E2E2E2E2E2E2E2E2E2E2E2E2E2E2E2E2E2E2E2E2E2E2E2E2E2E2E2E2E2E2E2E2E2E2E2E2E2E2E2E2E2E2E2E2E2E2E2E2E2E2E2E2E2
310
E2E2E2E2E2E2E2E2E2E2E2E2E2E2E2E2E2E2E2E2E2E2E2E2E2E2E2B8E2E2E2E2E2E2E2E2E2E2E2F5F5EFEFF5E2E2E2E2E2E2E2E2E2E2B8E2E2E2E2E2E2E2E2E2E2E2E2E2E2E2E2E2E2E2E2E2E2E2E2E2E2E2E2E2E2E2B8E2E2E2E2E2E2E2E2E2E2E2E2E2E2E2E2E2E2E2E2E2E2E2E2E2E2E2E2E2E2E2E2E2E2E2E2E2E2E2E2
310
E2E2E2E2E2E2E2E2E2E2E2E2E2E2E2E2E2E2E2E2E2E2E2E2E2E2E2E2E2E2E2E2E2E2E2E2E2E2E2E2E2E2E2E2E2E2E2E2E2E2E2E2E2E2E2E2E2E2E2E2E2E2E2E2E2E2E2E2E2E2E2E2E2E2E2E2E2E2E2E2B8E2E2E2E2E2E2E2E2E2E2E2F5F5EFEFF5E2E2E2E2E2E2E2E2E2E2B8E2E2E2E2E2E2E2E2E2E2E2E2E2E2E2E2E2E2E2
310
E2E2E2E2E2E2E2E2E2E2E2E2B8E2E2E2E2E2E2E2E2E2E2E2E2E2E2E2E2E2E2E2E2E2E2E2E2E2E2E2E2E2E2E2E2E2E2E2E2E2E2E2E2E2E2E2E2E2E2E2E2E2E2E2E2E2E2E2E2E2E2E2E2E2E2E2E2E2E2E2E2E2E2E2E2E2E2E2E2E2E2E2E2E2E2E2E2E2E2E2E2E2E2E2E2E2E2E2E2E2E2E2E2E2E2E2E2E2E2E2E2E2E2E2E2E2E2
310
E2E2E2E2E2E2B8E2E2E2E2E2E2E2E2E2E2E2F5F5EFEFF5E2E2E2E2E2E2E2E2E2E2B8E2E2E2E2E2F5F5F5F5F5F5F5F5F5F5F5F5F5F5F5F5F5F5F5F5F5F5F5F5F5F5F5F5F5F5F5F5F5F5F5F5F5F5F5F5F5F5F5F5F5F5F5F5F5F5F5F5F5F5F5F5F5F5F5F5F5F5F5F5F5F5F5F5F5F5F5F5F5F5F5F5F5F5F5F5F5F5F5F5F5F5F5E2
310
E2E2E2E2E2E2E2E2E2E2E2E2E2E2E2E2E2E2E2E2E2E2E2E2E2E2E2E2E2E2E2E2E2E2E2E2E2E2E2E2E2E2E2E2E2E2E2E2E2E2E2E2E2E2E2E2E2E2E2B8E2E2E2E2E2E2E2E2E2E2E2F5F5EFEFF5E2E2E2E2E2E2E2E2E2E2B8E2E2E2E2E2F5E2E2E2E2E2E2E2E2E2E2E2E2E2E2E2E2E2E2E2E2E2E2E2E2E2B8E2E2E2E2E2E2E2E2
310
E2E2E2E2E2E2E2E2E2E2E2E2E2E2E2E2E2E2E2E2E2E2E2E2E2E2E2E2E2E2E2E2E2E2E2E2E2E2E2E2E2E2E2E2E2E2E2E2E2E2E2F5E2E2E2E2E2E2E2E2E2E2E2E2E2E2E2E2E2E2E2E2E2E2E2E2E2E2E2E2E2E2E2E2E2E2E2E2E2E2E2E2E2E2E2E2E2E2E2E2E2E2E2E2E2E2E2E2E2E2E2E2B8E2E2E2E2E2E2E2E2E2E2E2F5F5EF
310
EFF5E2E2E2E2E2E2E2E2E2E2B8E2E2E2E2E2F5E2E2E2E2E2E2E2E2E2E2E2E2E2E2E2E2E2E2E2E2E2E2E2E2E2B8E2E2E2E2E2E2E2E2E2E2E2E2E2E2E2E2E2E2E2E2E2E2E2E2E2E2E2E2E2E2E2E2E2E2E2E2E2E2E2E2E2E2E2E2E2E2E2E2E2E2E2E2E2E2E2E2E2E2E2F5E2E2E2E2E2E2E2E2E2E2E2E2E2E2E2E2E2E2E2E2E2E2
310
E2E2E2E2E2E2E2E2E2E2E2E2E2E2E2E2E2E2E2E2E2E2E2E2E2E2E2E2E2E2E2E2E2E2E2E2E2E2B8E2E2E2E2E2E2E2E2E2E2E2F5F5EFEFF5E2E2E2E2E2E2E2E2E2E2B8E2E2E2E2E2F5E2E2E2E2E2E2E2E2E2E2E2E2F5F5F5F5F5F5F5F5F5F5F5F5F5F5F5F5F5F5F5F5F5F5F5F5F5F5F5F5F5F5F5F5F5F5F5F5F5F5F5E2E2E2E2
310
E2E2E2E2E2E2E2E2E2E2E2E2E2E2E2E2E2E2E2E2E2E2E2E2E2E2E2E2E2E2F5E2E2E2E2E2E2E2E2E2E2E2E2E2E2E2E2E2E2E2E2E2E2E2E2E2E2E2E2E2E2E2E2E2E2E2E2E2E2E2E2E2E2E2E2E2E2E2E2E2E2E2E2E2E2E2E2E2E2E2E2B8E2E2E2E2E2E2E2E2E2E2E2F5F5EFEFF5E2E2E2E2E2E2E2E2E2E2B8E2E2E2E2E2F5E2E2
310
E2E2E2E2E2E2F5F5F5F5E2E2E2E2E2E2E2E2E2E2E2E2E2B8E2E2E2E2E2E2E2E2E2E2E2E2E2E2E2E2E2E2E2E2F5F5F5F5F5F5F5F5F5F5F5F5F5F5F5F5F5E2E2E2E2E2E2E2E2E2E2E2E2E2E2E2E2E2E2E2E2E2E2F5E2E2E2E2E2E2E2E2E2E2E2E2E2E2E2E2E2E2E2E2E2E2E2E2E2E2E2E2E2E2E2E2E2E2E2E2E2E2E2E2E2E2E2
310
E2E2E2E2E2E2E2E2E2E2E2E2E2E2E2E2E2B8E2E2E2E2E2E2E2E2E2E2E2F5F5EFEFF5E2F5E2E2E2E2E2E2E2E2B8E2E2E2E2E2F5E2E2E2E2E2E2E2F5F5E2E2E2E2E2E2E2E2E2E2E2E2E2E2E2E2B8E2E2E2E2E2E2E2E2E2F5F5F5F5F5F5F5F5F5F5F5E2E2E2E2E2E2E2E2E2E2E2E2E2E2E2E2E2F5F5F5F5F5F5F5F5F5F5E2E2E2
310
E2E2E2E2E2E2E2E2E2F5E2E2E2E2E2E2E2E2E2E2E2E2E2E2E2E2E2E2E2E2E2E2E2E2E2E2E2E2E2E2E2E2E2E2E2E2E2E2E2E2E2E2E2E2E2E2E2E2E2E2E2E2E2E2E2E2E2E2E2E2B8E2E2E2E2E2E2E2E2E2F5E2F5F5EFEFF5E2F5E2E2E2E2E2E2E2E2B8E2E2E2E2E2F5E2E2E2E2E2E2F5F5E2E2F5F5F5F5F5F5F5F5F5F5F5F5F5
310
F5F5F5F5F5F5F5F5F5F5F5F5E2E2E2E2E2E2E2F5F5F5F5F5F5F5F5E2E2E2E2E2E2E2E2E2E2E2E2E2E2E2E2E2E2E2E2E2E2E2F5F5F5F5E2E2E2E2E2E2E2E2F5E2E2E2E2E2E2E2E2E2E2E2E2E2E2E2E2E2E2E2E2E2E2E2E2E2E2E2E2E2E2E2E2E2E2E2E2E2E2E2E2E2E2E2E2E2E2E2E2E2E2E2E2E2E2E2E2E2E2E2E2B8E2E2E2
310
E2E2E2E2E2E2F5E2F5F5EFEFF5E2F5E2E2E2E2E2E2E2E2B8E2E2E2E2E2F5E2E2E2E2E2E2F5E2F5F5F5E2E2E2E2E2E2E2E2E2E2E2F5F5F5F5F5F5F5F5F5F5F5F5F5F5F5F5F5F5F5F5E2E2E2E2E2E2E2E2F5F5F5F5F5F5F5F5F5F5E2E2E2E2E2E2E2E2E2E2E2E2E2E2E2E2E2F5F5E2E2E2E2E2E2F5E2E2E2E2E2E2E2E2E2E2E2
310
E2E2E2E2E2E2E2E2E2E2E2E2E2E2E2E2E2E2E2E2E2E2E2E2E2E2E2E2E2E2E2E2E2E2E2E2E2E2E2E2E2E2E2E2E2E2E2E2E2B8E2E2E2E2E2E2E2E2E2F5E2F5F5EFEFF5E2F5E2E2E2E2E2E2E2E2B8E2E2E2E2E2F5E2E2E2E2E2F5E2F5F5E2E2E2E2E2E2E2E2E2E2E2F5F5E2E2E2B8E2E2E2E2E2E2E2E2E2E2E2E2E2E2E2E2E2E2
310
E2E2E2E2E2E2E2E2E2E2E2E2E2E2E2E2F5F5F5F5F5F5F5F5F5F5F5F5E2E2E2E2E2E2E2F5E2E2E2E2E2F5E2E2E2E2E2E2E2E2E2E2E2E2E2E2E2E2E2E2E2E2E2E2E2E2E2E2E2E2E2E2E2E2E2E2E2E2E2E2E2E2E2E2E2E2E2E2E2E2E2E2E2E2E2E2E2E2E2E2E2E2B8E2E2E2E2E2E2E2E2E2F5E2F5F5EFEFF5E2F5E2E2E2E2E2E2
310
E2E2B8E2E2E2E2E2F5E2E2E2E2E2F5E2F5E2E2E2E2E2E2E2E2E2E2E2E2F5E2E2E2E2B8E2E2E2E2E2E2E2E2E2E2E2E2E2E2E2E2E2E2E2E2E2E2E2E2E2E2E2E2E2E2E2E2E2E2E2E2E2E2E2E2E2E2E2E2E2E2F5F5F5F5F5F5E2E2F5E2E2E2E2F5E2E2E2E2E2E2E2E2E2E2E2E2E2E2E2E2E2E2E2E2E2E2E2E2E2E2E2E2E2E2E2E2
310
E2E2E2E2E2E2E2E2E2E2E2E2E2E2E2E2E2E2E2E2E2E2E2E2E2E2E2E2B8E2E2E2E2E2E2E2E2E2F5E2F5F5EFEFF5E2F5E2E2E2E2E2E2E2E2B8E2E2E2E2E2F5E2E2E2E2E2F5E2E2E2E2E2E2E2E2E2E2E2E2E2F5E2E2E2E2E2B8E2E2E2E2E2E2E2E2E2E2E2E2E2E2E2E2E2E2E2E2E2E2E2E2E2E2E2E2E2E2E2E2E2E2E2E2E2E2E2
310
E2E2E2E2E2E2E2E2E2E2E2E2E2F5E2F5E2E2E2E2F5E2E2E2E2E2E2E2E2E2E2E2E2E2E2E2E2E2E2E2E2E2E2E2E2E2E2E2E2E2E2E2E2E2E2E2E2E2E2E2E2E2E2E2E2E2E2E2E2E2E2E2E2E2E2E2E2E2E2E2E2B8E2E2E2E2E2E2E2E2E2F5E2F5F5EFEFF5E2F5E2E2E2E2E2E2E2E2B8E2E2E2E2E2F5E2E2E2E2E2F5E2E2E2E2E2E2
310
E2E2E2E2E2E2E2F5E2E2E2E2E2B8BEBEBEBEE2BEBEE2BEBEE2BEBEBEBEE2BEBEE2BEBEE2BEBEE2BEBEBEBEE2BEBEE2BEBEE2BEBEBEBEE2BEBEE2BEBEE2E2E2E2E2E2F5F5E2F5E2E2E2F5E2E2E2E2E2E2E2E2E2E2E2E2E2E2E2E2E2E2E2E2E2E2E2E2E2E2E2E2E2E2E2E2E2E2E2E2E2E2E2E2E2E2E2E2E2E2E2E2E2E2E2E2E2
310
E2E2E2E2E2E2E2B8E2E2E2E2E2E2E2E2E2F5E2F5F5EFEFF5E2F5E2E2E2E2E2E2E2E2B8E2E2E2E2E2F5E2E2E2E2F5E2E2E2E2E2E2E2E2E2E2E2E2E2E2F5E2E2E2E2BEBEBEBEBEBEBEBEBEBEBEBEBEBEBEBEBEBEBEBEBEBEBEBEBEBEBEBEBEBEBEBEBEBEBEBEBEBEBEBEBEBEBEBEBEBEBEBEBEE2E2E2E2E2E2F5E2F5E2E2E2F5
310
E2E2E2E2E2E2E2E2E2E2E2E2E2E2E2E2E2E2E2E2E2E2E2E2E2E2E2E2E2E2E2E2E2E2E2E2E2E2E2E2E2E2E2E2E2E2E2E2E2E2E2E2E2E2E2E2E2E2E2E2B8E2E2E2E2E2E2E2E2E2F5E2F5F5EFEFF5E2F5E2E2E2E2E2E2E2E2B8E2E2E2E2E2F5E2E2E2E2F5E2E2E2E2E2E2E2E2E2E2E2E2E2E2F5E2E2BEBEBEBEBEBEBEBEBEBEBE
310
BEBEBEBEBEBEBEBEBEBEBEBEBEBEBEBEBEBEBEBEBEBEBEBEBEBEBEBEBEBEBEBEBEBEBEBEBEBEBEBEBEBEBEE2E2E2E2F5F5E2E2E2F5E2E2E2E2E2E2E2E2E2E2E2E2E2E2E2E2E2E2E2E2E2E2E2E2E2E2E2E2E2E2E2E2E2E2E2E2E2E2E2E2E2E2E2E2E2E2E2E2E2E2E2E2E2E2E2E2E2E2E2E2B8E2E2E2E2E2E2E2E2E2F5E2F5F5
310
EFEFF5E2F5E2E2E2E2E2E2E2E2B8E2E2E2E2E2F5E2E2E2E2F5E2E2E2E2E2E2E2E2E2E2E2E2E2E2F5E2BEBEBEBEBEBEBEBEBEBEBEBEBEBEBEBEBEBEBEBEBEBEBEBEBEBEBEBEBEBEBEBEBEBEBEBEBEBEBEBEBEBEBEBEBEBEBEBEBEBEBEBEBEBEBEE2E2E2E2F5F5E2E2E2F5E2E2E2E2E2E2E2E2E2E2E2E2E2E2E2E2E2E2E2E2E2
310
E2E2E2E2E2E2E2E2E2E2E2E2E2E2E2E2E2E2E2E2E2E2E2E2E2E2E2E2E2E2E2E2E2E2E2E2E2E2E2B8E2E2E2E2E2E2E2E2E2F5E2F5F5EFEFF5E2F5E2E2E2E2E2E2E2E2B8E2E2E2E2E2F5E2E2E2E2F5E2E2E2E2E2E2E2E2E2E2E2E2E2E2F5E2BEBEBEBEBEBEBEBEBEBEBEBEBEBEBEBEBEBEBEBEBEBEBEBEBEBEBEBEBEBEBEBEBE
310
BEBEBEBEBEBEBEBEBEBEBEBEBEBEBEBEBEBEBEBEBEBEE2E2E2E2F5F5E2E2E2F5E2E2E2E2E2E2E2E2E2E2E2E2E2E2E2E2E2E2E2E2E2E2E2E2E2E2E2E2E2E2E2E2E2E2E2E2E2E2E2E2E2E2E2E2E2E2E2E2E2E2E2E2E2E2E2E2E2E2E2E2B8E2E2E2E2E2E2E2E2E2F5E2F5F5EFEFF5E2F5E2E2E2E2E2E2E2E2B8E2E2E2E2E2F5E2
310
E2E2E2F5E2E2E2E2E2E2E2E2E2E2E2E2E2E2F5E2BEBEBEBEBEBEBEBEBEBEBEBEBEBEBEBEBEBEBEBEBEBEBEBEBEBEBEBEBEBEBEBEBEBEBEBEBEBEBEBEBEBEBEBEBEBEBEBEBEBEBEBEBEBEBEE2E2E2E2F5F5E2E2E2F5E2E2E2E2E2E2E2E2E2E2E2E2E2E2E2E2E2E2E2E2E2E2E2E2E2E2E2E2E2E2E2E2E2E2E2E2E2E2E2E2E2E2
310
E2E2E2E2E2E2E2E2E2E2E2E2E2E2E2E2E2E2B8E2E2E2E2E2E2E2E2E2F5E2F5F5EFEFF5E2F5E2E2E2E2E2E2E2E2B8E2E2E2E2E2F5E2E2E2E2F5E2E2E2E2E2E2E2E2E2E2E2E2E2E2F5E2BEBEBEBEBEBEBEBEBEBEBEBEBEBEBEBEBEBEBEBEBEBEBEBEBEBEBEBEBEBEBEBEBEBEBEBEBEBEBEBEBEBEBEBEBEBEBEBEBEBEBEBEBEBE
310
E2E2E2E2E2F5F5E2E2E2F5E2E2E2E2E2E2E2E2E2E2E2E2E2E2E2E2E2E2E2E2E2E2E2E2E2E2E2E2E2E2E2E2E2E2E2E2E2E2E2E2E2E2E2E2E2E2E2E2E2E2E2E2E2E2E2E2E2E2E2E2B8E2E2E2E2E2E2E2E2E2F5E2F5F5EFEFF5E2F5E2E2E2E2E2E2E2E2B8E2E2E2E2E2F5E2E2E2E2F5E2E2E2E2E2E2E2E2E2E2E2E2E2E2F5E2BE
310
BEBEBEBEBEBEBEBEBEBEBEBEBEBEBEBEBEBEBEBEBEBEBEBEBEBEBEBEBEBEBEBEBEBEBEBEBEBEBEBEBEBEBEBEBEBEBEBEBEBEE2F5B8F5E2E2E2E2F5F5E2E2E2F5E2E2E2E2E2E2E2E2E2E2E2E2E2E2E2E2E2E2E2E2E2E2E2E2E2E2E2E2E2E2E2E2E2E2E2E2E2E2E2E2E2E2E2E2E2E2E2E2E2E2E2E2E2E2E2E2E2E2E2E2B8E2E2
310
E2E2E2E2E2E2E2F5E2F5F5EFEFF5E2F5E2E2E2E2E2E2E2E2B8E2E2E2E2E2F5E2E2E2E2F5E2E2E2E2E2E2E2E2E2E2E2E2E2F5E2E2BEBEBEBEBEBEBEBEBEBEBEBEBEBEBEBEBEBEBEBEBEBEBEBEBEBEBEBEBEBEBEBEBEBEBEBEBEBEBEBEBEBEBEBEBEBEBEBEBEBEE2F5F5B8F5F5E2E2E2F5F5E2F5F5F5E2E2E2E2E2E2E2E2E2E2
310
E2E2E2E2E2E2E2E2E2E2E2E2E2E2E2E2E2E2E2E2E2E2E2E2E2E2E2E2E2E2E2E2E2E2E2E2E2E2E2E2E2E2E2E2E2E2E2E2E2E2B8E2E2E2E2E2E2E2E2E2F5E2F5F5EFEFF5E2F5E2E2E2E2E2E2E2E2B8E2E2E2E2E2F5E2E2E2E2F5E2E2E2E2E2E2E2E2E2E2E2E2E2F5E2E2BEBEBEBEBEBEBEBEBEBEBEBEBEBEBEBEBEBEBEBEBEBE
310
BEBEBEBEBEBEBEBEBEBEBEBEBEBEBEBEBEBEBEBEBEBEBEBEBEBEBEBEE2F5F5B8F5F5E2E2E2F5F5E2F5F5F5E2E2E2E2E2E2E2E2E2E2E2E2E2E2E2E2E2E2E2E2E2E2E2E2E2E2E2E2E2E2E2E2E2E2E2E2E2E2E2E2E2E2E2E2E2E2E2E2E2E2E2E2E2E2E2E2E2E2E2E2B8E2E2E2E2E2E2E2E2E2F5E2F5F5EFEFF5E2F5E2E2E2E2E2
310
E2E2E2B8B8B8B8B8B8F5B8B8B8B8F5B8B8B8B8B8B8B8B8B8B8B8B8B8F5B8E2BEBEBEBEBEBEBEBEBEBEBEBEBEBEBEBEBEBEBEBEBEBEBEBEBEBEBEBEBEBEBEBEBEBEBEBEBEBEBEBEBEBEBEBEBEBEBEBEBEBEB8F5F5B8F5F5B8B8B8F5F5B8F5C3F5B8B8B8B8B8B8E2E2E2E2E2E2E2E2E2E2E2E2E2E2E2E2E2E2E2E2E2E2E2E2E2
310
E2E2E2E2E2E2E2E2E2E2E2E2E2E2E2E2E2E2E2E2E2E2E2E2E2E2E2E2E2B8E2E2E2E2E2E2E2E2E2F5E2F5F5EFEFF5E2E2E2E2E2E2E2E2E2E2B8E2E2E2E2E2F5E2E2E2E2F5E2E2E2E2E2E2E2E2E2E2E2E2E2F5E2E2BEBEBEBEB8BEBEBEBEBEBEBEBEBEBEBEBEBEBEBEBEBEBEBEBEBEBEBEBEBEBEBEBEBEBEBEBEBEBEBEBEBEBE
310
BEBEBEBEBEBEBEE2F5F5B8F5F5E2E2E2F5F5E2F5F5F5E2E2E2E2E2E2E2E2E2E2E2E2E2E2E2E2E2E2E2E2E2E2E2E2E2E2E2E2E2E2E2E2E2E2E2E2E2E2E2E2E2E2E2E2E2E2E2E2E2E2E2E2E2E2E2E2E2E2E2E2B8E2E2E2E2E2E2E2E2E2E2E2F5F5EFEFF5E2E2E2E2E2E2E2E2E2E2B8E2E2E2E2E2F5E2E2E2E2F5E2E2E2E2E2E2
310
E2E2E2E2E2E2E2E2F5E2BEBEBEBEBEBEBEBEBEBEBEBEBEBEBEBEBEBEBEBEBEBEBEBEBEBEBEBEBEBEBEBEBEBEBEBEBEBEBEBEBEBEBEBEBEBEBEBEBEBEBEF5F5B8F5E2E2E2E2F5F5E2F5E2F5E2E2E2E2E2E2E2E2E2E2E2E2E2E2E2E2E2E2E2E2E2E2E2E2E2E2E2E2E2E2E2E2E2E2E2E2E2E2E2E2E2E2E2E2E2E2E2E2E2E2E2E2
310
E2E2E2E2E2E2E2E2B8E2E2E2E2E2E2E2E2E2E2E2F5F5EFEFF5E2E2E2E2E2E2E2E2E2E2B8E2E2E2E2E2F5E2E2E2E2F5E2E2E2E2E2E2E2E2E2E2E2E2E2E2F5E2BEBEBEBEBEBEBEBEBEBEBEBEBEBEBEBEBEBEBEBEBEBEBEBEBEBEBEBEBEBEBEBEBEBEBEBEBEBEBEBEBEBEBEBEBEBEBEBEBEBEBEBEE2B8E2E2E2E2E2F5F5E2E2E2
310
F5E2E2E2E2E2E2E2E2E2E2E2E2E2E2E2E2E2E2E2E2E2E2E2E2E2E2E2E2E2E2E2E2E2E2E2E2E2E2E2E2E2E2E2E2E2E2E2E2E2E2E2E2E2E2E2E2E2E2E2E2B8E2E2E2E2E2E2E2E2E2E2E2F5F5EFEFF5E2E2E2E2E2E2E2E2E2E2B8E2E2E2E2E2F5E2E2E2E2F5E2E2E2E2E2E2E2E2E2E2E2E2E2E2F5E2BEBEBEBEBEBEBEBEBEBEBE
310
BEBEBEBEBEBEBEBEBEBEBEBEBEBEBEBEBEBEBEBEBEBEBEBEBEBEBEBEBEBEBEBEBEBEBEBEBEBEBEBEBEBEBEBEE2E2E2E2F5F5E2E2E2F5E2E2E2E2E2E2E2E2E2E2E2E2E2E2E2E2E2E2E2E2E2E2E2E2E2E2E2E2E2E2E2E2E2E2E2E2E2E2E2E2E2E2E2E2E2E2E2E2E2E2E2E2E2E2E2E2E2E2E2E2B8E2E2E2E2E2E2E2E2E2E2E2F5
310
F5EFEFF5E2E2E2E2E2E2E2E2E2E2B8E2E2E2E2E2F5E2E2E2E2F5E2E2E2E2E2E2E2E2E2E2E2E2E2E2F5E2BEBEBEBEBEBEBEBEBEBEBEBEBEBEBEBEBEBEBEBEBEBEBEBEBEBEBEBEBEBEBEBEBEBEBEBEBEBEBEBEBEBEBEBEBEBEBEBEBEBEBEBEBEBEBEE2E2E2E2F5F5E2E2E2F5E2E2E2E2E2E2E2E2E2E2E2E2E2E2E2E2E2E2E2E2
310
E2E2E2E2E2E2E2E2E2E2E2E2E2E2E2E2E2E2E2E2E2E2E2E2E2E2E2E2E2E2E2E2E2E2E2E2E2E2E2E2B8E2E2E2E2E2E2E2E2E2E2E2F5F5EFEFF5E2E2E2E2E2E2E2E2E2E2B8E2E2E2E2E2F5E2E2E2E2F5E2E2E2E2E2E2E2E2E2E2E2E2E2E2F5E2BEBEBEBEBEBEBEBEBEBEBEBEBEBEBEBEBEBEBEBEBEBEBEBEBEBEBEBEBEBEBEBE
310
BEBEBEBEBEBEBEBEBEBEBEBEBEBEBEBEBEBEBEBEBEBEBEE2E2E2E2F5F5E2E2E2F5E2E2E2E2E2E2E2E2E2E2E2E2E2E2E2E2E2E2E2E2E2E2E2E2E2E2E2E2E2E2E2E2E2E2E2E2E2E2E2E2E2E2E2E2E2E2E2E2E2E2E2E2E2E2E2E2E2E2E2E2B8E2E2E2E2E2E2E2E2E2E2E2F5F5EFEFF5E2E2E2E2E2E2E2E2E2E2B8E2E2E2E2E2F5
310
E2E2E2E2F5E2E2E2E2E2E2E2E2E2E2E2E2E2E2F5E2BEBEBEBEBEBEBEBEBEBEBEBEBEBEBEBEBEBEBEBEBEBEBEBEBEBEBEBEBEBEBEBEBEBEBEBEBEBEBEBEBEBEBEBEBEBEBEBEBEBEBEBEBEBEBEE2E2E2E2F5F5E2E2E2F5E2E2E2E2E2E2E2E2E2E2E2E2E2E2E2E2E2E2E2E2E2E2E2E2E2E2E2E2E2E2E2E2E2E2E2E2E2E2E2E2E2
310
E2E2E2E2E2E2E2E2E2E2E2E2E2E2E2E2E2E2E2B8E2E2E2E2E2E2E2E2E2E2E2F5F5EFEFF5E2E2E2E2E2E2E2E2E2E2B8E2E2E2E2E2F5E2E2E2E2F5E2E2E2E2E2E2E2E2E2E2E2E2E2E2F5E2E2E2BEBEBEBEBEBEBEBEBEBEBEBEBEBEBEBEBEBEBEBEBEBEBEBEBEBEBEBEBEBEBEBEBEBEBEBEBEBEBEBEBEBEBEBEBEBEBEBEBEBEBE
310
BEE2E2E2E2F5F5F5E2E2E2F5E2E2E2E2E2E2E2E2E2E2E2E2E2E2E2E2E2E2E2E2E2E2E2E2E2E2E2E2E2E2E2E2E2E2E2E2E2E2E2E2E2E2E2E2E2E2E2E2E2E2E2E2E2E2E2E2E2E2E2E2B8E2E2E2E2E2E2E2E2E2E2E2F5F5EFEFF5E2E2E2E2E2E2E2E2E2E2B8E2E2E2E2E2F5E2E2E2E2E2F5E2E2E2E2E2E2E2E2E2E2E2E2E2F5E2
310
E2E2E2E2BEBEBEBEBEBEBEBEBEBEBEBEBEBEBEBEBEBEBEBEBEBEBEBEBEBEBEBEBEBEBEBEBEBEBEBEBEBEBEBEBEBEBEBEBEBEBEBEE2E2E2E2E2E2F5E2F5E2E2E2F5E2E2E2E2E2E2E2E2E2E2E2E2E2E2E2E2E2E2E2E2E2E2E2E2E2E2E2E2E2E2E2E2E2E2E2E2E2E2E2E2E2E2E2E2E2E2E2E2E2E2E2E2E2E2E2E2E2E2E2E2B8E2
310
E2E2E2E2E2E2E2E2E2E2F5F5EFEFF5E2F5E2E2E2E2E2E2E2E2B8E2E2E2E2E2F5E2E2E2E2E2F5E2E2E2E2E2E2E2E2E2E2E2E2E2F5E2E2E2E2E2B8E2E2E2E2E2E2E2E2E2E2E2E2E2E2E2E2E2E2E2E2E2E2E2E2E2E2E2E2E2E2E2E2E2E2E2E2E2E2E2E2E2E2E2E2E2E2E2E2E2E2E2E2F5E2F5E2E2E2E2F5E2E2E2E2E2E2E2E2E2
310
E2E2E2E2E2E2E2E2E2E2E2E2E2E2E2E2E2E2E2E2E2E2E2E2E2E2E2E2E2E2E2E2E2E2E2E2E2E2E2E2E2E2E2E2E2E2E2E2E2E2E2B8E2E2E2E2E2E2E2E2E2F5E2F5F5EFEFF5E2F5E2E2E2E2E2E2E2E2B8E2E2E2E2E2F5E2E2E2E2E2F5E2E2E2E2E2E2E2E2E2E2E2E2E2F5F5E2E2E2E2B8E2E2E2E2E2E2E2E2E2E2E2E2E2E2E2E2
310
E2E2E2E2E2E2E2E2E2E2E2E2E2E2E2E2E2E2E2E2E2E2E2E2E2E2E2E2E2E2E2F5F5F5F5F5F5E2F5E2E2E2E2F5E2E2E2E2E2E2E2E2E2E2E2E2E2E2E2E2E2E2E2E2E2E2E2E2E2E2E2E2E2E2E2E2E2E2E2E2E2E2E2E2E2E2E2E2E2E2E2E2E2E2E2E2E2E2E2E2E2E2E2E2B8E2E2E2E2E2E2E2E2E2F5E2F5F5EFEFF5E2F5E2E2E2E2
310
E2E2E2E2B8E2E2E2E2E2F5E2E2E2E2E2F5E2F5E2E2E2E2E2E2E2E2E2E2E2E2F5F5E2E2E2B8E2E2E2E2E2E2E2E2E2E2E2E2E2E2E2E2E2E2E2E2E2E2E2E2E2E2E2E2E2E2E2E2E2E2E2E2E2E2E2E2E2F5F5F5F5F5F5E2E2E2E2E2E2F5F5E2E2E2E2F5E2E2E2E2E2E2E2E2E2E2E2E2E2E2E2E2E2E2E2E2E2E2E2E2E2E2E2E2E2E2
310
E2E2E2E2E2E2E2E2E2E2E2E2E2E2E2E2E2E2E2E2E2E2E2E2E2E2E2E2E2E2B8E2E2E2E2E2E2E2E2E2F5E2F5F5EFEFF5E2F5E2E2E2E2E2E2E2E2B8E2E2E2E2E2F5E2E2E2E2E2F5F5E2F5E2E2E2E2E2E2E2E2E2E2E2E2F5F5F5F5F5F5F5F5F5F5F5F5F5F5E2E2E2E2E2E2E2E2E2E2E2E2E2E2E2E2E2E2E2E2F5F5F5F5F5F5F5F5
310
F5F5F5F5E2E2E2E2E2E2E2E2E2E2E2F5F5E2E2E2E2E2F5E2E2E2E2E2E2E2E2E2E2E2E2E2E2E2E2E2E2E2E2E2E2E2E2E2E2E2E2E2E2E2E2E2E2E2E2E2E2E2E2E2E2E2E2E2E2E2E2E2E2E2E2E2E2E2E2E2E2E2E2B8E2E2E2E2E2E2E2E2E2F5E2F5F5EFEFF5E2F5E2E2E2E2E2E2E2E2B8E2E2E2E2E2F5E2E2E2E2E2E2F5E2E2F5
310
F5F5F5F5F5F5F5F5F5E2E2E2E2E2E2B8E2E2E2E2E2E2E2E2E2F5F5F5F5F5F5F5F5F5F5F5F5F5F5F5F5F5F5F5F5E2E2E2E2E2E2E2E2E2E2E2E2E2E2E2E2E2E2F5F5F5F5F5F5E2E2E2E2E2E2F5E2E2E2E2E2E2E2E2E2E2E2E2E2E2E2E2E2E2E2E2E2E2E2E2E2E2E2E2E2E2E2E2E2E2E2E2E2E2E2E2E2E2E2E2E2E2E2E2E2E2E2
310
E2E2E2E2E2E2E2E2E2B8E2E2E2E2E2E2E2E2E2F5E2F5F5EFEFF5E2F5E2E2E2E2E2E2E2E2B8E2E2E2E2E2F5E2E2E2E2E2E2E2F5E2E2E2E2E2E2E2E2E2E2E2F5F5F5F5F5F5F5F5F5F5F5F5F5F5F5F5F5F5F5F5F5F5F5E2E2E2E2E2E2E2E2E2E2E2E2E2E2E2E2E2E2E2E2E2E2E2E2E2E2F5F5F5F5F5E2E2E2E2E2E2E2E2E2E2E2
310
E2F5E2E2E2E2E2E2E2E2E2E2E2E2E2E2E2E2E2E2E2E2E2E2E2E2E2E2E2E2E2E2E2E2E2E2E2E2E2E2E2E2E2E2E2E2E2E2E2E2E2E2E2E2E2E2E2E2E2E2E2E2B8E2E2E2E2E2E2E2E2E2F5E2F5F5EFEFF5E2F5E2E2E2E2E2E2E2E2B8E2E2E2E2E2F5E2E2E2E2E2E2E2E2F5F5E2E2E2E2E2E2E2E2E2E2E2E2E2E2E2B8E2E2E2E2E2
310
E2E2E2E2E2E2E2E2E2E2E2F5F5F5F5F5F5F5F5E2E2E2E2E2E2E2E2F5F5F5F5F5F5F5F5F5F5E2E2E2E2E2E2E2E2E2E2E2E2E2E2E2E2E2F5E2E2E2E2E2E2E2E2E2E2E2E2E2E2E2E2E2E2E2E2E2E2E2E2E2E2E2E2E2E2E2E2E2E2E2E2E2E2E2E2E2E2E2E2E2E2E2E2E2E2E2E2E2E2E2E2E2E2E2E2B8E2E2E2E2E2E2E2E2E2F5E2
310
F5F5EFEFF5E2F5E2E2E2E2E2E2E2E2B8E2E2E2E2E2F5E2E2E2E2E2E2E2E2E2E2F5F5F5F5F5F5E2E2E2E2E2E2E2E2E2B8E2E2E2E2E2E2E2E2F5F5F5F5F5F5F5F5F5F5F5F5F5F5F5F5F5F5F5F5F5F5F5F5E2E2E2E2E2E2E2E2E2E2E2E2E2E2E2E2E2E2E2E2E2E2E2E2E2E2E2F5E2E2E2E2E2E2E2E2E2E2E2E2E2E2E2E2E2E2E2
310
E2E2E2E2E2E2E2E2E2E2E2E2E2E2E2E2E2E2E2E2E2E2E2E2E2E2E2E2E2E2E2E2E2E2E2E2E2E2E2E2E2B8E2E2E2E2E2E2E2E2E2F5E2F5F5EFEFF5E2F5E2E2E2E2E2E2E2E2B8E2E2E2E2E2F5E2E2E2E2E2E2E2E2E2E2E2E2E2E2E2E2F5F5F5F5F5F5F5F5F5F5F5F5F5F5F5F5F5F5E2E2E2E2E2E2E2E2E2E2E2E2E2E2E2E2E2E2
310
E2E2E2E2E2E2E2E2E2E2E2E2E2E2E2E2E2E2E2E2E2E2E2E2E2E2E2E2E2E2E2E2E2F5E2E2E2E2E2E2E2E2E2E2E2E2E2E2E2E2E2E2E2E2E2E2E2E2E2E2E2E2E2E2E2E2E2E2E2E2E2E2E2E2E2E2E2E2E2E2E2E2E2E2E2E2E2E2E2E2E2E2E2E2B8E2E2E2E2E2E2E2E2E2F5E2F5F5EFEFF5E2F5E2E2E2E2E2E2E2E2B8E2E2E2E2E2
310
F5E2E2E2E2E2E2E2E2E2E2E2E2E2E2E2E2E2E2E2E2E2E2E2E2E2B8E2E2E2E2E2E2E2E2E2E2E2E2E2E2E2E2E2E2E2E2E2E2E2E2E2E2E2E2E2E2E2E2E2E2E2E2E2E2E2E2E2E2E2E2E2E2E2E2E2E2E2E2E2E2E2E2E2E2E2F5E2E2E2E2E2E2E2E2E2E2E2E2E2E2E2E2E2E2E2E2E2E2E2E2E2E2E2E2E2E2E2E2E2E2E2E2E2E2E2E2
310
E2E2E2E2E2E2E2E2E2E2E2E2E2E2E2E2E2E2E2E2B8E2E2E2E2E2E2E2E2E2F5E2F5F5EFEFF5E2F5E2E2E2E2E2E2E2E2B8E2E2E2E2E2F5F5F5F5F5F5F5F5F5F5F5F5F5F5F5F5F5F5F5F5F5F5F5F5F5F5B8F5F5F5F5F5F5F5F5F5F5F5F5F5F5F5F5F5F5F5F5F5F5F5F5F5F5F5F5F5F5F5F5F5F5F5F5F5F5F5F5F5F5F5F5F5F5F5
310
F5F5F5F5F5F5F5F5F5F5F5F5F5E2E2E2E2E2E2E2E2E2E2E2E2E2E2E2E2E2E2E2E2E2E2E2E2E2E2E2E2E2E2E2E2E2E2E2E2E2E2E2E2E2E2E2E2E2E2E2E2E2E2E2E2E2E2E2E2E2E2E2E2B8E2E2E2E2E2E2E2E2E2F5E2F5F5EFEFF5E2F5E2E2E2E2E2E2E2E2B8E2E2E2E2E2E2E2E2E2E2E2E2E2E2E2E2E2E2E2E2E2E2E2E2E2E2
310
E2E2E2E2E2B8E2E2E2E2E2E2E2E2E2E2E2E2E2E2E2E2E2E2E2E2E2E2E2E2E2E2E2E2E2E2E2E2E2E2E2E2E2E2E2E2E2E2E2E2E2E2E2E2E2E2E2E2E2E2E2E2E2E2E2E2E2E2E2E2E2E2E2E2E2E2E2E2E2E2E2E2E2E2E2E2E2E2E2E2E2E2E2E2E2E2E2E2E2E2E2E2E2E2E2E2E2E2E2E2E2E2E2E2E2E2E2E2E2E2E2E2E2E2E2E2B8
310
E2E2E2E2E2E2E2E2E2F5E2F5F5EFEFF5E2F5E2E2E2E2E2E2E2E2B8E2E2E2E2E2E2E2E2E2E2E2E2E2E2E2E2E2E2E2E2E2E2E2E2E2E2E2E2E2E2E2B8E2E2E2E2E2E2E2E2E2E2E2E2E2E2E2E2E2E2E2E2E2E2E2E2E2E2E2E2E2E2E2E2E2E2E2E2E2E2E2E2E2E2E2E2E2E2E2E2E2E2E2E2E2E2E2E2E2E2E2E2E2E2E2E2E2E2E2E2
310
E2E2E2E2E2E2E2E2E2E2E2E2E2E2E2E2E2E2E2E2E2E2E2E2E2E2E2E2E2E2E2E2E2E2E2E2E2E2E2E2E2E2E2E2E2E2E2E2E2E2E2E2B8E2E2E2E2E2E2E2E2E2F5E2F5F5EFEFF5E2F5E2E2E2E2E2E2E2E2B8E2E2E2E2E2E2E2E2E2E2E2E2E2E2E2E2E2E2E2E2E2E2E2E2E2E2E2E2E2E2E2B8E2E2E2E2E2E2E2E2E2E2E2E2E2E2E2
310
E2E2E2E2E2E2E2E2E2E2E2E2E2E2E2E2E2E2E2E2E2E2E2E2E2E2E2E2E2E2E2E2E2E2E2E2E2E2E2E2E2E2E2E2E2E2E2E2E2E2E2E2E2E2E2E2E2E2E2E2E2E2E2E2E2E2E2E2E2E2E2E2E2E2E2E2E2E2E2E2E2E2E2E2E2E2E2E2E2E2E2E2E2E2E2E2E2E2E2E2E2E2E2E2E2B8E2E2E2E2E2E2E2E2E2F5E2F5F5EFEFF5E2F5E2E2E2
310
E2E2E2E2E2B8E2E2E2E2E2E2E2E2E2E2E2E2E2E2E2E2E2E2E2E2E2E2E2E2E2E2E2E2E2E2E2E2E2E2E2E2E2E2E2E2E2E2E2E2E2E2E2E2E2E2E2E2E2E2E2E2E2E2E2E2E2E2E2E2E2E2E2E2E2E2E2E2E2E2E2E2E2E2E2E2E2E2E2E2E2E2E2E2E2E2E2E2E2E2E2E2E2E2E2E2E2E2E2E2E2E2E2E2E2E2E2E2E2E2E2E2E2E2E2E2E2
310
E2E2E2E2E2E2E2E2E2E2E2E2E2E2E2E2E2E2E2E2E2E2E2E2E2E2E2E2E2E2E2B8E2E2E2E2E2E2E2E2E2F5E2F5F5EFEFF5E2F5E2E2E2E2E2E2E2E2B8E2E2E2E2E2E2E2E2E2E2E2E2E2E2E2E2E2E2E2E2E2E2E2E2E2E2E2E2E2E2E2E2E2E2E2E2E2E2E2E2E2E2E2E2E2E2E2E2E2E2E2E2E2E2E2E2E2E2E2E2E2E2E2E2E2E2E2E2
310
E2E2E2E2E2E2E2E2E2E2E2E2E2E2E2E2E2E2E2E2E2E2E2E2E2E2E2E2E2E2E2E2E2E2E2E2E2E2E2E2E2E2E2E2E2E2E2E2E2E2E2E2E2E2E2E2E2E2E2E2E2E2E2E2E2E2E2E2E2E2E2E2E2E2E2E2E2E2E2E2E2E2E2E2B8E2E2E2E2E2E2E2E2E2F5E2F5F5EFEFF5E2F5E2E2E2E2E2E2E2E2B8E2E2E2E2E2E2E2E2E2E2E2E2E2E2E2
310
E2E2E2E2E2E2E2E2E2E2E2E2E2E2E2E2E2E2E2E2E2E2E2E2E2E2E2E2E2E2E2E2E2E2E2E2E2E2E2E2E2E2E2E2E2E2E2E2E2E2E2E2E2E2E2E2E2E2E2E2E2E2E2E2E2E2E2E2E2E2E2E2E2E2E2E2E2E2E2E2E2E2E2E2E2E2E2E2E2E2E2E2E2E2E2E2E2E2E2E2E2E2E2E2E2E2E2E2E2E2E2E2E2E2E2E2E2E2E2E2E2E2E2E2E2E2E2
310
E2E2E2E2E2E2E2E2E2E2B8E2E2E2E2E2E2E2E2E2F5E2F5F5EFEFF5E2E2E2E2E2E2E2E2E2E2B8E2E2E2E2E2E2E2E2E2E2E2E2E2E2E2E2E2E2E2E2E2E2E2E2E2E2E2E2E2E2E2E2E2E2E2E2E2E2E2E2E2E2E2E2E2E2E2E2E2E2E2E2E2E2E2E2E2E2E2E2E2E2E2E2E2E2E2E2E2E2E2E2E2E2E2E2E2E2E2E2E2E2E2E2E2E2E2E2E2
310
E2E2E2E2E2E2E2E2E2E2E2E2E2E2E2E2E2E2E2E2E2E2E2E2E2E2E2E2E2E2E2E2E2E2E2E2E2E2E2E2E2E2E2E2E2E2E2E2E2E2E2E2E2E2E2E2E2E2E2E2E2E2E2B8E2E2E2E2E2E2E2E2E2E2E2F5F5EFEFF5E2E2E2E2E2E2E2E2E2E2B8E2E2E2E2E2E2E2E2E2E2E2E2E2E2E2E2E2E2E2E2E2E2E2E2E2E2E2E2E2E2E2E2E2E2E2E2
310
E2E2E2E2E2E2E2E2E2E2E2E2E2E2E2E2E2E2E2E2E2E2E2E2E2E2E2E2E2E2E2E2E2E2E2E2E2E2E2E2E2E2E2E2E2E2E2E2E2E2E2E2E2E2E2E2E2E2E2E2E2E2E2E2E2E2E2E2E2E2E2E2E2E2E2E2E2E2E2E2E2E2E2E2E2E2E2E2E2E2E2E2E2E2E2E2E2E2E2E2E2E2E2E2E2E2E2E2E2E2E2E2E2E2E2E2B8E2E2E2E2E2E2E2E2E2E2
310
E2F5F5EFEFF5E2E2E2E2E2E2E2E2E2E2B8E2E2E2E2E2E2E2E2E2E2E2E2E2E2E2E2E2E2E2E2E2E2E2E2E2E2E2E2E2E2E2E2E2E2E2E2E2E2E2E2E2E2E2E2E2E2E2E2E2E2E2E2E2E2E2E2E2E2E2E2E2E2E2E2E2E2E2E2E2E2E2E2E2E2E2E2E2E2E2E2E2E2E2E2E2E2E2E2E2E2E2E2E2E2E2E2E2E2E2E2E2E2E2E2E2E2E2E2E2E2
310
E2E2E2E2E2E2E2E2E2E2E2E2E2E2E2E2E2E2E2E2E2E2E2E2E2E2E2E2E2E2E2E2E2E2E2E2E2E2E2E2E2E2B8E2E2E2E2E2E2E2E2E2E2E2F5F5EFEFF5E2E2E2E2E2E2E2E2E2E2B8E2E2E2E2E2E2E2E2E2E2E2E2E2E2E2E2E2E2E2E2E2E2E2E2E2E2E2E2E2E2E2E2E2E2E2E2E2E2E2E2E2E2E2E2E2E2E2E2E2E2E2E2E2E2E2E2E2
310
E2E2E2E2E2E2E2E2E2E2E2E2E2E2E2E2E2E2E2E2E2E2E2E2E2E2E2E2E2E2E2E2E2E2E2E2E2E2E2E2E2E2E2E2E2E2E2E2E2E2E2E2E2E2E2E2E2E2E2E2E2E2E2E2E2E2E2E2E2E2E2E2E2E2E2E2E2E2E2E2E2E2E2E2E2E2E2E2E2E2E2E2E2E2E2B8E2E2E2E2E2E2E2E2E2E2E2F5F5EFEFF5E2E2E2E2E2E2E2E2E2E2B8E2E2E2E2
310
E2E2E2E2E2E2E2E2E2E2E2E2E2E2E2E2E2E2E2E2E2E2E2E2E2E2E2E2E2E2E2E2E2E2E2E2E2E2E2E2E2E2E2E2E2E2E2E2E2E2E2E2E2E2E2E2E2E2E2E2E2E2E2E2E2E2E2E2E2E2E2E2E2E2E2E2E2E2E2E2E2E2E2E2E2E2E2E2E2E2E2E2E2E2E2E2E2E2E2E2E2E2E2E2E2E2E2E2E2E2E2E2E2E2E2E2E2E2E2E2E2E2E2E2E2E2E2
310
E2E2E2E2E2E2E2E2E2E2E2E2E2E2E2E2E2E2E2E2E2B8E2E2E2E2E2E2E2E2E2E2E2F5F5EFEFF5E2E2E2E2E2E2E2E2E2E2B8E2E2E2E2E2E2E2E2E2E2E2E2E2E2E2E2E2E2E2E2E2E2E2E2E2E2E2E2E2E2E2E2E2E2E2E2E2E2E2E2E2E2E2E2E2E2E2E2E2E2E2E2E2E2E2E2E2E2E2E2E2E2E2E2E2E2E2E2E2E2E2E2E2E2E2E2E2E2
310
E2E2E2E2E2E2E2E2E2E2E2E2E2E2E2E2E2E2E2E2E2E2E2E2E2E2E2E2E2E2E2E2E2E2E2E2E2E2E2E2E2E2E2E2E2E2E2E2E2E2E2E2E2E2E2E2E2E2E2E2E2E2E2E2E2E2E2E2E2E2E2E2E2E2B8E2E2E2E2E2E2E2E2E2E2E2F5F5EFEFF5E2E2E2E2E2E2E2E2E2E2B8E2E2E2E2E2E2E2E2E2E2E2E2E2E2E2E2E2E2E2E2E2E2E2E2E2
310
E2E2E2E2E2E2E2E2E2E2E2E2E2E2E2E2E2E2E2E2E2E2E2E2E2E2E2E2E2E2E2E2E2E2E2E2E2E2E2E2E2E2E2E2E2E2E2E2E2E2E2E2E2E2E2E2E2E2E2E2E2E2E2E2E2E2E2E2E2E2E2E2E2E2E2E2E2E2E2E2E2E2E2E2E2E2E2E2E2E2E2E2E2E2E2E2E2E2E2E2E2E2E2E2E2E2E2E2E2E2E2E2E2E2E2E2E2E2E2E2E2E2E2E2E2E2E2
310
B8E2E2E2E2E2E2E2E2E2E2E2F5F5EFEFF5E2E2E2E2E2E2E2E2E2E2B8E2E2E2E2E2E2E2E2E2E2E2E2E2E2E2E2E2E2E2E2E2E2E2E2E2E2E2E2E2E2E2E2E2E2E2E2E2E2E2E2E2E2E2E2E2E2E2E2E2E2E2E2E2E2E2E2E2E2E2E2E2E2E2E2E2E2E2E2E2E2E2E2E2E2E2E2E2E2E2E2E2E2E2E2E2E2E2E2E2E2E2E2E2E2E2E2E2E2E2
310
E2E2E2E2E2E2E2E2E2E2E2E2E2E2E2E2E2E2E2E2E2E2E2E2E2E2E2E2E2E2E2E2E2E2E2E2E2E2E2E2E2E2E2E2E2E2E2E2E2E2E2E2E2B8E2E2E2E2E2E2E2E2E2E2E2F5F5EFEFF5E2E2E2E2E2E2E2E2E2E2B8B8B8B8B8B8B8B8B8B8B8B8B8B8B8B8B8B8B8B8B8B8B8B8B8B8B8B8B8B8B8B8B8B8B8B8B8B8B8B8B8B8B8B8B8B8B8
310
B8B8B8B8B8B8B8B8B8B8B8B8B8B8B8B8B8B8B8B8B8B8B8B8B8B8B8B8B8B8B8B8B8B8B8B8B8B8B8B8B8B8B8B8B8B8B8B8B8B8B8B8B8B8B8B8B8B8B8B8B8B8B8B8B8B8B8B8B8B8B8B8B8B8B8B8B8B8B8B8B8B8B8B8B8B8B8B8B8B8B8B8B8B8B8B8B8B8B8B8B8B8B8B8B8B8B8E2E2E2E2E2E2E2E2E2E2E2F5F5EFEFF5E2E2E2E2
310
E2E2E2E2E2E2E2E2E2E2E2E2E2E2E2E2E2E2E2E2E2E2E2E2E2E2E2E2E2E2E2E2E2E2E2E2E2E2E2E2E2E2E2E2E2E2E2E2E2E2E2E2E2E2E2E2E2E2E2E2E2E2E2E2E2E2E2E2E2E2E2E2E2E2E2E2E2E2E2E2E2E2E2E2E2E2E2E2E2E2E2E2E2E2E2E2E2E2E2E2E2E2E2E2E2E2E2E2E2E2E2E2E2E2E2E2E2E2E2E2E2E2E2E2E2E2E2
310
E2E2E2E2E2E2E2E2E2E2E2E2E2E2E2E2E2E2E2E2E2E2E2E2E2E2E2E2E2E2E2E2E2E2E2E2E2E2E2E2E2E2E2E2F5F5EFEFF5E2F5E2E2E2E2E2E2E2E2E2E2E2E2E2E2E2E2E2E2E2E2E2E2E2E2E2E2E2E2E2E2E2E2E2E2E2E2E2E2E2E2E2E2E2E2E2E2E2E2E2E2E2E2E2E2E2E2E2E2E2E2E2E2E2E2E2E2E2E2E2E2E2E2E2E2E2E2
310
E2E2E2E2E2E2E2E2E2E2E2E2E2E2E2E2E2E2E2E2E2E2E2E2E2E2E2E2E2E2E2E2E2E2E2E2E2E2E2E2E2E2E2E2E2E2E2E2E2E2E2E2E2E2E2E2E2E2E2E2E2E2E2E2E2E2E2E2E2E2E2E2E2E2E2E2E2E2E2E2E2E2E2E2E2E2E2E2E2E2E2E2E2E2E2F5E2F5F5EFEFF5E2F5E2E2E2E2E2E2E2E2E2E2E2E2E2E2E2E2E2E2E2E2E2E2E2
310
E2E2E2E2E2E2E2E2E2E2E2E2E2E2E2E2E2E2E2E2E2E2E2E2E2E2E2E2E2E2E2E2E2E2E2E2E2E2E2E2E2E2E2E2E2E2E2E2E2E2E2E2E2E2E2E2E2E2E2E2E2E2E2E2E2E2E2E2E2E2E2E2E2E2E2E2E2E2E2E2E2E2E2E2E2E2E2E2E2E2F5E2F5F5F5E2E2F5F5F5F5F5F5F5F5F5F5F5F5E2E2F5E2E2F5F5E2F5E2F5F5F5E2F5F5F5F5
310
F5E2E2E2E2F5E2F5F5F5F5E2E2E2E2E2E2E2E2E2E2F5E2F5F5EFEFF5E2F5E2E2E2E2E2E2E2E2E2E2E2E2E2E2E2E2E2E2E2E2E2E2E2E2E2E2E2E2E2E2E2E2E2E2E2E2E2E2E2E2E2E2E2E2E2E2E2E2E2E2E2E2E2E2E2E2E2E2E2E2E2E2E2E2E2E2E2E2E2E2E2E2E2E2E2E2E2E2E2E2E2E2E2E2E2E2E2E2E2E2E2E2E2E2E2E2E2
310
E2E2E2E2E2E2E2E2E2E2E2E2E2E2E2E2F5F5F5F5F5F5F5F5E2F5E2F5F5F5F5F5F5F5E2E2E2F5F5E2F5F5E2F5E2F5E2E2F5F5F5F5F5E2E2E2E2F5E2F5F5E2F5F5E2E2E2E2E2E2E2E2E2E2F5E2F5F5EFEFF5E2F5E2E2E2E2E2E2E2E2E2E2E2E2E2E2E2E2E2E2E2E2E2E2E2E2E2E2E2E2E2E2E2E2E2E2E2E2E2E2E2E2E2E2E2E2
310
E2E2E2E2E2E2E2E2E2E2E2E2E2E2E2E2E2E2E2E2E2E2E2E2E2E2E2E2E2E2E2E2E2E2E2E2E2E2E2E2E2E2E2E2E2E2E2E2E2E2E2E2E2E2E2E2E2E2E2E2E2E2E2E2E2E2E2E2E2E2F5E2F5F5E2E2F5F5F5F5F5F5F5F5F5F5F5E2E2E2F5F5F5F5F5F5E2F5F5F5F5F5F5F5F5F5E2E2E2F5E2E2F5F5F5F5F5E2E2E2E2E2E2E2E2E2E2
310
F5E2F5F5EFEFF5E2F5E2E2E2E2E2E2E2E2E2E2E2E2E2E2E2E2E2E2E2E2E2E2E2E2E2E2E2E2E2E2E2E2E2E2E2E2E2E2E2E2E2E2E2E2E2E2E2E2E2E2E2E2E2E2E2E2E2E2E2E2E2E2E2E2E2E2E2E2E2E2E2E2E2E2E2E2E2E2E2E2E2E2E2E2E2E2E2E2E2E2E2E2E2E2E2E2E2E2E2E2E2E2E2E2E2E2E2E2E2E2E2E2E2E2E2E2E2E2
310
E2E2E2E2E2E2E2E2E2E2E2E2E2E2E2E2E2E2E2E2E2E2E2E2E2E2E2E2E2E2E2E2E2E2E2E2E2E2E2E2E2E2E2E2E2E2E2E2E2E2E2E2E2F5E2F5F5EFEFF5E2F5E2E2E2E2E2E2E2E2E2E2E2E2E2E2E2E2E2E2E2E2E2E2E2E2E2E2E2E2E2E2E2E2E2E2E2E2E2E2E2E2E2E2E2E2E2E2E2E2E2E2E2E2E2E2E2E2E2E2E2E2E2E2E2E2E2
310
E2E2E2E2E2E2E2E2E2E2E2E2E2E2E2E2E2E2E2E2E2E2E2E2E2E2E2E2E2E2E2E2E2E2E2E2E2E2E2E2E2E2E2E2E2E2E2E2E2E2E2E2E2E2E2E2E2E2E2E2E2E2E2E2E2E2E2E2E2E2E2E2E2E2E2E2E2E2E2E2E2E2E2E2E2E2E2E2E2E2E2E2E2E2E2E2E2E2E2E2E2E2E2E2E2E2F5E2F5F5EFEFF5E2F5E2E2E2E2E2E2E2E2E2E2E2E2
310
E2E2E2E2E2E2E2E2E2E2E2E2E2E2E2E2E2E2E2E2E2E2E2E2E2E2E2E2E2E2E2E2E2E2E2E2E2E2E2E2E2E2E2E2E2E2E2E2E2E2E2E2E2E2E2E2E2E2E2E2E2E2E2E2E2E2E2E2E2E2E2E2E2E2E2E2E2E2E2E2E2E2E2E2E2E2E2E2E2E2E2E2E2E2E2E2E2E2E2E2E2E2E2E2E2E2E2E2E2E2E2E2E2E2E2E2E2E2E2E2E2E2E2E2E2E2E2
310
E2E2E2E2E2E2E2E2E2E2E2E2E2E2E2E2E2E2E2E2E2E2E2E2E2E2E2E2E2E2E2E2F5E2F5F5EFEFF5E2F5E2E2E2E2E2E2E2E2E2E2E2E2E2E2E2E2E2E2E2E2E2E2E2E2E2E2E2E2E2E2E2E2E2E2E2E2E2E2E2E2E2E2E2E2E2E2E2E2E2E2E2E2E2E2E2E2E2E2E2E2E2E2E2E2E2E2E2E2E2E2E2E2E2E2E2E2E2E2E2E2E2E2E2E2E2E2
310
E2E2E2E2E2E2E2E2E2E2E2E2E2E2E2E2E2E2E2E2E2E2E2E2E2E2E2E2E2E2E2E2E2E2E2E2E2E2E2E2E2E2E2E2E2E2E2E2E2E2E2E2E2E2E2E2E2E2E2E2E2E2E2E2E2E2E2E2E2E2E2E2E2E2E2E2E2E2E2E2E2E2E2E2E2F5E2F5F5EFEFF5E2F5F5F5F5F5F5F5F5E2E2E2E2E2E2E2E2E2F5F5F5F5F5F5F5F5F5F5F5F5F5F5F5F5E2
310
E2E2E2E2E2E2E2E2F5F5F5F5F5F5F5F5F5F5F5F5F5F5F5F5E2E2E2E2E2E2E2E2F5F5F5F5F5F5F5F5F5F5F5F5F5F5F5F5E2E2E2E2E2E2E2E2E2F5F5F5F5F5F5F5F5F5F5F5F5F5F5F5F5E2E2E2E2E2E2E2E2F5F5F5F5F5F5F5F5F5F5F5F5F5F5F5F5E2E2E2E2E2E2E2E2E2F5F5F5F5F5F5F5F5F5F5F5F5F5F5F5F5E2E2E2E2E2
310
E2E2E2E2F5F5F5F5F5F5F5F5E2F5EFEFEFF5E2E2E2E2E2E2E2E2E2E2E2E2E2E2E2E2E2E2E2E2E2E2E2E2E2E2E2E2E2E2E2E2E2E2E2E2E2E2E2E2E2E2E2E2E2E2E2E2E2E2E2E2E2E2E2E2E2E2E2E2E2E2E2E2E2E2E2E2E2E2E2E2E2E2E2E2E2E2E2E2E2E2E2E2E2E2E2E2E2E2E2E2E2E2E2E2E2E2E2E2E2E2E2E2E2E2E2E2E2
310
E2E2E2E2E2E2E2E2E2E2E2E2E2E2E2E2E2E2E2E2E2E2E2E2E2E2E2E2E2E2E2E2E2E2E2E2E2E2E2E2E2E2E2E2E2E2E2E2E2E2E2E2E2E2E2E2E2E2E2E2E2E2E2E2E2E2F5EFEFEFF5F5F5F5F5F5F5F5F5F5F5F5F5F5F5F5F5F5F5F5F5F5F5F5F5F5F5F5F5F5F5F5F5F5F5F5F5F5F5F5F5F5F5F5F5F5F5F5F5F5F5F5F5F5F5F5F5
310
F5F5F5F5F5F5F5F5F5F5F5F5F5F5F5F5F5F5F5F5F5F5F5F5F5F5F5F5F5F5F5F5F5F5F5F5F5F5F5F5F5F5F5F5F5F5F5F5F5F5F5F5F5F5F5F5F5F5F5F5F5F5F5F5F5F5F5F5F5F5F5F5F5F5F5F5F5F5F5F5F5F5F5F5F5F5F5F5F5F5F5F5F5F5F5F5F5F5F5F5F5F5F5F5F5F5F5F5F5F5F5F5F5F5F5F5F5F5F5F5EFEFEF
  0
XRECORD
  5
F208
102
{ACAD_REACTORS
330
F207
102
}
330
F207
100
AcDbXrecord
280
     1
102
SHADEPLOT
 70
     0
102
SHADEPLOTRESLEVEL
 70
     2
102
SHADEPLOTCUSTOMDPI
 70
   300
  0
XRECORD
  5
F20C
102
{ACAD_REACTORS
330
F20B
102
}
330
F20B
100
AcDbXrecord
280
     1
102
MATERIAL
148
0.0
149
0.0
149
0.0
 93
        0
 94
       63
282
     0
 72
     1
 77
     1
171
     1
175
     1
179
     1
273
     0
  0
XRECORD
  5
F20A
102
{ACAD_REACTORS
330
F209
102
}
330
F209
100
AcDbXrecord
280
     1
102
MATERIAL
148
0.0
149
0.0
149
0.0
 93
        0
 94
       63
282
     0
 72
     1
 77
     1
171
     1
175
     1
179
     1
273
     0
  0
XRECORD
  5
F20E
102
{ACAD_REACTORS
330
F20D
102
}
330
F20D
100
AcDbXrecord
280
     1
102
MATERIAL
148
0.0
149
0.0
149
0.0
 93
        0
 94
       63
282
     0
 72
     1
 77
     1
171
     1
175
     1
179
     1
273
     0
  0
XRECORD
  5
F210
102
{ACAD_REACTORS
330
F20F
102
}
330
F20F
100
AcDbXrecord
280
     1
102
ACAD_ROUNDTRIP_PRE2007_TABLESTYLE
 90
      512
 91
        0
  1

 92
      512
 93
        0
  2

 94
      512
 95
        0
  3

  0
ENDSEC
  0
EOF
