  0
SECTION
  2
HEADER
  9
$ACADVER
  1
AC1015
  9
$ACADMAINTVER
 70
    20
  9
$DWGCODEPAGE
  3
ANSI_1252
  9
$INSBASE
 10
0.0
 20
0.0
 30
0.0
  9
$EXTMIN
 10
8.23662089572241
 20
11.06240187285076
 30
-0.0000000349181948
  9
$EXTMAX
 10
125.0142755480766
 20
74.87428311081058
 30
0.0000000814935746
  9
$LIMMIN
 10
0.0
 20
0.0
  9
$LIMMAX
 10
12.0
 20
9.0
  9
$ORTHOMODE
 70
     0
  9
$REGENMODE
 70
     1
  9
$FILLMODE
 70
     1
  9
$QTEXTMODE
 70
     0
  9
$MIRRTEXT
 70
     0
  9
$LTSCALE
 40
1.0
  9
$ATTMODE
 70
     1
  9
$TEXTSIZE
 40
6.0
  9
$TRACEWID
 40
0.05
  9
$TEXTSTYLE
  7
\U+68071
  9
$CLAYER
  8
0
  9
$CELTYPE
  6
ByLayer
  9
$CECOLOR
 62
   256
  9
$CELTSCALE
 40
1.0
  9
$DISPSILH
 70
     0
  9
$DIMSCALE
 40
1.0
  9
$DIMASZ
 40
15.0
  9
$DIMEXO
 40
0.5
  9
$DIMDLI
 40
15.0
  9
$DIMRND
 40
0.0
  9
$DIMDLE
 40
0.0
  9
$DIMEXE
 40
0.5
  9
$DIMTP
 40
0.0
  9
$DIMTM
 40
0.0
  9
$DIMTXT
 40
20.0
  9
$DIMCEN
 40
0.0
  9
$DIMTSZ
 40
0.0
  9
$DIMTOL
 70
     0
  9
$DIMLIM
 70
     0
  9
$DIMTIH
 70
     0
  9
$DIMTOH
 70
     1
  9
$DIMSE1
 70
     0
  9
$DIMSE2
 70
     0
  9
$DIMTAD
 70
     1
  9
$DIMZIN
 70
     8
  9
$DIMBLK
  1

  9
$DIMASO
 70
     1
  9
$DIMSHO
 70
     1
  9
$DIMPOST
  1

  9
$DIMAPOST
  1

  9
$DIMALT
 70
     0
  9
$DIMALTD
 70
     4
  9
$DIMALTF
 40
0.0394
  9
$DIMLFAC
 40
1.0
  9
$DIMTOFL
 70
     0
  9
$DIMTVP
 40
0.0
  9
$DIMTIX
 70
     0
  9
$DIMSOXD
 70
     0
  9
$DIMSAH
 70
     0
  9
$DIMBLK1
  1

  9
$DIMBLK2
  1

  9
$DIMSTYLE
  2
ISO1
  9
$DIMCLRD
 70
     0
  9
$DIMCLRE
 70
     0
  9
$DIMCLRT
 70
     0
  9
$DIMTFAC
 40
1.0
  9
$DIMGAP
 40
1.5
  9
$DIMJUST
 70
     0
  9
$DIMSD1
 70
     0
  9
$DIMSD2
 70
     0
  9
$DIMTOLJ
 70
     1
  9
$DIMTZIN
 70
     0
  9
$DIMALTZ
 70
     0
  9
$DIMALTTZ
 70
     0
  9
$DIMUPT
 70
     0
  9
$DIMDEC
 70
     1
  9
$DIMTDEC
 70
     1
  9
$DIMALTU
 70
     8
  9
$DIMALTTD
 70
     4
  9
$DIMTXSTY
  7
\U+68071
  9
$DIMAUNIT
 70
     0
  9
$DIMADEC
 70
     0
  9
$DIMALTRND
 40
0.0
  9
$DIMAZIN
 70
     0
  9
$DIMDSEP
 70
    46
  9
$DIMATFIT
 70
     3
  9
$DIMFRAC
 70
     0
  9
$DIMLDRBLK
  1

  9
$DIMLUNIT
 70
     6
  9
$DIMLWD
 70
    -2
  9
$DIMLWE
 70
    -2
  9
$DIMTMOVE
 70
     0
  9
$LUNITS
 70
     2
  9
$LUPREC
 70
     4
  9
$SKETCHINC
 40
0.1
  9
$FILLETRAD
 40
30.0
  9
$AUNITS
 70
     0
  9
$AUPREC
 70
     0
  9
$MENU
  1
.
  9
$ELEVATION
 40
0.0
  9
$PELEVATION
 40
0.0
  9
$THICKNESS
 40
0.0
  9
$LIMCHECK
 70
     0
  9
$CHAMFERA
 40
0.5
  9
$CHAMFERB
 40
0.5
  9
$CHAMFERC
 40
1.0
  9
$CHAMFERD
 40
0.0
  9
$SKPOLY
 70
     0
  9
$TDCREATE
 40
2453349.055207060
  9
$TDUCREATE
 40
2453349.346873727
  9
$TDUPDATE
 40
2454922.460016435
  9
$TDUUPDATE
 40
2454922.751683102
  9
$TDINDWG
 40
1.4025868750
  9
$TDUSRTIMER
 40
1.4025868750
  9
$USRTIMER
 70
     1
  9
$ANGBASE
 50
0.0
  9
$ANGDIR
 70
     0
  9
$PDMODE
 70
     0
  9
$PDSIZE
 40
0.0
  9
$PLINEWID
 40
0.0
  9
$SPLFRAME
 70
     0
  9
$SPLINETYPE
 70
     6
  9
$SPLINESEGS
 70
     8
  9
$HANDSEED
  5
20A1C
  9
$SURFTAB1
 70
     6
  9
$SURFTAB2
 70
     6
  9
$SURFTYPE
 70
     6
  9
$SURFU
 70
     6
  9
$SURFV
 70
     6
  9
$UCSBASE
  2

  9
$UCSNAME
  2

  9
$UCSORG
 10
0.0
 20
0.0
 30
0.0
  9
$UCSXDIR
 10
1.0
 20
0.0
 30
0.0
  9
$UCSYDIR
 10
0.0
 20
1.0
 30
0.0
  9
$UCSORTHOREF
  2

  9
$UCSORTHOVIEW
 70
     0
  9
$UCSORGTOP
 10
0.0
 20
0.0
 30
0.0
  9
$UCSORGBOTTOM
 10
0.0
 20
0.0
 30
0.0
  9
$UCSORGLEFT
 10
0.0
 20
0.0
 30
0.0
  9
$UCSORGRIGHT
 10
0.0
 20
0.0
 30
0.0
  9
$UCSORGFRONT
 10
0.0
 20
0.0
 30
0.0
  9
$UCSORGBACK
 10
0.0
 20
0.0
 30
0.0
  9
$PUCSBASE
  2

  9
$PUCSNAME
  2

  9
$PUCSORG
 10
0.0
 20
0.0
 30
0.0
  9
$PUCSXDIR
 10
1.0
 20
0.0
 30
0.0
  9
$PUCSYDIR
 10
0.0
 20
1.0
 30
0.0
  9
$PUCSORTHOREF
  2

  9
$PUCSORTHOVIEW
 70
     0
  9
$PUCSORGTOP
 10
0.0
 20
0.0
 30
0.0
  9
$PUCSORGBOTTOM
 10
0.0
 20
0.0
 30
0.0
  9
$PUCSORGLEFT
 10
0.0
 20
0.0
 30
0.0
  9
$PUCSORGRIGHT
 10
0.0
 20
0.0
 30
0.0
  9
$PUCSORGFRONT
 10
0.0
 20
0.0
 30
0.0
  9
$PUCSORGBACK
 10
0.0
 20
0.0
 30
0.0
  9
$USERI1
 70
     0
  9
$USERI2
 70
     0
  9
$USERI3
 70
     0
  9
$USERI4
 70
     0
  9
$USERI5
 70
     0
  9
$USERR1
 40
0.0
  9
$USERR2
 40
0.0
  9
$USERR3
 40
0.0
  9
$USERR4
 40
0.0
  9
$USERR5
 40
0.0
  9
$WORLDVIEW
 70
     1
  9
$SHADEDGE
 70
     3
  9
$SHADEDIF
 70
    70
  9
$TILEMODE
 70
     0
  9
$MAXACTVP
 70
    64
  9
$PINSBASE
 10
0.0
 20
0.0
 30
0.0
  9
$PLIMCHECK
 70
     0
  9
$PEXTMIN
 10
1.07500002421732
 20
0.8249999641433474
 30
0.0
  9
$PEXTMAX
 10
9.675000217955883
 20
7.890509470649353
 30
0.0
  9
$PLIMMIN
 10
-0.1249995194082185
 20
-0.1249999981226884
  9
$PLIMMAX
 10
10.87500024029589
 20
8.37499976158142
  9
$UNITMODE
 70
     0
  9
$VISRETAIN
 70
     1
  9
$PLINEGEN
 70
     0
  9
$PSLTSCALE
 70
     1
  9
$TREEDEPTH
 70
  3020
  9
$CMLSTYLE
  2
Standard
  9
$CMLJUST
 70
     0
  9
$CMLSCALE
 40
1.0
  9
$PROXYGRAPHICS
 70
     1
  9
$MEASUREMENT
 70
     0
  9
$CELWEIGHT
370
    -1
  9
$ENDCAPS
280
     0
  9
$JOINSTYLE
280
     0
  9
$LWDISPLAY
290
     0
  9
$INSUNITS
 70
     1
  9
$HYPERLINKBASE
  1

  9
$STYLESHEET
  1
monochrome.ctb
  9
$XEDIT
290
     1
  9
$CEPSNTYPE
380
     0
  9
$PSTYLEMODE
290
     1
  9
$FINGERPRINTGUID
  2
{FDEAD576-A652-11D2-9A35-0060089B3A3F}
  9
$VERSIONGUID
  2
{C031AE2F-6EB0-47C4-8152-9417AE09C8CA}
  9
$EXTNAMES
290
     1
  9
$PSVPSCALE
 40
0.0
  9
$OLESTARTUP
290
     0
  0
ENDSEC
  0
SECTION
  2
CLASSES
  0
CLASS
  1
ACDBDICTIONARYWDFLT
  2
AcDbDictionaryWithDefault
  3
ObjectDBX Classes
 90
        0
280
     0
281
     0
  0
CLASS
  1
ACDBPLACEHOLDER
  2
AcDbPlaceHolder
  3
ObjectDBX Classes
 90
        0
280
     0
281
     0
  0
CLASS
  1
LAYOUT
  2
AcDbLayout
  3
ObjectDBX Classes
 90
        0
280
     0
281
     0
  0
CLASS
  1
DICTIONARYVAR
  2
AcDbDictionaryVar
  3
ObjectDBX Classes
 90
        0
280
     0
281
     0
  0
CLASS
  1
DIMASSOC
  2
AcDbDimAssoc
  3
"AcDbDimAssoc|Product Desc:     AcDim ARX App For Dimension|Company:          Autodesk, Inc.|WEB Address:      www.autodesk.com"
 90
    32768
280
     0
281
     0
  0
CLASS
  1
MATERIAL
  2
AcDbMaterial
  3
ObjectDBX Classes
 90
     1024
280
     0
281
     0
  0
CLASS
  1
VISUALSTYLE
  2
AcDbVisualStyle
  3
ObjectDBX Classes
 90
     4095
280
     0
281
     0
  0
CLASS
  1
TABLESTYLE
  2
AcDbTableStyle
  3
ObjectDBX Classes
 90
     4095
280
     0
281
     0
  0
ENDSEC
  0
SECTION
  2
TABLES
  0
TABLE
  2
VPORT
  5
8
102
{ACAD_XDICTIONARY
360
208CA
102
}
330
0
100
AcDbSymbolTable
 70
     1
  0
VPORT
  5
2083C
330
8
100
AcDbSymbolTableRecord
100
AcDbViewportTableRecord
  2
*Active
 70
     0
 10
0.0
 20
0.0
 11
1.0
 21
1.0
 12
66.62544822189952
 22
42.96834249183066
 13
0.0
 23
0.0
 14
0.5
 24
0.5
 15
0.5
 25
0.5
 16
0.0
 26
0.0
 36
1.0
 17
0.0
 27
0.0
 37
0.0
 40
71.26707141998534
 41
1.646976090014064
 42
50.0
 43
0.0
 44
0.0
 50
0.0
 51
0.0
 71
     0
 72
  2000
 73
     1
 74
     3
 75
     1
 76
     0
 77
     0
 78
     0
281
     0
 65
     1
110
0.0
120
0.0
130
0.0
111
1.0
121
0.0
131
0.0
112
0.0
122
1.0
132
0.0
 79
     0
146
0.0
  0
ENDTAB
  0
TABLE
  2
LTYPE
  5
5
330
0
100
AcDbSymbolTable
 70
     4
  0
LTYPE
  5
14
330
5
100
AcDbSymbolTableRecord
100
AcDbLinetypeTableRecord
  2
ByBlock
 70
     0
  3

 72
    65
 73
     0
 40
0.0
  0
LTYPE
  5
15
330
5
100
AcDbSymbolTableRecord
100
AcDbLinetypeTableRecord
  2
ByLayer
 70
     0
  3

 72
    65
 73
     0
 40
0.0
  0
LTYPE
  5
16
330
5
100
AcDbSymbolTableRecord
100
AcDbLinetypeTableRecord
  2
Continuous
 70
     0
  3
Solid line
 72
    65
 73
     0
 40
0.0
  0
LTYPE
  5
988
330
5
100
AcDbSymbolTableRecord
100
AcDbLinetypeTableRecord
  2
CENTER
 70
     0
  3
Center ____ _ ____ _ ____ _ ____ _ ____ _ ____
 72
    65
 73
     4
 40
50.8
 49
31.75
 74
     0
 49
-6.349999999999999
 74
     0
 49
6.349999999999999
 74
     0
 49
-6.349999999999999
 74
     0
  0
LTYPE
  5
989
330
5
100
AcDbSymbolTableRecord
100
AcDbLinetypeTableRecord
  2
HIDDEN
 70
     0
  3
Hidden __ __ __ __ __ __ __ __ __ __ __ __ __ _
 72
    65
 73
     2
 40
0.375
 49
0.25
 74
     0
 49
-0.125
 74
     0
  0
LTYPE
  5
1D53F
330
5
100
AcDbSymbolTableRecord
100
AcDbLinetypeTableRecord
  2
DASHED
 70
     0
  3
-- -- -- -- -- -- -- -- -- -- 
 72
    65
 73
     2
 40
3.0
 49
2.0
 74
     0
 49
-1.0
 74
     0
  0
ENDTAB
  0
TABLE
  2
LAYER
  5
2
102
{ACAD_XDICTIONARY
360
20964
102
}
330
0
100
AcDbSymbolTable
 70
     3
  0
LAYER
  5
10
330
2
100
AcDbSymbolTableRecord
100
AcDbLayerTableRecord
  2
0
 70
     0
 62
     7
  6
Continuous
370
    -3
390
F
  0
LAYER
  5
98B
330
2
100
AcDbSymbolTableRecord
100
AcDbLayerTableRecord
  2
\U+6807\U+6CE8
 70
     0
 62
   200
  6
Continuous
370
    -3
390
F
1001
AcadStringInfo
1000
MIFCodePage
1070
     5
  0
LAYER
  5
1D540
330
2
100
AcDbSymbolTableRecord
100
AcDbLayerTableRecord
  2
0\U+7EC6
 70
     0
 62
     4
  6
Continuous
370
    -3
390
F
1001
AcadStringInfo
1000
MIFCodePage
1070
     5
  0
ENDTAB
  0
TABLE
  2
STYLE
  5
3
330
0
100
AcDbSymbolTable
 70
     2
  0
STYLE
  5
11
330
3
100
AcDbSymbolTableRecord
100
AcDbTextStyleTableRecord
  2
Standard
 70
     0
 40
0.0
 41
1.0
 50
0.0
 71
     0
 42
0.2
  3
txt
  4

  0
STYLE
  5
991
330
3
100
AcDbSymbolTableRecord
100
AcDbTextStyleTableRecord
  2
\U+68071
 70
     0
 40
0.0
 41
0.8
 50
0.0
 71
     0
 42
6.0
  3
txt.shx
  4
gbcbig.shx
1001
AcadStringInfo
1000
MIFCodePage
1070
     5
  0
ENDTAB
  0
TABLE
  2
VIEW
  5
6
330
0
100
AcDbSymbolTable
 70
     5
  0
ENDTAB
  0
TABLE
  2
UCS
  5
7
330
0
100
AcDbSymbolTable
 70
     0
  0
ENDTAB
  0
TABLE
  2
APPID
  5
9
330
0
100
AcDbSymbolTable
 70
     4
  0
APPID
  5
12
330
9
100
AcDbSymbolTableRecord
100
AcDbRegAppTableRecord
  2
ACAD
 70
     0
  0
APPID
  5
20854
330
9
100
AcDbSymbolTableRecord
100
AcDbRegAppTableRecord
  2
AcadStringInfo
 70
     0
  0
APPID
  5
20954
330
9
100
AcDbSymbolTableRecord
100
AcDbRegAppTableRecord
  2
ACAD_EXEMPT_FROM_CAD_STANDARDS
 70
     0
  0
APPID
  5
2095E
330
9
100
AcDbSymbolTableRecord
100
AcDbRegAppTableRecord
  2
ACAD_PSEXT
 70
     0
  0
ENDTAB
  0
TABLE
  2
DIMSTYLE
  5
A
330
0
100
AcDbSymbolTable
 70
     1
100
AcDbDimStyleTable
 71
     1
340
992
  0
DIMSTYLE
105
992
330
A
100
AcDbSymbolTableRecord
100
AcDbDimStyleTableRecord
  2
ISO1
 70
     0
 41
15.0
 42
0.5
 43
15.0
 44
0.5
 73
     0
 77
     1
 78
     8
140
20.0
141
0.0
143
0.0394
147
1.5
171
     4
271
     1
272
     1
273
     8
274
     4
277
     6
340
991
  0
ENDTAB
  0
TABLE
  2
BLOCK_RECORD
  5
1
330
0
100
AcDbSymbolTable
 70
     0
  0
BLOCK_RECORD
  5
1F
330
1
100
AcDbSymbolTableRecord
100
AcDbBlockTableRecord
  2
*Model_Space
340
22
  0
BLOCK_RECORD
  5
20949
330
1
100
AcDbSymbolTableRecord
100
AcDbBlockTableRecord
  2
*Paper_Space
340
2094A
  0
ENDTAB
  0
ENDSEC
  0
SECTION
  2
BLOCKS
  0
BLOCK
  5
20
330
1F
100
AcDbEntity
  8
0
100
AcDbBlockBegin
  2
*Model_Space
 70
     0
 10
0.0
 20
0.0
 30
0.0
  3
*Model_Space
  1

  0
ENDBLK
  5
21
330
1F
100
AcDbEntity
  8
0
100
AcDbBlockEnd
  0
BLOCK
  5
2094B
330
20949
100
AcDbEntity
 67
     1
  8
0
100
AcDbBlockBegin
  2
*Paper_Space
 70
     0
 10
0.0
 20
0.0
 30
0.0
  3
*Paper_Space
  1

  0
ENDBLK
  5
2094C
330
20949
100
AcDbEntity
 67
     1
  8
0
100
AcDbBlockEnd
  0
ENDSEC
  0
SECTION
  2
ENTITIES
  0
MTEXT
  5
C0BD
330
1F
100
AcDbEntity
  8
0
100
AcDbMText
 10
-9129.087937731457
 20
9674.726280436505
 30
0.0
 40
6.0
 41
80.47839999999998
 71
     1
 72
     5
  1

  7
\U+68071
 73
     1
 44
1.0
1001
ACAD
1000
MTEXTBEGIN
1070
    73
1070
     1
1070
    44
1040
1.0
1070
    74
1070
     0
1000
MTEXTEND
  0
CIRCLE
  5
1DAB8
330
1F
100
AcDbEntity
  8
\U+6807\U+6CE8
100
AcDbCircle
 10
54.03855052250314
 20
58.70334103490156
 30
0.0
 40
0.51181
  0
CIRCLE
  5
1DAB9
330
1F
100
AcDbEntity
  8
\U+6807\U+6CE8
100
AcDbCircle
 10
54.03855052250314
 20
54.92382103490156
 30
0.0
 40
0.51181
  0
CIRCLE
  5
1DABA
330
1F
100
AcDbEntity
  8
\U+6807\U+6CE8
100
AcDbCircle
 10
54.03855052250314
 20
53.66398103490157
 30
0.0
 40
0.51181
  0
CIRCLE
  5
1DABB
330
1F
100
AcDbEntity
  8
\U+6807\U+6CE8
100
AcDbCircle
 10
54.03855052250314
 20
57.44350103490156
 30
0.0
 40
0.51181
  0
CIRCLE
  5
1DABC
330
1F
100
AcDbEntity
  8
\U+6807\U+6CE8
100
AcDbCircle
 10
54.03855052250314
 20
56.18366103490156
 30
0.0
 40
0.51181
  0
CIRCLE
  5
1DABD
330
1F
100
AcDbEntity
  8
\U+6807\U+6CE8
100
AcDbCircle
 10
54.03855052250314
 20
51.14430103490157
 30
0.0
 40
0.51181
  0
CIRCLE
  5
1DABE
330
1F
100
AcDbEntity
  8
\U+6807\U+6CE8
100
AcDbCircle
 10
54.03855052250314
 20
52.40414103490156
 30
0.0
 40
0.51181
  0
CIRCLE
  5
1DABF
330
1F
100
AcDbEntity
  8
\U+6807\U+6CE8
100
AcDbCircle
 10
54.03855052250314
 20
61.22302103490156
 30
0.0
 40
0.51181
  0
CIRCLE
  5
1DAC0
330
1F
100
AcDbEntity
  8
\U+6807\U+6CE8
100
AcDbCircle
 10
54.03855052250314
 20
59.96318103490157
 30
0.0
 40
0.51181
  0
CIRCLE
  5
1DAC1
330
1F
100
AcDbEntity
  8
\U+6807\U+6CE8
100
AcDbCircle
 10
54.03855052250314
 20
62.48286103490157
 30
0.0
 40
0.51181
  0
LINE
  5
1DAC5
330
1F
100
AcDbEntity
  8
0
100
AcDbLine
 10
21.0260453069204
 20
16.86032646055547
 30
0.0
 11
63.6652757380853
 21
16.86032646055547
 31
0.0
  0
LINE
  5
1DAC6
330
1F
100
AcDbEntity
  8
0
100
AcDbLine
 10
9.629190522503138
 20
12.13593010458466
 30
0.0
 11
75.06214515130801
 21
12.13744419907302
 31
0.0
  0
LINE
  5
1DAC7
330
1F
100
AcDbEntity
  8
0\U+7EC6
  6
HIDDEN
 48
4.0
100
AcDbLine
 10
24.98568564223903
 20
13.69789525601646
 30
0.0
 11
64.73427783249111
 21
12.72446034523482
 31
0.0
  0
LINE
  5
1DAC8
330
1F
100
AcDbEntity
  8
0\U+7EC6
  6
HIDDEN
 48
4.0
100
AcDbLine
 10
24.99243276210633
 20
13.97340265060595
 30
0.0
 11
68.87455629890776
 21
12.89873840072522
 31
0.0
  0
LINE
  5
1DAC9
330
1F
100
AcDbEntity
  8
0
100
AcDbLine
 10
10.11518753698279
 20
28.08077646055548
 30
0.0
 11
74.57613350802292
 21
28.08077646055548
 31
0.0
  0
LINE
  5
1DACA
330
1F
100
AcDbEntity
  8
0
100
AcDbLine
 10
9.471710522503137
 20
28.47447646055548
 30
0.0
 11
75.21961052250315
 21
28.47447646055548
 31
0.0
  0
LINE
  5
1DACB
330
1F
100
AcDbEntity
  8
0\U+7EC6
  6
HIDDEN
 48
4.0
100
AcDbLine
 10
17.93626052250314
 20
41.28211603490142
 30
0.0
 11
66.75506052250314
 21
41.28211603490142
 31
0.0
  0
LINE
  5
1DACC
330
1F
100
AcDbEntity
  8
0\U+7EC6
  6
CENTER
 48
4.0
100
AcDbLine
 10
8.242449538288294
 20
56.81358103490142
 30
0.0
 11
77.26243829242041
 21
56.81358103490157
 31
0.0
  0
ARC
  5
1DACD
330
1F
100
AcDbEntity
  8
0
100
AcDbCircle
 10
34.51279069558517
 20
-225.803953930565
 30
0.0
 40
295.275
100
AcDbArc
 50
83.9428214774059
 51
89.98506267293571
  0
ARC
  5
1DACE
330
1F
100
AcDbEntity
  8
0
100
AcDbCircle
 10
34.51279069558517
 20
-225.803953930565
 30
0.0
 40
293.3065
100
AcDbArc
 50
84.42921105427643
 51
89.98506267293571
  0
ARC
  5
1DACF
330
1F
100
AcDbEntity
  8
0
100
AcDbCircle
 10
34.51279069558517
 20
339.4311160003679
 30
0.0
 40
293.3065
100
AcDbArc
 50
270.0149373270643
 51
275.5707889457235
  0
ARC
  5
1DAD0
330
1F
100
AcDbEntity
  8
0
100
AcDbCircle
 10
34.51279069558517
 20
339.4311160003679
 30
0.0
 40
295.275
100
AcDbArc
 50
270.0149373270643
 51
276.0571785225941
  0
LINE
  5
1DAD1
330
1F
100
AcDbEntity
  8
0
100
AcDbLine
 10
10.29848052250314
 20
72.38441603490142
 30
0.0
 11
74.39284052250314
 21
72.38441603490142
 31
0.0
  0
LINE
  5
1DAD2
330
1F
100
AcDbEntity
  8
0
100
AcDbLine
 10
9.865410522503138
 20
40.80967603490142
 30
0.0
 11
74.82591052250313
 21
40.80967603490142
 31
0.0
  0
LINE
  5
1DAD3
330
1F
100
AcDbEntity
  8
0
100
AcDbLine
 10
9.865410522503138
 20
72.81748603490142
 30
0.0
 11
74.82591052250313
 21
72.81748603490142
 31
0.0
  0
LINE
  5
1DAD8
330
1F
100
AcDbEntity
  8
0\U+7EC6
  6
HIDDEN
 48
4.0
100
AcDbLine
 10
14.38802454816055
 20
27.24404831575267
 30
0.0
 11
21.50251324481204
 21
15.69917347618663
 31
0.0
  0
ARC
  5
1DAD9
330
1F
100
AcDbEntity
  8
0\U+7EC6
  6
HIDDEN
 48
4.0
100
AcDbCircle
 10
13.61713613964314
 20
26.76899103319273
 30
0.0
 40
1.1811
100
AcDbArc
 50
31.64330650939054
 51
78.65895025097429
  0
LINE
  5
1DADB
330
1F
100
AcDbEntity
  8
0
100
AcDbLine
 10
9.471710522503137
 20
28.47447646055548
 30
0.0
 11
9.629190522503138
 21
12.13593010458466
 31
0.0
  0
ARC
  5
1DADC
330
1F
100
AcDbEntity
  8
0\U+7EC6
  6
HIDDEN
 48
4.0
100
AcDbCircle
 10
9.677023603464029
 20
26.93904646055548
 30
0.0
 40
0.11811
100
AcDbArc
 50
185.7105931375826
 51
270.0
  0
ARC
  5
1DADD
330
1F
100
AcDbEntity
  8
0\U+7EC6
  6
HIDDEN
 48
4.0
100
AcDbCircle
 10
9.69946744154196
 20
26.93904646055548
 30
0.0
 40
0.11811
100
AcDbArc
 50
270.0
 51
354.2894068624174
  0
LINE
  5
1DADE
330
1F
100
AcDbEntity
  8
0
100
AcDbLine
 10
9.471710522503137
 20
27.80518646055548
 30
0.0
 11
9.471710522503137
 21
28.47447646055548
 31
0.0
  0
ARC
  5
1DADF
330
1F
100
AcDbEntity
  8
0\U+7EC6
  6
HIDDEN
 48
4.0
100
AcDbCircle
 10
10.08292732410453
 20
27.60833646055534
 30
0.0
 40
0.19685
100
AcDbArc
 50
90.0
 51
174.2894068624174
  0
LINE
  5
1DAE0
330
1F
100
AcDbEntity
  8
0\U+7EC6
  6
HIDDEN
 48
4.0
100
AcDbLine
 10
9.471710522503137
 20
27.80518646055548
 30
0.0
 11
9.559499760928195
 21
26.92729407630189
 31
0.0
  0
LINE
  5
1DAE1
330
1F
100
AcDbEntity
  8
0\U+7EC6
  6
HIDDEN
 48
4.0
100
AcDbLine
 10
9.88705425321195
 20
27.62792376764473
 30
0.0
 11
9.816991284077507
 21
26.92729407630189
 31
0.0
  0
LINE
  5
1DAE2
330
1F
100
AcDbEntity
  8
0\U+7EC6
  6
HIDDEN
 48
4.0
100
AcDbLine
 10
9.677023603464029
 20
26.82093646055548
 30
0.0
 11
9.69946744154196
 21
26.82093646055548
 31
0.0
  0
ARC
  5
1DAE3
330
1F
100
AcDbEntity
  8
0\U+7EC6
  6
HIDDEN
 48
4.0
100
AcDbCircle
 10
12.30098633332665
 20
20.20677646055548
 30
0.0
 40
7.59841
100
AcDbArc
 50
78.65895025097429
 51
90.0
  0
ARC
  5
1DAE4
330
1F
100
AcDbEntity
  8
0\U+7EC6
  6
HIDDEN
 48
4.0
100
AcDbCircle
 10
13.61713613964314
 20
26.76899103319273
 30
0.0
 40
0.9055099999999999
100
AcDbArc
 50
31.64330650939054
 51
78.65895025097429
  0
LINE
  5
1DAE5
330
1F
100
AcDbEntity
  8
0\U+7EC6
  6
HIDDEN
 48
4.0
100
AcDbLine
 10
10.08292732410453
 20
27.80518646055533
 30
0.0
 11
12.30098633332665
 21
27.80518646055548
 31
0.0
  0
ARC
  5
1DAE6
330
1F
100
AcDbEntity
  8
0\U+7EC6
  6
DASHED
 48
4.0
100
AcDbCircle
 10
12.30098633332665
 20
20.20677646055548
 30
0.0
 40
7.874
100
AcDbArc
 50
78.65895025097429
 51
90.0
  0
ARC
  5
1DAE7
330
1F
100
AcDbEntity
  8
0
100
AcDbCircle
 10
10.11518753698279
 20
28.55321646055548
 30
0.0
 40
0.4724400000000001
100
AcDbArc
 50
221.9872124958786
 51
270.0
  0
ARC
  5
1DAE8
330
1F
100
AcDbEntity
  8
0
100
AcDbCircle
 10
9.497848768883226
 20
28.35636646055548
 30
0.0
 40
0.11811
100
AcDbArc
 50
41.98721249587864
 51
90.0
  0
LINE
  5
1DAE9
330
1F
100
AcDbEntity
  8
0
100
AcDbLine
 10
9.585639240496414
 20
28.43537788500738
 30
0.0
 11
9.764025650530031
 21
28.23717076274774
 31
0.0
  0
LINE
  5
1DAEA
330
1F
100
AcDbEntity
  8
0
100
AcDbLine
 10
9.471710522503137
 20
28.47447646055548
 30
0.0
 11
9.471710522503137
 21
27.80518646055548
 31
0.0
  0
ARC
  5
1DAEB
330
1F
100
AcDbEntity
  8
0\U+7EC6
  6
HIDDEN
 48
4.0
100
AcDbCircle
 10
25.08882018878522
 20
17.90922257331313
 30
0.0
 40
4.21259
100
AcDbArc
 50
211.6433065093905
 51
268.5971184671521
  0
ARC
  5
1DAEC
330
1F
100
AcDbEntity
  8
0\U+7EC6
  6
HIDDEN
 48
4.0
100
AcDbCircle
 10
25.08882018878522
 20
17.90922257331313
 30
0.0
 40
3.937
100
AcDbArc
 50
211.6433065093905
 51
268.5971184671521
  0
LINE
  5
1DAED
330
1F
100
AcDbEntity
  8
0\U+7EC6
  6
HIDDEN
 48
4.0
100
AcDbLine
 10
25.18197794069571
 20
12.18093882348542
 30
0.0
 11
25.1026277176368
 21
13.69503136845581
 31
0.0
  0
LINE
  5
1DAEE
330
1F
100
AcDbEntity
  8
0
 48
100.0
100
AcDbLine
 10
25.49102874025643
 20
12.13563910551519
 30
0.0
 11
25.47041085712105
 21
11.74222646055548
 31
0.0
  0
LINE
  5
1DAEF
330
1F
100
AcDbEntity
  8
0\U+7EC6
  6
HIDDEN
 48
4.0
100
AcDbLine
 10
26.14891393392518
 20
12.18622270363929
 30
0.0
 11
26.2282350021224
 21
13.66746547577445
 31
0.0
  0
LINE
  5
1DAF0
330
1F
100
AcDbEntity
  8
0\U+7EC6
  6
HIDDEN
 48
4.0
100
AcDbLine
 10
24.52624921677399
 20
12.20095670363754
 30
0.0
 11
24.44527277343835
 21
13.74607938188898
 31
0.0
  0
LINE
  5
1DAF1
330
1F
100
AcDbEntity
  8
0\U+7EC6
  6
HIDDEN
 48
4.0
100
AcDbLine
 10
25.33782052250314
 20
14.29792463736709
 30
0.0
 11
25.33782052250314
 21
11.32118057637293
 31
0.0
  0
LINE
  5
1DAF2
330
1F
100
AcDbEntity
  8
0\U+7EC6
  6
HIDDEN
 48
4.0
100
AcDbLine
 10
25.57215041443081
 20
13.68353285343216
 30
0.0
 11
25.49371279524884
 21
12.18685392552763
 31
0.0
  0
LINE
  5
1DAF3
330
1F
100
AcDbEntity
  8
0
 48
100.0
100
AcDbLine
 10
25.20496987997478
 20
11.74222646055548
 30
0.0
 11
25.18430838089192
 21
12.13647137283938
 31
0.0
  0
LINE
  5
1DAF4
330
1F
100
AcDbEntity
  8
0
 48
100.0
100
AcDbLine
 10
26.13511547894688
 20
11.92855015626951
 30
0.0
 11
26.14617169349052
 21
12.13501406619861
 31
0.0
  0
LINE
  5
1DAF5
330
1F
100
AcDbEntity
  8
0
 48
100.0
100
AcDbLine
 10
25.9385471208167
 20
11.74222646055548
 30
0.0
 11
24.737093924189
 21
11.74222646055548
 31
0.0
  0
ARC
  5
1DAF6
330
1F
100
AcDbEntity
  8
0
 48
100.0
100
AcDbCircle
 10
25.9385471208167
 20
11.93907646055547
 30
0.0
 40
0.19685
100
AcDbArc
 50
270.0
 51
356.9347187836464
  0
LINE
  5
1DAF7
330
1F
100
AcDbEntity
  8
0
 48
100.0
100
AcDbLine
 10
24.54051370024005
 20
11.92877412819723
 30
0.0
 11
24.52964057261236
 21
12.1362457753696
 31
0.0
  0
ARC
  5
1DAF8
330
1F
100
AcDbEntity
  8
0
 48
100.0
100
AcDbCircle
 10
24.737093924189
 20
11.93907646055547
 30
0.0
 40
0.19685
100
AcDbArc
 50
182.9999998169494
 51
270.0
  0
LINE
  5
1DAF9
330
1F
100
AcDbEntity
  8
0\U+7EC6
  6
HIDDEN
 48
4.0
100
AcDbLine
 10
14.62264275944848
 20
27.38863096696648
 30
0.0
 11
21.73713145609997
 21
15.84375612740058
 31
0.0
  0
ARC
  5
1DAFA
330
1F
100
AcDbEntity
  8
0
100
AcDbCircle
 10
21.0260453069204
 20
20.00992646055548
 30
0.0
 40
3.1496
100
AcDbArc
 50
184.8645144378224
 51
270.0
  0
LINE
  5
1DAFB
330
1F
100
AcDbEntity
  8
0
100
AcDbLine
 10
17.34571052250314
 20
26.11227646055548
 30
0.0
 11
17.88779014342448
 21
19.74284091472601
 31
0.0
  0
CIRCLE
  5
1DAFC
330
1F
100
AcDbEntity
  8
\U+6807\U+6CE8
100
AcDbCircle
 10
27.46380052250314
 20
51.77422103490156
 30
0.0
 40
0.51181
  0
CIRCLE
  5
1DAFD
330
1F
100
AcDbEntity
  8
\U+6807\U+6CE8
100
AcDbCircle
 10
27.46380052250314
 20
54.29390103490156
 30
0.0
 40
0.51181
  0
CIRCLE
  5
1DAFE
330
1F
100
AcDbEntity
  8
\U+6807\U+6CE8
100
AcDbCircle
 10
27.46380052250314
 20
53.03406103490156
 30
0.0
 40
0.51181
  0
CIRCLE
  5
1DAFF
330
1F
100
AcDbEntity
  8
\U+6807\U+6CE8
100
AcDbCircle
 10
27.46380052250314
 20
55.55374103490156
 30
0.0
 40
0.51181
  0
CIRCLE
  5
1DB00
330
1F
100
AcDbEntity
  8
\U+6807\U+6CE8
100
AcDbCircle
 10
27.46380052250314
 20
56.81358103490157
 30
0.0
 40
0.51181
  0
CIRCLE
  5
1DB01
330
1F
100
AcDbEntity
  8
\U+6807\U+6CE8
100
AcDbCircle
 10
27.46380052250314
 20
58.07342103490157
 30
0.0
 40
0.51181
  0
CIRCLE
  5
1DB02
330
1F
100
AcDbEntity
  8
\U+6807\U+6CE8
100
AcDbCircle
 10
27.46380052250314
 20
61.85294103490156
 30
0.0
 40
0.51181
  0
CIRCLE
  5
1DB03
330
1F
100
AcDbEntity
  8
\U+6807\U+6CE8
100
AcDbCircle
 10
27.46380052250314
 20
60.59310103490156
 30
0.0
 40
0.51181
  0
CIRCLE
  5
1DB04
330
1F
100
AcDbEntity
  8
\U+6807\U+6CE8
100
AcDbCircle
 10
27.46380052250314
 20
59.33326103490156
 30
0.0
 40
0.51181
  0
ARC
  5
1DB05
330
1F
100
AcDbEntity
  8
0
100
AcDbCircle
 10
34.36840777548645
 20
-166.7488602450991
 30
0.0
 40
236.22
100
AcDbArc
 50
89.94630787841117
 51
92.65264351929769
  0
ARC
  5
1DB06
330
1F
100
AcDbEntity
  8
0
100
AcDbCircle
 10
29.67924576990208
 20
43.82843679789986
 30
0.0
 40
23.622
100
AcDbArc
 50
91.27565887234089
 51
96.46203555145397
  0
ARC
  5
1DB07
330
1F
100
AcDbEntity
  8
0
100
AcDbCircle
 10
29.67924576990208
 20
69.79872527190313
 30
0.0
 40
23.622
100
AcDbArc
 50
263.537964448546
 51
268.7243411276591
  0
ARC
  5
1DB08
330
1F
100
AcDbEntity
  8
0
100
AcDbCircle
 10
34.36840777548645
 20
280.3760223149021
 30
0.0
 40
236.22
100
AcDbArc
 50
267.3473564807023
 51
270.0536921215888
  0
CIRCLE
  5
1DB09
330
1F
100
AcDbEntity
  8
\U+6807\U+6CE8
100
AcDbCircle
 10
26.40081052250314
 20
58.70334103490156
 30
0.0
 40
0.51181
  0
ARC
  5
1DB0D
330
1F
100
AcDbEntity
  8
0
100
AcDbCircle
 10
62.22751052250313
 20
56.81358103490142
 30
0.0
 40
39.37000000000001
100
AcDbArc
 50
171.5058002599016
 51
188.4941997400984
  0
ARC
  5
1DB0E
330
1F
100
AcDbEntity
  8
0
100
AcDbCircle
 10
92.93611052250314
 20
56.81358103490157
 30
0.0
 40
78.74000000000001
100
AcDbArc
 50
176.1085667125178
 51
183.8914332874821
  0
LINE
  5
1DB0F
330
1F
100
AcDbEntity
  8
0
100
AcDbLine
 10
9.904780522503138
 20
71.99071603490143
 30
0.0
 11
9.904780522503138
 21
41.20337603490141
 31
0.0
  0
LINE
  5
1DB10
330
1F
100
AcDbEntity
  8
0
100
AcDbLine
 10
9.471710522503137
 20
72.42378603490142
 30
0.0
 11
9.471710522503137
 21
41.20337603490141
 31
0.0
  0
ARC
  5
1DB11
330
1F
100
AcDbEntity
  8
0
100
AcDbCircle
 10
20.41657052250314
 20
50.59312103490142
 30
0.0
 40
5.905499999999999
100
AcDbArc
 50
192.6986702749417
 51
262.765374589321
  0
ARC
  5
1DB12
330
1F
100
AcDbEntity
  8
0
100
AcDbCircle
 10
34.01726553667123
 20
52.80574738871286
 30
0.0
 40
19.685
100
AcDbArc
 50
183.8914332874821
 51
190.4971431627124
  0
ARC
  5
1DB14
330
1F
100
AcDbEntity
  8
0
100
AcDbCircle
 10
9.865410522503138
 20
41.20337603490141
 30
0.0
 40
0.3937
100
AcDbArc
 50
180.0
 51
270.0
  0
ARC
  5
1DB15
330
1F
100
AcDbEntity
  8
0\U+7EC6
  6
HIDDEN
 48
4.0
100
AcDbCircle
 10
17.93626052250314
 20
40.69156603490141
 30
0.0
 40
0.59055
100
AcDbArc
 50
90.0
 51
168.4630409671097
  0
ARC
  5
1DB16
330
1F
100
AcDbEntity
  8
0
100
AcDbCircle
 10
25.62244244922244
 20
91.6025160527448
 30
0.0
 40
47.244
100
AcDbArc
 50
262.765374589321
 51
267.3473564807023
  0
CIRCLE
  5
1DB17
330
1F
100
AcDbEntity
  8
\U+6807\U+6CE8
100
AcDbCircle
 10
26.40081052250314
 20
57.44350103490156
 30
0.0
 40
0.51181
  0
CIRCLE
  5
1DB18
330
1F
100
AcDbEntity
  8
\U+6807\U+6CE8
100
AcDbCircle
 10
26.40081052250314
 20
52.40414103490156
 30
0.0
 40
0.51181
  0
CIRCLE
  5
1DB19
330
1F
100
AcDbEntity
  8
\U+6807\U+6CE8
100
AcDbCircle
 10
26.40081052250314
 20
53.66398103490157
 30
0.0
 40
0.51181
  0
CIRCLE
  5
1DB1A
330
1F
100
AcDbEntity
  8
\U+6807\U+6CE8
100
AcDbCircle
 10
26.40081052250314
 20
54.92382103490156
 30
0.0
 40
0.51181
  0
CIRCLE
  5
1DB1B
330
1F
100
AcDbEntity
  8
\U+6807\U+6CE8
100
AcDbCircle
 10
26.40081052250314
 20
56.18366103490156
 30
0.0
 40
0.51181
  0
ARC
  5
1DB1C
330
1F
100
AcDbEntity
  8
0
100
AcDbCircle
 10
27.46380052250314
 20
50.23879103490141
 30
0.0
 40
3.937
100
AcDbArc
 50
195.144132232703
 51
263.537964448546
  0
ARC
  5
1DB1D
330
1F
100
AcDbEntity
  8
0
100
AcDbCircle
 10
38.86462445519926
 20
53.32439221711211
 30
0.0
 40
15.748
100
AcDbArc
 50
188.4941997400984
 51
195.144132232703
  0
ARC
  5
1DB1F
330
1F
100
AcDbEntity
  8
0
100
AcDbCircle
 10
34.01726553667123
 20
60.82141468109012
 30
0.0
 40
19.685
100
AcDbArc
 50
169.5028568372875
 51
176.1085667125178
  0
ARC
  5
1DB20
330
1F
100
AcDbEntity
  8
0
100
AcDbCircle
 10
20.41657052250314
 20
63.03404103490156
 30
0.0
 40
5.905499999999999
100
AcDbArc
 50
97.23462541067895
 51
167.3013297250583
  0
ARC
  5
1DB21
330
1F
100
AcDbEntity
  8
0
100
AcDbCircle
 10
10.29848052250314
 20
71.99071603490143
 30
0.0
 40
0.3937
100
AcDbArc
 50
90.0
 51
180.0
  0
ARC
  5
1DB22
330
1F
100
AcDbEntity
  8
0
100
AcDbCircle
 10
9.865410522503138
 20
72.42378603490142
 30
0.0
 40
0.3937
100
AcDbArc
 50
90.0
 51
180.0
  0
ARC
  5
1DB23
330
1F
100
AcDbEntity
  8
0
100
AcDbCircle
 10
25.62244244922244
 20
22.02464601705819
 30
0.0
 40
47.244
100
AcDbArc
 50
92.65264351929769
 51
97.23462541067895
  0
CIRCLE
  5
1DB24
330
1F
100
AcDbEntity
  8
\U+6807\U+6CE8
100
AcDbCircle
 10
26.40081052250314
 20
59.96318103490157
 30
0.0
 40
0.51181
  0
CIRCLE
  5
1DB25
330
1F
100
AcDbEntity
  8
\U+6807\U+6CE8
100
AcDbCircle
 10
26.40081052250314
 20
61.22302103490156
 30
0.0
 40
0.51181
  0
ARC
  5
1DB26
330
1F
100
AcDbEntity
  8
0
100
AcDbCircle
 10
38.86462445519926
 20
60.30276985269086
 30
0.0
 40
15.748
100
AcDbArc
 50
164.855867767297
 51
171.5058002599016
  0
ARC
  5
1DB27
330
1F
100
AcDbEntity
  8
0
100
AcDbCircle
 10
27.46380052250314
 20
63.38837103490142
 30
0.0
 40
3.937
100
AcDbArc
 50
96.46203555145397
 51
164.855867767297
  0
CIRCLE
  5
1DB28
330
1F
100
AcDbEntity
  8
\U+6807\U+6CE8
100
AcDbCircle
 10
51.91257052250314
 20
58.70334103490156
 30
0.0
 40
0.51181
  0
CIRCLE
  5
1DB29
330
1F
100
AcDbEntity
  8
\U+6807\U+6CE8
100
AcDbCircle
 10
45.53463052250314
 20
58.70334103490156
 30
0.0
 40
0.51181
  0
CIRCLE
  5
1DB2A
330
1F
100
AcDbEntity
  8
\U+6807\U+6CE8
100
AcDbCircle
 10
43.40865052250314
 20
58.70334103490156
 30
0.0
 40
0.51181
  0
CIRCLE
  5
1DB2B
330
1F
100
AcDbEntity
  8
\U+6807\U+6CE8
100
AcDbCircle
 10
47.66061052250313
 20
58.70334103490156
 30
0.0
 40
0.51181
  0
CIRCLE
  5
1DB2C
330
1F
100
AcDbEntity
  8
\U+6807\U+6CE8
100
AcDbCircle
 10
39.15669052250314
 20
58.70334103490156
 30
0.0
 40
0.51181
  0
CIRCLE
  5
1DB2D
330
1F
100
AcDbEntity
  8
\U+6807\U+6CE8
100
AcDbCircle
 10
37.03071052250314
 20
58.70334103490156
 30
0.0
 40
0.51181
  0
CIRCLE
  5
1DB2E
330
1F
100
AcDbEntity
  8
\U+6807\U+6CE8
100
AcDbCircle
 10
41.28267052250314
 20
58.70334103490156
 30
0.0
 40
0.51181
  0
CIRCLE
  5
1DB2F
330
1F
100
AcDbEntity
  8
\U+6807\U+6CE8
100
AcDbCircle
 10
49.78659052250314
 20
58.70334103490156
 30
0.0
 40
0.51181
  0
CIRCLE
  5
1DB30
330
1F
100
AcDbEntity
  8
\U+6807\U+6CE8
100
AcDbCircle
 10
34.90473052250314
 20
58.70334103490156
 30
0.0
 40
0.51181
  0
CIRCLE
  5
1DB31
330
1F
100
AcDbEntity
  8
\U+6807\U+6CE8
100
AcDbCircle
 10
32.77875052250314
 20
58.70334103490156
 30
0.0
 40
0.51181
  0
CIRCLE
  5
1DB32
330
1F
100
AcDbEntity
  8
\U+6807\U+6CE8
100
AcDbCircle
 10
30.65277052250314
 20
58.70334103490156
 30
0.0
 40
0.51181
  0
CIRCLE
  5
1DB33
330
1F
100
AcDbEntity
  8
\U+6807\U+6CE8
100
AcDbCircle
 10
28.52679052250314
 20
58.70334103490156
 30
0.0
 40
0.51181
  0
CIRCLE
  5
1DB34
330
1F
100
AcDbEntity
  8
\U+6807\U+6CE8
100
AcDbCircle
 10
42.34566052250314
 20
58.07342103490157
 30
0.0
 40
0.51181
  0
CIRCLE
  5
1DB35
330
1F
100
AcDbEntity
  8
\U+6807\U+6CE8
100
AcDbCircle
 10
29.58978052250314
 20
58.07342103490157
 30
0.0
 40
0.51181
  0
CIRCLE
  5
1DB36
330
1F
100
AcDbEntity
  8
\U+6807\U+6CE8
100
AcDbCircle
 10
31.71576052250314
 20
58.07342103490157
 30
0.0
 40
0.51181
  0
CIRCLE
  5
1DB37
330
1F
100
AcDbEntity
  8
\U+6807\U+6CE8
100
AcDbCircle
 10
38.09370052250314
 20
58.07342103490157
 30
0.0
 40
0.51181
  0
CIRCLE
  5
1DB38
330
1F
100
AcDbEntity
  8
\U+6807\U+6CE8
100
AcDbCircle
 10
35.96772052250314
 20
58.07342103490157
 30
0.0
 40
0.51181
  0
CIRCLE
  5
1DB39
330
1F
100
AcDbEntity
  8
\U+6807\U+6CE8
100
AcDbCircle
 10
33.84174052250314
 20
58.07342103490157
 30
0.0
 40
0.51181
  0
CIRCLE
  5
1DB3A
330
1F
100
AcDbEntity
  8
\U+6807\U+6CE8
100
AcDbCircle
 10
40.21968052250314
 20
58.07342103490157
 30
0.0
 40
0.51181
  0
CIRCLE
  5
1DB3B
330
1F
100
AcDbEntity
  8
\U+6807\U+6CE8
100
AcDbCircle
 10
52.97556052250314
 20
58.07342103490157
 30
0.0
 40
0.51181
  0
CIRCLE
  5
1DB3C
330
1F
100
AcDbEntity
  8
\U+6807\U+6CE8
100
AcDbCircle
 10
50.84958052250314
 20
58.07342103490157
 30
0.0
 40
0.51181
  0
CIRCLE
  5
1DB3D
330
1F
100
AcDbEntity
  8
\U+6807\U+6CE8
100
AcDbCircle
 10
48.72360052250314
 20
58.07342103490157
 30
0.0
 40
0.51181
  0
CIRCLE
  5
1DB3E
330
1F
100
AcDbEntity
  8
\U+6807\U+6CE8
100
AcDbCircle
 10
46.59762052250314
 20
58.07342103490157
 30
0.0
 40
0.51181
  0
CIRCLE
  5
1DB3F
330
1F
100
AcDbEntity
  8
\U+6807\U+6CE8
100
AcDbCircle
 10
44.47164052250314
 20
58.07342103490157
 30
0.0
 40
0.51181
  0
LINE
  5
1DB41
330
1F
100
AcDbEntity
  8
0\U+7EC6
  6
CENTER
 48
4.0
100
AcDbLine
 10
34.58977052250314
 20
74.86971300779572
 30
0.0
 11
34.58977052250314
 21
38.98083108947452
 31
0.0
  0
CIRCLE
  5
1DB42
330
1F
100
AcDbEntity
  8
\U+6807\U+6CE8
100
AcDbCircle
 10
41.28267052250314
 20
51.14430103490157
 30
0.0
 40
0.51181
  0
CIRCLE
  5
1DB43
330
1F
100
AcDbEntity
  8
\U+6807\U+6CE8
100
AcDbCircle
 10
41.28267052250314
 20
54.92382103490156
 30
0.0
 40
0.51181
  0
CIRCLE
  5
1DB44
330
1F
100
AcDbEntity
  8
\U+6807\U+6CE8
100
AcDbCircle
 10
41.28267052250314
 20
53.66398103490157
 30
0.0
 40
0.51181
  0
CIRCLE
  5
1DB45
330
1F
100
AcDbEntity
  8
\U+6807\U+6CE8
100
AcDbCircle
 10
41.28267052250314
 20
52.40414103490156
 30
0.0
 40
0.51181
  0
CIRCLE
  5
1DB46
330
1F
100
AcDbEntity
  8
\U+6807\U+6CE8
100
AcDbCircle
 10
41.28267052250314
 20
57.44350103490156
 30
0.0
 40
0.51181
  0
CIRCLE
  5
1DB47
330
1F
100
AcDbEntity
  8
\U+6807\U+6CE8
100
AcDbCircle
 10
41.28267052250314
 20
56.18366103490156
 30
0.0
 40
0.51181
  0
CIRCLE
  5
1DB4A
330
1F
100
AcDbEntity
  8
\U+6807\U+6CE8
100
AcDbCircle
 10
34.90473052250314
 20
54.92382103490156
 30
0.0
 40
0.51181
  0
CIRCLE
  5
1DB4B
330
1F
100
AcDbEntity
  8
\U+6807\U+6CE8
100
AcDbCircle
 10
34.90473052250314
 20
53.66398103490157
 30
0.0
 40
0.51181
  0
CIRCLE
  5
1DB4C
330
1F
100
AcDbEntity
  8
\U+6807\U+6CE8
100
AcDbCircle
 10
34.90473052250314
 20
57.44350103490156
 30
0.0
 40
0.51181
  0
CIRCLE
  5
1DB4D
330
1F
100
AcDbEntity
  8
\U+6807\U+6CE8
100
AcDbCircle
 10
34.90473052250314
 20
56.18366103490156
 30
0.0
 40
0.51181
  0
CIRCLE
  5
1DB4E
330
1F
100
AcDbEntity
  8
\U+6807\U+6CE8
100
AcDbCircle
 10
34.90473052250314
 20
51.14430103490157
 30
0.0
 40
0.51181
  0
CIRCLE
  5
1DB4F
330
1F
100
AcDbEntity
  8
\U+6807\U+6CE8
100
AcDbCircle
 10
34.90473052250314
 20
52.40414103490156
 30
0.0
 40
0.51181
  0
ARC
  5
1DB50
330
1F
100
AcDbEntity
  8
0
100
AcDbCircle
 10
34.36840777548645
 20
280.3760223149021
 30
0.0
 40
234.2515
100
AcDbArc
 50
268.7243411276591
 51
270.0536921215888
  0
CIRCLE
  5
1DB51
330
1F
100
AcDbEntity
  8
\U+6807\U+6CE8
100
AcDbCircle
 10
31.71576052250314
 20
50.51438103490156
 30
0.0
 40
0.51181
  0
CIRCLE
  5
1DB52
330
1F
100
AcDbEntity
  8
\U+6807\U+6CE8
100
AcDbCircle
 10
33.84174052250314
 20
50.51438103490156
 30
0.0
 40
0.51181
  0
CIRCLE
  5
1DB53
330
1F
100
AcDbEntity
  8
\U+6807\U+6CE8
100
AcDbCircle
 10
32.77875052250314
 20
54.92382103490156
 30
0.0
 40
0.51181
  0
CIRCLE
  5
1DB54
330
1F
100
AcDbEntity
  8
\U+6807\U+6CE8
100
AcDbCircle
 10
32.77875052250314
 20
53.66398103490157
 30
0.0
 40
0.51181
  0
CIRCLE
  5
1DB55
330
1F
100
AcDbEntity
  8
\U+6807\U+6CE8
100
AcDbCircle
 10
31.71576052250314
 20
54.29390103490156
 30
0.0
 40
0.51181
  0
CIRCLE
  5
1DB56
330
1F
100
AcDbEntity
  8
\U+6807\U+6CE8
100
AcDbCircle
 10
32.77875052250314
 20
57.44350103490156
 30
0.0
 40
0.51181
  0
CIRCLE
  5
1DB57
330
1F
100
AcDbEntity
  8
\U+6807\U+6CE8
100
AcDbCircle
 10
32.77875052250314
 20
56.18366103490156
 30
0.0
 40
0.51181
  0
CIRCLE
  5
1DB58
330
1F
100
AcDbEntity
  8
\U+6807\U+6CE8
100
AcDbCircle
 10
31.71576052250314
 20
55.55374103490156
 30
0.0
 40
0.51181
  0
CIRCLE
  5
1DB59
330
1F
100
AcDbEntity
  8
\U+6807\U+6CE8
100
AcDbCircle
 10
31.71576052250314
 20
56.81358103490157
 30
0.0
 40
0.51181
  0
CIRCLE
  5
1DB5A
330
1F
100
AcDbEntity
  8
\U+6807\U+6CE8
100
AcDbCircle
 10
30.65277052250314
 20
54.92382103490156
 30
0.0
 40
0.51181
  0
CIRCLE
  5
1DB5B
330
1F
100
AcDbEntity
  8
\U+6807\U+6CE8
100
AcDbCircle
 10
30.65277052250314
 20
53.66398103490157
 30
0.0
 40
0.51181
  0
CIRCLE
  5
1DB5C
330
1F
100
AcDbEntity
  8
\U+6807\U+6CE8
100
AcDbCircle
 10
30.65277052250314
 20
56.18366103490156
 30
0.0
 40
0.51181
  0
CIRCLE
  5
1DB5D
330
1F
100
AcDbEntity
  8
\U+6807\U+6CE8
100
AcDbCircle
 10
30.65277052250314
 20
57.44350103490156
 30
0.0
 40
0.51181
  0
CIRCLE
  5
1DB5E
330
1F
100
AcDbEntity
  8
\U+6807\U+6CE8
100
AcDbCircle
 10
31.71576052250314
 20
51.77422103490156
 30
0.0
 40
0.51181
  0
CIRCLE
  5
1DB5F
330
1F
100
AcDbEntity
  8
\U+6807\U+6CE8
100
AcDbCircle
 10
32.77875052250314
 20
51.14430103490157
 30
0.0
 40
0.51181
  0
CIRCLE
  5
1DB60
330
1F
100
AcDbEntity
  8
\U+6807\U+6CE8
100
AcDbCircle
 10
30.65277052250314
 20
51.14430103490157
 30
0.0
 40
0.51181
  0
CIRCLE
  5
1DB61
330
1F
100
AcDbEntity
  8
\U+6807\U+6CE8
100
AcDbCircle
 10
32.77875052250314
 20
52.40414103490156
 30
0.0
 40
0.51181
  0
CIRCLE
  5
1DB62
330
1F
100
AcDbEntity
  8
\U+6807\U+6CE8
100
AcDbCircle
 10
30.65277052250314
 20
52.40414103490156
 30
0.0
 40
0.51181
  0
CIRCLE
  5
1DB63
330
1F
100
AcDbEntity
  8
\U+6807\U+6CE8
100
AcDbCircle
 10
31.71576052250314
 20
53.03406103490156
 30
0.0
 40
0.51181
  0
CIRCLE
  5
1DB64
330
1F
100
AcDbEntity
  8
\U+6807\U+6CE8
100
AcDbCircle
 10
33.84174052250314
 20
51.77422103490156
 30
0.0
 40
0.51181
  0
CIRCLE
  5
1DB65
330
1F
100
AcDbEntity
  8
\U+6807\U+6CE8
100
AcDbCircle
 10
33.84174052250314
 20
54.29390103490156
 30
0.0
 40
0.51181
  0
CIRCLE
  5
1DB66
330
1F
100
AcDbEntity
  8
\U+6807\U+6CE8
100
AcDbCircle
 10
33.84174052250314
 20
53.03406103490156
 30
0.0
 40
0.51181
  0
CIRCLE
  5
1DB67
330
1F
100
AcDbEntity
  8
\U+6807\U+6CE8
100
AcDbCircle
 10
33.84174052250314
 20
56.81358103490157
 30
0.0
 40
0.51181
  0
CIRCLE
  5
1DB68
330
1F
100
AcDbEntity
  8
\U+6807\U+6CE8
100
AcDbCircle
 10
33.84174052250314
 20
55.55374103490156
 30
0.0
 40
0.51181
  0
CIRCLE
  5
1DB69
330
1F
100
AcDbEntity
  8
\U+6807\U+6CE8
100
AcDbCircle
 10
28.52679052250314
 20
54.92382103490156
 30
0.0
 40
0.51181
  0
CIRCLE
  5
1DB6A
330
1F
100
AcDbEntity
  8
\U+6807\U+6CE8
100
AcDbCircle
 10
28.52679052250314
 20
53.66398103490157
 30
0.0
 40
0.51181
  0
CIRCLE
  5
1DB6B
330
1F
100
AcDbEntity
  8
\U+6807\U+6CE8
100
AcDbCircle
 10
28.52679052250314
 20
56.18366103490156
 30
0.0
 40
0.51181
  0
CIRCLE
  5
1DB6C
330
1F
100
AcDbEntity
  8
\U+6807\U+6CE8
100
AcDbCircle
 10
28.52679052250314
 20
57.44350103490156
 30
0.0
 40
0.51181
  0
CIRCLE
  5
1DB6D
330
1F
100
AcDbEntity
  8
\U+6807\U+6CE8
100
AcDbCircle
 10
28.52679052250314
 20
51.14430103490157
 30
0.0
 40
0.51181
  0
CIRCLE
  5
1DB6E
330
1F
100
AcDbEntity
  8
\U+6807\U+6CE8
100
AcDbCircle
 10
28.52679052250314
 20
52.40414103490156
 30
0.0
 40
0.51181
  0
CIRCLE
  5
1DB6F
330
1F
100
AcDbEntity
  8
\U+6807\U+6CE8
100
AcDbCircle
 10
29.58978052250314
 20
50.51438103490156
 30
0.0
 40
0.51181
  0
CIRCLE
  5
1DB70
330
1F
100
AcDbEntity
  8
\U+6807\U+6CE8
100
AcDbCircle
 10
29.58978052250314
 20
54.29390103490156
 30
0.0
 40
0.51181
  0
CIRCLE
  5
1DB71
330
1F
100
AcDbEntity
  8
\U+6807\U+6CE8
100
AcDbCircle
 10
29.58978052250314
 20
55.55374103490156
 30
0.0
 40
0.51181
  0
CIRCLE
  5
1DB72
330
1F
100
AcDbEntity
  8
\U+6807\U+6CE8
100
AcDbCircle
 10
29.58978052250314
 20
56.81358103490157
 30
0.0
 40
0.51181
  0
CIRCLE
  5
1DB73
330
1F
100
AcDbEntity
  8
\U+6807\U+6CE8
100
AcDbCircle
 10
29.58978052250314
 20
51.77422103490156
 30
0.0
 40
0.51181
  0
CIRCLE
  5
1DB74
330
1F
100
AcDbEntity
  8
\U+6807\U+6CE8
100
AcDbCircle
 10
29.58978052250314
 20
53.03406103490156
 30
0.0
 40
0.51181
  0
CIRCLE
  5
1DB75
330
1F
100
AcDbEntity
  8
\U+6807\U+6CE8
100
AcDbCircle
 10
38.09370052250314
 20
50.51438103490156
 30
0.0
 40
0.51181
  0
CIRCLE
  5
1DB76
330
1F
100
AcDbEntity
  8
\U+6807\U+6CE8
100
AcDbCircle
 10
40.21968052250314
 20
50.51438103490156
 30
0.0
 40
0.51181
  0
CIRCLE
  5
1DB77
330
1F
100
AcDbEntity
  8
\U+6807\U+6CE8
100
AcDbCircle
 10
39.15669052250314
 20
57.44350103490156
 30
0.0
 40
0.51181
  0
CIRCLE
  5
1DB78
330
1F
100
AcDbEntity
  8
\U+6807\U+6CE8
100
AcDbCircle
 10
39.15669052250314
 20
56.18366103490156
 30
0.0
 40
0.51181
  0
CIRCLE
  5
1DB79
330
1F
100
AcDbEntity
  8
\U+6807\U+6CE8
100
AcDbCircle
 10
39.15669052250314
 20
54.92382103490156
 30
0.0
 40
0.51181
  0
CIRCLE
  5
1DB7A
330
1F
100
AcDbEntity
  8
\U+6807\U+6CE8
100
AcDbCircle
 10
39.15669052250314
 20
53.66398103490157
 30
0.0
 40
0.51181
  0
CIRCLE
  5
1DB7B
330
1F
100
AcDbEntity
  8
\U+6807\U+6CE8
100
AcDbCircle
 10
38.09370052250314
 20
54.29390103490156
 30
0.0
 40
0.51181
  0
CIRCLE
  5
1DB7C
330
1F
100
AcDbEntity
  8
\U+6807\U+6CE8
100
AcDbCircle
 10
38.09370052250314
 20
56.81358103490157
 30
0.0
 40
0.51181
  0
CIRCLE
  5
1DB7D
330
1F
100
AcDbEntity
  8
\U+6807\U+6CE8
100
AcDbCircle
 10
38.09370052250314
 20
55.55374103490156
 30
0.0
 40
0.51181
  0
CIRCLE
  5
1DB7E
330
1F
100
AcDbEntity
  8
\U+6807\U+6CE8
100
AcDbCircle
 10
40.21968052250314
 20
54.29390103490156
 30
0.0
 40
0.51181
  0
CIRCLE
  5
1DB7F
330
1F
100
AcDbEntity
  8
\U+6807\U+6CE8
100
AcDbCircle
 10
40.21968052250314
 20
56.81358103490157
 30
0.0
 40
0.51181
  0
CIRCLE
  5
1DB80
330
1F
100
AcDbEntity
  8
\U+6807\U+6CE8
100
AcDbCircle
 10
40.21968052250314
 20
55.55374103490156
 30
0.0
 40
0.51181
  0
CIRCLE
  5
1DB81
330
1F
100
AcDbEntity
  8
\U+6807\U+6CE8
100
AcDbCircle
 10
37.03071052250314
 20
54.92382103490156
 30
0.0
 40
0.51181
  0
CIRCLE
  5
1DB82
330
1F
100
AcDbEntity
  8
\U+6807\U+6CE8
100
AcDbCircle
 10
37.03071052250314
 20
53.66398103490157
 30
0.0
 40
0.51181
  0
CIRCLE
  5
1DB83
330
1F
100
AcDbEntity
  8
\U+6807\U+6CE8
100
AcDbCircle
 10
37.03071052250314
 20
57.44350103490156
 30
0.0
 40
0.51181
  0
CIRCLE
  5
1DB84
330
1F
100
AcDbEntity
  8
\U+6807\U+6CE8
100
AcDbCircle
 10
37.03071052250314
 20
56.18366103490156
 30
0.0
 40
0.51181
  0
CIRCLE
  5
1DB85
330
1F
100
AcDbEntity
  8
\U+6807\U+6CE8
100
AcDbCircle
 10
40.21968052250314
 20
51.77422103490156
 30
0.0
 40
0.51181
  0
CIRCLE
  5
1DB86
330
1F
100
AcDbEntity
  8
\U+6807\U+6CE8
100
AcDbCircle
 10
38.09370052250314
 20
51.77422103490156
 30
0.0
 40
0.51181
  0
CIRCLE
  5
1DB87
330
1F
100
AcDbEntity
  8
\U+6807\U+6CE8
100
AcDbCircle
 10
39.15669052250314
 20
51.14430103490157
 30
0.0
 40
0.51181
  0
CIRCLE
  5
1DB88
330
1F
100
AcDbEntity
  8
\U+6807\U+6CE8
100
AcDbCircle
 10
37.03071052250314
 20
51.14430103490157
 30
0.0
 40
0.51181
  0
CIRCLE
  5
1DB89
330
1F
100
AcDbEntity
  8
\U+6807\U+6CE8
100
AcDbCircle
 10
39.15669052250314
 20
52.40414103490156
 30
0.0
 40
0.51181
  0
CIRCLE
  5
1DB8A
330
1F
100
AcDbEntity
  8
\U+6807\U+6CE8
100
AcDbCircle
 10
38.09370052250314
 20
53.03406103490156
 30
0.0
 40
0.51181
  0
CIRCLE
  5
1DB8B
330
1F
100
AcDbEntity
  8
\U+6807\U+6CE8
100
AcDbCircle
 10
37.03071052250314
 20
52.40414103490156
 30
0.0
 40
0.51181
  0
CIRCLE
  5
1DB8C
330
1F
100
AcDbEntity
  8
\U+6807\U+6CE8
100
AcDbCircle
 10
40.21968052250314
 20
53.03406103490156
 30
0.0
 40
0.51181
  0
CIRCLE
  5
1DB8D
330
1F
100
AcDbEntity
  8
\U+6807\U+6CE8
100
AcDbCircle
 10
35.96772052250314
 20
50.51438103490156
 30
0.0
 40
0.51181
  0
CIRCLE
  5
1DB8E
330
1F
100
AcDbEntity
  8
\U+6807\U+6CE8
100
AcDbCircle
 10
35.96772052250314
 20
54.29390103490156
 30
0.0
 40
0.51181
  0
CIRCLE
  5
1DB8F
330
1F
100
AcDbEntity
  8
\U+6807\U+6CE8
100
AcDbCircle
 10
35.96772052250314
 20
56.81358103490157
 30
0.0
 40
0.51181
  0
CIRCLE
  5
1DB90
330
1F
100
AcDbEntity
  8
\U+6807\U+6CE8
100
AcDbCircle
 10
35.96772052250314
 20
55.55374103490156
 30
0.0
 40
0.51181
  0
CIRCLE
  5
1DB91
330
1F
100
AcDbEntity
  8
\U+6807\U+6CE8
100
AcDbCircle
 10
35.96772052250314
 20
51.77422103490156
 30
0.0
 40
0.51181
  0
CIRCLE
  5
1DB92
330
1F
100
AcDbEntity
  8
\U+6807\U+6CE8
100
AcDbCircle
 10
35.96772052250314
 20
53.03406103490156
 30
0.0
 40
0.51181
  0
CIRCLE
  5
1DB94
330
1F
100
AcDbEntity
  8
\U+6807\U+6CE8
100
AcDbCircle
 10
47.66061052250313
 20
51.14430103490157
 30
0.0
 40
0.51181
  0
CIRCLE
  5
1DB95
330
1F
100
AcDbEntity
  8
\U+6807\U+6CE8
100
AcDbCircle
 10
47.66061052250313
 20
54.92382103490156
 30
0.0
 40
0.51181
  0
CIRCLE
  5
1DB96
330
1F
100
AcDbEntity
  8
\U+6807\U+6CE8
100
AcDbCircle
 10
47.66061052250313
 20
53.66398103490157
 30
0.0
 40
0.51181
  0
CIRCLE
  5
1DB97
330
1F
100
AcDbEntity
  8
\U+6807\U+6CE8
100
AcDbCircle
 10
47.66061052250313
 20
52.40414103490156
 30
0.0
 40
0.51181
  0
CIRCLE
  5
1DB98
330
1F
100
AcDbEntity
  8
\U+6807\U+6CE8
100
AcDbCircle
 10
47.66061052250313
 20
57.44350103490156
 30
0.0
 40
0.51181
  0
CIRCLE
  5
1DB99
330
1F
100
AcDbEntity
  8
\U+6807\U+6CE8
100
AcDbCircle
 10
47.66061052250313
 20
56.18366103490156
 30
0.0
 40
0.51181
  0
CIRCLE
  5
1DB9A
330
1F
100
AcDbEntity
  8
\U+6807\U+6CE8
100
AcDbCircle
 10
46.59762052250314
 20
50.51438103490156
 30
0.0
 40
0.51181
  0
CIRCLE
  5
1DB9B
330
1F
100
AcDbEntity
  8
\U+6807\U+6CE8
100
AcDbCircle
 10
44.47164052250314
 20
50.51438103490156
 30
0.0
 40
0.51181
  0
CIRCLE
  5
1DB9C
330
1F
100
AcDbEntity
  8
\U+6807\U+6CE8
100
AcDbCircle
 10
45.53463052250314
 20
54.92382103490156
 30
0.0
 40
0.51181
  0
CIRCLE
  5
1DB9D
330
1F
100
AcDbEntity
  8
\U+6807\U+6CE8
100
AcDbCircle
 10
45.53463052250314
 20
53.66398103490157
 30
0.0
 40
0.51181
  0
CIRCLE
  5
1DB9E
330
1F
100
AcDbEntity
  8
\U+6807\U+6CE8
100
AcDbCircle
 10
46.59762052250314
 20
54.29390103490156
 30
0.0
 40
0.51181
  0
CIRCLE
  5
1DB9F
330
1F
100
AcDbEntity
  8
\U+6807\U+6CE8
100
AcDbCircle
 10
45.53463052250314
 20
57.44350103490156
 30
0.0
 40
0.51181
  0
CIRCLE
  5
1DBA0
330
1F
100
AcDbEntity
  8
\U+6807\U+6CE8
100
AcDbCircle
 10
45.53463052250314
 20
56.18366103490156
 30
0.0
 40
0.51181
  0
CIRCLE
  5
1DBA1
330
1F
100
AcDbEntity
  8
\U+6807\U+6CE8
100
AcDbCircle
 10
46.59762052250314
 20
56.81358103490157
 30
0.0
 40
0.51181
  0
CIRCLE
  5
1DBA2
330
1F
100
AcDbEntity
  8
\U+6807\U+6CE8
100
AcDbCircle
 10
46.59762052250314
 20
55.55374103490156
 30
0.0
 40
0.51181
  0
CIRCLE
  5
1DBA3
330
1F
100
AcDbEntity
  8
\U+6807\U+6CE8
100
AcDbCircle
 10
43.40865052250314
 20
54.92382103490156
 30
0.0
 40
0.51181
  0
CIRCLE
  5
1DBA4
330
1F
100
AcDbEntity
  8
\U+6807\U+6CE8
100
AcDbCircle
 10
43.40865052250314
 20
53.66398103490157
 30
0.0
 40
0.51181
  0
CIRCLE
  5
1DBA5
330
1F
100
AcDbEntity
  8
\U+6807\U+6CE8
100
AcDbCircle
 10
43.40865052250314
 20
57.44350103490156
 30
0.0
 40
0.51181
  0
CIRCLE
  5
1DBA6
330
1F
100
AcDbEntity
  8
\U+6807\U+6CE8
100
AcDbCircle
 10
43.40865052250314
 20
56.18366103490156
 30
0.0
 40
0.51181
  0
CIRCLE
  5
1DBA7
330
1F
100
AcDbEntity
  8
\U+6807\U+6CE8
100
AcDbCircle
 10
44.47164052250314
 20
54.29390103490156
 30
0.0
 40
0.51181
  0
CIRCLE
  5
1DBA8
330
1F
100
AcDbEntity
  8
\U+6807\U+6CE8
100
AcDbCircle
 10
44.47164052250314
 20
56.81358103490157
 30
0.0
 40
0.51181
  0
CIRCLE
  5
1DBA9
330
1F
100
AcDbEntity
  8
\U+6807\U+6CE8
100
AcDbCircle
 10
44.47164052250314
 20
55.55374103490156
 30
0.0
 40
0.51181
  0
CIRCLE
  5
1DBAA
330
1F
100
AcDbEntity
  8
\U+6807\U+6CE8
100
AcDbCircle
 10
46.59762052250314
 20
51.77422103490156
 30
0.0
 40
0.51181
  0
CIRCLE
  5
1DBAB
330
1F
100
AcDbEntity
  8
\U+6807\U+6CE8
100
AcDbCircle
 10
45.53463052250314
 20
51.14430103490157
 30
0.0
 40
0.51181
  0
CIRCLE
  5
1DBAC
330
1F
100
AcDbEntity
  8
\U+6807\U+6CE8
100
AcDbCircle
 10
43.40865052250314
 20
51.14430103490157
 30
0.0
 40
0.51181
  0
CIRCLE
  5
1DBAD
330
1F
100
AcDbEntity
  8
\U+6807\U+6CE8
100
AcDbCircle
 10
44.47164052250314
 20
51.77422103490156
 30
0.0
 40
0.51181
  0
CIRCLE
  5
1DBAE
330
1F
100
AcDbEntity
  8
\U+6807\U+6CE8
100
AcDbCircle
 10
45.53463052250314
 20
52.40414103490156
 30
0.0
 40
0.51181
  0
CIRCLE
  5
1DBAF
330
1F
100
AcDbEntity
  8
\U+6807\U+6CE8
100
AcDbCircle
 10
44.47164052250314
 20
53.03406103490156
 30
0.0
 40
0.51181
  0
CIRCLE
  5
1DBB0
330
1F
100
AcDbEntity
  8
\U+6807\U+6CE8
100
AcDbCircle
 10
43.40865052250314
 20
52.40414103490156
 30
0.0
 40
0.51181
  0
CIRCLE
  5
1DBB1
330
1F
100
AcDbEntity
  8
\U+6807\U+6CE8
100
AcDbCircle
 10
46.59762052250314
 20
53.03406103490156
 30
0.0
 40
0.51181
  0
CIRCLE
  5
1DBB2
330
1F
100
AcDbEntity
  8
\U+6807\U+6CE8
100
AcDbCircle
 10
42.34566052250314
 20
54.29390103490156
 30
0.0
 40
0.51181
  0
CIRCLE
  5
1DBB3
330
1F
100
AcDbEntity
  8
\U+6807\U+6CE8
100
AcDbCircle
 10
42.34566052250314
 20
56.81358103490157
 30
0.0
 40
0.51181
  0
CIRCLE
  5
1DBB4
330
1F
100
AcDbEntity
  8
\U+6807\U+6CE8
100
AcDbCircle
 10
42.34566052250314
 20
55.55374103490156
 30
0.0
 40
0.51181
  0
CIRCLE
  5
1DBB5
330
1F
100
AcDbEntity
  8
\U+6807\U+6CE8
100
AcDbCircle
 10
42.34566052250314
 20
51.77422103490156
 30
0.0
 40
0.51181
  0
CIRCLE
  5
1DBB6
330
1F
100
AcDbEntity
  8
\U+6807\U+6CE8
100
AcDbCircle
 10
42.34566052250314
 20
50.51438103490156
 30
0.0
 40
0.51181
  0
CIRCLE
  5
1DBB7
330
1F
100
AcDbEntity
  8
\U+6807\U+6CE8
100
AcDbCircle
 10
42.34566052250314
 20
53.03406103490156
 30
0.0
 40
0.51181
  0
CIRCLE
  5
1DBB8
330
1F
100
AcDbEntity
  8
\U+6807\U+6CE8
100
AcDbCircle
 10
52.97556052250314
 20
50.51438103490156
 30
0.0
 40
0.51181
  0
CIRCLE
  5
1DBB9
330
1F
100
AcDbEntity
  8
\U+6807\U+6CE8
100
AcDbCircle
 10
50.84958052250314
 20
50.51438103490156
 30
0.0
 40
0.51181
  0
CIRCLE
  5
1DBBA
330
1F
100
AcDbEntity
  8
\U+6807\U+6CE8
100
AcDbCircle
 10
52.97556052250314
 20
54.29390103490156
 30
0.0
 40
0.51181
  0
CIRCLE
  5
1DBBB
330
1F
100
AcDbEntity
  8
\U+6807\U+6CE8
100
AcDbCircle
 10
52.97556052250314
 20
56.81358103490157
 30
0.0
 40
0.51181
  0
CIRCLE
  5
1DBBC
330
1F
100
AcDbEntity
  8
\U+6807\U+6CE8
100
AcDbCircle
 10
52.97556052250314
 20
55.55374103490156
 30
0.0
 40
0.51181
  0
CIRCLE
  5
1DBBD
330
1F
100
AcDbEntity
  8
\U+6807\U+6CE8
100
AcDbCircle
 10
50.84958052250314
 20
54.29390103490156
 30
0.0
 40
0.51181
  0
CIRCLE
  5
1DBBE
330
1F
100
AcDbEntity
  8
\U+6807\U+6CE8
100
AcDbCircle
 10
50.84958052250314
 20
56.81358103490157
 30
0.0
 40
0.51181
  0
CIRCLE
  5
1DBBF
330
1F
100
AcDbEntity
  8
\U+6807\U+6CE8
100
AcDbCircle
 10
50.84958052250314
 20
55.55374103490156
 30
0.0
 40
0.51181
  0
CIRCLE
  5
1DBC0
330
1F
100
AcDbEntity
  8
\U+6807\U+6CE8
100
AcDbCircle
 10
51.91257052250314
 20
57.44350103490156
 30
0.0
 40
0.51181
  0
CIRCLE
  5
1DBC1
330
1F
100
AcDbEntity
  8
\U+6807\U+6CE8
100
AcDbCircle
 10
51.91257052250314
 20
56.18366103490156
 30
0.0
 40
0.51181
  0
CIRCLE
  5
1DBC2
330
1F
100
AcDbEntity
  8
\U+6807\U+6CE8
100
AcDbCircle
 10
51.91257052250314
 20
54.92382103490156
 30
0.0
 40
0.51181
  0
CIRCLE
  5
1DBC3
330
1F
100
AcDbEntity
  8
\U+6807\U+6CE8
100
AcDbCircle
 10
51.91257052250314
 20
53.66398103490157
 30
0.0
 40
0.51181
  0
CIRCLE
  5
1DBC4
330
1F
100
AcDbEntity
  8
\U+6807\U+6CE8
100
AcDbCircle
 10
52.97556052250314
 20
51.77422103490156
 30
0.0
 40
0.51181
  0
CIRCLE
  5
1DBC5
330
1F
100
AcDbEntity
  8
\U+6807\U+6CE8
100
AcDbCircle
 10
50.84958052250314
 20
51.77422103490156
 30
0.0
 40
0.51181
  0
CIRCLE
  5
1DBC6
330
1F
100
AcDbEntity
  8
\U+6807\U+6CE8
100
AcDbCircle
 10
51.91257052250314
 20
51.14430103490157
 30
0.0
 40
0.51181
  0
CIRCLE
  5
1DBC7
330
1F
100
AcDbEntity
  8
\U+6807\U+6CE8
100
AcDbCircle
 10
51.91257052250314
 20
52.40414103490156
 30
0.0
 40
0.51181
  0
CIRCLE
  5
1DBC8
330
1F
100
AcDbEntity
  8
\U+6807\U+6CE8
100
AcDbCircle
 10
50.84958052250314
 20
53.03406103490156
 30
0.0
 40
0.51181
  0
CIRCLE
  5
1DBC9
330
1F
100
AcDbEntity
  8
\U+6807\U+6CE8
100
AcDbCircle
 10
52.97556052250314
 20
53.03406103490156
 30
0.0
 40
0.51181
  0
CIRCLE
  5
1DBCA
330
1F
100
AcDbEntity
  8
\U+6807\U+6CE8
100
AcDbCircle
 10
48.72360052250314
 20
50.51438103490156
 30
0.0
 40
0.51181
  0
CIRCLE
  5
1DBCB
330
1F
100
AcDbEntity
  8
\U+6807\U+6CE8
100
AcDbCircle
 10
48.72360052250314
 20
54.29390103490156
 30
0.0
 40
0.51181
  0
CIRCLE
  5
1DBCC
330
1F
100
AcDbEntity
  8
\U+6807\U+6CE8
100
AcDbCircle
 10
48.72360052250314
 20
56.81358103490157
 30
0.0
 40
0.51181
  0
CIRCLE
  5
1DBCD
330
1F
100
AcDbEntity
  8
\U+6807\U+6CE8
100
AcDbCircle
 10
48.72360052250314
 20
55.55374103490156
 30
0.0
 40
0.51181
  0
CIRCLE
  5
1DBCE
330
1F
100
AcDbEntity
  8
\U+6807\U+6CE8
100
AcDbCircle
 10
48.72360052250314
 20
51.77422103490156
 30
0.0
 40
0.51181
  0
CIRCLE
  5
1DBCF
330
1F
100
AcDbEntity
  8
\U+6807\U+6CE8
100
AcDbCircle
 10
48.72360052250314
 20
53.03406103490156
 30
0.0
 40
0.51181
  0
CIRCLE
  5
1DBD0
330
1F
100
AcDbEntity
  8
\U+6807\U+6CE8
100
AcDbCircle
 10
49.78659052250314
 20
54.92382103490156
 30
0.0
 40
0.51181
  0
CIRCLE
  5
1DBD1
330
1F
100
AcDbEntity
  8
\U+6807\U+6CE8
100
AcDbCircle
 10
49.78659052250314
 20
53.66398103490157
 30
0.0
 40
0.51181
  0
CIRCLE
  5
1DBD2
330
1F
100
AcDbEntity
  8
\U+6807\U+6CE8
100
AcDbCircle
 10
49.78659052250314
 20
57.44350103490156
 30
0.0
 40
0.51181
  0
CIRCLE
  5
1DBD3
330
1F
100
AcDbEntity
  8
\U+6807\U+6CE8
100
AcDbCircle
 10
49.78659052250314
 20
56.18366103490156
 30
0.0
 40
0.51181
  0
CIRCLE
  5
1DBD4
330
1F
100
AcDbEntity
  8
\U+6807\U+6CE8
100
AcDbCircle
 10
49.78659052250314
 20
51.14430103490157
 30
0.0
 40
0.51181
  0
CIRCLE
  5
1DBD5
330
1F
100
AcDbEntity
  8
\U+6807\U+6CE8
100
AcDbCircle
 10
49.78659052250314
 20
52.40414103490156
 30
0.0
 40
0.51181
  0
CIRCLE
  5
1DBD6
330
1F
100
AcDbEntity
  8
\U+6807\U+6CE8
100
AcDbCircle
 10
41.28267052250314
 20
61.22302103490156
 30
0.0
 40
0.51181
  0
CIRCLE
  5
1DBD7
330
1F
100
AcDbEntity
  8
\U+6807\U+6CE8
100
AcDbCircle
 10
41.28267052250314
 20
59.96318103490157
 30
0.0
 40
0.51181
  0
CIRCLE
  5
1DBD8
330
1F
100
AcDbEntity
  8
\U+6807\U+6CE8
100
AcDbCircle
 10
41.28267052250314
 20
62.48286103490157
 30
0.0
 40
0.51181
  0
CIRCLE
  5
1DBDB
330
1F
100
AcDbEntity
  8
\U+6807\U+6CE8
100
AcDbCircle
 10
34.90473052250314
 20
61.22302103490156
 30
0.0
 40
0.51181
  0
CIRCLE
  5
1DBDC
330
1F
100
AcDbEntity
  8
\U+6807\U+6CE8
100
AcDbCircle
 10
34.90473052250314
 20
59.96318103490157
 30
0.0
 40
0.51181
  0
CIRCLE
  5
1DBDD
330
1F
100
AcDbEntity
  8
\U+6807\U+6CE8
100
AcDbCircle
 10
34.90473052250314
 20
62.48286103490157
 30
0.0
 40
0.51181
  0
ARC
  5
1DBDE
330
1F
100
AcDbEntity
  8
0
100
AcDbCircle
 10
34.36840777548645
 20
-166.7488602450991
 30
0.0
 40
234.2515
100
AcDbArc
 50
89.94630787841117
 51
91.27565887234089
  0
CIRCLE
  5
1DBDF
330
1F
100
AcDbEntity
  8
\U+6807\U+6CE8
100
AcDbCircle
 10
31.71576052250314
 20
63.11278103490156
 30
0.0
 40
0.51181
  0
CIRCLE
  5
1DBE0
330
1F
100
AcDbEntity
  8
\U+6807\U+6CE8
100
AcDbCircle
 10
33.84174052250314
 20
63.11278103490156
 30
0.0
 40
0.51181
  0
CIRCLE
  5
1DBE1
330
1F
100
AcDbEntity
  8
\U+6807\U+6CE8
100
AcDbCircle
 10
31.71576052250314
 20
61.85294103490156
 30
0.0
 40
0.51181
  0
CIRCLE
  5
1DBE2
330
1F
100
AcDbEntity
  8
\U+6807\U+6CE8
100
AcDbCircle
 10
32.77875052250314
 20
61.22302103490156
 30
0.0
 40
0.51181
  0
CIRCLE
  5
1DBE3
330
1F
100
AcDbEntity
  8
\U+6807\U+6CE8
100
AcDbCircle
 10
32.77875052250314
 20
59.96318103490157
 30
0.0
 40
0.51181
  0
CIRCLE
  5
1DBE4
330
1F
100
AcDbEntity
  8
\U+6807\U+6CE8
100
AcDbCircle
 10
31.71576052250314
 20
60.59310103490156
 30
0.0
 40
0.51181
  0
CIRCLE
  5
1DBE5
330
1F
100
AcDbEntity
  8
\U+6807\U+6CE8
100
AcDbCircle
 10
31.71576052250314
 20
59.33326103490156
 30
0.0
 40
0.51181
  0
CIRCLE
  5
1DBE6
330
1F
100
AcDbEntity
  8
\U+6807\U+6CE8
100
AcDbCircle
 10
32.77875052250314
 20
62.48286103490157
 30
0.0
 40
0.51181
  0
CIRCLE
  5
1DBE7
330
1F
100
AcDbEntity
  8
\U+6807\U+6CE8
100
AcDbCircle
 10
30.65277052250314
 20
61.22302103490156
 30
0.0
 40
0.51181
  0
CIRCLE
  5
1DBE8
330
1F
100
AcDbEntity
  8
\U+6807\U+6CE8
100
AcDbCircle
 10
30.65277052250314
 20
59.96318103490157
 30
0.0
 40
0.51181
  0
CIRCLE
  5
1DBE9
330
1F
100
AcDbEntity
  8
\U+6807\U+6CE8
100
AcDbCircle
 10
30.65277052250314
 20
62.48286103490157
 30
0.0
 40
0.51181
  0
CIRCLE
  5
1DBEA
330
1F
100
AcDbEntity
  8
\U+6807\U+6CE8
100
AcDbCircle
 10
33.84174052250314
 20
61.85294103490156
 30
0.0
 40
0.51181
  0
CIRCLE
  5
1DBEB
330
1F
100
AcDbEntity
  8
\U+6807\U+6CE8
100
AcDbCircle
 10
33.84174052250314
 20
60.59310103490156
 30
0.0
 40
0.51181
  0
CIRCLE
  5
1DBEC
330
1F
100
AcDbEntity
  8
\U+6807\U+6CE8
100
AcDbCircle
 10
33.84174052250314
 20
59.33326103490156
 30
0.0
 40
0.51181
  0
CIRCLE
  5
1DBED
330
1F
100
AcDbEntity
  8
\U+6807\U+6CE8
100
AcDbCircle
 10
28.52679052250314
 20
61.22302103490156
 30
0.0
 40
0.51181
  0
CIRCLE
  5
1DBEE
330
1F
100
AcDbEntity
  8
\U+6807\U+6CE8
100
AcDbCircle
 10
28.52679052250314
 20
59.96318103490157
 30
0.0
 40
0.51181
  0
CIRCLE
  5
1DBEF
330
1F
100
AcDbEntity
  8
\U+6807\U+6CE8
100
AcDbCircle
 10
28.52679052250314
 20
62.48286103490157
 30
0.0
 40
0.51181
  0
CIRCLE
  5
1DBF0
330
1F
100
AcDbEntity
  8
\U+6807\U+6CE8
100
AcDbCircle
 10
29.58978052250314
 20
63.11278103490156
 30
0.0
 40
0.51181
  0
CIRCLE
  5
1DBF1
330
1F
100
AcDbEntity
  8
\U+6807\U+6CE8
100
AcDbCircle
 10
29.58978052250314
 20
61.85294103490156
 30
0.0
 40
0.51181
  0
CIRCLE
  5
1DBF2
330
1F
100
AcDbEntity
  8
\U+6807\U+6CE8
100
AcDbCircle
 10
29.58978052250314
 20
60.59310103490156
 30
0.0
 40
0.51181
  0
CIRCLE
  5
1DBF3
330
1F
100
AcDbEntity
  8
\U+6807\U+6CE8
100
AcDbCircle
 10
29.58978052250314
 20
59.33326103490156
 30
0.0
 40
0.51181
  0
CIRCLE
  5
1DBF4
330
1F
100
AcDbEntity
  8
\U+6807\U+6CE8
100
AcDbCircle
 10
38.09370052250314
 20
63.11278103490156
 30
0.0
 40
0.51181
  0
CIRCLE
  5
1DBF5
330
1F
100
AcDbEntity
  8
\U+6807\U+6CE8
100
AcDbCircle
 10
40.21968052250314
 20
63.11278103490156
 30
0.0
 40
0.51181
  0
CIRCLE
  5
1DBF6
330
1F
100
AcDbEntity
  8
\U+6807\U+6CE8
100
AcDbCircle
 10
39.15669052250314
 20
62.48286103490157
 30
0.0
 40
0.51181
  0
CIRCLE
  5
1DBF7
330
1F
100
AcDbEntity
  8
\U+6807\U+6CE8
100
AcDbCircle
 10
39.15669052250314
 20
61.22302103490156
 30
0.0
 40
0.51181
  0
CIRCLE
  5
1DBF8
330
1F
100
AcDbEntity
  8
\U+6807\U+6CE8
100
AcDbCircle
 10
39.15669052250314
 20
59.96318103490157
 30
0.0
 40
0.51181
  0
CIRCLE
  5
1DBF9
330
1F
100
AcDbEntity
  8
\U+6807\U+6CE8
100
AcDbCircle
 10
38.09370052250314
 20
61.85294103490156
 30
0.0
 40
0.51181
  0
CIRCLE
  5
1DBFA
330
1F
100
AcDbEntity
  8
\U+6807\U+6CE8
100
AcDbCircle
 10
38.09370052250314
 20
60.59310103490156
 30
0.0
 40
0.51181
  0
CIRCLE
  5
1DBFB
330
1F
100
AcDbEntity
  8
\U+6807\U+6CE8
100
AcDbCircle
 10
38.09370052250314
 20
59.33326103490156
 30
0.0
 40
0.51181
  0
CIRCLE
  5
1DBFC
330
1F
100
AcDbEntity
  8
\U+6807\U+6CE8
100
AcDbCircle
 10
40.21968052250314
 20
61.85294103490156
 30
0.0
 40
0.51181
  0
CIRCLE
  5
1DBFD
330
1F
100
AcDbEntity
  8
\U+6807\U+6CE8
100
AcDbCircle
 10
40.21968052250314
 20
60.59310103490156
 30
0.0
 40
0.51181
  0
CIRCLE
  5
1DBFE
330
1F
100
AcDbEntity
  8
\U+6807\U+6CE8
100
AcDbCircle
 10
40.21968052250314
 20
59.33326103490156
 30
0.0
 40
0.51181
  0
CIRCLE
  5
1DBFF
330
1F
100
AcDbEntity
  8
\U+6807\U+6CE8
100
AcDbCircle
 10
37.03071052250314
 20
61.22302103490156
 30
0.0
 40
0.51181
  0
CIRCLE
  5
1DC00
330
1F
100
AcDbEntity
  8
\U+6807\U+6CE8
100
AcDbCircle
 10
37.03071052250314
 20
59.96318103490157
 30
0.0
 40
0.51181
  0
CIRCLE
  5
1DC01
330
1F
100
AcDbEntity
  8
\U+6807\U+6CE8
100
AcDbCircle
 10
37.03071052250314
 20
62.48286103490157
 30
0.0
 40
0.51181
  0
CIRCLE
  5
1DC02
330
1F
100
AcDbEntity
  8
\U+6807\U+6CE8
100
AcDbCircle
 10
35.96772052250314
 20
63.11278103490156
 30
0.0
 40
0.51181
  0
CIRCLE
  5
1DC03
330
1F
100
AcDbEntity
  8
\U+6807\U+6CE8
100
AcDbCircle
 10
35.96772052250314
 20
61.85294103490156
 30
0.0
 40
0.51181
  0
CIRCLE
  5
1DC04
330
1F
100
AcDbEntity
  8
\U+6807\U+6CE8
100
AcDbCircle
 10
35.96772052250314
 20
60.59310103490156
 30
0.0
 40
0.51181
  0
CIRCLE
  5
1DC05
330
1F
100
AcDbEntity
  8
\U+6807\U+6CE8
100
AcDbCircle
 10
35.96772052250314
 20
59.33326103490156
 30
0.0
 40
0.51181
  0
CIRCLE
  5
1DC07
330
1F
100
AcDbEntity
  8
\U+6807\U+6CE8
100
AcDbCircle
 10
47.66061052250313
 20
61.22302103490156
 30
0.0
 40
0.51181
  0
CIRCLE
  5
1DC08
330
1F
100
AcDbEntity
  8
\U+6807\U+6CE8
100
AcDbCircle
 10
47.66061052250313
 20
59.96318103490157
 30
0.0
 40
0.51181
  0
CIRCLE
  5
1DC09
330
1F
100
AcDbEntity
  8
\U+6807\U+6CE8
100
AcDbCircle
 10
47.66061052250313
 20
62.48286103490157
 30
0.0
 40
0.51181
  0
CIRCLE
  5
1DC0A
330
1F
100
AcDbEntity
  8
\U+6807\U+6CE8
100
AcDbCircle
 10
44.47164052250314
 20
63.11278103490156
 30
0.0
 40
0.51181
  0
CIRCLE
  5
1DC0B
330
1F
100
AcDbEntity
  8
\U+6807\U+6CE8
100
AcDbCircle
 10
46.59762052250314
 20
63.11278103490156
 30
0.0
 40
0.51181
  0
CIRCLE
  5
1DC0C
330
1F
100
AcDbEntity
  8
\U+6807\U+6CE8
100
AcDbCircle
 10
46.59762052250314
 20
61.85294103490156
 30
0.0
 40
0.51181
  0
CIRCLE
  5
1DC0D
330
1F
100
AcDbEntity
  8
\U+6807\U+6CE8
100
AcDbCircle
 10
45.53463052250314
 20
61.22302103490156
 30
0.0
 40
0.51181
  0
CIRCLE
  5
1DC0E
330
1F
100
AcDbEntity
  8
\U+6807\U+6CE8
100
AcDbCircle
 10
45.53463052250314
 20
59.96318103490157
 30
0.0
 40
0.51181
  0
CIRCLE
  5
1DC0F
330
1F
100
AcDbEntity
  8
\U+6807\U+6CE8
100
AcDbCircle
 10
46.59762052250314
 20
60.59310103490156
 30
0.0
 40
0.51181
  0
CIRCLE
  5
1DC10
330
1F
100
AcDbEntity
  8
\U+6807\U+6CE8
100
AcDbCircle
 10
46.59762052250314
 20
59.33326103490156
 30
0.0
 40
0.51181
  0
CIRCLE
  5
1DC11
330
1F
100
AcDbEntity
  8
\U+6807\U+6CE8
100
AcDbCircle
 10
45.53463052250314
 20
62.48286103490157
 30
0.0
 40
0.51181
  0
CIRCLE
  5
1DC12
330
1F
100
AcDbEntity
  8
\U+6807\U+6CE8
100
AcDbCircle
 10
43.40865052250314
 20
61.22302103490156
 30
0.0
 40
0.51181
  0
CIRCLE
  5
1DC13
330
1F
100
AcDbEntity
  8
\U+6807\U+6CE8
100
AcDbCircle
 10
43.40865052250314
 20
59.96318103490157
 30
0.0
 40
0.51181
  0
CIRCLE
  5
1DC14
330
1F
100
AcDbEntity
  8
\U+6807\U+6CE8
100
AcDbCircle
 10
43.40865052250314
 20
62.48286103490157
 30
0.0
 40
0.51181
  0
CIRCLE
  5
1DC15
330
1F
100
AcDbEntity
  8
\U+6807\U+6CE8
100
AcDbCircle
 10
44.47164052250314
 20
61.85294103490156
 30
0.0
 40
0.51181
  0
CIRCLE
  5
1DC16
330
1F
100
AcDbEntity
  8
\U+6807\U+6CE8
100
AcDbCircle
 10
44.47164052250314
 20
60.59310103490156
 30
0.0
 40
0.51181
  0
CIRCLE
  5
1DC17
330
1F
100
AcDbEntity
  8
\U+6807\U+6CE8
100
AcDbCircle
 10
44.47164052250314
 20
59.33326103490156
 30
0.0
 40
0.51181
  0
CIRCLE
  5
1DC18
330
1F
100
AcDbEntity
  8
\U+6807\U+6CE8
100
AcDbCircle
 10
42.34566052250314
 20
61.85294103490156
 30
0.0
 40
0.51181
  0
CIRCLE
  5
1DC19
330
1F
100
AcDbEntity
  8
\U+6807\U+6CE8
100
AcDbCircle
 10
42.34566052250314
 20
60.59310103490156
 30
0.0
 40
0.51181
  0
CIRCLE
  5
1DC1A
330
1F
100
AcDbEntity
  8
\U+6807\U+6CE8
100
AcDbCircle
 10
42.34566052250314
 20
59.33326103490156
 30
0.0
 40
0.51181
  0
CIRCLE
  5
1DC1B
330
1F
100
AcDbEntity
  8
\U+6807\U+6CE8
100
AcDbCircle
 10
42.34566052250314
 20
63.11278103490156
 30
0.0
 40
0.51181
  0
CIRCLE
  5
1DC1C
330
1F
100
AcDbEntity
  8
\U+6807\U+6CE8
100
AcDbCircle
 10
50.84958052250314
 20
63.11278103490156
 30
0.0
 40
0.51181
  0
CIRCLE
  5
1DC1D
330
1F
100
AcDbEntity
  8
\U+6807\U+6CE8
100
AcDbCircle
 10
52.97556052250314
 20
63.11278103490156
 30
0.0
 40
0.51181
  0
CIRCLE
  5
1DC1E
330
1F
100
AcDbEntity
  8
\U+6807\U+6CE8
100
AcDbCircle
 10
52.97556052250314
 20
61.85294103490156
 30
0.0
 40
0.51181
  0
CIRCLE
  5
1DC1F
330
1F
100
AcDbEntity
  8
\U+6807\U+6CE8
100
AcDbCircle
 10
52.97556052250314
 20
60.59310103490156
 30
0.0
 40
0.51181
  0
CIRCLE
  5
1DC20
330
1F
100
AcDbEntity
  8
\U+6807\U+6CE8
100
AcDbCircle
 10
52.97556052250314
 20
59.33326103490156
 30
0.0
 40
0.51181
  0
CIRCLE
  5
1DC21
330
1F
100
AcDbEntity
  8
\U+6807\U+6CE8
100
AcDbCircle
 10
50.84958052250314
 20
61.85294103490156
 30
0.0
 40
0.51181
  0
CIRCLE
  5
1DC22
330
1F
100
AcDbEntity
  8
\U+6807\U+6CE8
100
AcDbCircle
 10
50.84958052250314
 20
60.59310103490156
 30
0.0
 40
0.51181
  0
CIRCLE
  5
1DC23
330
1F
100
AcDbEntity
  8
\U+6807\U+6CE8
100
AcDbCircle
 10
50.84958052250314
 20
59.33326103490156
 30
0.0
 40
0.51181
  0
CIRCLE
  5
1DC24
330
1F
100
AcDbEntity
  8
\U+6807\U+6CE8
100
AcDbCircle
 10
51.91257052250314
 20
62.48286103490157
 30
0.0
 40
0.51181
  0
CIRCLE
  5
1DC25
330
1F
100
AcDbEntity
  8
\U+6807\U+6CE8
100
AcDbCircle
 10
51.91257052250314
 20
61.22302103490156
 30
0.0
 40
0.51181
  0
CIRCLE
  5
1DC26
330
1F
100
AcDbEntity
  8
\U+6807\U+6CE8
100
AcDbCircle
 10
51.91257052250314
 20
59.96318103490157
 30
0.0
 40
0.51181
  0
CIRCLE
  5
1DC27
330
1F
100
AcDbEntity
  8
\U+6807\U+6CE8
100
AcDbCircle
 10
48.72360052250314
 20
63.11278103490156
 30
0.0
 40
0.51181
  0
CIRCLE
  5
1DC28
330
1F
100
AcDbEntity
  8
\U+6807\U+6CE8
100
AcDbCircle
 10
48.72360052250314
 20
61.85294103490156
 30
0.0
 40
0.51181
  0
CIRCLE
  5
1DC29
330
1F
100
AcDbEntity
  8
\U+6807\U+6CE8
100
AcDbCircle
 10
48.72360052250314
 20
60.59310103490156
 30
0.0
 40
0.51181
  0
CIRCLE
  5
1DC2A
330
1F
100
AcDbEntity
  8
\U+6807\U+6CE8
100
AcDbCircle
 10
48.72360052250314
 20
59.33326103490156
 30
0.0
 40
0.51181
  0
CIRCLE
  5
1DC2B
330
1F
100
AcDbEntity
  8
\U+6807\U+6CE8
100
AcDbCircle
 10
49.78659052250314
 20
61.22302103490156
 30
0.0
 40
0.51181
  0
CIRCLE
  5
1DC2C
330
1F
100
AcDbEntity
  8
\U+6807\U+6CE8
100
AcDbCircle
 10
49.78659052250314
 20
59.96318103490157
 30
0.0
 40
0.51181
  0
CIRCLE
  5
1DC2D
330
1F
100
AcDbEntity
  8
\U+6807\U+6CE8
100
AcDbCircle
 10
49.78659052250314
 20
62.48286103490157
 30
0.0
 40
0.51181
  0
LINE
  5
1DC30
330
1F
100
AcDbEntity
  8
0\U+7EC6
  6
CENTER
 48
4.0
100
AcDbLine
 10
106.6924403217233
 20
25.32487646055548
 30
0.0
 11
111.4405029519422
 21
25.32487646055548
 31
0.0
  0
LINE
  5
1DC32
330
1F
100
AcDbEntity
  8
0
100
AcDbLine
 10
124.258615049408
 20
27.80518646055548
 30
0.0
 11
94.10119504940805
 21
27.80518646055548
 31
0.0
  0
LINE
  5
1DC33
330
1F
100
AcDbEntity
  8
0
100
AcDbLine
 10
125.006645049408
 20
27.60833646055548
 30
0.0
 11
95.3219159770478
 21
26.54273080154775
 31
0.0
  0
LINE
  5
1DC34
330
1F
100
AcDbEntity
  8
0
 48
80.0
100
AcDbLine
 10
107.5132530905704
 20
12.18815197075955
 30
0.0
 11
110.538170049408
 21
12.18815197075955
 31
0.0
  0
LINE
  5
1DC35
330
1F
100
AcDbEntity
  8
0
100
AcDbLine
 10
93.78623504940803
 20
28.47447646055548
 30
0.0
 11
125.006645049408
 21
28.47447646055548
 31
0.0
  0
ARC
  5
1DC36
330
1F
100
AcDbEntity
  8
0
100
AcDbCircle
 10
109.002740049408
 20
130.9545864605555
 30
0.0
 40
118.38559
100
AcDbArc
 50
266.9125673027746
 51
273.0874326972254
  0
LINE
  5
1DC37
330
1F
100
AcDbEntity
  8
0\U+7EC6
  6
HIDDEN
 48
4.0
100
AcDbLine
 10
93.78623504940803
 20
28.08077646055533
 30
0.0
 11
124.3855784177689
 21
28.08077646055548
 31
0.0
  0
LINE
  5
1DC42
330
1F
100
AcDbEntity
  8
0\U+7EC6
  6
CENTER
 48
4.0
100
AcDbLine
 10
67.34561052250313
 20
29.35294788998904
 30
0.0
 11
67.34561052250313
 21
11.06346102163721
 31
0.0
  0
LINE
  5
1DC4C
330
1F
100
AcDbEntity
  8
0\U+7EC6
  6
HIDDEN
 48
4.0
100
AcDbLine
 10
65.86421701558236
 20
12.18815197075955
 30
0.0
 11
68.8320108969521
 21
12.18815197075955
 31
0.0
  0
LINE
  5
1DC4E
330
1F
100
AcDbEntity
  8
0\U+7EC6
  6
HIDDEN
 48
4.0
100
AcDbLine
 10
63.15555365186268
 20
12.16455557967025
 30
0.0
 11
63.18756516419172
 21
12.76233902282591
 31
0.0
  0
LINE
  5
1DC4F
330
1F
100
AcDbEntity
  8
0
 48
100.0
100
AcDbLine
 10
62.4988221341195
 20
12.13551305291453
 30
0.0
 11
62.47821085712105
 21
11.74222646055548
 31
0.0
  0
LINE
  5
1DC50
330
1F
100
AcDbEntity
  8
0\U+7EC6
  6
HIDDEN
 48
4.0
100
AcDbLine
 10
62.19046334280183
 20
12.16786057140723
 30
0.0
 11
62.15798663075734
 21
12.78755319099167
 31
0.0
  0
LINE
  5
1DC51
330
1F
100
AcDbEntity
  8
0\U+7EC6
  6
HIDDEN
 48
4.0
100
AcDbLine
 10
61.53565533139514
 20
12.17031020913867
 30
0.0
 11
61.50246566727254
 21
12.8036067656076
 31
0.0
  0
ARC
  5
1DC52
330
1F
100
AcDbEntity
  8
0\U+7EC6
  6
HIDDEN
 48
4.0
100
AcDbCircle
 10
64.88730081601232
 20
11.42158547377563
 30
0.0
 40
1.5748
100
AcDbArc
 50
29.12854907008428
 51
87.19423693444152
  0
ARC
  5
1DC53
330
1F
100
AcDbEntity
  8
0\U+7EC6
  6
HIDDEN
 48
4.0
100
AcDbCircle
 10
65.86421701558236
 20
12.30626197075955
 30
0.0
 40
0.11811
100
AcDbArc
 50
221.8081644805705
 51
270.0
  0
ARC
  5
1DC54
330
1F
100
AcDbEntity
  8
0\U+7EC6
  6
HIDDEN
 48
4.0
100
AcDbCircle
 10
64.66104534552034
 20
11.23019379389528
 30
0.0
 40
1.49606
100
AcDbArc
 50
41.80816448057049
 51
87.19423693444152
  0
LINE
  5
1DC55
330
1F
100
AcDbEntity
  8
0\U+7EC6
  6
HIDDEN
 48
4.0
100
AcDbLine
 10
62.34562052250314
 20
14.29792463736709
 30
0.0
 11
62.34562052250314
 21
11.32118057637293
 31
0.0
  0
ARC
  5
1DC56
330
1F
100
AcDbEntity
  8
0
 48
100.0
100
AcDbCircle
 10
61.74489392418901
 20
11.93907646055547
 30
0.0
 40
0.19685
100
AcDbArc
 50
182.9999998169494
 51
270.0
  0
ARC
  5
1DC57
330
1F
100
AcDbEntity
  8
0
 48
100.0
100
AcDbCircle
 10
62.9463471208167
 20
11.93907646055547
 30
0.0
 40
0.19685
100
AcDbArc
 50
270.0
 51
356.9347187836464
  0
LINE
  5
1DC58
330
1F
100
AcDbEntity
  8
0
 48
100.0
100
AcDbLine
 10
62.9463471208167
 20
11.74222646055548
 30
0.0
 11
61.74489392418901
 21
11.74222646055548
 31
0.0
  0
LINE
  5
1DC59
330
1F
100
AcDbEntity
  8
0
 48
100.0
100
AcDbLine
 10
63.14291547894688
 20
11.92855015626951
 30
0.0
 11
63.15400201613218
 21
12.1355803116444
 31
0.0
  0
LINE
  5
1DC5A
330
1F
100
AcDbEntity
  8
0\U+7EC6
  6
HIDDEN
 48
4.0
100
AcDbLine
 10
62.53251342128727
 20
12.77838110632554
 30
0.0
 11
62.50018503254351
 21
12.16151870394224
 31
0.0
  0
LINE
  5
1DC5B
330
1F
100
AcDbEntity
  8
0
 48
100.0
100
AcDbLine
 10
62.21276987997478
 20
11.74222646055548
 30
0.0
 11
62.19213786985689
 21
12.13590868983081
 31
0.0
  0
LINE
  5
1DC5C
330
1F
100
AcDbEntity
  8
0
 48
100.0
100
AcDbLine
 10
61.54831370024005
 20
11.92877412819723
 30
0.0
 11
61.53745730719174
 21
12.13592646055548
 31
0.0
  0
ARC
  5
1DC5D
330
1F
100
AcDbEntity
  8
0
100
AcDbCircle
 10
63.6652757380853
 20
20.00992646055548
 30
0.0
 40
3.1496
100
AcDbArc
 50
270.0
 51
355.1354855621776
  0
LINE
  5
1DC5E
330
1F
100
AcDbEntity
  8
0
100
AcDbLine
 10
67.34561052250313
 20
26.11227646055548
 30
0.0
 11
66.80353090158122
 21
19.74284091472601
 31
0.0
  0
LINE
  5
1DC5F
330
1F
100
AcDbEntity
  8
0
100
AcDbLine
 10
75.21961052250315
 20
28.47447646055548
 30
0.0
 11
75.06213052250314
 21
12.13592646055548
 31
0.0
  0
ARC
  5
1DC60
330
1F
100
AcDbEntity
  8
0\U+7EC6
  6
HIDDEN
 48
4.0
100
AcDbCircle
 10
68.93238875491498
 20
15.26023035434947
 30
0.0
 40
2.63779
100
AcDbArc
 50
286.7298671952307
 51
354.8322699624699
  0
ARC
  5
1DC61
330
1F
100
AcDbEntity
  8
0\U+7EC6
  6
HIDDEN
 48
4.0
100
AcDbCircle
 10
68.93238875491498
 20
15.26023035434947
 30
0.0
 40
2.3622
100
AcDbArc
 50
268.5971184671521
 51
354.8322699624699
  0
ARC
  5
1DC63
330
1F
100
AcDbEntity
  8
0\U+7EC6
  6
HIDDEN
 48
4.0
100
AcDbCircle
 10
69.84873241590968
 20
11.50820663250671
 30
0.0
 40
1.5748
100
AcDbArc
 50
117.4489701378525
 51
154.4203030135767
  0
ARC
  5
1DC64
330
1F
100
AcDbEntity
  8
0\U+7EC6
  6
HIDDEN
 48
4.0
100
AcDbCircle
 10
68.8320108969521
 20
12.30626197075955
 30
0.0
 40
0.11811
100
AcDbArc
 50
270.0
 51
314.5258826715312
  0
ARC
  5
1DC65
330
1F
100
AcDbEntity
  8
0\U+7EC6
  6
HIDDEN
 48
4.0
100
AcDbCircle
 10
70.60374717602851
 20
10.50495843959228
 30
0.0
 40
2.408497182365819
100
AcDbArc
 50
106.4787673095864
 51
134.5258826715312
  0
LINE
  5
1DC66
330
1F
100
AcDbEntity
  8
0\U+7EC6
  6
HIDDEN
 48
4.0
100
AcDbLine
 10
73.88586818855921
 20
27.80518646055548
 30
0.0
 11
74.60839372090117
 21
27.80518646055548
 31
0.0
  0
LINE
  5
1DC67
330
1F
100
AcDbEntity
  8
0\U+7EC6
  6
HIDDEN
 48
4.0
100
AcDbLine
 10
71.28498708863263
 20
15.0474630631864
 30
0.0
 11
72.37842247999269
 21
27.13773439051296
 31
0.0
  0
LINE
  5
1DC68
330
1F
100
AcDbEntity
  8
0\U+7EC6
  6
HIDDEN
 48
4.0
100
AcDbLine
 10
71.55945689423264
 20
15.02264021255055
 30
0.0
 11
72.65289228559327
 21
27.11291153987725
 31
0.0
  0
ARC
  5
1DC69
330
1F
100
AcDbEntity
  8
0\U+7EC6
  6
HIDDEN
 48
4.0
100
AcDbCircle
 10
73.88586818855921
 20
24.14377646055548
 30
0.0
 40
3.66141
100
AcDbArc
 50
90.0
 51
100.2849753697108
  0
ARC
  5
1DC6A
330
1F
100
AcDbEntity
  8
0\U+7EC6
  6
HIDDEN
 48
4.0
100
AcDbCircle
 10
73.35867178570857
 20
27.0490813525283
 30
0.0
 40
0.7086600000000001
100
AcDbArc
 50
100.2849753697108
 51
174.8322699624698
  0
ARC
  5
1DC6B
330
1F
100
AcDbEntity
  8
0\U+7EC6
  6
HIDDEN
 48
4.0
100
AcDbCircle
 10
73.35867178570857
 20
27.0490813525283
 30
0.0
 40
0.9842500000000001
100
AcDbArc
 50
100.2849753697108
 51
174.8322699624698
  0
ARC
  5
1DC6C
330
1F
100
AcDbEntity
  8
0\U+7EC6
  6
HIDDEN
 48
4.0
100
AcDbCircle
 10
73.88586818855921
 20
24.14377646055548
 30
0.0
 40
3.937
100
AcDbArc
 50
90.0
 51
100.2849753697108
  0
LINE
  5
1DC6D
330
1F
100
AcDbEntity
  8
0
100
AcDbLine
 10
75.21961052250315
 20
28.47447646055548
 30
0.0
 11
75.19347227612306
 21
28.47447646055548
 31
0.0
  0
LINE
  5
1DC6E
330
1F
100
AcDbEntity
  8
0
100
AcDbLine
 10
75.21961052250315
 20
27.80518646055548
 30
0.0
 11
75.21961052250315
 21
28.47447646055548
 31
0.0
  0
LINE
  5
1DC6F
330
1F
100
AcDbEntity
  8
0
100
AcDbLine
 10
75.21961052250315
 20
28.47447646055548
 30
0.0
 11
75.21961052250315
 21
27.80518646055548
 31
0.0
  0
LINE
  5
1DC70
330
1F
100
AcDbEntity
  8
0
100
AcDbLine
 10
75.10568180450987
 20
28.43537788500738
 30
0.0
 11
74.92729539447624
 21
28.23717076274774
 31
0.0
  0
ARC
  5
1DC71
330
1F
100
AcDbEntity
  8
0
100
AcDbCircle
 10
75.19347227612306
 20
28.35636646055548
 30
0.0
 40
0.11811
100
AcDbArc
 50
90.0
 51
138.0127875041214
  0
ARC
  5
1DC72
330
1F
100
AcDbEntity
  8
0\U+7EC6
  6
HIDDEN
 48
4.0
100
AcDbCircle
 10
74.60839372090117
 20
27.60833646055534
 30
0.0
 40
0.19685
100
AcDbArc
 50
5.710593137582604
 51
90.0
  0
ARC
  5
1DC73
330
1F
100
AcDbEntity
  8
0
100
AcDbCircle
 10
74.57613350802292
 20
28.55321646055548
 30
0.0
 40
0.4724400000000001
100
AcDbArc
 50
270.0
 51
318.0127875041213
  0
ARC
  5
1DC74
330
1F
100
AcDbEntity
  8
0\U+7EC6
  6
HIDDEN
 48
4.0
100
AcDbCircle
 10
75.01429744154197
 20
26.93904646055548
 30
0.0
 40
0.11811
100
AcDbArc
 50
270.0
 51
354.2894068624174
  0
LINE
  5
1DC75
330
1F
100
AcDbEntity
  8
0\U+7EC6
  6
HIDDEN
 48
4.0
100
AcDbLine
 10
75.01429744154197
 20
26.82093646055548
 30
0.0
 11
74.99185360346404
 21
26.82093646055548
 31
0.0
  0
ARC
  5
1DC76
330
1F
100
AcDbEntity
  8
0\U+7EC6
  6
HIDDEN
 48
4.0
100
AcDbCircle
 10
74.99185360346404
 20
26.93904646055548
 30
0.0
 40
0.11811
100
AcDbArc
 50
185.7105931375826
 51
270.0
  0
LINE
  5
1DC77
330
1F
100
AcDbEntity
  8
0\U+7EC6
  6
HIDDEN
 48
4.0
100
AcDbLine
 10
75.21961052250315
 20
27.80518646055548
 30
0.0
 11
75.13182128407752
 21
26.92729407630189
 31
0.0
  0
LINE
  5
1DC78
330
1F
100
AcDbEntity
  8
0\U+7EC6
  6
HIDDEN
 48
4.0
100
AcDbLine
 10
74.80426679179434
 20
27.62792376764473
 30
0.0
 11
74.8743297609282
 21
26.92729407630189
 31
0.0
  0
ARC
  5
1DC80
330
1F
100
AcDbEntity
  8
0
100
AcDbCircle
 10
95.36428714708181
 20
25.36239106488288
 30
0.0
 40
1.1811
100
AcDbArc
 50
92.05588878486098
 51
173.9350775545909
  0
LINE
  5
1DC82
330
1F
100
AcDbEntity
  8
0
100
AcDbLine
 10
93.31379504940803
 20
12.13592646055548
 30
0.0
 11
93.31379504940803
 21
27.01778646055548
 31
0.0
  0
LINE
  5
1DC83
330
1F
100
AcDbEntity
  8
0
100
AcDbLine
 10
93.62875504940804
 20
20.20677646055476
 30
0.0
 11
93.43190504940805
 21
12.13592646055548
 31
0.0
  0
LINE
  5
1DC84
330
1F
100
AcDbEntity
  8
0
100
AcDbLine
 10
92.99883504940805
 20
12.13592646055548
 30
0.0
 11
92.99883504940805
 21
27.68707646055548
 31
0.0
  0
LINE
  5
1DC85
330
1F
100
AcDbEntity
  8
0
100
AcDbLine
 10
92.99883504940805
 20
12.13592646055548
 30
0.0
 11
93.43295357765603
 21
12.13592646055548
 31
0.0
  0
ARC
  5
1DC86
330
1F
100
AcDbEntity
  8
0
100
AcDbCircle
 10
94.10119504940805
 20
27.01778646055548
 30
0.0
 40
0.7874000000000001
100
AcDbArc
 50
90.0
 51
180.0
  0
ARC
  5
1DC87
330
1F
100
AcDbEntity
  8
0
100
AcDbCircle
 10
93.78623504940803
 20
27.68707646055548
 30
0.0
 40
0.7874000000000001
100
AcDbArc
 50
90.0
 51
180.0
  0
ARC
  5
1DC88
330
1F
100
AcDbEntity
  8
0\U+7EC6
  6
HIDDEN
 48
4.0
100
AcDbCircle
 10
93.78623504940803
 20
27.29337646055534
 30
0.0
 40
0.7874000000000001
100
AcDbArc
 50
90.0
 51
180.0
  0
LINE
  5
1DC89
330
1F
100
AcDbEntity
  8
0
100
AcDbLine
 10
94.18979798270019
 20
25.48718053859839
 30
0.0
 11
93.62875504940804
 21
20.20677646055548
 31
0.0
  0
ARC
  5
1DC8A
330
1F
100
AcDbEntity
  8
0
100
AcDbCircle
 10
102.7685876358824
 20
15.37479346660285
 30
0.0
 40
2.63779
100
AcDbArc
 50
188.0848082561163
 51
266.9125673027746
  0
LINE
  5
1DC8B
330
1F
100
AcDbEntity
  8
0\U+7EC6
  6
CENTER
 48
4.0
100
AcDbLine
 10
100.735040049408
 20
15.78521510678283
 30
0.0
 11
100.735040049408
 21
11.06346102163721
 31
0.0
  0
ARC
  5
1DC8C
330
1F
100
AcDbEntity
  8
0
100
AcDbCircle
 10
100.3873855619161
 20
16.42164068763808
 30
0.0
 40
2.63779
100
AcDbArc
 50
188.0848082561163
 51
265.731405851298
  0
LINE
  5
1DC8D
330
1F
100
AcDbEntity
  8
0
 48
100.0
100
AcDbLine
 10
101.3357666477222
 20
11.74222646055548
 30
0.0
 11
100.1343134510944
 21
11.74222646055548
 31
0.0
  0
ARC
  5
1DC8E
330
1F
100
AcDbEntity
  8
0
 48
100.0
100
AcDbCircle
 10
100.1343134510944
 20
11.93907646055547
 30
0.0
 40
0.19685
100
AcDbArc
 50
182.9999998169494
 51
270.0
  0
LINE
  5
1DC8F
330
1F
100
AcDbEntity
  8
0
 48
100.0
100
AcDbLine
 10
99.93773322714496
 20
11.92877412819723
 30
0.0
 11
99.92686009951755
 21
12.1362457753696
 31
0.0
  0
LINE
  5
1DC90
330
1F
100
AcDbEntity
  8
0
 48
100.0
100
AcDbLine
 10
100.6021894068802
 20
11.74222646055548
 30
0.0
 11
100.5815279077971
 21
12.13647137283938
 31
0.0
  0
LINE
  5
1DC91
330
1F
100
AcDbEntity
  8
0
 48
100.0
100
AcDbLine
 10
100.8882482671613
 20
12.13563910551519
 30
0.0
 11
100.8676303840259
 21
11.74222646055548
 31
0.0
  0
LINE
  5
1DC92
330
1F
100
AcDbEntity
  8
0
 48
80.0
100
AcDbLine
 10
100.5791974676009
 20
12.18093882348542
 30
0.0
 11
100.4998472445419
 21
13.69503136845581
 31
0.0
  0
LINE
  5
1DC93
330
1F
100
AcDbEntity
  8
0
 48
80.0
100
AcDbLine
 10
100.9574984027811
 20
13.45701040435517
 30
0.0
 11
100.8909323221543
 21
12.18685392552763
 31
0.0
  0
LINE
  5
1DC94
330
1F
100
AcDbEntity
  8
0
 48
80.0
100
AcDbLine
 10
99.92346874367889
 20
12.20095670363754
 30
0.0
 11
99.84249230034325
 21
13.74607938188898
 31
0.0
  0
LINE
  5
1DC95
330
1F
100
AcDbEntity
  8
0\U+7EC6
  6
HIDDEN
 48
4.0
100
AcDbLine
 10
100.735040049408
 20
14.29792463736709
 30
0.0
 11
100.735040049408
 21
11.32118057637293
 31
0.0
  0
ARC
  5
1DC96
330
1F
100
AcDbEntity
  8
0
100
AcDbCircle
 10
109.002740049408
 20
131.8483658074942
 30
0.0
 40
118.38559
100
AcDbArc
 50
265.731405851298
 51
265.9718381442591
  0
ARC
  5
1DC97
330
1F
100
AcDbEntity
  8
0
100
AcDbCircle
 10
107.5132530905704
 20
12.30626197075955
 30
0.0
 40
0.11811
100
AcDbArc
 50
228.3203066564331
 51
270.0
  0
ARC
  5
1DC98
330
1F
100
AcDbEntity
  8
0
100
AcDbCircle
 10
106.4398854213583
 20
11.10068051951284
 30
0.0
 40
1.49606
100
AcDbArc
 50
48.32030665643316
 51
87.55004431068609
  0
ARC
  5
1DC99
330
1F
100
AcDbEntity
  8
0
 48
100.0
100
AcDbCircle
 10
101.3357666477222
 20
11.93907646055547
 30
0.0
 40
0.19685
100
AcDbArc
 50
270.0
 51
356.9347187836464
  0
LINE
  5
1DC9A
330
1F
100
AcDbEntity
  8
0
 48
100.0
100
AcDbLine
 10
101.5323350058523
 20
11.92855015626951
 30
0.0
 11
101.543391220396
 21
12.13501406619861
 31
0.0
  0
LINE
  5
1DC9B
330
1F
100
AcDbEntity
  8
0
 48
80.0
100
AcDbLine
 10
101.5461334608301
 20
12.18622270363929
 30
0.0
 11
101.5904986942215
 21
13.01469971218638
 31
0.0
  0
LINE
  5
1DC9C
330
1F
100
AcDbEntity
  8
0
100
AcDbLine
 10
98.50169107804447
 20
26.65687657440399
 30
0.0
 11
99.93170753964184
 21
16.58992317771413
 31
0.0
  0
LINE
  5
1DC9D
330
1F
100
AcDbEntity
  8
0
100
AcDbLine
 10
96.28052055432142
 20
26.57714224791142
 30
0.0
 11
97.77581260339831
 21
16.0506652619873
 31
0.0
  0
ARC
  5
1DCA0
330
1F
100
AcDbEntity
  8
\U+6807\U+6CE8
100
AcDbCircle
 10
64.66845052250313
 20
58.70334103490156
 30
0.0
 40
0.51181
100
AcDbArc
 50
35.99401686991211
 51
253.5707971935281
  0
ARC
  5
1DCA1
330
1F
100
AcDbEntity
  8
\U+6807\U+6CE8
100
AcDbCircle
 10
67.34561052250313
 20
56.81358103490157
 30
0.0
 40
3.1496
100
AcDbArc
 50
135.9328162343502
 51
153.6319978293638
  0
CIRCLE
  5
1DCA2
330
1F
100
AcDbEntity
  8
\U+6807\U+6CE8
100
AcDbCircle
 10
60.41649052250313
 20
58.70334103490156
 30
0.0
 40
0.51181
  0
CIRCLE
  5
1DCA3
330
1F
100
AcDbEntity
  8
\U+6807\U+6CE8
100
AcDbCircle
 10
58.29051052250314
 20
58.70334103490156
 30
0.0
 40
0.51181
  0
CIRCLE
  5
1DCA4
330
1F
100
AcDbEntity
  8
\U+6807\U+6CE8
100
AcDbCircle
 10
56.16453052250314
 20
58.70334103490156
 30
0.0
 40
0.51181
  0
CIRCLE
  5
1DCA5
330
1F
100
AcDbEntity
  8
\U+6807\U+6CE8
100
AcDbCircle
 10
62.54247052250314
 20
58.70334103490156
 30
0.0
 40
0.51181
  0
CIRCLE
  5
1DCA6
330
1F
100
AcDbEntity
  8
\U+6807\U+6CE8
100
AcDbCircle
 10
63.60546052250314
 20
58.07342103490157
 30
0.0
 40
0.51181
  0
CIRCLE
  5
1DCA7
330
1F
100
AcDbEntity
  8
\U+6807\U+6CE8
100
AcDbCircle
 10
61.47948052250313
 20
58.07342103490157
 30
0.0
 40
0.51181
  0
CIRCLE
  5
1DCA8
330
1F
100
AcDbEntity
  8
\U+6807\U+6CE8
100
AcDbCircle
 10
59.35350052250313
 20
58.07342103490157
 30
0.0
 40
0.51181
  0
CIRCLE
  5
1DCA9
330
1F
100
AcDbEntity
  8
\U+6807\U+6CE8
100
AcDbCircle
 10
57.22752052250314
 20
58.07342103490157
 30
0.0
 40
0.51181
  0
CIRCLE
  5
1DCAA
330
1F
100
AcDbEntity
  8
\U+6807\U+6CE8
100
AcDbCircle
 10
55.10154052250314
 20
58.07342103490157
 30
0.0
 40
0.51181
  0
LINE
  5
1DCAE
330
1F
100
AcDbEntity
  8
0\U+7EC6
  6
CENTER
 48
4.0
100
AcDbLine
 10
67.34561052250313
 20
60.93233336240643
 30
0.0
 11
67.34561052250313
 21
52.08428457916038
 31
0.0
  0
ARC
  5
1DCAF
330
1F
100
AcDbEntity
  8
0
100
AcDbCircle
 10
-6.276289477496862
 20
56.81358103490142
 30
0.0
 40
77.36205000000001
100
AcDbArc
 50
357.0227736980896
 51
2.977226301910402
  0
ARC
  5
1DCB0
330
1F
100
AcDbEntity
  8
0
100
AcDbCircle
 10
-6.276289477496862
 20
56.81358103490142
 30
0.0
 40
78.74000000000001
100
AcDbArc
 50
355.6742020738426
 51
4.201528941036386
  0
LINE
  5
1DCB1
330
1F
100
AcDbEntity
  8
0
100
AcDbLine
 10
74.78654052250314
 20
71.99071603490143
 30
0.0
 11
74.78654052250314
 21
41.20337603490141
 31
0.0
  0
LINE
  5
1DCB2
330
1F
100
AcDbEntity
  8
0
100
AcDbLine
 10
75.21961052250315
 20
72.42378603490142
 30
0.0
 11
75.21961052250315
 21
41.20337603490141
 31
0.0
  0
CIRCLE
  5
1DCB3
330
1F
100
AcDbEntity
  8
\U+6807\U+6CE8
100
AcDbCircle
 10
67.85742052250315
 20
51.77422103490156
 30
0.0
 40
0.51181
  0
CIRCLE
  5
1DCB4
330
1F
100
AcDbEntity
  8
\U+6807\U+6CE8
100
AcDbCircle
 10
67.85742052250315
 20
53.03406103490156
 30
0.0
 40
0.51181
  0
CIRCLE
  5
1DCB6
330
1F
100
AcDbEntity
  8
0
100
AcDbCircle
 10
67.34561052250313
 20
56.81358103490157
 30
0.0
 40
1.082675
  0
CIRCLE
  5
1DCB7
330
1F
100
AcDbEntity
  8
0
100
AcDbCircle
 10
67.34561052250313
 20
56.81358103490157
 30
0.0
 40
1.53543
  0
ARC
  5
1DCB8
330
1F
100
AcDbEntity
  8
0
100
AcDbCircle
 10
58.39942875724532
 20
94.53076396231708
 30
0.0
 40
47.244
100
AcDbArc
 50
275.5707889457235
 51
282.1241035927263
  0
ARC
  5
1DCB9
330
1F
100
AcDbEntity
  8
0
100
AcDbCircle
 10
60.68524445718153
 20
92.78485183831516
 30
0.0
 40
47.244
100
AcDbArc
 50
276.0571785225941
 51
280.6597600305683
  0
ARC
  5
1DCBA
330
1F
100
AcDbEntity
  8
0\U+7EC6
  6
HIDDEN
 48
4.0
100
AcDbCircle
 10
66.75506052250314
 20
40.69156603490141
 30
0.0
 40
0.59055
100
AcDbArc
 50
11.5369590328903
 51
90.0
  0
CIRCLE
  5
1DCBB
330
1F
100
AcDbEntity
  8
\U+6807\U+6CE8
100
AcDbCircle
 10
61.47948052250313
 20
50.51438103490156
 30
0.0
 40
0.51181
  0
CIRCLE
  5
1DCBC
330
1F
100
AcDbEntity
  8
\U+6807\U+6CE8
100
AcDbCircle
 10
61.47948052250313
 20
51.77422103490156
 30
0.0
 40
0.51181
  0
CIRCLE
  5
1DCBD
330
1F
100
AcDbEntity
  8
\U+6807\U+6CE8
100
AcDbCircle
 10
61.47948052250313
 20
54.29390103490156
 30
0.0
 40
0.51181
  0
CIRCLE
  5
1DCBE
330
1F
100
AcDbEntity
  8
\U+6807\U+6CE8
100
AcDbCircle
 10
61.47948052250313
 20
53.03406103490156
 30
0.0
 40
0.51181
  0
CIRCLE
  5
1DCBF
330
1F
100
AcDbEntity
  8
\U+6807\U+6CE8
100
AcDbCircle
 10
61.47948052250313
 20
56.81358103490157
 30
0.0
 40
0.51181
  0
CIRCLE
  5
1DCC0
330
1F
100
AcDbEntity
  8
\U+6807\U+6CE8
100
AcDbCircle
 10
61.47948052250313
 20
55.55374103490156
 30
0.0
 40
0.51181
  0
CIRCLE
  5
1DCC1
330
1F
100
AcDbEntity
  8
\U+6807\U+6CE8
100
AcDbCircle
 10
59.35350052250313
 20
50.51438103490156
 30
0.0
 40
0.51181
  0
CIRCLE
  5
1DCC2
330
1F
100
AcDbEntity
  8
\U+6807\U+6CE8
100
AcDbCircle
 10
57.22752052250314
 20
50.51438103490156
 30
0.0
 40
0.51181
  0
CIRCLE
  5
1DCC3
330
1F
100
AcDbEntity
  8
\U+6807\U+6CE8
100
AcDbCircle
 10
60.41649052250313
 20
54.92382103490156
 30
0.0
 40
0.51181
  0
CIRCLE
  5
1DCC4
330
1F
100
AcDbEntity
  8
\U+6807\U+6CE8
100
AcDbCircle
 10
59.35350052250313
 20
54.29390103490156
 30
0.0
 40
0.51181
  0
CIRCLE
  5
1DCC5
330
1F
100
AcDbEntity
  8
\U+6807\U+6CE8
100
AcDbCircle
 10
60.41649052250313
 20
53.66398103490157
 30
0.0
 40
0.51181
  0
CIRCLE
  5
1DCC6
330
1F
100
AcDbEntity
  8
\U+6807\U+6CE8
100
AcDbCircle
 10
59.35350052250313
 20
56.81358103490157
 30
0.0
 40
0.51181
  0
CIRCLE
  5
1DCC7
330
1F
100
AcDbEntity
  8
\U+6807\U+6CE8
100
AcDbCircle
 10
59.35350052250313
 20
55.55374103490156
 30
0.0
 40
0.51181
  0
CIRCLE
  5
1DCC8
330
1F
100
AcDbEntity
  8
\U+6807\U+6CE8
100
AcDbCircle
 10
60.41649052250313
 20
57.44350103490156
 30
0.0
 40
0.51181
  0
CIRCLE
  5
1DCC9
330
1F
100
AcDbEntity
  8
\U+6807\U+6CE8
100
AcDbCircle
 10
60.41649052250313
 20
56.18366103490156
 30
0.0
 40
0.51181
  0
CIRCLE
  5
1DCCA
330
1F
100
AcDbEntity
  8
\U+6807\U+6CE8
100
AcDbCircle
 10
57.22752052250314
 20
54.29390103490156
 30
0.0
 40
0.51181
  0
CIRCLE
  5
1DCCB
330
1F
100
AcDbEntity
  8
\U+6807\U+6CE8
100
AcDbCircle
 10
57.22752052250314
 20
56.81358103490157
 30
0.0
 40
0.51181
  0
CIRCLE
  5
1DCCC
330
1F
100
AcDbEntity
  8
\U+6807\U+6CE8
100
AcDbCircle
 10
57.22752052250314
 20
55.55374103490156
 30
0.0
 40
0.51181
  0
CIRCLE
  5
1DCCD
330
1F
100
AcDbEntity
  8
\U+6807\U+6CE8
100
AcDbCircle
 10
58.29051052250314
 20
54.92382103490156
 30
0.0
 40
0.51181
  0
CIRCLE
  5
1DCCE
330
1F
100
AcDbEntity
  8
\U+6807\U+6CE8
100
AcDbCircle
 10
58.29051052250314
 20
53.66398103490157
 30
0.0
 40
0.51181
  0
CIRCLE
  5
1DCCF
330
1F
100
AcDbEntity
  8
\U+6807\U+6CE8
100
AcDbCircle
 10
58.29051052250314
 20
57.44350103490156
 30
0.0
 40
0.51181
  0
CIRCLE
  5
1DCD0
330
1F
100
AcDbEntity
  8
\U+6807\U+6CE8
100
AcDbCircle
 10
58.29051052250314
 20
56.18366103490156
 30
0.0
 40
0.51181
  0
CIRCLE
  5
1DCD1
330
1F
100
AcDbEntity
  8
\U+6807\U+6CE8
100
AcDbCircle
 10
59.35350052250313
 20
51.77422103490156
 30
0.0
 40
0.51181
  0
CIRCLE
  5
1DCD2
330
1F
100
AcDbEntity
  8
\U+6807\U+6CE8
100
AcDbCircle
 10
60.41649052250313
 20
51.14430103490157
 30
0.0
 40
0.51181
  0
CIRCLE
  5
1DCD3
330
1F
100
AcDbEntity
  8
\U+6807\U+6CE8
100
AcDbCircle
 10
57.22752052250314
 20
51.77422103490156
 30
0.0
 40
0.51181
  0
CIRCLE
  5
1DCD4
330
1F
100
AcDbEntity
  8
\U+6807\U+6CE8
100
AcDbCircle
 10
58.29051052250314
 20
51.14430103490157
 30
0.0
 40
0.51181
  0
CIRCLE
  5
1DCD5
330
1F
100
AcDbEntity
  8
\U+6807\U+6CE8
100
AcDbCircle
 10
59.35350052250313
 20
53.03406103490156
 30
0.0
 40
0.51181
  0
CIRCLE
  5
1DCD6
330
1F
100
AcDbEntity
  8
\U+6807\U+6CE8
100
AcDbCircle
 10
57.22752052250314
 20
53.03406103490156
 30
0.0
 40
0.51181
  0
CIRCLE
  5
1DCD7
330
1F
100
AcDbEntity
  8
\U+6807\U+6CE8
100
AcDbCircle
 10
58.29051052250314
 20
52.40414103490156
 30
0.0
 40
0.51181
  0
CIRCLE
  5
1DCD8
330
1F
100
AcDbEntity
  8
\U+6807\U+6CE8
100
AcDbCircle
 10
60.41649052250313
 20
52.40414103490156
 30
0.0
 40
0.51181
  0
CIRCLE
  5
1DCD9
330
1F
100
AcDbEntity
  8
\U+6807\U+6CE8
100
AcDbCircle
 10
55.10154052250314
 20
50.51438103490156
 30
0.0
 40
0.51181
  0
CIRCLE
  5
1DCDA
330
1F
100
AcDbEntity
  8
\U+6807\U+6CE8
100
AcDbCircle
 10
55.10154052250314
 20
51.77422103490156
 30
0.0
 40
0.51181
  0
CIRCLE
  5
1DCDB
330
1F
100
AcDbEntity
  8
\U+6807\U+6CE8
100
AcDbCircle
 10
55.10154052250314
 20
54.29390103490156
 30
0.0
 40
0.51181
  0
CIRCLE
  5
1DCDC
330
1F
100
AcDbEntity
  8
\U+6807\U+6CE8
100
AcDbCircle
 10
55.10154052250314
 20
53.03406103490156
 30
0.0
 40
0.51181
  0
CIRCLE
  5
1DCDD
330
1F
100
AcDbEntity
  8
\U+6807\U+6CE8
100
AcDbCircle
 10
55.10154052250314
 20
56.81358103490157
 30
0.0
 40
0.51181
  0
CIRCLE
  5
1DCDE
330
1F
100
AcDbEntity
  8
\U+6807\U+6CE8
100
AcDbCircle
 10
55.10154052250314
 20
55.55374103490156
 30
0.0
 40
0.51181
  0
CIRCLE
  5
1DCDF
330
1F
100
AcDbEntity
  8
\U+6807\U+6CE8
100
AcDbCircle
 10
56.16453052250314
 20
54.92382103490156
 30
0.0
 40
0.51181
  0
CIRCLE
  5
1DCE0
330
1F
100
AcDbEntity
  8
\U+6807\U+6CE8
100
AcDbCircle
 10
56.16453052250314
 20
53.66398103490157
 30
0.0
 40
0.51181
  0
CIRCLE
  5
1DCE1
330
1F
100
AcDbEntity
  8
\U+6807\U+6CE8
100
AcDbCircle
 10
56.16453052250314
 20
57.44350103490156
 30
0.0
 40
0.51181
  0
CIRCLE
  5
1DCE2
330
1F
100
AcDbEntity
  8
\U+6807\U+6CE8
100
AcDbCircle
 10
56.16453052250314
 20
56.18366103490156
 30
0.0
 40
0.51181
  0
CIRCLE
  5
1DCE3
330
1F
100
AcDbEntity
  8
\U+6807\U+6CE8
100
AcDbCircle
 10
56.16453052250314
 20
51.14430103490157
 30
0.0
 40
0.51181
  0
CIRCLE
  5
1DCE4
330
1F
100
AcDbEntity
  8
\U+6807\U+6CE8
100
AcDbCircle
 10
56.16453052250314
 20
52.40414103490156
 30
0.0
 40
0.51181
  0
ARC
  5
1DCE5
330
1F
100
AcDbEntity
  8
\U+6807\U+6CE8
100
AcDbCircle
 10
66.79443052250313
 20
53.66398103490157
 30
0.0
 40
0.51181
100
AcDbArc
 50
160.1199617789099
 51
0.0275472078607828
  0
ARC
  5
1DCE6
330
1F
100
AcDbEntity
  8
\U+6807\U+6CE8
100
AcDbCircle
 10
67.34561052250313
 20
56.81358103490157
 30
0.0
 40
3.1496
100
AcDbArc
 50
250.8637259589372
 51
269.2837830274992
  0
CIRCLE
  5
1DCE7
330
1F
100
AcDbEntity
  8
\U+6807\U+6CE8
100
AcDbCircle
 10
66.79443052250313
 20
51.14430103490157
 30
0.0
 40
0.51181
  0
CIRCLE
  5
1DCE8
330
1F
100
AcDbEntity
  8
\U+6807\U+6CE8
100
AcDbCircle
 10
66.79443052250313
 20
52.40414103490156
 30
0.0
 40
0.51181
  0
CIRCLE
  5
1DCE9
330
1F
100
AcDbEntity
  8
\U+6807\U+6CE8
100
AcDbCircle
 10
65.73144052250313
 20
50.51438103490156
 30
0.0
 40
0.51181
  0
ARC
  5
1DCEA
330
1F
100
AcDbEntity
  8
\U+6807\U+6CE8
100
AcDbCircle
 10
65.73144052250313
 20
54.29390103490156
 30
0.0
 40
0.51181
100
AcDbArc
 50
160.6369598979506
 51
314.0737598325344
  0
ARC
  5
1DCEB
330
1F
100
AcDbEntity
  8
\U+6807\U+6CE8
100
AcDbCircle
 10
67.34561052250313
 20
56.81358103490157
 30
0.0
 40
3.1496
100
AcDbArc
 50
228.2556211784061
 51
246.4550985518644
  0
CIRCLE
  5
1DCEC
330
1F
100
AcDbEntity
  8
\U+6807\U+6CE8
100
AcDbCircle
 10
65.73144052250313
 20
51.77422103490156
 30
0.0
 40
0.51181
  0
CIRCLE
  5
1DCED
330
1F
100
AcDbEntity
  8
\U+6807\U+6CE8
100
AcDbCircle
 10
65.73144052250313
 20
53.03406103490156
 30
0.0
 40
0.51181
  0
CIRCLE
  5
1DCEE
330
1F
100
AcDbEntity
  8
\U+6807\U+6CE8
100
AcDbCircle
 10
63.60546052250314
 20
50.51438103490156
 30
0.0
 40
0.51181
  0
ARC
  5
1DCEF
330
1F
100
AcDbEntity
  8
\U+6807\U+6CE8
100
AcDbCircle
 10
64.66845052250313
 20
54.92382103490156
 30
0.0
 40
0.51181
100
AcDbArc
 50
106.4292028064718
 51
324.0059831300879
  0
CIRCLE
  5
1DCF0
330
1F
100
AcDbEntity
  8
\U+6807\U+6CE8
100
AcDbCircle
 10
64.66845052250313
 20
53.66398103490157
 30
0.0
 40
0.51181
  0
CIRCLE
  5
1DCF1
330
1F
100
AcDbEntity
  8
\U+6807\U+6CE8
100
AcDbCircle
 10
63.60546052250314
 20
54.29390103490156
 30
0.0
 40
0.51181
  0
CIRCLE
  5
1DCF2
330
1F
100
AcDbEntity
  8
\U+6807\U+6CE8
100
AcDbCircle
 10
63.60546052250314
 20
56.81358103490157
 30
0.0
 40
0.51181
  0
CIRCLE
  5
1DCF3
330
1F
100
AcDbEntity
  8
\U+6807\U+6CE8
100
AcDbCircle
 10
63.60546052250314
 20
55.55374103490156
 30
0.0
 40
0.51181
  0
ARC
  5
1DCF4
330
1F
100
AcDbEntity
  8
\U+6807\U+6CE8
100
AcDbCircle
 10
64.66845052250313
 20
57.44350103490156
 30
0.0
 40
0.51181
100
AcDbArc
 50
124.8179481226141
 51
208.7010120471781
  0
ARC
  5
1DCF5
330
1F
100
AcDbEntity
  8
\U+6807\U+6CE8
100
AcDbCircle
 10
64.66845052250313
 20
56.18366103490156
 30
0.0
 40
0.51181
100
AcDbArc
 50
151.2989879528219
 51
235.1820518773859
  0
ARC
  5
1DCF6
330
1F
100
AcDbEntity
  8
\U+6807\U+6CE8
100
AcDbCircle
 10
67.34561052250313
 20
56.81358103490157
 30
0.0
 40
3.1496
100
AcDbArc
 50
160.5242606398824
 51
172.9946995298335
  0
ARC
  5
1DCF7
330
1F
100
AcDbEntity
  8
\U+6807\U+6CE8
100
AcDbCircle
 10
67.34561052250313
 20
56.81358103490157
 30
0.0
 40
3.1496
100
AcDbArc
 50
187.0053004701664
 51
199.4757393601175
  0
ARC
  5
1DCF8
330
1F
100
AcDbEntity
  8
\U+6807\U+6CE8
100
AcDbCircle
 10
67.34561052250313
 20
56.81358103490157
 30
0.0
 40
3.1496
100
AcDbArc
 50
206.3680021706361
 51
224.0671837656498
  0
CIRCLE
  5
1DCF9
330
1F
100
AcDbEntity
  8
\U+6807\U+6CE8
100
AcDbCircle
 10
64.66845052250313
 20
51.14430103490157
 30
0.0
 40
0.51181
  0
CIRCLE
  5
1DCFA
330
1F
100
AcDbEntity
  8
\U+6807\U+6CE8
100
AcDbCircle
 10
63.60546052250314
 20
51.77422103490156
 30
0.0
 40
0.51181
  0
CIRCLE
  5
1DCFB
330
1F
100
AcDbEntity
  8
\U+6807\U+6CE8
100
AcDbCircle
 10
64.66845052250313
 20
52.40414103490156
 30
0.0
 40
0.51181
  0
CIRCLE
  5
1DCFC
330
1F
100
AcDbEntity
  8
\U+6807\U+6CE8
100
AcDbCircle
 10
63.60546052250314
 20
53.03406103490156
 30
0.0
 40
0.51181
  0
CIRCLE
  5
1DCFD
330
1F
100
AcDbEntity
  8
\U+6807\U+6CE8
100
AcDbCircle
 10
62.54247052250314
 20
54.92382103490156
 30
0.0
 40
0.51181
  0
CIRCLE
  5
1DCFE
330
1F
100
AcDbEntity
  8
\U+6807\U+6CE8
100
AcDbCircle
 10
62.54247052250314
 20
53.66398103490157
 30
0.0
 40
0.51181
  0
CIRCLE
  5
1DCFF
330
1F
100
AcDbEntity
  8
\U+6807\U+6CE8
100
AcDbCircle
 10
62.54247052250314
 20
57.44350103490156
 30
0.0
 40
0.51181
  0
CIRCLE
  5
1DD00
330
1F
100
AcDbEntity
  8
\U+6807\U+6CE8
100
AcDbCircle
 10
62.54247052250314
 20
56.18366103490156
 30
0.0
 40
0.51181
  0
CIRCLE
  5
1DD01
330
1F
100
AcDbEntity
  8
\U+6807\U+6CE8
100
AcDbCircle
 10
62.54247052250314
 20
51.14430103490157
 30
0.0
 40
0.51181
  0
CIRCLE
  5
1DD02
330
1F
100
AcDbEntity
  8
\U+6807\U+6CE8
100
AcDbCircle
 10
62.54247052250314
 20
52.40414103490156
 30
0.0
 40
0.51181
  0
ARC
  5
1DD03
330
1F
100
AcDbEntity
  8
0
100
AcDbCircle
 10
74.82591052250313
 20
41.20337603490141
 30
0.0
 40
0.3937
100
AcDbArc
 50
270.0
 51
0.0
  0
ARC
  5
1DD04
330
1F
100
AcDbEntity
  8
0
100
AcDbCircle
 10
67.66057052250314
 20
51.41989103490157
 30
0.0
 40
3.1496
100
AcDbArc
 50
282.1241035927263
 51
349.9730879660849
  0
ARC
  5
1DD05
330
1F
100
AcDbEntity
  8
0
100
AcDbCircle
 10
55.25459746103851
 20
53.61340760839992
 30
0.0
 40
15.748
100
AcDbArc
 50
349.9730879660849
 51
357.0227736980896
  0
ARC
  5
1DD06
330
1F
100
AcDbEntity
  8
0
100
AcDbCircle
 10
68.84167052250314
 20
49.45139103490156
 30
0.0
 40
3.1496
100
AcDbArc
 50
280.6597600305683
 51
347.4054184878783
  0
ARC
  5
1DD07
330
1F
100
AcDbEntity
  8
0
100
AcDbCircle
 10
56.54642094007444
 20
52.19848409225996
 30
0.0
 40
15.748
100
AcDbArc
 50
347.4054184878783
 51
355.7984710589636
  0
CIRCLE
  5
1DD08
330
1F
100
AcDbEntity
  8
\U+6807\U+6CE8
100
AcDbCircle
 10
67.85742052250315
 20
61.85294103490156
 30
0.0
 40
0.51181
  0
CIRCLE
  5
1DD09
330
1F
100
AcDbEntity
  8
\U+6807\U+6CE8
100
AcDbCircle
 10
67.85742052250315
 20
60.59310103490156
 30
0.0
 40
0.51181
  0
ARC
  5
1DD0A
330
1F
100
AcDbEntity
  8
0
100
AcDbCircle
 10
60.68524445718153
 20
20.84231023148797
 30
0.0
 40
47.244
100
AcDbArc
 50
79.34023996943164
 51
83.9428214774059
  0
ARC
  5
1DD0B
330
1F
100
AcDbEntity
  8
0
100
AcDbCircle
 10
58.39942875724532
 20
19.0963981074859
 30
0.0
 40
47.244
100
AcDbArc
 50
77.87589640727375
 51
84.42921105427643
  0
CIRCLE
  5
1DD0C
330
1F
100
AcDbEntity
  8
\U+6807\U+6CE8
100
AcDbCircle
 10
61.47948052250313
 20
63.11278103490156
 30
0.0
 40
0.51181
  0
CIRCLE
  5
1DD0D
330
1F
100
AcDbEntity
  8
\U+6807\U+6CE8
100
AcDbCircle
 10
61.47948052250313
 20
61.85294103490156
 30
0.0
 40
0.51181
  0
CIRCLE
  5
1DD0E
330
1F
100
AcDbEntity
  8
\U+6807\U+6CE8
100
AcDbCircle
 10
61.47948052250313
 20
60.59310103490156
 30
0.0
 40
0.51181
  0
CIRCLE
  5
1DD0F
330
1F
100
AcDbEntity
  8
\U+6807\U+6CE8
100
AcDbCircle
 10
61.47948052250313
 20
59.33326103490156
 30
0.0
 40
0.51181
  0
CIRCLE
  5
1DD10
330
1F
100
AcDbEntity
  8
\U+6807\U+6CE8
100
AcDbCircle
 10
59.35350052250313
 20
63.11278103490156
 30
0.0
 40
0.51181
  0
CIRCLE
  5
1DD11
330
1F
100
AcDbEntity
  8
\U+6807\U+6CE8
100
AcDbCircle
 10
57.22752052250314
 20
63.11278103490156
 30
0.0
 40
0.51181
  0
CIRCLE
  5
1DD12
330
1F
100
AcDbEntity
  8
\U+6807\U+6CE8
100
AcDbCircle
 10
59.35350052250313
 20
61.85294103490156
 30
0.0
 40
0.51181
  0
CIRCLE
  5
1DD13
330
1F
100
AcDbEntity
  8
\U+6807\U+6CE8
100
AcDbCircle
 10
60.41649052250313
 20
61.22302103490156
 30
0.0
 40
0.51181
  0
CIRCLE
  5
1DD14
330
1F
100
AcDbEntity
  8
\U+6807\U+6CE8
100
AcDbCircle
 10
59.35350052250313
 20
60.59310103490156
 30
0.0
 40
0.51181
  0
CIRCLE
  5
1DD15
330
1F
100
AcDbEntity
  8
\U+6807\U+6CE8
100
AcDbCircle
 10
59.35350052250313
 20
59.33326103490156
 30
0.0
 40
0.51181
  0
CIRCLE
  5
1DD16
330
1F
100
AcDbEntity
  8
\U+6807\U+6CE8
100
AcDbCircle
 10
60.41649052250313
 20
59.96318103490157
 30
0.0
 40
0.51181
  0
CIRCLE
  5
1DD17
330
1F
100
AcDbEntity
  8
\U+6807\U+6CE8
100
AcDbCircle
 10
60.41649052250313
 20
62.48286103490157
 30
0.0
 40
0.51181
  0
CIRCLE
  5
1DD18
330
1F
100
AcDbEntity
  8
\U+6807\U+6CE8
100
AcDbCircle
 10
57.22752052250314
 20
61.85294103490156
 30
0.0
 40
0.51181
  0
CIRCLE
  5
1DD19
330
1F
100
AcDbEntity
  8
\U+6807\U+6CE8
100
AcDbCircle
 10
57.22752052250314
 20
60.59310103490156
 30
0.0
 40
0.51181
  0
CIRCLE
  5
1DD1A
330
1F
100
AcDbEntity
  8
\U+6807\U+6CE8
100
AcDbCircle
 10
57.22752052250314
 20
59.33326103490156
 30
0.0
 40
0.51181
  0
CIRCLE
  5
1DD1B
330
1F
100
AcDbEntity
  8
\U+6807\U+6CE8
100
AcDbCircle
 10
58.29051052250314
 20
61.22302103490156
 30
0.0
 40
0.51181
  0
CIRCLE
  5
1DD1C
330
1F
100
AcDbEntity
  8
\U+6807\U+6CE8
100
AcDbCircle
 10
58.29051052250314
 20
59.96318103490157
 30
0.0
 40
0.51181
  0
CIRCLE
  5
1DD1D
330
1F
100
AcDbEntity
  8
\U+6807\U+6CE8
100
AcDbCircle
 10
58.29051052250314
 20
62.48286103490157
 30
0.0
 40
0.51181
  0
CIRCLE
  5
1DD1E
330
1F
100
AcDbEntity
  8
\U+6807\U+6CE8
100
AcDbCircle
 10
55.10154052250314
 20
63.11278103490156
 30
0.0
 40
0.51181
  0
CIRCLE
  5
1DD1F
330
1F
100
AcDbEntity
  8
\U+6807\U+6CE8
100
AcDbCircle
 10
55.10154052250314
 20
61.85294103490156
 30
0.0
 40
0.51181
  0
CIRCLE
  5
1DD20
330
1F
100
AcDbEntity
  8
\U+6807\U+6CE8
100
AcDbCircle
 10
55.10154052250314
 20
60.59310103490156
 30
0.0
 40
0.51181
  0
CIRCLE
  5
1DD21
330
1F
100
AcDbEntity
  8
\U+6807\U+6CE8
100
AcDbCircle
 10
55.10154052250314
 20
59.33326103490156
 30
0.0
 40
0.51181
  0
CIRCLE
  5
1DD22
330
1F
100
AcDbEntity
  8
\U+6807\U+6CE8
100
AcDbCircle
 10
56.16453052250314
 20
61.22302103490156
 30
0.0
 40
0.51181
  0
CIRCLE
  5
1DD23
330
1F
100
AcDbEntity
  8
\U+6807\U+6CE8
100
AcDbCircle
 10
56.16453052250314
 20
59.96318103490157
 30
0.0
 40
0.51181
  0
CIRCLE
  5
1DD24
330
1F
100
AcDbEntity
  8
\U+6807\U+6CE8
100
AcDbCircle
 10
56.16453052250314
 20
62.48286103490157
 30
0.0
 40
0.51181
  0
CIRCLE
  5
1DD25
330
1F
100
AcDbEntity
  8
\U+6807\U+6CE8
100
AcDbCircle
 10
65.73144052250313
 20
63.11278103490156
 30
0.0
 40
0.51181
  0
CIRCLE
  5
1DD26
330
1F
100
AcDbEntity
  8
\U+6807\U+6CE8
100
AcDbCircle
 10
63.60546052250314
 20
63.11278103490156
 30
0.0
 40
0.51181
  0
ARC
  5
1DD27
330
1F
100
AcDbEntity
  8
\U+6807\U+6CE8
100
AcDbCircle
 10
67.34561052250313
 20
56.81358103490157
 30
0.0
 40
3.1496
100
AcDbArc
 50
90.71621697250085
 51
109.1362740410627
  0
CIRCLE
  5
1DD28
330
1F
100
AcDbEntity
  8
\U+6807\U+6CE8
100
AcDbCircle
 10
66.79443052250313
 20
61.22302103490156
 30
0.0
 40
0.51181
  0
ARC
  5
1DD29
330
1F
100
AcDbEntity
  8
\U+6807\U+6CE8
100
AcDbCircle
 10
66.79443052250313
 20
59.96318103490157
 30
0.0
 40
0.51181
100
AcDbArc
 50
359.9724527921392
 51
199.88003822109
  0
CIRCLE
  5
1DD2A
330
1F
100
AcDbEntity
  8
\U+6807\U+6CE8
100
AcDbCircle
 10
66.79443052250313
 20
62.48286103490157
 30
0.0
 40
0.51181
  0
CIRCLE
  5
1DD2B
330
1F
100
AcDbEntity
  8
\U+6807\U+6CE8
100
AcDbCircle
 10
64.66845052250313
 20
61.22302103490156
 30
0.0
 40
0.51181
  0
CIRCLE
  5
1DD2C
330
1F
100
AcDbEntity
  8
\U+6807\U+6CE8
100
AcDbCircle
 10
63.60546052250314
 20
61.85294103490156
 30
0.0
 40
0.51181
  0
CIRCLE
  5
1DD2D
330
1F
100
AcDbEntity
  8
\U+6807\U+6CE8
100
AcDbCircle
 10
64.66845052250313
 20
59.96318103490157
 30
0.0
 40
0.51181
  0
CIRCLE
  5
1DD2E
330
1F
100
AcDbEntity
  8
\U+6807\U+6CE8
100
AcDbCircle
 10
63.60546052250314
 20
60.59310103490156
 30
0.0
 40
0.51181
  0
CIRCLE
  5
1DD2F
330
1F
100
AcDbEntity
  8
\U+6807\U+6CE8
100
AcDbCircle
 10
63.60546052250314
 20
59.33326103490156
 30
0.0
 40
0.51181
  0
CIRCLE
  5
1DD30
330
1F
100
AcDbEntity
  8
\U+6807\U+6CE8
100
AcDbCircle
 10
64.66845052250313
 20
62.48286103490157
 30
0.0
 40
0.51181
  0
CIRCLE
  5
1DD31
330
1F
100
AcDbEntity
  8
\U+6807\U+6CE8
100
AcDbCircle
 10
65.73144052250313
 20
61.85294103490156
 30
0.0
 40
0.51181
  0
CIRCLE
  5
1DD32
330
1F
100
AcDbEntity
  8
\U+6807\U+6CE8
100
AcDbCircle
 10
65.73144052250313
 20
60.59310103490156
 30
0.0
 40
0.51181
  0
ARC
  5
1DD33
330
1F
100
AcDbEntity
  8
\U+6807\U+6CE8
100
AcDbCircle
 10
65.73144052250313
 20
59.33326103490156
 30
0.0
 40
0.51181
100
AcDbArc
 50
45.92624016746566
 51
199.3630401020494
  0
ARC
  5
1DD34
330
1F
100
AcDbEntity
  8
\U+6807\U+6CE8
100
AcDbCircle
 10
67.34561052250313
 20
56.81358103490157
 30
0.0
 40
3.1496
100
AcDbArc
 50
113.5449014481355
 51
131.7443788215938
  0
CIRCLE
  5
1DD35
330
1F
100
AcDbEntity
  8
\U+6807\U+6CE8
100
AcDbCircle
 10
62.54247052250314
 20
61.22302103490156
 30
0.0
 40
0.51181
  0
CIRCLE
  5
1DD36
330
1F
100
AcDbEntity
  8
\U+6807\U+6CE8
100
AcDbCircle
 10
62.54247052250314
 20
59.96318103490157
 30
0.0
 40
0.51181
  0
CIRCLE
  5
1DD37
330
1F
100
AcDbEntity
  8
\U+6807\U+6CE8
100
AcDbCircle
 10
62.54247052250314
 20
62.48286103490157
 30
0.0
 40
0.51181
  0
ARC
  5
1DD38
330
1F
100
AcDbEntity
  8
0
100
AcDbCircle
 10
74.39284052250314
 20
71.99071603490143
 30
0.0
 40
0.3937
100
AcDbArc
 50
0.0
 51
90.0
  0
ARC
  5
1DD39
330
1F
100
AcDbEntity
  8
0
100
AcDbCircle
 10
68.84167052250314
 20
64.17577103490142
 30
0.0
 40
3.1496
100
AcDbArc
 50
12.59458151212176
 51
79.34023996943164
  0
ARC
  5
1DD3A
330
1F
100
AcDbEntity
  8
0
100
AcDbCircle
 10
56.54642094007444
 20
61.42867797754302
 30
0.0
 40
15.748
100
AcDbArc
 50
4.201528941036386
 51
12.59458151212176
  0
ARC
  5
1DD3B
330
1F
100
AcDbEntity
  8
0
100
AcDbCircle
 10
55.25459746103851
 20
60.01375446140307
 30
0.0
 40
15.748
100
AcDbArc
 50
2.977226301910402
 51
10.02691203391513
  0
ARC
  5
1DD3C
330
1F
100
AcDbEntity
  8
0
100
AcDbCircle
 10
67.66057052250314
 20
62.20727103490142
 30
0.0
 40
3.1496
100
AcDbArc
 50
10.02691203391513
 51
77.87589640727375
  0
ARC
  5
1DD3D
330
1F
100
AcDbEntity
  8
0
100
AcDbCircle
 10
74.82591052250313
 20
72.42378603490142
 30
0.0
 40
0.3937
100
AcDbArc
 50
0.0
 51
90.0
  0
LINE
  5
1DD40
330
1F
100
AcDbEntity
  8
0\U+7EC6
  6
CENTER
 48
4.0
100
AcDbLine
 10
109.002740049408
 20
31.78839074264929
 30
0.0
 11
109.002740049408
 21
11.06346102163721
 31
0.0
  0
LINE
  5
1DD4F
330
1F
100
AcDbEntity
  8
0
100
AcDbLine
 10
121.8033427857202
 20
27.12894039687325
 30
0.0
 11
120.2296674954183
 21
16.0506652619873
 31
0.0
  0
ARC
  5
1DD50
330
1F
100
AcDbEntity
  8
0
100
AcDbCircle
 10
117.6180945368999
 20
16.42164068763808
 30
0.0
 40
2.63779
100
AcDbArc
 50
274.2685941487021
 51
351.9151917438836
  0
ARC
  5
1DD51
330
1F
100
AcDbEntity
  8
0
100
AcDbCircle
 10
115.2368924629336
 20
15.37479346660285
 30
0.0
 40
2.63779
100
AcDbArc
 50
273.0874326972254
 51
351.9151917438836
  0
LINE
  5
1DD52
330
1F
100
AcDbEntity
  8
0\U+7EC6
  6
CENTER
 48
4.0
100
AcDbLine
 10
117.270440049408
 20
15.78521510678283
 30
0.0
 11
117.270440049408
 21
11.06346102163721
 31
0.0
  0
ARC
  5
1DD54
330
1F
100
AcDbEntity
  8
0
100
AcDbCircle
 10
110.4922270082456
 20
12.30626197075955
 30
0.0
 40
0.11811
100
AcDbArc
 50
270.0
 51
311.6796933435669
  0
ARC
  5
1DD55
330
1F
100
AcDbEntity
  8
0
100
AcDbCircle
 10
111.565594677458
 20
11.10068051951284
 30
0.0
 40
1.49606
100
AcDbArc
 50
92.44995568931392
 51
131.6796933435668
  0
ARC
  5
1DD56
330
1F
100
AcDbEntity
  8
0
100
AcDbCircle
 10
109.002740049408
 20
131.8483658074942
 30
0.0
 40
118.38559
100
AcDbArc
 50
274.0281618557408
 51
274.2685941487021
  0
LINE
  5
1DD57
330
1F
100
AcDbEntity
  8
0
 48
100.0
100
AcDbLine
 10
117.1172318316547
 20
12.13563910551519
 30
0.0
 11
117.1378497147901
 21
11.74222646055548
 31
0.0
  0
LINE
  5
1DD58
330
1F
100
AcDbEntity
  8
0
 48
100.0
100
AcDbLine
 10
117.4032906919364
 20
11.74222646055548
 30
0.0
 11
117.4239521910192
 21
12.13647137283938
 31
0.0
  0
LINE
  5
1DD59
330
1F
100
AcDbEntity
  8
0
 48
100.0
100
AcDbLine
 10
116.4731450929643
 20
11.92855015626951
 30
0.0
 11
116.4620888784206
 21
12.13501406619861
 31
0.0
  0
LINE
  5
1DD5A
330
1F
100
AcDbEntity
  8
0
 48
100.0
100
AcDbLine
 10
116.6697134510945
 20
11.74222646055548
 30
0.0
 11
117.8711666477221
 21
11.74222646055548
 31
0.0
  0
ARC
  5
1DD5B
330
1F
100
AcDbEntity
  8
0
 48
100.0
100
AcDbCircle
 10
116.6697134510945
 20
11.93907646055547
 30
0.0
 40
0.19685
100
AcDbArc
 50
183.0652812163536
 51
270.0
  0
LINE
  5
1DD5C
330
1F
100
AcDbEntity
  8
0
 48
100.0
100
AcDbLine
 10
118.0677468716711
 20
11.92877412819723
 30
0.0
 11
118.0786199992988
 21
12.1362457753696
 31
0.0
  0
ARC
  5
1DD5D
330
1F
100
AcDbEntity
  8
0
 48
100.0
100
AcDbCircle
 10
117.8711666477221
 20
11.93907646055547
 30
0.0
 40
0.19685
100
AcDbArc
 50
270.0
 51
357.0000001830505
  0
LINE
  5
1DD5E
330
1F
100
AcDbEntity
  8
0
 48
80.0
100
AcDbLine
 10
118.0820113551372
 20
12.20095670363754
 30
0.0
 11
118.1629877984728
 21
13.74607938188898
 31
0.0
  0
LINE
  5
1DD5F
330
1F
100
AcDbEntity
  8
0
 48
80.0
100
AcDbLine
 10
117.4262826312155
 20
12.18093882348542
 30
0.0
 11
117.5056328542743
 21
13.69503136845581
 31
0.0
  0
LINE
  5
1DD60
330
1F
100
AcDbEntity
  8
0
 48
80.0
100
AcDbLine
 10
117.0479816960349
 20
13.45701040435517
 30
0.0
 11
117.1145477766623
 21
12.18685392552763
 31
0.0
  0
LINE
  5
1DD61
330
1F
100
AcDbEntity
  8
0
 48
80.0
100
AcDbLine
 10
116.459346637986
 20
12.18622270363929
 30
0.0
 11
116.4149814045948
 21
13.01469971218638
 31
0.0
  0
LINE
  5
1DD62
330
1F
100
AcDbEntity
  8
0
100
AcDbLine
 10
119.570845955522
 20
27.12894039687325
 30
0.0
 11
118.0737725591742
 21
16.58992317771413
 31
0.0
  0
LINE
  5
1DD63
330
1F
100
AcDbEntity
  8
0
100
AcDbLine
 10
124.258615049408
 20
27.80518646055548
 30
0.0
 11
125.006645049408
 21
27.60833646055548
 31
0.0
  0
ARC
  5
1DD64
330
1F
100
AcDbEntity
  8
0
100
AcDbCircle
 10
122.5049594014418
 20
27.0292753571462
 30
0.0
 40
0.7086600000000001
100
AcDbArc
 50
138.4295024972989
 51
171.9151917438836
  0
ARC
  5
1DD65
330
1F
100
AcDbEntity
  8
0\U+7EC6
  6
HIDDEN
 48
4.0
100
AcDbCircle
 10
124.9805068030279
 20
28.35636646055548
 30
0.0
 40
0.11811
100
AcDbArc
 50
90.0
 51
138.0127875041214
  0
ARC
  5
1DD66
330
1F
100
AcDbEntity
  8
0\U+7EC6
  6
HIDDEN
 48
4.0
100
AcDbCircle
 10
124.3631680349284
 20
28.55321646055548
 30
0.0
 40
0.4724400000000001
100
AcDbArc
 50
270.0
 51
318.0127875041213
  0
LINE
  5
1DD67
330
1F
100
AcDbEntity
  8
0\U+7EC6
  6
HIDDEN
 48
4.0
100
AcDbLine
 10
124.8927163314147
 20
28.43537788500738
 30
0.0
 11
124.7143299213811
 21
28.23717076274774
 31
0.0
  0
LINE
  5
1DD68
330
1F
100
AcDbEntity
  8
0
100
AcDbLine
 10
125.006645049408
 20
27.60833646055548
 30
0.0
 11
125.006645049408
 21
28.47447646055548
 31
0.0
  0
LINE
  5
1DD69
330
1F
100
AcDbEntity
  8
0\U+7EC6
  6
HIDDEN
 48
4.0
100
AcDbLine
 10
125.006645049408
 20
27.60833646055548
 30
0.0
 11
124.258615049408
 21
27.80518646055548
 31
0.0
  0
ARC
  5
1DD6A
330
1F
100
AcDbEntity
  8
0\U+7EC6
  6
HIDDEN
 48
4.0
100
AcDbCircle
 10
123.2110300196684
 20
23.35637646055548
 30
0.0
 40
4.448809999999999
100
AcDbArc
 50
90.0
 51
100.8816745332071
  0
LINE
  5
1DD6B
330
1F
100
AcDbEntity
  8
0\U+7EC6
  6
HIDDEN
 48
4.0
100
AcDbLine
 10
124.258615049408
 20
27.80518646055548
 30
0.0
 11
123.2110300196684
 21
27.80518646055548
 31
0.0
  0
ARC
  5
1DD6C
330
1F
100
AcDbEntity
  8
0\U+7EC6
  6
HIDDEN
 48
4.0
100
AcDbCircle
 10
122.5049594014418
 20
27.0292753571462
 30
0.0
 40
0.7086600000000001
100
AcDbArc
 50
100.8816745332071
 51
131.9756790406689
  0
CIRCLE
  5
20810
330
1F
100
AcDbEntity
  8
0
100
AcDbCircle
 10
109.002740049408
 20
25.32487646055591
 30
0.0
 40
1.1811
  0
VIEWPORT
  5
2095D
102
{ACAD_XDICTIONARY
360
20A18
102
}
330
20949
100
AcDbEntity
 67
     1
  8
0
100
AcDbViewport
 10
5.375919732929602
 20
4.357568597331075
 30
0.0
 40
11.73748175672092
 41
7.126686190459926
 68
     1
 69
     1
 12
5.375919732929602
 22
4.357568597331075
 13
0.0
 23
0.0
 14
0.5
 24
0.5
 15
0.5
 25
0.5
 16
0.0
 26
0.0
 36
1.0
 17
0.0
 27
0.0
 37
0.0
 42
50.0
 43
0.0
 44
0.0
 45
7.126686190459926
 50
0.0
 51
0.0
 72
  2000
 90
   557088
  1

281
     0
 71
     1
 74
     0
110
0.0
120
0.0
130
0.0
111
1.0
121
0.0
131
0.0
112
0.0
122
1.0
132
0.0
 79
     0
146
0.0
  0
VIEWPORT
  5
20960
102
{ACAD_XDICTIONARY
360
20A1A
102
}
330
20949
100
AcDbEntity
 67
     1
  8
0
100
AcDbViewport
 10
5.375000121086602
 20
4.124999820716737
 30
0.0
 40
8.600000193738562
 41
6.599999713146781
 68
     2
 69
     2
 12
66.26825410896708
 22
43.23035426052775
 13
0.0
 23
0.0
 14
0.5
 24
0.5
 15
0.5
 25
0.5
 16
0.0
 26
0.0
 36
1.0
 17
0.0
 27
0.0
 37
0.0
 42
50.0
 43
0.0
 44
0.0
 45
92.03095594015186
 50
0.0
 51
0.0
 72
  2000
 90
   819552
  1

281
     0
 71
     1
 74
     0
110
0.0
120
0.0
130
0.0
111
1.0
121
0.0
131
0.0
112
0.0
122
1.0
132
0.0
 79
     0
146
0.0
  0
MTEXT
  5
209DA
330
20949
100
AcDbEntity
 67
     1
  8
0
100
AcDbMText
 10
7.022010617028712
 20
7.890509470649352
 30
0.0
 40
0.15
 41
108.3599999999999
 71
     1
 72
     1
  1
AD-00165, FBY1715RP, V.01
  7
\U+68071
 73
     1
 44
1.0
1001
ACAD
1000
MTEXTBEGIN
1070
    73
1070
     1
1070
    44
1040
1.0
1070
    74
1070
     0
1000
MTEXTEND
  0
ENDSEC
  0
SECTION
  2
OBJECTS
  0
DICTIONARY
  5
C
330
0
100
AcDbDictionary
281
     1
  3
ACAD_COLOR
350
1B05F
  3
ACAD_GROUP
350
D
  3
ACAD_LAYOUT
350
1A
  3
ACAD_MATERIAL
350
1B05E
  3
ACAD_MLINESTYLE
350
17
  3
ACAD_PLOTSETTINGS
350
19
  3
ACAD_PLOTSTYLENAME
350
E
  3
ACAD_TABLESTYLE
350
20852
  3
ACAD_VISUALSTYLE
350
20841
  3
AcDbVariableDictionary
350
66
  3
DWGPROPS
350
20A0C
  0
DICTIONARY
  5
208CA
330
8
100
AcDbDictionary
280
     1
281
     1
  0
DICTIONARY
  5
20964
330
2
100
AcDbDictionary
280
     1
281
     1
  3
ACAD_LAYERSTATES
360
20965
  0
DICTIONARY
  5
20A18
330
2095D
100
AcDbDictionary
280
     1
281
     1
  3
ACAD_XREC_ROUNDTRIP
360
20A19
  0
DICTIONARY
  5
20A1A
330
20960
100
AcDbDictionary
280
     1
281
     1
  3
ACAD_XREC_ROUNDTRIP
360
20A1B
  0
DICTIONARY
  5
1B05F
102
{ACAD_REACTORS
330
C
102
}
330
C
100
AcDbDictionary
281
     1
  0
DICTIONARY
  5
D
102
{ACAD_REACTORS
330
C
102
}
330
C
100
AcDbDictionary
281
     1
  0
DICTIONARY
  5
1A
102
{ACAD_REACTORS
330
C
102
}
330
C
100
AcDbDictionary
281
     1
  3
Layout1
350
2094A
  3
Model
350
22
1001
AcadStringInfo
1000
MIFCodePage
1070
     5
  0
DICTIONARY
  5
1B05E
102
{ACAD_REACTORS
330
C
102
}
330
C
100
AcDbDictionary
281
     1
  3
ByBlock
350
2083F
  3
ByLayer
350
2083E
  3
Global
350
20840
  0
DICTIONARY
  5
17
102
{ACAD_REACTORS
330
C
102
}
330
C
100
AcDbDictionary
281
     1
  3
Standard
350
18
  0
DICTIONARY
  5
19
102
{ACAD_REACTORS
330
C
102
}
330
C
100
AcDbDictionary
281
     1
  0
ACDBDICTIONARYWDFLT
  5
E
102
{ACAD_REACTORS
330
C
102
}
330
C
100
AcDbDictionary
281
     1
  3
Normal
350
F
100
AcDbDictionaryWithDefault
340
F
  0
DICTIONARY
  5
20852
102
{ACAD_REACTORS
330
C
102
}
330
C
100
AcDbDictionary
281
     1
  3
Standard
350
20853
  0
DICTIONARY
  5
20841
102
{ACAD_REACTORS
330
C
102
}
330
C
100
AcDbDictionary
281
     1
  3
2dWireframe
350
20847
  3
3D Hidden
350
2096C
  3
3dWireframe
350
2096B
  3
Basic
350
20846
  3
Brighten
350
2084D
  3
ColorChange
350
20851
  3
Conceptual
350
2096D
  3
Dim
350
2084C
  3
Facepattern
350
20850
  3
Flat
350
20842
  3
FlatWithEdges
350
20843
  3
Gouraud
350
20844
  3
GouraudWithEdges
350
20845
  3
Linepattern
350
2084F
  3
Realistic
350
2096E
  3
Thicken
350
2084E
  0
DICTIONARY
  5
66
102
{ACAD_REACTORS
330
C
102
}
330
C
100
AcDbDictionary
281
     1
  3
CTABLESTYLE
350
208C8
  3
DIMASSOC
350
67
  3
HIDETEXT
350
6B
  3
INDEXCTL
350
2093D
  3
SORTENTS
350
2093C
  0
XRECORD
  5
20A0C
102
{ACAD_REACTORS
330
C
102
}
330
C
100
AcDbXrecord
280
     1
  1
DWGPROPS COOKIE
  2

  3

  4

  6

  7

  8
nnguyen
  9

300
=
301
=
302
=
303
=
304
=
305
=
306
=
307
=
308
=
309
=
 40
1.402586874999999
 41
2453349.05520706
 42
2454922.460016435
  1

 90
        0
  0
DICTIONARY
  5
20965
102
{ACAD_REACTORS
330
20964
102
}
330
20964
100
AcDbDictionary
281
     1
  0
XRECORD
  5
20A19
102
{ACAD_REACTORS
330
20A18
102
}
330
20A18
100
AcDbXrecord
280
     1
102
SHADEPLOT
 70
     0
  0
XRECORD
  5
20A1B
102
{ACAD_REACTORS
330
20A1A
102
}
330
20A1A
100
AcDbXrecord
280
     1
102
SHADEPLOT
 70
     0
  0
LAYOUT
  5
2094A
102
{ACAD_XDICTIONARY
360
20967
102
}
102
{ACAD_REACTORS
330
1A
102
}
330
1A
100
AcDbPlotSettings
  1

  2
Fax
  4
Letter
  6

 40
3.174999952316284
 41
3.174999952316284
 42
3.175003051757812
 43
3.17498779296875
 44
215.8999938964844
 45
279.3999938964844
 46
0.0
 47
0.0
 48
0.0
 49
0.0
140
0.0
141
0.0
142
1.0
143
1.0
 70
   688
 72
     0
 73
     1
 74
     5
  7
monochrome.ctb
 75
    16
147
1.0
148
0.0
149
0.0
100
AcDbLayout
  1
Layout1
 70
     1
 71
     1
 10
-0.1249995194082185
 20
-0.1249999981226884
 11
10.87500024029589
 21
8.37499976158142
 12
0.0
 22
0.0
 32
0.0
 14
1.07500002421732
 24
0.8249999641433474
 34
0.0
 15
9.675000217955883
 25
7.890509470649353
 35
0.0
146
0.0
 13
0.0
 23
0.0
 33
0.0
 16
1.0
 26
0.0
 36
0.0
 17
0.0
 27
1.0
 37
0.0
 76
     0
330
20949
331
2095D
1001
ACAD_PSEXT
1000
Fax
1000
Microsoft Shared Fax Driver
1000
SHRFAX:
1000

1070
     0
  0
LAYOUT
  5
22
102
{ACAD_XDICTIONARY
360
20A0D
102
}
102
{ACAD_REACTORS
330
1A
102
}
330
1A
100
AcDbPlotSettings
  1

  2
Adobe PDF
  4
Letter
  6

 40
3.174999952316284
 41
3.174999952316284
 42
3.175003051757812
 43
3.17498779296875
 44
215.8999938964844
 45
279.3999938964844
 46
30.17239010867247
 47
0.0
 48
0.0
 49
0.0
140
0.0
141
0.0
142
1.0
143
10.86270586859269
 70
 11956
 72
     0
 73
     1
 74
     1
  7
monochrome.ctb
 75
     0
147
0.0920580941891556
148
-209.2037858713711
149
-280.9764321959796
100
AcDbLayout
  1
Model
 70
     1
 71
     0
 10
0.0
 20
0.0
 11
12.0
 21
9.0
 12
0.0
 22
0.0
 32
0.0
 14
0.0
 24
0.0
 34
0.0
 15
0.0
 25
0.0
 35
0.0
146
0.0
 13
0.0
 23
0.0
 33
0.0
 16
1.0
 26
0.0
 36
0.0
 17
0.0
 27
1.0
 37
0.0
 76
     0
330
1F
331
2083C
1001
ACAD_PSEXT
1000
Adobe PDF
1000
Adobe PDF Converter
1000
My Documents
1000

1070
     0
  0
MATERIAL
  5
2083F
102
{ACAD_XDICTIONARY
360
20A11
102
}
102
{ACAD_REACTORS
330
1B05E
102
}
330
1B05E
100
AcDbMaterial
  1
ByBlock
  0
MATERIAL
  5
2083E
102
{ACAD_XDICTIONARY
360
20A0F
102
}
102
{ACAD_REACTORS
330
1B05E
102
}
330
1B05E
100
AcDbMaterial
  1
ByLayer
  0
MATERIAL
  5
20840
102
{ACAD_XDICTIONARY
360
20A13
102
}
102
{ACAD_REACTORS
330
1B05E
102
}
330
1B05E
100
AcDbMaterial
  1
Global
  0
MLINESTYLE
  5
18
102
{ACAD_REACTORS
330
17
102
}
330
17
100
AcDbMlineStyle
  2
STANDARD
 70
     0
  3

 62
   256
 51
90.0
 52
90.0
 71
     2
 49
0.5
 62
   256
  6
BYLAYER
 49
-0.5
 62
   256
  6
BYLAYER
  0
ACDBPLACEHOLDER
  5
F
102
{ACAD_REACTORS
330
E
102
}
330
E
  0
TABLESTYLE
  5
20853
102
{ACAD_XDICTIONARY
360
20A15
102
}
102
{ACAD_REACTORS
330
20852
102
}
330
20852
100
AcDbTableStyle
  3
Standard
 70
     0
 71
     0
 40
0.06
 41
0.06
280
     0
281
     0
  7
Standard
140
0.18
170
     2
 62
     0
 63
     7
283
     0
274
    -2
284
     1
 64
     0
275
    -2
285
     1
 65
     0
276
    -2
286
     1
 66
     0
277
    -2
287
     1
 67
     0
278
    -2
288
     1
 68
     0
279
    -2
289
     1
 69
     0
  7
Standard
140
0.25
170
     5
 62
     0
 63
     7
283
     0
274
    -2
284
     1
 64
     0
275
    -2
285
     1
 65
     0
276
    -2
286
     1
 66
     0
277
    -2
287
     1
 67
     0
278
    -2
288
     1
 68
     0
279
    -2
289
     1
 69
     0
  7
Standard
140
0.18
170
     5
 62
     0
 63
     7
283
     0
274
    -2
284
     1
 64
     0
275
    -2
285
     1
 65
     0
276
    -2
286
     1
 66
     0
277
    -2
287
     1
 67
     0
278
    -2
288
     1
 68
     0
279
    -2
289
     1
 69
     0
  0
VISUALSTYLE
  5
20847
102
{ACAD_REACTORS
330
20841
102
}
330
20841
100
AcDbVisualStyle
  2
2dWireframe
 70
     4
 71
     0
 72
     2
 73
     0
 90
        0
 40
-0.6
 41
-30.0
 62
     5
 63
     7
 74
     1
 91
        4
 64
     7
 65
   257
 75
     1
175
     1
 42
1.0
 92
        0
 66
   257
 43
1.0
 76
     1
 77
     6
 78
     2
 67
     7
 79
     5
170
     0
171
     0
290
     0
174
     0
 93
        1
 44
0.0
173
     0
291
     0
 45
0.0
1001
ACAD
1000
AcDbSavedByObjectVersion
1070
     0
  0
VISUALSTYLE
  5
2096C
102
{ACAD_REACTORS
330
20841
102
}
330
20841
100
AcDbVisualStyle
  2
3D Hidden
 70
     6
 71
     1
 72
     2
 73
     2
 90
        0
 40
-0.6
 41
-30.0
 62
     5
 63
     7
 74
     2
 91
        2
 64
     7
 65
   257
 75
     2
175
     1
 42
40.0
 92
        0
 66
   257
 43
1.0
 76
     1
 77
     6
 78
     2
 67
     7
 79
     3
170
     0
171
     0
290
     0
174
     0
 93
        1
 44
0.0
173
     0
291
     0
 45
0.0
1001
ACAD
1000
AcDbSavedByObjectVersion
1070
     0
  0
VISUALSTYLE
  5
2096B
102
{ACAD_REACTORS
330
20841
102
}
330
20841
100
AcDbVisualStyle
  2
3dWireframe
 70
     5
 71
     0
 72
     2
 73
     0
 90
        0
 40
-0.6
 41
-30.0
 62
     5
 63
     7
 74
     1
 91
        4
 64
     7
 65
   257
 75
     1
175
     1
 42
1.0
 92
        0
 66
   257
 43
1.0
 76
     1
 77
     6
 78
     2
 67
     7
 79
     5
170
     0
171
     0
290
     0
174
     0
 93
        1
 44
0.0
173
     0
291
     0
 45
0.0
1001
ACAD
1000
AcDbSavedByObjectVersion
1070
     0
  0
VISUALSTYLE
  5
20846
102
{ACAD_REACTORS
330
20841
102
}
330
20841
100
AcDbVisualStyle
  2
Basic
 70
     7
 71
     1
 72
     0
 73
     1
 90
        0
 40
-0.6
 41
-30.0
 62
     5
 63
     7
 74
     0
 91
        4
 64
     7
 65
   257
 75
     1
175
     1
 42
1.0
 92
        8
 66
     7
 43
1.0
 76
     1
 77
     6
 78
     2
 67
     7
 79
     5
170
     0
171
     0
290
     0
174
     0
 93
        1
 44
0.0
173
     0
291
     1
 45
0.0
1001
ACAD
1000
AcDbSavedByObjectVersion
1070
     0
  0
VISUALSTYLE
  5
2084D
102
{ACAD_REACTORS
330
20841
102
}
330
20841
100
AcDbVisualStyle
  2
Brighten
 70
    12
 71
     2
 72
     2
 73
     0
 90
        0
 40
-0.6
 41
-30.0
 62
     5
 63
     7
 74
     1
 91
        4
 64
     7
 65
   257
 75
     1
175
     1
 42
1.0
 92
        8
 66
     7
 43
1.0
 76
     1
 77
     6
 78
     2
 67
     7
 79
     5
170
     0
171
     0
290
     0
174
     0
 93
        1
 44
50.0
173
     0
291
     1
 45
0.0
1001
ACAD
1000
AcDbSavedByObjectVersion
1070
     0
  0
VISUALSTYLE
  5
20851
102
{ACAD_REACTORS
330
20841
102
}
330
20841
100
AcDbVisualStyle
  2
ColorChange
 70
    16
 71
     2
 72
     2
 73
     3
 90
        0
 40
-0.6
 41
-30.0
 62
     5
 63
     8
 74
     1
 91
        4
 64
     7
 65
   257
 75
     1
175
     1
 42
1.0
 92
        8
 66
     8
 43
1.0
 76
     1
 77
     6
 78
     2
 67
     7
 79
     5
170
     0
171
     0
290
     0
174
     0
 93
        1
 44
0.0
173
     0
291
     1
 45
0.0
1001
ACAD
1000
AcDbSavedByObjectVersion
1070
     0
  0
VISUALSTYLE
  5
2096D
102
{ACAD_REACTORS
330
20841
102
}
330
20841
100
AcDbVisualStyle
  2
Conceptual
 70
     9
 71
     3
 72
     2
 73
     0
 90
        0
 40
-0.6
 41
-30.0
 62
     5
 63
     7
 74
     2
 91
        2
 64
     7
 65
   257
 75
     1
175
     1
 42
40.0
 92
        8
 66
     7
 43
1.0
 76
     1
 77
     6
 78
     2
 67
     7
 79
     3
170
     0
171
     0
290
     0
174
     0
 93
        1
 44
0.0
173
     0
291
     0
 45
0.0
1001
ACAD
1000
AcDbSavedByObjectVersion
1070
     0
  0
VISUALSTYLE
  5
2084C
102
{ACAD_REACTORS
330
20841
102
}
330
20841
100
AcDbVisualStyle
  2
Dim
 70
    11
 71
     2
 72
     2
 73
     0
 90
        0
 40
-0.6
 41
-30.0
 62
     5
 63
     7
 74
     1
 91
        4
 64
     7
 65
   257
 75
     1
175
     1
 42
1.0
 92
        8
 66
     7
 43
1.0
 76
     1
 77
     6
 78
     2
 67
     7
 79
     5
170
     0
171
     0
290
     0
174
     0
 93
        1
 44
-50.0
173
     0
291
     1
 45
0.0
1001
ACAD
1000
AcDbSavedByObjectVersion
1070
     0
  0
VISUALSTYLE
  5
20850
102
{ACAD_REACTORS
330
20841
102
}
330
20841
100
AcDbVisualStyle
  2
Facepattern
 70
    15
 71
     2
 72
     2
 73
     0
 90
        0
 40
-0.6
 41
-30.0
 62
     5
 63
     7
 74
     1
 91
        4
 64
     7
 65
   257
 75
     1
175
     1
 42
1.0
 92
        8
 66
     7
 43
1.0
 76
     1
 77
     6
 78
     2
 67
     7
 79
     5
170
     0
171
     0
290
     0
174
     0
 93
        1
 44
0.0
173
     0
291
     1
 45
0.0
1001
ACAD
1000
AcDbSavedByObjectVersion
1070
     0
  0
VISUALSTYLE
  5
20842
102
{ACAD_REACTORS
330
20841
102
}
330
20841
100
AcDbVisualStyle
  2
Flat
 70
     0
 71
     2
 72
     1
 73
     1
 90
        2
 40
-0.6
 41
30.0
 62
     5
 63
     7
 74
     0
 91
        4
 64
     7
 65
   257
 75
     1
175
     1
 42
1.0
 92
        8
 66
     7
 43
1.0
 76
     1
 77
     6
 78
     2
 67
     7
 79
     5
170
     0
171
     0
290
     0
174
     0
 93
       13
 44
0.0
173
     0
291
     1
 45
0.0
1001
ACAD
1000
AcDbSavedByObjectVersion
1070
     0
  0
VISUALSTYLE
  5
20843
102
{ACAD_REACTORS
330
20841
102
}
330
20841
100
AcDbVisualStyle
  2
FlatWithEdges
 70
     1
 71
     2
 72
     1
 73
     1
 90
        2
 40
-0.6
 41
30.0
 62
     5
 63
     7
 74
     1
 91
        4
 64
     7
 65
   257
 75
     1
175
     1
 42
1.0
 92
        0
 66
   257
 43
1.0
 76
     1
 77
     6
 78
     2
 67
     7
 79
     5
170
     0
171
     0
290
     0
174
     0
 93
       13
 44
0.0
173
     0
291
     1
 45
0.0
1001
ACAD
1000
AcDbSavedByObjectVersion
1070
     0
  0
VISUALSTYLE
  5
20844
102
{ACAD_REACTORS
330
20841
102
}
330
20841
100
AcDbVisualStyle
  2
Gouraud
 70
     2
 71
     2
 72
     2
 73
     1
 90
        2
 40
-0.6
 41
30.0
 62
     5
 63
     7
 74
     0
 91
        4
 64
     7
 65
   257
 75
     1
175
     1
 42
1.0
 92
        0
 66
     7
 43
1.0
 76
     1
 77
     6
 78
     2
 67
     7
 79
     5
170
     0
171
     0
290
     0
174
     0
 93
       13
 44
0.0
173
     0
291
     1
 45
0.0
1001
ACAD
1000
AcDbSavedByObjectVersion
1070
     0
  0
VISUALSTYLE
  5
20845
102
{ACAD_REACTORS
330
20841
102
}
330
20841
100
AcDbVisualStyle
  2
GouraudWithEdges
 70
     3
 71
     2
 72
     2
 73
     1
 90
        2
 40
-0.6
 41
30.0
 62
     5
 63
     7
 74
     1
 91
        4
 64
     7
 65
   257
 75
     1
175
     1
 42
1.0
 92
        0
 66
   257
 43
1.0
 76
     1
 77
     6
 78
     2
 67
     7
 79
     5
170
     0
171
     0
290
     0
174
     0
 93
       13
 44
0.0
173
     0
291
     1
 45
0.0
1001
ACAD
1000
AcDbSavedByObjectVersion
1070
     0
  0
VISUALSTYLE
  5
2084F
102
{ACAD_REACTORS
330
20841
102
}
330
20841
100
AcDbVisualStyle
  2
Linepattern
 70
    14
 71
     2
 72
     2
 73
     0
 90
        0
 40
-0.6
 41
-30.0
 62
     5
 63
     7
 74
     1
 91
        4
 64
     7
 65
   257
 75
     7
175
     7
 42
1.0
 92
        8
 66
     7
 43
1.0
 76
     1
 77
     6
 78
     2
 67
     7
 79
     5
170
     0
171
     0
290
     0
174
     0
 93
        1
 44
0.0
173
     0
291
     1
 45
0.0
1001
ACAD
1000
AcDbSavedByObjectVersion
1070
     0
  0
VISUALSTYLE
  5
2096E
102
{ACAD_REACTORS
330
20841
102
}
330
20841
100
AcDbVisualStyle
  2
Realistic
 70
     8
 71
     2
 72
     2
 73
     0
 90
        0
 40
-0.6
 41
-30.0
 62
     5
 63
     7
 74
     1
 91
        0
 64
     7
 65
   257
 75
     1
175
     1
 42
1.0
 92
        8
 66
     8
 43
1.0
 76
     1
 77
     6
 78
     2
 67
     7
 79
     5
170
     0
171
     0
290
     0
174
     0
 93
       13
 44
0.0
173
     0
291
     0
 45
0.0
1001
ACAD
1000
AcDbSavedByObjectVersion
1070
     0
  0
VISUALSTYLE
  5
2084E
102
{ACAD_REACTORS
330
20841
102
}
330
20841
100
AcDbVisualStyle
  2
Thicken
 70
    13
 71
     2
 72
     2
 73
     0
 90
        0
 40
-0.6
 41
-30.0
 62
     5
 63
     7
 74
     1
 91
        4
 64
     7
 65
   257
 75
     1
175
     1
 42
1.0
 92
       12
 66
     7
 43
1.0
 76
     1
 77
     6
 78
     2
 67
     7
 79
     5
170
     0
171
     0
290
     0
174
     0
 93
        1
 44
0.0
173
     0
291
     1
 45
0.0
1001
ACAD
1000
AcDbSavedByObjectVersion
1070
     0
  0
DICTIONARYVAR
  5
208C8
102
{ACAD_REACTORS
330
66
102
}
330
66
100
DictionaryVariables
280
     0
  1
STANDARD
  0
DICTIONARYVAR
  5
67
102
{ACAD_REACTORS
330
66
102
}
330
66
100
DictionaryVariables
280
     0
  1
2
  0
DICTIONARYVAR
  5
6B
102
{ACAD_REACTORS
330
66
102
}
330
66
100
DictionaryVariables
280
     0
  1
1
  0
DICTIONARYVAR
  5
2093D
102
{ACAD_REACTORS
330
66
102
}
330
66
100
DictionaryVariables
280
     0
  1
0
  0
DICTIONARYVAR
  5
2093C
102
{ACAD_REACTORS
330
66
102
}
330
66
100
DictionaryVariables
280
     0
  1
127
  0
DICTIONARY
  5
20967
330
2094A
100
AcDbDictionary
280
     1
281
     1
  3
ACAD_XREC_ROUNDTRIP
360
20A17
  3
ADSK_XREC_LAYOUTTHUMBNAIL
360
20968
  0
DICTIONARY
  5
20A0D
330
22
100
AcDbDictionary
280
     1
281
     1
  3
ACAD_XREC_ROUNDTRIP
360
20A0E
  0
DICTIONARY
  5
20A11
330
2083F
100
AcDbDictionary
280
     1
281
     1
  3
ACAD_XREC_ROUNDTRIP
360
20A12
  0
DICTIONARY
  5
20A0F
330
2083E
100
AcDbDictionary
280
     1
281
     1
  3
ACAD_XREC_ROUNDTRIP
360
20A10
  0
DICTIONARY
  5
20A13
330
20840
100
AcDbDictionary
280
     1
281
     1
  3
ACAD_XREC_ROUNDTRIP
360
20A14
  0
DICTIONARY
  5
20A15
330
20853
100
AcDbDictionary
280
     1
281
     1
  3
ACAD_XREC_ROUNDTRIP
360
20A16
  0
XRECORD
  5
20A17
102
{ACAD_REACTORS
330
20967
102
}
330
20967
100
AcDbXrecord
280
     1
102
SHADEPLOT
 70
     0
102
SHADEPLOTRESLEVEL
 70
     2
102
SHADEPLOTCUSTOMDPI
 70
   300
  0
XRECORD
  5
20968
102
{ACAD_REACTORS
330
20967
102
}
330
20967
100
AcDbXrecord
280
     1
310
28000000B40000008A0000000100080000000000086100000000000000000000000100000000000000000000000000007F7F00000000000000000000000000000000000000000000000000000000000000000000330000006600000099000000CC000000FF00000000330000333300006633000099330000CC330000FF3300
310
0000660000336600006666000099660000CC660000FF66000000990000339900006699000099990000CC990000FF99000000CC000033CC000066CC000099CC0000CCCC0000FFCC000000FF000033FF000066FF000099FF0000CCFF0000FFFF000000003300330033006600330099003300CC003300FF003300003333003333
310
33006633330099333300CC333300FF33330000663300336633006666330099663300CC663300FF66330000993300339933006699330099993300CC993300FF99330000CC330033CC330066CC330099CC3300CCCC3300FFCC330000FF330033FF330066FF330099FF3300CCFF3300FFFF330000006600330066006600660099
310
006600CC006600FF00660000336600333366006633660099336600CC336600FF33660000666600336666006666660099666600CC666600FF66660000996600339966006699660099996600CC996600FF99660000CC660033CC660066CC660099CC6600CCCC6600FFCC660000FF660033FF660066FF660099FF6600CCFF6600
310
FFFF660000009900330099006600990099009900CC009900FF00990000339900333399006633990099339900CC339900FF33990000669900336699006666990099669900CC669900FF66990000999900339999006699990099999900CC999900FF99990000CC990033CC990066CC990099CC9900CCCC9900FFCC990000FF99
310
0033FF990066FF990099FF9900CCFF9900FFFF99000000CC003300CC006600CC009900CC00CC00CC00FF00CC000033CC003333CC006633CC009933CC00CC33CC00FF33CC000066CC003366CC006666CC009966CC00CC66CC00FF66CC000099CC003399CC006699CC009999CC00CC99CC00FF99CC0000CCCC0033CCCC0066CC
310
CC0099CCCC00CCCCCC00FFCCCC0000FFCC0033FFCC0066FFCC0099FFCC00CCFFCC00FFFFCC000000FF003300FF006600FF009900FF00CC00FF00FF00FF000033FF003333FF006633FF009933FF00CC33FF00FF33FF000066FF003366FF006666FF009966FF00CC66FF00FF66FF000099FF003399FF006699FF009999FF00CC
310
99FF00FF99FF0000CCFF0033CCFF0066CCFF0099CCFF00CCCCFF00FFCCFF0000FFFF0033FFFF0066FFFF0099FFFF00CCFFFF00FFFFFF00000000000D0D0D001A1A1A00282828003535350043434300505050005D5D5D006B6B6B00787878008686860093939300A1A1A100AEAEAE00BBBBBB00C9C9C900D6D6D600E4E4E400
310
F1F1F100FFFFFF0000000000000000000000000000000000000000000000000000000000000000000000000000000000F5F5F5F5F5F5F5F5F5F5F5F5F5F5F5F5F5F5F5F5F5F5F5F5F5F5F5F5F5F5F5F5F5F5F5F5F5F5F5F5F5F5F5F5F5F5F5F5F5F5F5F5F5F5F5F5F5F5F5F5F5F5F5F5F5F5F5F5F5F5F5F5F5F5F5F5F5F5F5
310
F5F5F5F5F5F5F5F5F5F5F5F5F5F5F5F5F5F5F5F5F5F5F5F5F5F5F5F5F5F5F5F5F5F5F5F5F5F5F5F5F5F5F5F5F5F5F5F5F5F5F5F5F5F5F5F5F5F5F5F5F5F5F5F5F5F5F5F5F5F5F5F5F5F5F5F5F5F5F5F5F5F5F5F5F5F5F5F5F5F5F5F5F5F5F5F5F5F5F5EFEFF5E2E2E2E2E2E2E2E2E2E2E2E2E2E2E2E2E2E2E2E2E2E2E2E2E2
310
E2E2E2E2E2E2E2E2E2E2E2E2E2E2E2E2E2E2E2E2E2E2E2E2E2E2E2E2E2E2E2E2E2E2E2E2E2E2E2E2E2E2E2E2E2E2E2E2E2E2E2E2E2E2E2E2E2E2E2E2E2E2E2E2E2E2E2E2E2E2E2E2E2E2E2E2E2E2E2E2E2E2E2E2E2E2E2E2E2E2E2E2E2E2E2E2E2E2E2E2E2E2E2E2E2E2E2E2E2E2E2E2E2E2E2E2E2E2E2E2E2E2E2E2E2E2E2
310
E2E2E2E2E2E2E2E2E2E2E2E2E2E2E2E2E2E2E2E2E2E2E2F5F5EFEFF5E2F5F5F5F5F5F5F5F5E2E2E2E2E2E2E2E2E2F5F5F5F5F5F5F5F5F5F5F5F5F5F5F5F5E2E2E2E2E2E2E2E2E2F5F5F5F5F5F5F5F5F5F5F5F5F5F5F5F5E2E2E2E2E2E2E2E2F5F5F5F5F5F5F5F5F5F5F5F5F5F5F5F5E2E2E2E2E2E2E2E2E2F5F5F5F5F5F5F5
310
F5F5F5F5F5F5F5F5F5E2E2E2E2E2E2E2E2F5F5F5F5F5F5F5F5F5F5F5F5F5F5F5F5E2E2E2E2E2E2E2E2E2F5F5F5F5F5F5F5F5F5F5F5F5F5F5F5F5E2E2E2E2E2E2E2E2E2F5F5F5F5F5F5F5F5E2F5F5EFEFF5E2F5E2E2E2E2E2E2E2E2E2E2E2E2E2E2E2E2E2E2E2E2E2E2E2E2E2E2E2E2E2E2E2E2E2E2E2E2E2E2E2E2E2E2E2E2
310
E2E2E2E2E2E2E2E2E2E2E2E2E2E2E2E2E2E2E2E2E2E2E2E2E2E2E2E2E2E2E2E2E2E2E2E2E2E2E2E2E2E2E2E2E2E2E2E2E2E2E2E2E2E2E2E2E2E2E2E2E2E2E2E2E2E2E2E2E2E2E2E2E2E2E2E2E2E2E2E2E2E2E2E2E2E2E2E2E2E2E2E2E2E2E2E2E2E2E2E2E2E2E2E2E2E2E2E2E2E2E2E2E2E2E2E2E2E2E2E2E2E2E2E2E2E2E2
310
F5E2F5F5EFEFF5E2F5E2E2E2E2E2E2E2E2E2E2E2E2E2E2E2E2E2E2E2E2E2E2E2E2E2E2E2E2E2E2E2E2E2E2E2E2E2E2E2E2E2E2E2E2E2E2E2E2E2E2E2E2E2E2E2E2E2E2E2E2E2E2E2E2E2E2E2E2E2E2E2E2E2E2E2E2E2E2E2E2E2E2E2E2E2E2E2E2E2E2E2E2E2E2E2E2E2E2E2E2E2E2E2E2E2E2E2E2E2E2E2E2E2E2E2E2E2E2
310
E2E2E2E2E2E2E2E2E2E2E2E2E2E2E2E2E2E2E2E2E2E2E2E2E2E2E2E2E2E2E2E2E2E2E2E2E2E2E2E2E2E2E2E2E2E2E2E2E2E2E2E2E2F5E2F5F5EFEFF5E2F5E2E2E2E2E2E2E2E2E2E2E2E2E2E2E2E2E2E2E2E2E2E2E2E2E2E2E2E2E2E2E2E2E2E2E2E2E2E2E2E2E2E2E2E2E2E2E2E2E2E2E2E2E2E2E2E2E2E2E2E2E2E2E2E2E2
310
E2E2E2E2E2E2E2E2E2E2E2E2E2E2E2E2E2E2E2E2E2E2E2E2E2E2E2E2E2E2E2E2E2E2E2E2E2E2E2E2E2E2E2E2E2E2E2E2E2E2E2E2E2E2E2E2E2E2E2E2E2E2E2E2E2E2E2E2E2E2E2E2E2E2E2E2E2E2E2E2E2E2E2E2E2E2E2E2E2E2E2E2E2E2E2E2E2E2E2E2E2E2E2E2E2E2F5E2F5F5EFEFF5E2F5E2E2E2E2E2E2E2E2E2E2E2E2
310
E2E2E2E2E2E2E2E2E2E2E2E2E2E2E2E2E2E2E2E2E2E2E2E2E2E2E2E2E2E2E2E2E2E2E2E2E2E2E2E2E2E2E2E2E2E2E2E2E2E2E2E2E2E2E2E2E2E2E2E2E2E2E2E2E2E2E2E2E2E2E2E2E2E2E2E2E2E2E2E2E2E2E2E2E2E2E2E2E2E2E2E2E2E2E2E2E2E2E2E2E2E2E2E2E2E2E2E2E2E2E2E2E2E2E2E2E2E2E2E2E2E2E2E2E2E2E2
310
E2E2E2E2E2E2E2E2E2E2E2E2E2E2E2E2E2E2E2E2E2E2E2E2E2E2E2E2E2E2E2E2F5E2F5F5EFEFF5E2F5E2E2E2E2E2E2E2E2E2E2E2E2E2E2E2E2E2E2E2E2E2E2E2E2E2E2E2E2E2E2E2E2E2E2E2E2E2E2E2E2E2E2E2E2E2E2E2E2E2E2E2E2E2E2E2E2E2E2E2E2E2E2E2E2E2E2E2E2E2E2E2E2E2E2E2E2E2E2E2E2E2E2E2E2E2E2
310
E2E2E2E2E2E2E2E2E2E2E2E2E2E2E2E2E2E2E2E2E2E2E2E2E2E2E2E2E2E2E2E2E2E2E2E2E2E2E2E2E2E2E2E2E2E2E2E2E2E2E2E2E2E2E2E2E2E2E2E2E2E2E2E2E2E2E2E2E2E2E2E2E2E2E2E2E2E2E2E2E2E2E2E2E2F5E2F5F5EFEFF5E2F5E2E2E2E2E2E2E2E2E2E2E2E2E2E2E2E2E2E2E2E2E2E2E2E2E2E2E2E2E2E2E2E2E2
310
E2E2E2E2E2E2E2E2E2E2E2E2E2E2E2E2E2E2E2E2E2E2E2E2E2E2E2E2E2E2E2E2E2E2E2E2E2E2E2E2E2E2E2E2E2E2E2E2E2E2E2E2E2E2E2E2E2E2E2E2E2E2E2E2E2E2E2E2E2E2E2E2E2E2E2E2E2E2E2E2E2E2E2E2E2E2E2E2E2E2E2E2E2E2E2E2E2E2E2E2E2E2E2E2E2E2E2E2E2E2E2E2E2E2E2E2E2E2E2E2E2E2E2E2E2E2E2
310
E2E2E2E2E2E2E2E2E2E2E2F5E2F5F5EFEFF5E2F5E2E2E2E2E2E2E2E2E2E2E2E2E2E2E2E2E2E2E2E2E2E2E2E2E2E2E2E2E2E2E2E2E2E2E2E2E2E2E2E2E2E2E2E2E2E2E2E2E2E2E2E2E2E2E2E2E2E2E2E2E2E2E2E2E2E2E2E2E2E2E2E2E2E2E2E2E2E2E2E2E2E2E2E2E2E2E2E2E2E2E2E2E2E2E2E2E2E2E2E2E2E2E2E2E2E2E2
310
E2E2E2E2E2E2E2E2E2E2E2E2E2E2E2E2E2E2E2E2E2E2E2E2E2E2E2E2E2E2E2E2E2E2E2E2E2E2E2E2E2E2E2E2E2E2E2E2E2E2E2E2E2E2E2E2E2E2E2E2E2E2E2E2F5E2F5F5EFEFF5E2F5E2E2E2E2E2E2E2E2E2E2E2E2E2E2E2E2E2E2E2E2E2E2E2E2E2E2E2E2E2E2E2E2E2E2E2E2E2E2E2E2E2E2E2E2E2E2E2E2E2E2E2E2E2E2
310
E2E2E2E2E2E2E2E2E2E2E2E2E2E2E2E2E2E2E2E2E2E2E2E2E2E2E2E2E2E2E2E2E2E2E2E2E2E2E2E2E2E2E2E2E2E2E2E2E2E2E2E2E2E2E2E2E2E2E2E2E2E2E2E2E2E2E2E2E2E2E2E2E2E2E2E2E2E2E2E2E2E2E2E2E2E2E2E2E2E2E2E2E2E2E2E2E2E2E2E2E2E2E2E2E2E2E2E2E2E2E2E2E2E2E2E2E2F5E2F5F5EFEFF5E2E2E2
310
E2E2E2E2E2E2E2E2E2E2E2E2E2E2E2E2E2E2E2E2E2E2E2E2E2E2E2E2E2E2E2E2E2E2E2E2E2E2E2E2E2E2E2E2E2E2E2E2E2E2E2E2E2E2E2E2E2E2E2E2E2E2E2E2E2E2E2E2E2E2E2E2E2E2E2E2E2E2E2E2E2E2E2E2E2E2E2E2E2E2E2E2E2E2E2E2E2E2E2E2E2E2E2E2E2E2E2E2E2E2E2E2E2E2E2E2E2E2E2E2E2E2E2E2E2E2E2
310
E2E2E2E2E2E2E2E2E2E2E2E2E2E2E2E2E2E2E2E2E2E2E2E2E2E2E2E2E2E2E2E2E2E2E2E2E2E2E2E2E2E2E2E2E2F5F5EFEFF5E2E2E2E2E2E2E2E2E2E2E2E2E2E2E2E2E2E2E2E2E2E2E2E2E2E2E2E2E2E2E2E2E2E2E2E2E2E2E2E2E2E2E2E2E2E2E2E2E2E2E2E2E2E2E2E2E2E2E2E2E2E2E2E2E2E2E2E2E2E2E2E2E2E2E2E2E2
310
E2E2E2E2E2E2E2E2E2E2E2E2E2E2E2E2E2E2E2E2E2E2E2E2E2E2E2E2E2E2E2E2E2E2E2E2E2E2E2E2E2E2E2E2E2E2E2E2E2E2E2E2E2E2E2E2E2E2E2E2E2E2E2E2E2E2E2E2E2E2E2E2E2E2E2E2E2E2E2E2E2E2E2E2E2E2E2E2E2E2E2E2E2E2E2E2E2E2F5F5EFEFF5E2E2E2E2E2E2E2E2E2E2E2E2E2E2E2E2E2E2E2E2E2E2E2E2
310
E2E2E2E2E2E2E2E2E2E2E2E2E2E2E2E2E2E2E2E2E2E2E2E2E2E2E2E2E2E2E2E2E2E2E2E2E2E2E2E2E2E2E2E2E2E2E2E2E2E2E2E2E2E2E2E2E2E2E2E2E2E2E2E2E2E2E2E2E2E2E2E2E2E2E2E2E2E2E2E2E2E2E2E2E2E2E2E2E2E2E2E2E2E2E2E2E2E2E2E2E2E2E2E2E2E2E2E2E2E2E2E2E2E2E2E2E2E2E2E2E2E2E2E2E2E2E2
310
E2E2E2E2E2E2E2E2E2E2E2E2E2E2E2E2E2E2E2E2E2E2E2E2F5F5EFEFF5E2E2E2E2E2E2E2E2E2E2E2E2E2E2E2E2E2E2E2E2E2E2E2E2E2E2E2E2E2E2E2E2E2E2E2E2E2E2E2E2E2E2E2E2E2E2E2E2E2E2E2E2E2E2E2E2E2E2E2E2E2E2E2E2E2E2E2E2E2E2E2E2E2E2E2E2E2E2E2E2E2E2E2E2E2E2E2E2E2E2E2E2E2E2E2E2E2E2
310
E2E2E2E2E2E2E2E2E2E2E2E2E2E2E2E2E2E2E2E2E2E2E2E2E2E2E2E2E2E2E2E2E2E2E2E2E2E2E2E2E2E2E2E2E2E2E2E2E2E2E2E2E2E2E2E2E2E2E2E2E2E2E2E2E2E2E2E2E2E2E2E2E2E2E2E2E2F5F5EFEFF5E2E2E2E2E2E2E2E2E2E2E2E2E2E2E2E2E2E2E2E2E2E2E2E2E2E2E2E2E2E2E2E2E2E2E2E2E2E2E2E2E2E2E2E2E2
310
E2E2E2E2E2E2E2E2E2E2E2E2E2E2E2E2E2E2E2E2E2E2E2E2E2E2E2E2E2E2E2E2E2E2E2E2E2E2E2E2E2E2E2E2E2E2E2E2E2E2E2E2E2E2E2E2E2E2E2E2E2E2E2E2E2E2E2E2E2E2E2E2E2E2E2E2E2E2E2E2E2E2E2E2E2E2E2E2E2E2E2E2E2E2E2E2E2E2E2E2E2E2E2E2E2E2E2E2E2E2E2E2E2E2E2E2E2E2E2E2E2E2E2E2E2E2E2
310
E2E2E2F5F5EFEFF5E2E2E2E2E2E2E2E2E2E2E2E2E2E2E2E2E2E2F5F5F5F5F5F5F5F5F5F5F5F5F5F5F5F5F5F5F5F5F5F5F5F5F5F5F5F5F5F5F5F5F5F5F5F5F5F5F5F5F5F5F5F5F5F5F5F5F5F5F5F5F5F5F5F5F5F5F5F5F5F5F5F5F5F5F5F5F5F5F5F5F5F5F5F5F5F5F5F5F5F5F5F5F5F5F5F5F5F5F5F5F5F5F5F5F5F5F5F5F5
310
F5F5F5F5F5F5F5F5F5F5F5F5F5F5F5F5F5F5F5F5F5F5F5F5F5F5F5F5F5F5F5F5F5F5F5F5F5F5E2E2E2E2E2E2E2E2E2E2E2E2E2E2E2E2E2E2F5F5EFEFF5E2E2E2E2E2E2E2E2E2E2E2E2E2E2E2E2E2E2F5E2E2E2E2E2E2E2E2E2E2E2E2E2E2E2E2E2E2E2E2E2E2E2E2E2E2E2E2E2E2E2E2E2E2E2E2E2E2E2E2E2E2E2E2E2E2E2
310
E2E2E2E2E2E2E2E2E2E2E2E2E2E2E2E2E2E2E2E2E2E2E2E2E2E2E2E2E2E2E2E2E2E2E2E2E2E2E2E2E2E2E2E2E2E2E2E2E2E2E2E2E2E2E2E2E2E2E2E2E2E2E2E2E2E2E2E2E2E2E2E2E2E2E2E2E2E2E2E2E2E2E2E2E2E2E2E2E2E2F5E2E2E2E2E2E2E2E2E2E2E2E2E2E2E2E2E2E2F5F5EFEFF5E2E2E2E2E2E2E2E2E2E2E2E2E2
310
E2E2E2E2E2F5E2E2E2E2E2E2E2E2E2E2E2E2E2E2E2E2E2E2E2E2E2E2E2E2E2E2E2E2E2E2E2E2E2E2E2E2E2E2E2E2E2E2E2E2E2E2E2E2E2E2E2E2E2E2E2E2E2E2E2E2E2E2E2E2E2E2E2E2E2E2E2E2E2E2E2E2E2E2E2E2E2E2E2E2E2E2E2E2E2E2E2E2E2E2E2E2E2E2E2E2E2E2E2E2E2E2E2E2E2E2E2E2E2E2E2E2E2E2E2E2E2
310
E2E2E2E2E2E2E2E2E2E2E2E2E2E2E2E2F5E2E2E2E2E2E2E2E2E2E2E2E2E2E2E2E2E2E2F5F5EFEFF5E2E2E2E2E2E2E2E2E2E2E2E2E2E2E2E2E2E2F5E2E2E2E2E2E2E2E2E2E2E2E2E2E2E2E2E2E2E2E2E2E2E2E2E2E2E2E2E2E2E2E2E2E2E2E2E2E2E2E2E2E2E2E2E2E2E2E2E2E2E2E2E2E2E2E2E2E2E2E2E2E2E2E2E2E2E2E2
310
E2E2E2E2E2E2E2E2E2E2E2E2E2E2E2E2E2E2E2E2E2E2E2E2E2E2E2E2E2E2E2E2E2E2E2E2E2E2E2E2E2E2E2E2E2E2E2E2E2E2E2E2E2E2E2E2E2E2E2E2E2E2E2E2E2E2E2E2E2F5E2E2E2E2E2E2E2E2E2E2E2E2E2E2E2E2E2E2F5F5EFEFF5E2E2E2E2E2E2E2E2E2E2E2E2E2E2E2E2E2E2F5E2E2E2E2E2E2E2E2E2E2E2E2E2E2E2
310
E2E2E2E2E2E2E2E2E2E2E2E2E2E2E2E2E2E2E2E2E2E2E2E2E2E2E2E2E2E2E2E2E2E2E2E2E2E2E2E2E2E2E2E2E2E2E2E2E2E2E2E2E2E2E2E2E2E2E2E2E2E2E2E2E2E2E2E2E2E2E2E2E2E2E2E2E2E2E2E2E2E2E2E2E2E2E2E2E2E2E2E2E2E2E2E2E2E2E2E2E2E2E2E2E2E2E2E2E2E2E2E2E2E2E2E2E2E2E2E2E2E2F5E2E2E2E2
310
E2E2E2E2E2E2E2E2E2E2E2E2E2E2F5F5EFEFF5E2F5E2E2E2E2E2E2E2E2E2E2E2E2E2E2E2E2F5E2E2E2E2E2E2E2E2E2E2E2E2E2E2E2E2E2E2E2E2E2E2E2E2E2E2E2E2E2E2E2E2E2E2E2E2E2E2E2E2E2E2E2E2E2E2E2E2E2E2E2E2E2E2E2E2E2E2E2E2E2E2E2E2E2E2E2E2E2E2E2E2E2E2E2E2E2E2E2E2E2E2E2E2E2E2E2E2E2
310
E2E2E2E2E2E2E2E2E2E2E2E2E2E2E2E2E2E2E2E2E2E2E2E2E2E2E2E2E2E2E2E2E2E2E2E2E2E2E2E2E2E2E2E2E2E2E2E2F5E2E2E2E2E2E2E2E2E2E2E2E2E2E2E2E2F5E2F5F5EFEFF5E2F5E2E2E2E2E2E2E2E2E2E2E2E2E2E2E2E2F5E2E2E2E2E2E2E2E2E2E2E2E2E2E2E2E2E2E2E2E2E2E2E2E2E2E2E2E2E2E2E2E2E2E2E2E2
310
E2E2E2E2E2E2E2E2E2E2E2E2E2E2E2E2E2E2E2E2E2E2E2E2E2E2E2E2E2E2E2E2E2E2E2E2E2E2E2E2E2E2E2E2E2E2E2E2E2E2E2E2E2E2E2E2E2E2E2E2E2E2E2E2E2E2E2E2E2E2E2E2E2E2E2E2E2E2E2E2E2E2E2E2E2E2E2E2E2E2E2E2E2E2E2E2E2E2E2E2E2F5E2E2E2E2E2E2E2E2E2E2E2E2E2E2E2E2F5E2F5F5EFEFF5E2F5
310
E2E2E2E2E2E2E2E2E2E2E2E2E2E2E2E2F5E2E2E2E2E2E2E2E2E2E2E2E2E2E2E2E2E2E2E2E2E2E2E2E2E2E2E2E2E2E2E2E2E2E2E2E2E2E2E2E2E2E2E2E2E2E2E2E2E2E2E2E2E2E2E2E2E2E2E2E2E2E2E2E2E2E2E2E2E2E2E2E2E2E2E2E2E2E2E2E2E2E2E2E2E2E2E2E2E2E2E2E2E2E2E2E2E2E2E2E2E2E2E2E2E2E2E2E2E2E2
310
E2E2E2E2E2E2E2E2E2E2E2E2E2E2E2E2E2E2E2E2E2E2E2E2E2E2E2F5E2E2E2E2E2E2E2E2E2E2E2E2E2E2E2E2F5E2F5F5EFEFF5E2F5E2E2E2E2E2E2E2E2E2E2E2E2E2E2E2E2F5E2E2E2E2E2E2E2E2E2E2E2E2E2E2E2E2E2E2E2E2E2E2E2E2E2E2E2E2E2E2E2E2E2E2E2E2E2E2E2E2E2E2E2E2E2E2E2E2E2E2E2E2E2E2E2E2E2
310
E2E2E2E2E2E2E2E2E2E2E2E2E2E2E2E2E2E2E2E2E2E2E2E2E2E2E2E2E2E2E2E2E2E2E2E2E2E2E2E2E2E2E2E2E2E2E2E2E2E2E2E2E2E2E2E2E2E2E2E2E2E2E2E2E2E2E2E2E2E2E2E2E2E2E2E2E2E2E2E2F5E2E2E2E2E2E2E2E2E2E2E2E2E2E2E2E2F5E2F5F5EFEFF5E2F5E2E2E2E2E2E2E2E2E2E2E2E2E2E2E2E2F5E2E2E2E2
310
E2E2E2E2E2E2E2E2E2E2E2E2E2E2E2E2E2E2E2E2E2E2E2E2E2E2E2E2E2E2E2E2E2E2E2E2E2E2E2E2E2E2E2E2E2E2E2E2E2E2E2E2E2E2E2E2E2E2E2E2E2E2E2E2E2E2E2E2E2E2E2E2E2E2E2E2E2E2E2E2E2E2E2E2E2E2E2E2E2E2E2E2E2E2E2E2E2E2E2E2E2E2E2E2E2E2E2E2E2E2E2E2E2E2E2E2E2E2E2E2E2E2E2E2E2E2E2
310
E2E2E2E2E2E2F5E2E2E2E2E2E2E2E2E2E2E2E2E2E2E2E2F5E2F5F5EFEFF5E2F5E2E2E2E2E2E2E2E2E2E2E2E2E2E2E2E2F5E2E2E2E2E2E2E2E2E2E2E2E2E2E2E2E2E2E2E2E2E2E2E2E2E2E2E2E2E2E2E2E2E2E2E2E2E2E2E2E2E2E2E2E2E2E2E2E2E2E2E2E2E2E2E2E2E2E2E2E2E2E2E2E2E2E2E2E2E2E2E2E2E2E2E2E2E2E2
310
E2E2E2E2E2E2E2E2E2E2E2E2E2E2E2E2E2E2E2E2E2E2E2E2E2E2E2E2E2E2E2E2E2E2E2E2E2E2E2E2E2E2E2E2E2E2E2E2E2E2E2E2E2E2E2E2E2E2E2F5E2E2E2E2E2E2E2E2E2E2E2E2E2E2E2E2F5E2F5F5EFEFF5E2F5E2E2E2E2E2E2E2E2E2E2E2E2E2E2E2E2F5E2E2E2E2E2E2E2E2E2E2E2E2E2E2E2E2E2E2E2E2E2E2E2E2E2
310
E2E2E2E2E2E2E2E2E2E2E2E2E2E2E2E2E2E2E2E2E2E2E2E2E2E2E2E2E2E2E2E2E2E2E2E2E2E2E2E2E2E2E2E2E2E2E2E2E2E2E2E2E2E2E2E2E2E2E2E2E2E2E2E2E2E2E2E2E2E2E2E2E2E2E2E2E2E2E2E2E2E2E2E2E2E2E2E2E2E2E2E2E2E2E2E2E2E2E2E2E2E2E2E2E2E2E2E2E2E2E2E2F5E2E2E2E2E2E2E2E2E2E2E2E2E2E2
310
E2E2F5E2F5F5EFEFF5E2F5E2E2E2E2E2E2E2E2E2E2E2E2E2E2E2E2F5E2E2E2E2E2E2E2E2E2E2E2E2E2E2E2E2E2E2E2E2E2E2E2E2E2E2E2E2E2E2E2E2E2E2E2E2E2E2E2E2E2E2E2E2E2E2E2E2E2E2E2E2E2E2E2E2E2E2E2E2E2E2E2E2E2E2E2E2E2E2E2E2E2E2E2E2E2E2E2E2E2E2E2E2E2E2E2E2E2E2E2E2E2E2E2E2E2E2E2
310
E2E2E2E2E2E2E2E2E2E2E2E2E2E2E2E2E2E2E2E2E2E2E2E2E2E2E2E2E2E2E2E2E2E2E2E2E2E2F5E2E2E2E2E2E2E2E2E2E2E2E2E2E2E2E2F5E2F5F5EFEFF5E2F5E2E2E2E2E2E2E2E2E2E2E2E2E2E2E2E2F5E2E2E2E2E2E2E2E2E2E2E2E2E2E2E2E2E2E2E2E2E2E2E2E2E2E2E2E2E2E2E2E2E2E2E2E2E2E2E2E2E2E2E2E2E2E2
310
E2E2E2E2E2E2E2E2E2E2E2E2E2E2E2E2E2E2E2E2E2E2E2E2E2E2E2E2E2E2E2E2E2E2E2E2E2E2E2E2E2E2E2E2E2E2E2E2E2E2E2E2E2E2E2E2E2E2E2E2E2E2E2E2E2E2E2E2E2E2E2E2E2E2E2E2E2E2E2E2E2E2E2E2E2E2E2E2E2E2E2F5E2E2E2E2E2E2E2E2E2E2E2E2E2E2E2E2F5E2F5F5EFEFF5E2F5E2E2E2E2E2E2E2E2E2E2
310
E2E2E2E2E2E2F5E2E2E2E2E2E2E2E2E2E2E2E2E2E2E2E2E2E2E2E2E2E2E2E2E2E2E2E2E2E2E2E2E2E2E2E2E2E2E2E2E2E2E2E2E2E2E2E2E2E2E2E2E2E2E2E2E2E2E2E2E2E2E2E2E2E2E2E2E2E2E2E2E2E2E2E2E2E2E2E2E2E2E2E2E2E2E2E2E2E2E2E2E2E2E2E2E2E2E2E2E2E2E2E2E2E2E2E2E2E2E2E2E2E2E2E2E2E2E2E2
310
E2E2E2E2E2E2E2E2E2E2E2E2E2E2E2E2E2F5E2E2E2E2E2E2E2E2E2E2E2E2E2E2E2E2F5E2F5F5EFEFF5E2F5E2E2E2E2E2E2E2E2E2E2E2E2E2E2E2E2F5E2E2E2E2E2E2E2E2E2E2E2E2E2E2E2E2E2E2E2E2E2E2E2E2E2E2E2E2E2E2E2E2E2E2E2E2E2E2E2E2E2E2E2E2E2E2E2E2E2E2E2E2E2E2E2E2E2E2E2E2E2E2E2E2E2E2E2
310
E2E2E2E2E2E2E2E2E2E2E2E2E2E2E2E2E2E2E2E2E2E2E2E2E2E2E2E2E2E2E2E2E2E2E2E2E2E2E2E2E2E2E2E2E2E2E2E2E2E2E2E2E2E2E2E2E2E2E2E2E2E2E2E2E2E2E2E2E2E2F5E2E2E2E2E2E2E2E2E2E2E2E2E2E2E2E2F5E2F5F5EFEFF5E2F5E2E2E2E2E2E2E2E2E2E2E2E2E2E2E2E2F5E2E2E2E2E2E2E2E2E2E2E2E2E2E2
310
E2E2E2E2E2E2F5F5F5E2E2E2E2E2E2E2E2E2E2E2E2E2E2E2E2E2E2E2E2E2E2E2E2E2E2E2E2E2E2E2E2E2E2E2E2E2E2E2E2F5F5E2E2E2E22DE2E2E2E2E2E2E2E2E2E2E2E2E2E2E2E2E2E2E2E2E2E2E2E2E2E2E2E2E2E2E2E2E2E2E2E2E2F5F5F5E2E2E2E2E2E2E22DE2E2E2E2E2E2E2E2F5F5F5E2E2E2E2E2E2E2E2F5E2E2E2
310
E2E2E2E2E2E2E2E2E2E2E2E2E2F5E2F5F5EFEFF5E2F5E2E2E2E2E2E2E2E2E2E2E2E2E2E2E2E2F5E2E2E2F5F5F5F5F5F5F5F5F5F5F5F5F5F5F5F5F5F5F5F5F5F5F5F5F5F5F5F5F5F5F5F5F5F5F5F5F5F5F5F5F5F5F5F5F5F5F5F5F5F5F5F5F5F5F5F5F5F5F5F5F52DF5F52D2D2D2D2DF5F5F5F5F5F5F5E2E2E2E2E2E2E2E2E2
310
E2E2E2E2E2E2E2E2E2E2E2F5E2E2E2E2E2E2E2F52DF5E2E2F5F5F5F5F52DF5F5F5F5F5F5E2E2F5F5F5E2E2E2E2E2E2E2E2F5E2E2E2E2E2E2E2E2E2E2E2E2E2E2E2E2F5E2F5F5EFEFF5E2F5E2E2E2E2E2E2E2E2E2E2E2E2E2E2E2E2F5E2E2E2F5E2E2E2E2E2E2E2E2E2E2E2E2E2E2E2E22D2D2DE2E2E2E2E2E2E22D2D2D2D2D
310
2D2D2D2D2DE2E2E2E2E2E2E22D2D2D2D2D2D2D2D2D2D2D2D2D2D2D2D2D2D2D2D2D2D2D2D2D2D2DE2E2E2E2F5E2E2E2E2E2E2E2E2E2E2E2E2E2E2E2E2E2E2E2E2F5E2E2E2E2E2E2E2F52DF5F5F5E2E2E2E2E22DE2E2E2E2E2E2F5F5F5F5F5E2E2E2E2E2E2E2E2F5E2E2E2E2E2E2E2E2E2E2E2E2E2E2E2E2F5E2F5F5EFEFF5E2
310
F5E2E2E2E2E2E2E2E2E2E2E2E2E2E2E2E2F5E2E2E2F5E2E2E2E2E2E2E2E2E2E2E2E2E2E22D2D2D2D2D2D2D2D2D2D2D2D2DE2E2E2E2E2E2E22D2D2D2D2D2D2D2D2DE2E2E2E2E2E2E2E2E2E2E2E2E2E2E2E22DE2E2E2E2E22DE2E2E22D2DE2E2E2F5E2E2E2E2E2E2E2E2E2E2E2E2E2E2E2E2E2E2E2E2F5E2E2E2E2E2F5F5F5F5
310
E2E2E2E2E2E2E2E22DE2E2E2E2E2E2E2E2E2F5F5F5E2E2E2E2E2E2E2F5E2E2E2E2E2E2E2E2E2E2E2E2E2E2E2E2F5E2F5F5EFEFF5E2F5E2E2E2E2E2E2E2E2E2E2E2E2E2E2E2E2F5E2E2E2F5E2E2E2E2E2E2E2E2E2E2E2E2E22D2DE2E2E2E2E2E2E2E2E2E2E2E2E2E2E2E2E2E2E2E2E2E2E2E2E2E2E2E2E2E2E2E2E2E2E2E2E2
310
E2E2E2E2E2E2E2E2E2E2E2E2E22DE2E2E2E22DE2E2E2F5E2E2E2E2E2E2E2E2E2E2E2E2E2E2E2E2E2E2E2E2F5E2E2E2E2E2F5E2F52DE2E2E2E2E2E2E2E22DE2E2E2E2E2E2E2E2E22DF5E2F5E2E2E2E2E2E2F5E2E2E2E2E2E2E2E2E2E2E2E2E2E2E2E2F5E2F5F5EFEFF5E2F5E2E2E2E2E2E2E2E2E2E2E2E2E2E2E2E2F5E2E2E2
310
F5E2E2E2E2E2E2E2E2E2E2E2E22D2DE2E2E2E2E2E2E2E2E2E2E2E2E2E2E2E2E2E2E2E2E2E2E2E2E2E2E2E2E2E2E2E2E2E2E2E2E2E2E2E2E2E2E2E2E2E2E2E2E2E2E22DE2E2E2E22DE2E2E2F5E2E2E2E2E2E2E2E2E2E2E2E2E2E2E2E2E2E2E2E2F5E2E2E2E2F5F5E2E22DE2E2E2E2E2E2E2E22DE2E2E2E2E2E2E2E2E22DE2E2
310
F5E2E2E2E2E2E2F5E2E2E2E2E2E2E2E2E2E2E2E2E2E2E2E2F5E2F5F5EFEFF5E2E2E2E2E2E2E2E2E2E2E2E2E2E2E2E2E2E2F5E2E2E2F5E2E2E2E2E2E2E2E2E2E2E2F5F5F5F5F5F5F5F5F5F5F5F5F5F5F5F5F5F5F5F5F5F5F5F5F5F5F5F5F5F5F5F5F5F5F5F5F5F5F5F5F5F5F5F5F5F5F5F5F5F5F5F5E2E22DE2E2E2E22DE2E2
310
E2F5E2E2E2E2E2E2E2E2E2E2E2E2E2E2E2E2E2E2E2E2F5F5E2E2E2F5E2E2F5E2E2E2E2E2E2E2E2E22DE2E2E2E2E2E2E2E2E2E2F5E2F5E2E2E2E2E2E2F5E2E2E2E2E2E2E2E2E2E2E2E2E2E2E2E2E2E2F5F5EFEFF5E2E2E2E2E2E2E2E2E2E2E2E2E2E2E2E2E2E2F5E2E2E2F5E2E2E2E2E2E2E2E2E2F5F52D2DE2E2E2E2E2E2E2
310
E2E2E2E2E2E2E2E2E2E2E2E2E2E2E2E2E2E2E2E2E2E2E2E2E2E2E2E2E2E2E2E2E2E2E2E2E2E2E2E2E2E2F5F5F52DE2E2E2E22DE2E2E2F5E2E2E2E2E2E2E2E2E2E2E2E2E2E2E2E2E2E2E2E2F5F5E2E2E2F5E2E2F5E2E2E2E2E2E2E2E2E22DE2E2E2E2E2E2E2E2E2E2F5E2F5E2E2E2E2E2E2F5E2E2E2E2E2E2E2E2E2E2E2E2E2
310
E2E2E2E2E2F5F5EFEFF5E2E2E2E2E2E2E2E2E2E2E2E2E2E2E2E2E2E2F5E2E2E2F5E2E2E2E2E2E2E2E2E2F52D2DE2E2E2E2E2E2E2E2E2E2E2E2E2E2E2E2E2E2E2E2E2E2E2E2E2E2E2E2E2E2E2E2E2E2E2E2E2E2E2E2E2E2E2E2E2E2E2E2E2E2E2E2F52DE2E2E2E22DE2E2E2F5E2E2E2E2E2E2E2E2E2E2E2E2E2E2E2E2E2E2E2
310
E2F5F5E2E2E2F5E2E2F5E2E2E2E2E2E2E2E2E22DE2E2E2E2E2E2E2E2E2E2F5E2F5E2E2E2E2E2E2F5E2E2E2E2E2E2E2E2E2E2E2E2E2E2E2E2E2E2F5F5EFEFF5E2E2E2E2E2E2E2E2E2E2E2E2E2E2E2E2E2E2F5E2E2E2F5E2E2E2E2E2E2E2E2F5E22DE2E2E2E2E2E2E2E2E2E2E2E2E2E2E2E2E2E2E2E2E2E2E2E2E2E2E2E2E2E2
310
E2E2E2E2E2E2E2E2E2E2E2E2E2E2E2E2E2E2E2E2E2E2E2F5F5E2E2E2E22DE2E2E2F5E2E2E2E2E2E2E2E2E2E2E2E2E2E2E2E2E2E2E2E2F5F5E2E2E2F5E2F5E2E2E2E2E2E2E2E2E2E22DE2E2E2E2E2E2E2E2E2E2F5E2E2F5E2E2E2E2E2F5E2E2E2E2E2E2E2E2E2E2E2E2E2E2E2E2E2E2F5F5EFEFF5E2E2E2E2E2E2E2E2E2E2E2
310
E2E2E2E2E2E2E2F5E2E2E2F5E2E2E2E2E2E2E2E2F52D2DE2E2E2E2E2E2E2E2E2E2E2E2E2E2E2E2E2E2E2E2E2E2E2E2E2E2E2E2E2E2E2E2E2E2E2E2E2E2E2E2E2E2E2E2E2E2E2E2E2E2E2E2E2E2F5E2E2E2E22DE2E2E2F5E2E2E2E2E2E2E2E2E2E2E2E2E2E2E2E2E2E2E2E2F5F5E2E2E2F5E2F5E2E2E2E2E2E2E2E2E2E22DE2
310
E2E2E2E2E2E2E2E2E2E2F5E2F5E2E2E2E2E2F5E2E2E2E2E2E2E2E2E2E2E2E2E2E2E2E2E2E2F5F5EFEFF5E2E2E2E2E2E2E2E2E2E2E2E2E2E2E2E2E2E2F5E2E2F5E2E2E2E2E2E2E2E2E2F52DE2E2E2E2E2E2E2E2E2E2E2E2E2E2E2E2E2E2E2E2E2E2E2E2E2E2E2E2E2E2E2E2E2E2E2E2E2E2E2E2E2E2E2E2E2E2E2E2E2E2E2E2
310
E2E2E2F5E2E2E2E22DE2E2E2F5E2E2E2E2E2E2E2E2E2E2E2E2E2E2E2E2E2E2E2E2F5F5E2E2F5E2E2F5E2E2E2E2E2E2E2E2E2E22DE2E2E2E2E2E2E2E2E2E2E2F5E2F5E2E2E2E2E2F5E2E2E2E2E2E2E2E2E2E2E2E2E2E2E2E2E2E2F5F5EFEFF5E2E2E2E2E2E2E2E2E2E2E2E2E2E2E2E2E2E2F5E2E2F5E2E2E2E2E2E2E2E2E2F5
310
E2E2E2E2E2E2E2E2E2E2E2E2E2E2E2E2E2E2E2E2E2E2E2E2E2E2E2E2E2E2E2E2E2E2E2E2E2E2E2E2E2E2E2E2E2E2E2E2E2E2E2E2E2E2E2E2F5E2E2E2E2E22DE2E2F5E2E2E2E2E2E2E2E2E2E2E2E2E2E2E2E2E2E2E2E2F5F5E2E2F5E2E2F5E2E2E2E2E2E2E2E2E2E22DE2E2E2E2E2E2E2E2E2E2E2F5E2F5E2E2E2E2E2F5E2E2
310
E2E2E2E2E2E2E2E2E2E2E2E2E2E2E2E2F5F5EFEFF5E2E2E2E2E2E2E2E2E2E2E2E2E2E2E2E2E2E2F5E2E2F5E2E2E2E2E2E2E2E22DF5E2E2E2E2E2E2E2E2E2E2E2E2E2E2E2E2E2E2E2E2E2E2E2E2E2E2E2E2E2E2E2E2E2E2E2E2E2E2E2E2E2E2E2E2E2E2E2E2E2E2E2E2E2E2E2E2F5E2E2E2E2E22DE2E2F5E2E2E2E2E2E2E2E2
310
E2E2E2E2E2E2E2E2E2E2E2E2F5F5E2E2F5E2E2F5E2E2E2E2E2E2E2E2E2E22DE2E2E2E2E2E2E2E2E2E2E2F5E2F5E2E2E2E2E2F5E2E2E2E2E2E2E2E2E2E2E2E2E2E2E2E2E2E2F5F5EFEFF5E2E2E2E2E2E2E2E2E2E2E2E2E2E2E2E2E2E2F5E2E2F5E2E2E2E2E2E2E22D2DF5E2E2E2E2E2E2E2E2E2E2E2E2E2E2E2E2E2E2E2E2E2
310
E2E2E2E2E2E2E2E2E2E2E2E2E2E2E2E2E2E2E2E2E2E2E2E2E2E2E2E2E2E2E2E2E2E2E2F5E2E2E2E2E22DE2E2F5E2E2E2E2E2E2E2E2E2E2E2E2E2E2E2E2E2E2E2E2F5F5E2E2F5E2E2F5E2E2E2E2E2E2E2E2E2E22DE2E2E2E2E2E2E2E2E2E2E2F5E2F5E2E2E2E2E2F5E2E2E2E2E2E2E2E2E2E2E2E2E2E2E2E2E2E2F5F5EFEFF5
310
E2F5E2E2E2E2E2E2E2E2E2E2E2E2E2E2E2E2F5E2E2F5E2E2E2E2E2E2E22DE2F5E2E2E2E2E2E2E2E2E2E2E2E2E2E2E2E2E2E2E2E2E2E2E2E2E2E2E2E2E2E2E2E2E2E2E2E2E2E2E2E2E2E2E2E2E2E2E2E2E2E2E2E2E2E2E2E2F5E2E2E2E2E22DE2E2F5E2E2E2E2E2E2E2E2E2E2E2E2E2E2E2E2E2E2E2E2F5F5E2E2F5E2F5E2E2
310
E2E2E2E2E2E2E2E2F5F5F5F5E2E2E2E2E2E2E2E2E2F5E2E2F5E2E2E2E2F5E2E2E2E2E2E2E2E2E2E2E2E2E2E2E2E2F5E2F5F5EFEFF5E2F5E2E2E2E2E2E2E2E2E2E2E2E2E2E2E2E2F5E2E2F5E2E2E2E2E2E22DE2E2F5E2E2E2E2E2E2E2E2E2E2E2E2E2E2E2E2E2E2E2E2E2E2E2E2E2E2E2E2E2E2E2E2E2E2E2E2E2E2E2E2E2E2
310
E2E2E2E2E2E2E2E2E2E2E2E2E2E2F5E2E2E2E2E22DE2E2F5E2E2E2E2E2E2E2E2E2E2E2E2E2E2E2E2E2E2E2E2F5F5E2E2F5E2F5E2E2E2E2E2E2E2E2E22DF52D2DF52DE2E2E2E2E2E2E2E2E2F5E2F5E2E2E2E2F5E2E2E2E2E2E2E2E2E2E2E2E2E2E2E2E2F5E2F5F5EFEFF5E2F5E2E2E2E2E2E2E2E2E2E2E2E2E2E2E2E2F5E2E2
310
F5E2E2E2E2E2E22DE2E2F5E2E2E2E2E2E2E2E2E2E2E2E2E2E2E2E2E2E2E2E2E2E2E2E2E2E2E2E2E2E2E2E2E2E2E2E2E2E2E2E2E2E2E2E2E2E2E2E2E2E2E2E2E2E2E2E2F5E2E2E2E2E22DE2E2F5E2E2E2E2E2E2E2E2E2E2E2E2E2E2E2E2E2E2E2E2F5F5F5F5F5F5F5F5F5F5F5F5E2E2E2E2E2F5F5F5F5E2E2E2E2E2E2E2E2E2
310
E2F5E2F5E2E2E2E2F5E2E2E2E2E2E2E2E2E2E2E2E2E2E2E2E2F5E2F5F5EFEFF5E2F5E2E2E2E2E2E2E2E2E2E2E2E2E2E2E2E2F5E2E2F52DE2E2E2E22DE2E2E2E2E2E2E2E2E2E2E2E2E2E2E2E2E2E2E2E2E2E2E2E2E2E2E2E2E2E2E2E2E2E2E2E2E2E2E2E2E2E2E2E2E2E2E2E2E2E2E2E2E2E2E2E2E2E2E2E22DE2E2E2E2E22D
310
2DE22DE2E2E2E2E2E2E2E2E2E2E2E2E2E2E2E2E2E2E2E22DE2E2E2E2E2F5E2E2E2E2E2F5F5F5F5F5F52DF5F5F5F5F5F5F5F5F5F5E2E2F5E2F5E2E2E2E2F5E2E2E2E2E2E2E2E2E2E2E2E2E2E2E2E2F5E2F5F5EFEFF5E2F5E2E2E2E2E2E2E2E2E2E2E2E2E2E2E2E2F5E2E2F5F52D2D2D2D2DF5F5F5F5F5F5F5F5F5F5F5F5F5F5
310
F5F5F5F5F5F5F5F5F5F5F5F5F5F5F5F5F5F5F5F5F5F5F5F5F5F5F5F5F5F5F5F5F5F5F5F5F5F5F5F5F5F5F5F5F5F52DF5F5F5F5F52D2D2D2DE2E2E2E2E2E2E2E2E2E2E2E2E2E2E2E2E2E2E2E22D2D2D2D2D2D2D2D2D2D2D2D2D2D2DF5F5F52DF5F5F52D2D2D2D2D2D2D2D2D2D2D2D2D2D2D2DF5E2E2E2E2E2E2E2E2E2E2E2E2
310
E2E2E2E2F5E2F5F5EFEFF5E2F5E2E2E2E2E2E2E2E2E2E2E2E2E2E2E2E2F5E2E2F5F5F5F5F5F5F5F5F5F5F5F5F5F5F5F5F5F5F5F5F5F5F5F5F5F5F5F5F5F5F5F5F5F5F5F5F5F5F5F5F5F5F5F5F5F5F5F5F5F5F5F5F5F5F5F5F5F5F5F5F5F5F5F5F5F5F52DF5F5F5F5F5F5F5F5F5E2E2E2E2E2E2E2E2E2E2E2E2E2E2E2E2E2E2
310
E2E2E2F5F5F5F5F5F5F5F5F5F5F5F5F5F5F5F5F52DF5F5F5F5F5F5F5F5F5F5F5F5F5F5F5F5F5F5F5F5E2E2E2E2E2E2E2E2E2E2E2E2E2E2E2E2F5E2F5F5EFEFF5E2F5E2E2E2E2E2E2E2E2E2E2E2E2E2E2E2E2F5E2E2E2E2E2E2E2E2E2E2E2E2E2E2E2E2E2E2E2E2E2E2E2E2E2E2E2E2E2E2E2E2E2E2E2E2E2E2E2E2E2E2E2E2
310
E2E2E2E2E2E2E2E2E2E2E2E2E2E2E2E2E2E2E2E2E2E2E2E2E22DE2E2E2E2E2E2E2E2E2E2E2E2E2E2E2E2E2E2E2E2E2E2E2E2E2E2E2E2E2E2E2E2E2E2E2E2E2E2E2E2E2E2E2E2E2E2E22DE2E2E2E2E2E2E2E2E2E2E2E2E2E2E2E2E2E2E2F5E2E2E2E2E2E2E2E2E2E2E2E2E2E2E2E2F5E2F5F5EFEFF5E2F5E2E2E2E2E2E2E2E2
310
E2E2E2E2E2E2E2E2F5E2E2E2E2E2E2E2E2E2E2E2E2E2E2E2E2E2E2E2E2E2E2E2E2E2E2E2E2E2E2E2E2E2E2E2E2E2E2E2E2E2E2E2E2E2E2E2E2E2E2E2E2E2E2E2E2E2E2E2E2E2E2E2E2E2E2E2E2E2E2E2E2E2E2E2E2E2E2E2E2E2E2E2E2E2E2E2E2E2E2E2E2E2E2E2E2E2E2E2E2E2E2E2E2E2E2E2E2E2E2E2E2E2E2E2E2E22D
310
E2E2E2E2E2E2E2E2E2E2E2E2E2E2E2E2E2E2E2F5E2E2E2E2E2E2E2E2E2E2E2E2E2E2E2E2F5E2F5F5EFEFF5E2F5E2E2E2E2E2E2E2E2E2E2E2E2E2E2E2E2F5E2E2E2E2E2E2E2E2E2E2E2E2E2E2E2E2E2E2E2E2E2E2E2E2E2E2E2E2E2E2E2E2E2E2E2E2E2E2E2E2E2E2E2E2E2E2E2E2E2E2E2E2E2E2E2E2E2E2E2E2E2E2E2E2E2
310
E2E2E2E2E2E2E2E2E2E2E2E2E2E2E2E2E2E2E2E2E2E2E2E2E2E2E2E2E2E2E2E2E2E2E2E2E2E2E2E2E2E2E2E2E2E2E2E2E2E2E2E22DE2E2E2E2E2E2E2E2E2E2E2E2E2E2E2E2E2E2E2F5E2E2E2E2E2E2E2E2E2E2E2E2E2E2E2E2F5E2F5F5EFEFF5E2F5E2E2E2E2E2E2E2E2E2E2E2E2E2E2E2E2F5E2E2E2E2E2E2E2E2E2E2E2E2
310
E2E2E2E2E2E2E2E2E2E2E2E2E2E2E2E2E2E2E2E2E2E2E2E2E2E2E2E2E2E2E2E2E2E2E2E2E2E2E2E2E2E2E2E2E2E2E2E2E2E2E2E2E2E2E2E2E2E2E2E2E2E2E2E2E2E2E2E2E2E2E2E2E2E2E2E2E2E2E2E2E2E2E2E2E2E2E2E2E2E2E2E2E2E2E2E2E2E2E2E2E2E2E2E2E2E2E2E2E2E2E2E2E2E2E2E2E2E2E2E2E2E2E2E2E2F5E2
310
E2E2E2E2E2E2E2E2E2E2E2E2E2E2E2F5E2F5F5EFEFF5E2F5E2E2E2E2E2E2E2E2E2E2E2E2E2E2E2E2F5E2E2E2E2E2E2E2E2E2E2E2E2E2E2E2E2E2E2E2E2E2E2E2E2E2E2E2E2E2E2E2E2E2E2E2E2E2E2E2E2E2E2E2E2E2E2E2E2E2E2E2E2E2E2E2E2E2E2E2E2E2E2E2E2E2E2E2E2E2E2E2E2E2E2E2E2E2E2E2E2E2E2E2E2E2E2
310
E2E2E2E2E2E2E2E2E2E2E2E2E2E2E2E2E2E2E2E2E2E2E2E2E2E2E2E2E2E2E2E2E2E2E2E2E2E2E2E2E2E2E2E2E2E2E2E2E2E2E2F5E2E2E2E2E2E2E2E2E2E2E2E2E2E2E2E2F5E2F5F5EFEFF5E2F5E2E2E2E2E2E2E2E2E2E2E2E2E2E2E2E2F5E2E2E2E2E2E2E2E2E2E2E2E2E2E2E2E2E2E2E2E2E2E2E2E2E2E2E2E2E2E2E2E2E2
310
E2E2E2E2E2E2E2E2E2E2E2E2E2E2E2E2E2E2E2E2E2E2E2E2E2E2E2E2E2E2E2E2E2E2E2E2E2E2E2E2E2E2E2E2E2E2E2E2E2E2E2E2E2E2E2E2E2E2E2E2E2E2E2E2E2E2E2E2E2E2E2E2E2E2E2E2E2E2E2E2E2E2E2E2E2E2E2E2E2E2E2E2E2E2E2E2E2E2E2E2E2E2E2E2F5E2E2E2E2E2E2E2E2E2E2E2E2E2E2E2E2F5E2F5F5EFEF
310
F5E2F5E2E2E2E2E2E2E2E2E2E2E2E2E2E2E2E2F5E2E2E2E2E2E2E2E2E2E2E2E2E2E2E2E2E2E2E2E2E2E2E2E2E2E2E2E2E2E2E2E2E2E2E2E2E2E2E2E2E2E2E2E2E2E2E2E2E2E2E2E2E2E2E2E2E2E2E2E2E2E2E2E2E2E2E2E2E2E2E2E2E2E2E2E2E2E2E2E2E2E2E2E2E2E2E2E2E2E2E2E2E2E2E2E2E2E2E2E2E2E2E2E2E2E2E2
310
E2E2E2E2E2E2E2E2E2E2E2E2E2E2E2E2E2E2E2E2E2E2E2E2E2E2E2E2E2E2F5E2E2E2E2E2E2E2E2E2E2E2E2E2E2E2E2F5E2F5F5EFEFF5E2F5E2E2E2E2E2E2E2E2E2E2E2E2E2E2E2E2F5E2E2E2E2E2E2E2E2E2E2E2E2E2E2E2E2E2E2E2E2E2E2E2E2E2E2E2E2E2E2E2E2E2E2E2E2E2E2E2E2E2E2E2E2E2E2E2E2E2E2E2E2E2E2
310
E2E2E2E2E2E2E2E2E2E2E2E2E2E2E2E2E2E2E2E2E2E2E2E2E2E2E2E2E2E2E2E2E2E2E2E2E2E2E2E2E2E2E2E2E2E2E2E2E2E2E2E2E2E2E2E2E2E2E2E2E2E2E2E2E2E2E2E2E2E2E2E2E2E2E2E2E2E2E2E2E2E2E2F5E2E2E2E2E2E2E2E2E2E2E2E2E2E2E2E2F5E2F5F5EFEFF5E2F5E2E2E2E2E2E2E2E2E2E2E2E2E2E2E2E2F5E2
310
E2E2E2E2E2E2E2E2E2E2E2E2E2E2E2E2E2E2E2E2E2E2E2E2E2E2E2E2E2E2E2E2E2E2E2E2E2E2E2E2E2E2E2E2E2E2E2E2E2E2E2E2E2E2E2E2E2E2E2E2E2E2E2E2E2E2E2E2E2E2E2E2E2E2E2E2E2E2E2E2E2E2E2E2E2E2E2E2E2E2E2E2E2E2E2E2E2E2E2E2E2E2E2E2E2E2E2E2E2E2E2E2E2E2E2E2E2E2E2E2E2E2E2E2E2E2E2
310
E2E2E2E2E2E2E2E2E2F5E2E2E2E2E2E2E2E2E2E2E2E2E2E2E2E2F5E2F5F5EFEFF5E2F5E2E2E2E2E2E2E2E2E2E2E2E2E2E2E2E2F5E2E2E2E2E2E2E2E2E2E2E2E2E2E2E2E2E2E2E2E2E2E2E2E2E2E2E2E2E2E2E2E2E2E2E2E2E2E2E2E2E2E2E2E2E2E2E2E2E2E2E2E2E2E2E2E2E2E2E2E2E2E2E2E2E2E2E2E2E2E2E2E2E2E2E2
310
E2E2E2E2E2E2E2E2E2E2E2E2E2E2E2E2E2E2E2E2E2E2E2E2E2E2E2E2E2E2E2E2E2E2E2E2E2E2E2E2E2E2E2E2E2E2E2E2E2E2E2E2E2E2E2E2E2E2E2E2E2E2F5E2E2E2E2E2E2E2E2E2E2E2E2E2E2E2E2F5E2F5F5EFEFF5E2F5E2E2E2E2E2E2E2E2E2E2E2E2E2E2E2E2F5E2E2E2E2E2E2E2E2E2E2E2E2E2E2E2E2E2E2E2E2E2E2
310
E2E2E2E2E2E2E2E2E2E2E2E2E2E2E2E2E2E2E2E2E2E2E2E2E2E2E2E2E2E2E2E2E2E2E2E2E2E2E2E2E2E2E2E2E2E2E2E2E2E2E2E2E2E2E2E2E2E2E2E2E2E2E2E2E2E2E2E2E2E2E2E2E2E2E2E2E2E2E2E2E2E2E2E2E2E2E2E2E2E2E2E2E2E2E2E2E2E2E2E2E2E2E2E2E2E2E2E2E2E2E2E2E2E2E2F5E2E2E2E2E2E2E2E2E2E2E2
310
E2E2E2E2E2F5E2F5F5EFEFF5E2E2E2E2E2E2E2E2E2E2E2E2E2E2E2E2E2E2F5E2E2E2E2E2E2E2E2E2E2E2E2E2E2E2E2E2E2E2E2E2E2E2E2E2E2E2E2E2E2E22DE2E2E2E2E2E2E2E2E2E2E2E2E2E2E2E2E2E2E2E2E2E2E2E2E2E2E2E2E2E2E2E2E2E2E2E2E2E2E2E2E2E2E2E2E2E2E2E2E2E2E2E2E2E2E2E2E2E2E2E2E2E2E2E2
310
E2E2E2E2E2E2E2E2E2E2E2E2E2E2E2E2E2E2E2E2E2E2E2E2E2E2E2E2E2E2E2E2E2E2E2E2E2E2E2E2E2F5E2E2E2E2E2E2E2E2E2E2E2E2E2E2E2E2E2E2F5F5EFEFF5E2E2E2E2E2E2E2E2E2E2E2E2E2E2E2E2E2E2F5E2E2E2E2E2E2E2E2E2E2E2E2E2E2E2E2E2E2E2E2E2E2E2E2E2E2E2E2E2E2E22DE2E2E2E2E2E2E2E2E2E2E2
310
E2E2E2E2E2E2E2E2E2E2E2E2E2E2E2E2E2E2E2E2E2E2E2E2E2E2E2E2E2E2E2E2E2E2E2E2E2E2E2E2E2E2E2E2E2E2E2E2E2E2E2E2E2E2E2E2E2E2E2E2E2E2E2E2E2E2E2E2E2E2E2E2E2E2E2E2E2E2E2E2E2E2E2E2E2E2E2E2E2E2E2E2E2E2F5E2E2E2E2E2E2E2E2E2E2E2E2E2E2E2E2E2E2F5F5EFEFF5E2E2E2E2E2E2E2E2E2
310
E2E2E2E2E2E2E2E2E2F5E2E2F5F5F5F5F5F5F5F5F5F52DF5F5F5F5F5F5F5F5F5F5F5F5F5F5F5F5F5F52DF5F5F5F5F5F5F5F5F5F5F5F5F5F5F5F5F5F5F5F5F5F5F5F5F5F5F5F5F5F5F5F5F5F5F5F5F52DF5F5F5F5F5F5F5F5F5E2E2E2E2E2E2E2E2E2E2E2E2E2E2E2E2E2E2E2E2E2E2E2E2E2E2E2E2E2E2E2E2E2E2E2E2E2E2
310
E2E2E2E2E2E2E2E2E2E2E2E2E2E2E2E2E2E2E2E2F5E2E2E2E2E2E2E2E2E2E2E2E2E2E2E2E2E2E2F5F5EFEFF5E2E2E2E2E2E2E2E2E2E2E2E2E2E2E2E2E2E2F5E2E2F5F5E2E2E2E2E2E2E2E2E2E2E2E2E2E2E2E2E2E2E2E2E2E2E2E2E2E2E22DE2E2E2E2E2E2E2E2E2E2E2E2E2E2E2E2E2E2E2E2E2E2E2E2E2E2E2E2E2E2E2E2
310
E2E2E2E2E2E2E2E2E2E2E2E2E2E2F5E2E2E2E2E2E2E2E2E2E2E2E2E2E2E2E2E2E2E2E2E2E2E2E2E2E2E2E2E2E2E2E2E2E2E2E2E2E2E2E2E2E2E2E2E2E2E2E2E2E2E2E2E2E2E2E2E2E2F5E2E2E2E2E2E2E2E2E2E2E2E2E2E2E2E2E2E2F5F5EFEFF5E2E2E2E2E2E2E2E2E2E2E2E2E2E2E2E2E2E2F5E2E2F5F5E2E2E2E2E2E2E2
310
E2E2E2E2E2E2E2E2E2E2E2E2E2E2E2E2E2E2E2E22DE2E2E2E2E2E2E2E2E2E2E2E2E2E2E2E2E2E2E2E2E2E2E2E2E2E2E2E2E2E2E2E2E2E2E2E2E2E2E2E2E2E2E2E2E2E2F5E2E2E2E2E2E2E2E2E2E2E2E2E2E2E2E2E2E2E2E2E2E2E2E2E2E2E2E2E2E2E2E2E2E2E2E2E2E2E2E2E2E2E2E2E2E2E2E2E2E2E2E2E2E2E2E2E2E2F5
310
E2E2E2E2E2E2E2E2E2E2E2E2E2E2E2E2E2E2F5F5EFEFF5E2E2E2E2E2E2E2E2E2E2E2E2E2E2E2E2E2E2F5E2E2F5F5E2E2E2E2E2E2E2E2E2E2E2E2E2E2E2E2E2E2E2E2E2E2E2E2E2E2E22DE2E2E2E2E2E2E2E2E2E2E2E2E2E2E2E2E2E2E2E2E2E2E2E2E2E2E2E2E2E2E2E2E2E2E2E2E2E2E2E2E2E2E2E2E2E2F5E2E2E2E2E2E2
310
E2E2E2E2E2E2E2E2E2E2E2E2E2E2E2E2E2E2E2E2E2E2E2E2E2E2E2E2E2E2E2E2E2E2E2E2E2E2E2E2E2E2E2E2E2E2E2E2E2E2E2E2F5E2E2E2E2E2E2E2E2E2E2E2E2E2E2E2E2E2E2F5F5EFEFF5E2E2E2E2E2E2E2E2E2E2E2E2E2E2E2E2E2E2F5E2E2F5F5E2E2E2E2E2E2E2E2E2E2F5F5F5F5F5F5F5F5F5F5F5F5F5F5F5F5F52D
310
F5F5F5F5F5F5F5F5F5F5F5F5F5F5F5F5F5F5F5F5F5F5F5F5E2E2E2E2E2E2E2E2E2E2E2E2E2E2E2E2E2E2E2E2E2E2F5E2E2E2E2E2E2E2E2E2E2E2E2E2E2E2E2E2E2E2E2E2E2E2E2E2E2E2E2E2E2E2E2E2E2E2E2E2E2E2E2E2E2E2E2E2E2E2E2E2E2E2E2E2E2E2E2E2E2F5E2E2E2E2E2E2E2E2E2E2E2E2E2E2E2E2E2E2F5F5EF
310
EFF5E2E2E2E2E2E2E2E2E2E2E2E2E2E2E2E2E2E2F5E2E2F5F5E2E2E2E2E2E2E2F5F5F5E2E2E2E2E2E2E2E2E2E2E2E2E2E2E2E2E22DE2E2E2E2E2E2E2E2E2E2E2E2E2E2E2E2E2E2E2E2E2E2E2E2F5F5F5F5F5F5F5F5F5F5F5F5E2E2E2E2E2E2E2E2E2E2F5E2E2E2E2E2E2E2E2E2E2E2E2E2E2E2E2E2E2E2E2E2E2E2E2E2E2E2
310
E2E2E2E2E2E2E2E2E2E2E2E2E2E2E2E2E2E2E2E2E2E2E2E2E2E2E2E2E2E2E2F5E2E2E2E2E2E2E2E2E2E2E2E2E2E2E2E2E2E2F5F5EFEFF5E2E2E2E2E2E2E2E2E2E2E2E2E2E2E2E2E2E2F5E2E2F5F5E2E2E2E2E2E2F5E2E2E2E2E2E2E2E2E2E2E2F5F5F5F5F5F5F5F5F5F5F5F5F5F5F5F5F5F5F5F5F5F5F5F5F5F5F5F5F5F5F5
310
E2E2E2E2E2E2E2E2E2E2E2E2E2E2E2F5F5F5F5F5F5E2E2E2E2F5E2E2E2E2E2E2E2E2E2E2E2E2E2E2E2E2E2E2E2E2E2E2E2E2E2E2E2E2E2E2E2E2E2E2E2E2E2E2E2E2E2E2E2E2E2E2E2E2E2E2E2E2E2E2E2E2E2E2F5E2E2E2E2E2E2E2E2E2E2E2E2E2E2E2E2E2E2F5F5EFEFF5E2E2E2E2E2E2E2E2E2E2E2E2E2E2E2E2E2E2F5
310
E2E2F5F5E2E2E2E2E2E2F5E2E2E2E2E2E2E2E2E2F5F5E2E2E2E2E2E2E2E2E22DE2E2E2E2E2E2E2E2E2E2E2E2E2E2E2E2E2E2E2E2E2F5F5F5F5F5F5F5F5F5F5F5F5E2E2E2E2E2E2E2E2F5F5E2E2E2F5E2E2E2E2E2E2E2E2E2E2E2E2E2E2E2E2E2E2E2E2E2E2E2E2E2E2E2E2E2E2E2E2E2E2E2E2E2E2E2E2E2E2E2E2E2E2E2E2
310
E2E2E2E2E2E2E2E2E2E2F5E2E2E2E2E2E2E2E2E2E2E2E2E2E2E2E2E2E2F5F5EFEFF5E2F5E2E2E2E2E2E2E2E2E2E2E2E2E2E2E2E2F5E2E2F5F5E2E2E2E2E2F5E2E2E2E2E2E2E2E2E2F5F5E2E2E2E2E2E2E2E2E2E22DE2E2E2E2E2E2E2E2E2E2E2E2E2E2E2E2E2E2E2E2E2E2E2E2E2E2E2E2E2E2E2E2E2F5F5F5F5F5F5F5E2E2
310
F5E2E2E2F5E2E2E2E2E2E2E2E2E2E2E2E2E2E2E2E2E2E2E2E2E2E2E2E2E2E2E2E2E2E2E2E2E2E2E2E2E2E2E2E2E2E2E2E2E2E2E2E2E2E2E2E2E2E2E2E2E2E2F5E2E2E2E2E2E2E2E2E2E2E2E2E2E2E2E2F5E2F5F5EFEFF5E2F5E2E2E2E2E2E2E2E2E2E2E2E2E2E2E2E2F5E2E2F5F5E2E2E2E2F5F5E2E2E2E2E2E2E2E2E2F5E2
310
E2E2E2E2E2E2E2E2E2E22DE2E2E2E2E2E2E2E2E2E2E2E2E2E2E2E2E2E2E2E2E2E2E2E2E2E2E2E2E2E2E2E2E2E2E2E2E2E2E2F5F5E2E2F5E2E2F5E2E2E2E2E2E2E2E2E2E2E2E2E2E2E2E2E2E2E2E2E2E2E2E2E2E2E2E2E2E2E2E2E2E2E2E2E2E2E2E2E2E2E2E2E2E2E2E2E2E2E2E2E2E2E2E2E2E2F5E2E2E2E2E2E2E2E2E2E2
310
E2E2E2E2E2E2F5E2F5F5EFEFF5E2F5E2E2E2E2E2E2E2E2E2E2E2E2E2E2E2E2F5E2E2F5F5E2E2E2E2F5E2E2E2E2E2E2E2E2E2E2F5E2E2E2E2E29F9FE29F9F9F9FE29F9F9F9F9F9FE29F9F9F9FE29F9F9F9FE29F9F9F9FE29F9F9F9FE29FE29F9F9F9FE29F9FE2E2E2F5F5E2F5E2E2F5E2E2E2E2E2E2E2E2E2E2E2E2E2E2E2E2
310
E2E2E2E2E2E2E2E2E2E2E2E2E2E2E2E2E2E2E2E2E2E2E2E2E2E2E2E2E2E2E2E2E2E2E2E2E2E2E2E2E2E2F5E2E2E2E2E2E2E2E2E2E2E2E2E2E2E2E2F5E2F5F5EFEFF5E2F5E2E2E2E2E2E2E2E2E2E2E2E2E2E2E2E2F5E2E2F5F5E2E2E2E2F5E2E2E2E2E2E2E2E2E2F5E2E2E2E2E29F9F9F9F9F9F9F9F9F9F9F9F9F9F9F9F9F9F
310
9F9F9F9F9F9F9F9F9F9F9F9F9F9F9F9F9F9F9F9F9F9F9F9F9F9F9F9FE2E2E2F5E2F5E2E2F5E2E2E2E2E2E2E2E2E2E2E2E2E2E2E2E2E2E2E2E2E2E2E2E2E2E2E2E2E2E2E2E2E2E2E2E2E2E2E2E2E2E2E2E2E2E2E2E2E2E2E2E2E2E2E2E2E2E2F5E2E2E2E2E2E2E2E2E2E2E2E2E2E2E2E2F5E2F5F5EFEFF5E2F5E2E2E2E2E2E2
310
E2E2E2E2E2E2E2E2E2E2F5E2E2F5F5E2E2E2E2F5E2E2E2E2E2E2E2E2E2F5E2E2E29F9F9F9F9F9F9F9F9F9F9F9F9F9F9F9F9F9F9F9F9F9F9F9F9F9F9F9F9F9F9F9F9F9F9F9F9F9F9F9F9F9F9F9F9F9F9F9F9FE2E2F5E2F5E2E2F5E2E2E2E2E2E2E2E2E2E2E2E2E2E2E2E2E2E2E2E2E2E2E2E2E2E2E2E2E2E2E2E2E2E2E2E2E2
310
E2E2E2E2E2E2E2E2E2E2E2E2E2E2E2E2E2E2E2E2E2F5E2E2E2E2E2E2E2E2E2E2E2E2E2E2E2E2F5E2F5F5EFEFF5E2F5E2E2E2E2E2E2E2E2E2E2E2E2E2E2E2E2F5E2E2F5F5E2E2E2E2F5E2E2E2E2E2E2E2E2E2F5E2E29F9F9F9F9F9F9F9F9F9F9F9F9F9F9F9F9F9F9F9F9F9F9F9F9F9F9F9F9F9F9F9F9F9F9F9F9F9F9F9F9F9F
310
9F9F9F9F9F9F9F9FE2E2F5E2F5E2E2F5E2E2E2E2E2E2E2E2E2E2E2E2E2E2E2E2E2E2E2E2E2E2E2E2E2E2E2E2E2E2E2E2E2E2E2E2E2E2E2E2E2E2E2E2E2E2E2E2E2E2E2E2E2E2E2E2E2E2F5E2E2E2E2E2E2E2E2E2E2E2E2E2E2E2E2F5E2F5F5EFEFF5E2F5E2E2E2E2E2E2E2E2E2E2E2E2E2E2E2E2F5E2E2F5F5E2E2E2E2F5E2
310
E2E2E2E2E2E2E2E2F5E2E29F9F9F9F9F9F9F9F9F9F9F9F9F9F9F9F9F9F9F9F9F9F9F9F9F9F9F9F9F9F9F9F9F9F9F9F9F9F9F9F9F9F9F9F9F9F9F9F9F9FE2E2F5E2F5E2E2F5E2E2E2E2E2E2E2E2E2E2E2E2E2E2E2E2E2E2E2E2E2E2E2E2E2E2E2E2E2E2E2E2E2E2E2E2E2E2E2E2E2E2E2E2E2E2E2E2E2E2E2E2E2E2E2E2E2E2
310
F5E2E2E2E2E2E2E2E2E2E2E2E2E2E2E2E2F5E2F5F5EFEFF5E2F5E2E2E2E2E2E2E2E2E2E2E2E2E2E2E2E2F5E2E2F5F5E2E2E2E2F5E2E2E2E2E2E2E2E2E2F5E2E29F9F9F9F9F9F9F9F9F9F9F9F9F9F9F9F9F9F9F9F9F9F9F9F9F9F9F9F9F9F9F9F9F9F9F9F9F9F9F9F9F9F9F9F9F9F9F9F9FE2E2E2E2F5F5E2E2F5E2E2E2E2E2
310
E2E2E2E2E2E2E2E2E2E2E2E2E2E2E2E2E2E2E2E2E2E2E2E2E2E2E2E2E2E2E2E2E2E2E2E2E2E2E2E2E2E2E2E2E2E2E2E2E2E2E2E2E2F5E2E2E2E2E2E2E2E2E2E2E2E2E2E2E2E2F5E2F5F5EFEFF5E2F5E2E2E2E2E2E2E2E2E2E2E2E2E2E2E2E2F5E2E2F5F5E2E2E2E2F5E2E2E2E2E2E2E2E2E2F5E2E29F9F9F9F9F9F9F9F9F9F
310
9F9F9F9F9F9F9F9F9F9F9F9F9F9F9F9F9F9F9F9F9F9F9F9F9F9F9F9F9F9F9F9F9F9F9F9F9FE2F5F5E2E2E2F5F5E2E2F5E2E2E2E2E2E2E2E2E2E2E2E2E2E2E2E2E2E2E2E2E2E2E2E2E2E2E2E2E2E2E2E2E2E2E2E2E2E2E2E2E2E2E2E2E2E2E2E2E2E2E2E2E2E2E2E2E2E2F5E2E2E2E2E2E2E2E2E2E2E2E2E2E2E2E2F5E2F5F5
310
EFEFF5E2F5E2E2E2E2E2E2E2E2E2E2E2E2E2E2E2E2F5E2E2F5F5E2E2E2E2F5E2E2E2E2E2E2E2E2E2F5E2E29F9F9F9F9F9F9F9F9F9F9F9F9F9F9F9F9F9F9F9F9F9F9F9F9F9F9F9F9F9F9F9F9F9F9F9F9F9F9F9F9F9F9F9F9F9FE2F5F5F5F5E2E2F5F5E2E2F5E2E2E2E2E2E2E2E2E2E2E2E2E2E2E2E2E2E2E2E2E2E2E2E2E2E2
310
E2E2E2E2E2E2E2E2E2E2E2E2E2E2E2E2E2E2E2E2E2E2E2E2E2E2E2E2E2E2E2E2F5E2E2E2E2E2E2E2E2E2E2E2E2E2E2E2E2F5E2F5F5EFEFF5E2F5E2E2E2E2E2E2E2E2E2E2E2E2E2E2E2E2F5E22DF5F52D2D2D2DF52D2D2D2D2D2D2D2D2DF52D2D9F9F9F9F9F9F9F9F9F9F9F9F9F9F9F9F9F9F9F9F9F9F9F9F9F9F9F9F9F9F9F
310
9F9F2D9F9F9F9F9F9F9F9F9F9F9F9FF5F52DF5F52D2DF5F52D2DF52D2D2DE2E2E2E2E2E2E2E2E2E2E2E2E2E2E2E2E2E2E2E2E2E2E2E2E2E2E2E2E2E2E2E2E2E2E2E2E2E2E2E2E2E2E2E2E2E2E2E2E2E2E2E2E2E2E2F5E2E2E2E2E2E2E2E2E2E2E2E2E2E2E2E2F5E2F5F5EFEFF5E2F5E2E2E2E2E2E2E2E2E2E2E2E2E2E2E2E2
310
F5E2E2F5F5E2E2E2E2F5E2E2E2E2E2E2E2E2E2F5E2E29F9F9F9F9F9F9F9F9F9F9F9F9F9F9F9F9F9F9F9F9F9F9F9F9F9F9F9F9F9F9F9F9F9F9F9F9F9F9F9F9F9F9F9F9F9FE2F5F5F5F5E2E2F5F5E2E2F5E2E2E2E2E2E2E2E2E2E2E2E2E2E2E2E2E2E2E2E2E2E2E2E2E2E2E2E2E2E2E2E2E2E2E2E2E2E2E2E2E2E2E2E2E2E2E2
310
E2E2E2E2E2E2E2E2E2E2E2F5E2E2E2E2E2E2E2E2E2E2E2E2E2E2E2E2F5E2F5F5EFEFF5E2F5E2E2E2E2E2E2E2E2E2E2E2E2E2E2E2E2F5E2E2F5F5E2E2E2E2F5E2E2E2E2E2E2E2E2E2F5E2E29F9F9F9F9F9F9F9F9F9F9F9F9F9F9F9F9F9F9F9F9F9F9F9F9F9F9F9F9F9F9F9F9F9F9F9F9F9F9F9F9F9F9F9F9F9FE2F5F5F5E2E2
310
E2F5F5E2E2F5E2E2E2E2E2E2E2E2E2E2E2E2E2E2E2E2E2E2E2E2E2E2E2E2E2E2E2E2E2E2E2E2E2E2E2E2E2E2E2E2E2E2E2E2E2E2E2E2E2E2E2E2E2E2E2E2E2E2F5E2E2E2E2E2E2E2E2E2E2E2E2E2E2E2E2F5E2F5F5EFEFF5E2F5E2E2E2E2E2E2E2E2E2E2E2E2E2E2E2E2F5E2E2F5F5E2E2E2E2F5E2E2E2E2E2E2E2E2E2F5E2
310
E29F9F9F9F9F9F9F9F9F9F9F9F9F9F9F9F9F9F9F9F9F9F9F9F9F9F9F9F9F9F9F9F9F9F9F9F9F9F9F9F9F9F9F9F9F9F9F9F2DE2E2E2E2F5F5E2E2F5E2E2E2E2E2E2E2E2E2E2E2E2E2E2E2E2E2E2E2E2E2E2E2E2E2E2E2E2E2E2E2E2E2E2E2E2E2E2E2E2E2E2E2E2E2E2E2E2E2E2E2E2E2E2E2E2E2E2F5E2E2E2E2E2E2E2E2E2
310
E2E2E2E2E2E2E2F5E2F5F5EFEFF5E2F5E2E2E2E2E2E2E2E2E2E2E2E2E2E2E2E2F5E2E2F5F5E2E2E2E2F5E2E2E2E2E2E2E2E2E2F5E2E29F9F9F9F9F9F9F9F9F9F9F9F9F9F9F9F9F9F9F9F9F9F9F9F9F9F9F9F9F9F9F9F9F9F9F9F9F9F9F9F9F9F9F9F9F9F9F9F9F9FE2E2F5E2F5E2E2F5E2E2E2E2E2E2E2E2E2E2E2E2E2E2E2
310
E2E2E2E2E2E2E2E2E2E2E2E2E2E2E2E2E2E2E2E2E2E2E2E2E2E2E2E2E2E2E2E2E2E2E2E2E2E2E2E2E2E2E2F5E2E2E2E2E2E2E2E2E2E2E2E2E2E2E2E2F5E2F5F5EFEFF5E2F5E2E2E2E2E2E2E2E2E2E2E2E2E2E2E2E2F5E2E2F5F5E2E2E2E2F5E2E2E2E2E2E2E2E2E2F5E2E29F9F9F9F9F9F9F9F9F9F9F9F9F9F9F9F9F9F9F9F
310
9F9F9F9F9F9F9F9F9F9F9F9F9F9F9F9F9F9F9F9F9F9F9F9F9F9F9F9F9F9FE2E2F5E2F5E2E2F5E2E2E2E2E2E2E2E2E2E2E2E2E2E2E2E2E2E2E2E2E2E2E2E2E2E2E2E2E2E2E2E2E2E2E2E2E2E2E2E2E2E2E2E2E2E2E2E2E2E2E2E2E2E2E2E2E2E2F5E2E2E2E2E2E2E2E2E2E2E2E2E2E2E2E2F5E2F5F5EFEFF5E2F5E2E2E2E2E2
310
E2E2E2E2E2E2E2E2E2E2E2F5E2E2F5F5E2E2E2E2F5E2E2E2E2E2E2E2E2E2F5E2E2E29F9F9F9F9F9F9F9F9F9F9F9F9F9F9F9F9F9F9F9F9F9F9F9F9F9F9F9F9F9F9F9F9F9F9F9F9F9F9F9F9F9F9F9F9F9F9F9F9FE2E2F5E2F5E2E2F5E2E2E2E2E2E2E2E2E2E2E2E2E2E2E2E2E2E2E2E2E2E2E2E2E2E2E2E2E2E2E2E2E2E2E2E2
310
E2E2E2E2E2E2E2E2E2E2E2E2E2E2E2E2E2E2E2E2E2E2F5E2E2E2E2E2E2E2E2E2E2E2E2E2E2E2E2F5E2F5F5EFEFF5E2E2E2E2E2E2E2E2E2E2E2E2E2E2E2E2E2E2F5E2E2F5F5E2E2E2E2F5E2E2E2E2E2E2E2E2E2F5E2E2E2E2E29F9F9F9F9F9F9F9F9F9F9F9F9F9F9F9F9F9F9F9F9F9F9F9F9F9F9F9F9F9F9F9F9F9F9F9F9F9F
310
9F9F9F9F9F9F9F9FE2E2E2F5E2F5E2E2F5E2E2E2E2E2E2E2E2E2E2E2E2E2E2E2E2E2E2E2E2E2E2E2E2E2E2E2E2E2E2E2E2E2E2E2E2E2E2E2E2E2E2E2E2E2E2E2E2E2E2E2E2E2E2E2E2E2E2F5E2E2E2E2E2E2E2E2E2E2E2E2E2E2E2E2E2E2F5F5EFEFF5E2E2E2E2E2E2E2E2E2E2E2E2E2E2E2E2E2E2F5E2E2F5F5E2E2E2E2F5
310
E2E2E2E2E2E2E2E2E2E2F5E2E2E2E2E29F9FE29F9F9F9FE29F9F9F9F9F9FE29F9F9F9FE29F9F9F9FE29F9F9F9FE29F9F9F9FE29FE29F9F9F9FE29F9FE2E2E2E2F5E2F5E2E2F5E2E2E2E2E2E2E2E2E2E2E2E2E2E2E2E2E2E2E2E2E2E2E2E2E2E2E2E2E2E2E2E2E2E2E2E2E2E2E2E2E2E2E2E2E2E2E2E2E2E2E2E2E2E2E2E2E2
310
E2F5E2E2E2E2E2E2E2E2E2E2E2E2E2E2E2E2E2E2F5F5EFEFF5E2E2E2E2E2E2E2E2E2E2E2E2E2E2E2E2E2E2F5E2E2F5F5E2E2E2E2F5F5E2E2E2E2E2E2E2E2E2F5E2E2E2E2E2E2E2E2E2E2E22DE2E2E2E2E2E2E2E2E2E2E2E2E2E2E2E2E2E2E2E2E2E2E2E2E2E2E2E2E2E2E2E2E2E2E2E2E2E2E2F5F5E2E2F5E2E2F5E2E2E2E2
310
E2E2E2E2E2E2E2E2E2E2E2E2E2E2E2E2E2E2E2E2E2E2E2E2E2E2E2E2E2E2E2E2E2E2E2E2E2E2E2E2E2E2E2E2E2E2E2E2E2E2E2E2E2E2F5E2E2E2E2E2E2E2E2E2E2E2E2E2E2E2E2E2E2F5F5EFEFF5E2E2E2E2E2E2E2E2E2E2E2E2E2E2E2E2E2E2F5E2E2F5F5E2E2E2E2E2F5E2E2E2E2E2E2E2E2E2F5F5E2E2E2E2E2E2E2E2E2
310
E22DE2E2E2E2E2E2E2E2E2E2E2E2E2E2E2E2E2E2E2E2E2E2E2E2E2E2E2E2E2E2E2E2E2E2F5F5F5F5F5F5E2E2F5E2E2E2F5E2E2E2E2E2E2E2E2E2E2E2E2E2E2E2E2E2E2E2E2E2E2E2E2E2E2E2E2E2E2E2E2E2E2E2E2E2E2E2E2E2E2E2E2E2E2E2E2E2E2E2E2E2E2E2E2E2E2F5E2E2E2E2E2E2E2E2E2E2E2E2E2E2E2E2E2E2F5
310
F5EFEFF5E2E2E2E2E2E2E2E2E2E2E2E2E2E2E2E2E2E2F5E2E2F5F5E2E2E2E2E2F5F5E2E2E2E2E2E2E2E2E2F5F5E2E2E2E2E2E2E2E2E22DE2E2E2E2E2E2E2E2E2E2E2E2E2E2E2E2E2E2E2E2E2F5F5F5F5F5F5F5F5F5F5F5F5F5E2E2E2E2E2E2E2F5F5E2E2E2F5E2E2E2E2E2E2E2E2E2E2E2E2E2E2E2E2E2E2E2E2E2E2E2E2E2
310
E2E2E2E2E2E2E2E2E2E2E2E2E2E2E2E2E2E2E2E2E2E2E2E2E2E2E2E2E2E2E2E2E2F5E2E2E2E2E2E2E2E2E2E2E2E2E2E2E2E2E2E2F5F5EFEFF5E2E2E2E2E2E2E2E2E2E2E2E2E2E2E2E2E2E2F5E2E2F5F5E2E2E2E2E2E2F5E2E2E2E2E2E2E2E2E2E2F5F5F5F5F5F5F5F5F5F5F5F5F5F5F5F5F5F5F5F5F5F5F5F5F5F5F5F5F5F5
310
F5F5E2E2E2E2E2E2E2E2E2E2E2E2E2E2E2E2F5F5F5F5F5E2E2E2E2F5E2E2E2E2E2E2E2E2E2E2E2E2E2E2E2E2E2E2E2E2E2E2E2E2E2E2E2E2E2E2E2E2E2E2E2E2E2E2E2E2E2E2E2E2E2E2E2E2E2E2E2E2E2E2E2E2E2E2F5E2E2E2E2E2E2E2E2E2E2E2E2E2E2E2E2E2E2F5F5EFEFF5E2E2E2E2E2E2E2E2E2E2E2E2E2E2E2E2E2
310
E2F5E2E2F5F5E2E2E2E2E2E2E2F5F5E2E2E2E2E2E2E2E2E2E2E2E2E2E2E2E2E2E22DE2E2E2E2E2E2E2E2E2E2E2E2E2E2E2E2E2E2E2E2E2E2E2E2E2F5F5F5F5F5F5F5F5F5F5F5F5E2E2E2E2E2E2E2E2E2F5E2E2E2E2E2E2E2E2E2E2E2E2E2E2E2E2E2E2E2E2E2E2E2E2E2E2E2E2E2E2E2E2E2E2E2E2E2E2E2E2E2E2E2E2E2E2
310
E2E2E2E2E2E2E2E2E2E2E2E2F5E2E2E2E2E2E2E2E2E2E2E2E2E2E2E2E2E2E2F5F5EFEFF5E2E2E2E2E2E2E2E2E2E2E2E2E2E2E2E2E2E2F5E2E2F5F5E2E2E2E2E2E2E2E2E2F5F5F5F5F5F5F5F5F5F5F5F5E2E2E2E2E2E22DE2E2E2E2E2E2E2F5F5F5F5F5F5F5F5F5F5F5F5F5F5F5F5F5F5E2E2E2E2E2E2E2E2E2E2E2E2E2E2E2
310
E2E2E2E2E2E2F5E2E2E2E2E2E2E2E2E2E2E2E2E2E2E2E2E2E2E2E2E2E2E2E2E2E2E2E2E2E2E2E2E2E2E2E2E2E2E2E2E2E2E2E2E2E2E2E2E2E2E2E2E2E2E2E2E2E2F5E2E2E2E2E2E2E2E2E2E2E2E2E2E2E2E2E2E2F5F5EFEFF5E2E2E2E2E2E2E2E2E2E2E2E2E2E2E2E2E2E2F5E2E2F5F5E2E2E2E2E2E2E2E2E2E2E2E2E2E2E2
310
E2E2E2E2E2E2F5F5F5F5F5F52DF5F5F5F5F5F5F5E2E2E2E2E2E2E2E2E2E2E2E2E2E2E2E2E2E2E2E2E2E2E2E2E2E2E2E2E2E2E2E2E2E2E2E2E2E2E2F5E2E2E2E2E2E2E2E2E2E2E2E2E2E2E2E2E2E2E2E2E2E2E2E2E2E2E2E2E2E2E2E2E2E2E2E2E2E2E2E2E2E2E2E2E2E2E2E2E2E2E2E2E2E2E2E2E2E2F5E2E2E2E2E2E2E2E2
310
E2E2E2E2E2E2E2E2E2E2F5F5EFEFF5E2F5E2E2E2E2E2E2E2E2E2E2E2E2E2E2E2E2F5E2E2F5F5E2E2E2E2E2E2E2E2E2E2E2E2E2E2E2E2E2E2E2E2E2E2E2E2E2E2E22DE2E2E2E2E2E2E2E2E2E2E2E2E2E2E2E2E2E2E2E2E2E2E2E2E2E2E2E2E2E2E2E2E2E2E2E2E2E2E2E2E2E2E2E2E2E2F5E2E2E2E2E2E2E2E2E2E2E2E2E2E2
310
E2E2E2E2E2E2E2E2E2E2E2E2E2E2E2E2E2E2E2E2E2E2E2E2E2E2E2E2E2E2E2E2E2E2E2E2E2E2E2E2E2E2E2E2F5E2E2E2E2E2E2E2E2E2E2E2E2E2E2E2E2F5E2F5F5EFEFF5E2F5E2E2E2E2E2E2E2E2E2E2E2E2E2E2E2E2F5E2E2F5F5E2E2E2E2E2E2E2E2E2E2E2E2E2E2E2E2E2E2E2E2E2E2E2E2E2E2E22DE2E2E2E2E2E2E2E2
310
E2E2E2E2E2E2E2E2E2E2E2E2E2E2E2E2E2E2E2E2E2E2E2E2E2E2E2E2E2E2E2E2E2E2E2E2E2E2F5E2E2E2E2E2E2E2E2E2E2E2E2E2E2E2E2E2E2E2E2E2E2E2E2E2E2E2E2E2E2E2E2E2E2E2E2E2E2E2E2E2E2E2E2E2E2E2E2E2E2E2E2E2E2E2E2E2E2F5E2E2E2E2E2E2E2E2E2E2E2E2E2E2E2E2F5E2F5F5EFEFF5E2F5E2E2E2E2
310
E2E2E2E2E2E2E2E2E2E2E2E2F5E2E2F5F5F5F5F5F5F5F5F5F5F5F5F5F5F5F5F5F5F5F5F5F5F5F5F5F5F5F5F52DF5F5F5F5F5F5F5F5F5F5F5F5F5F5F5F5F5F5F5F5F5F5F5F5F5F5F5F5F5F5F5F5F5F5F5F5F5F5F5F5F5F5F5F5F5F5F5E2E2E2E2E2E2E2E2E2E2E2E2E2E2E2E2E2E2E2E2E2E2E2E2E2E2E2E2E2E2E2E2E2E2E2
310
E2E2E2E2E2E2E2E2E2E2E2E2E2E2E2E2E2E2E2E2E2E2E2F5E2E2E2E2E2E2E2E2E2E2E2E2E2E2E2E2F5E2F5F5EFEFF5E2F5E2E2E2E2E2E2E2E2E2E2E2E2E2E2E2E2F5E2E2E2E2E2E2E2E2E2E2E2E2E2E2E2E2E2E2E2E2E2E2E2E2E2E2E2E2E2E2E22DE2E2E2E2E2E2E2E2E2E2E2E2E2E2E2E2E2E2E2E2E2E2E2E2E2E2E2E2E2
310
E2E2E2E2E2E2E2E2E2E2E2E2E2E2E2E2E2E2E2E2E2E2E2E2E2E2E2E2E2E2E2E2E2E2E2E2E2E2E2E2E2E2E2E2E2E2E2E2E2E2E2E2E2E2E2E2E2E2E2E2E2E2E2E2E2E2E2E2E2E2E2E2E2E2E2E2F5E2E2E2E2E2E2E2E2E2E2E2E2E2E2E2E2F5E2F5F5EFEFF5E2F5E2E2E2E2E2E2E2E2E2E2E2E2E2E2E2E2F5E2E2E2E2E2E2E2E2
310
E2E2E2E2E2E2E2E2E2E2E2E2E2E2E2E2E2E2E2E2E2E2E22DE2E2E2E2E2E2E2E2E2E2E2E2E2E2E2E2E2E2E2E2E2E2E2E2E2E2E2E2E2E2E2E2E2E2E2E2E2E2E2E2E2E2E2E2E2E2E2E2E2E2E2E2E2E2E2E2E2E2E2E2E2E2E2E2E2E2E2E2E2E2E2E2E2E2E2E2E2E2E2E2E2E2E2E2E2E2E2E2E2E2E2E2E2E2E2E2E2E2E2E2E2E2E2
310
E2E2F5E2E2E2E2E2E2E2E2E2E2E2E2E2E2E2E2F5E2F5F5EFEFF5E2F5E2E2E2E2E2E2E2E2E2E2E2E2E2E2E2E2F5E2E2E2E2E2E2E2E2E2E2E2E2E2E2E2E2E2E2E2E2E2E2E2E2E2E2E2E2E2E2E22DE2E2E2E2E2E2E2E2E2E2E2E2E2E2E2E2E2E2E2E2E2E2E2E2E2E2E2E2E2E2E2E2E2E2E2E2E2E2E2E2E2E2E2E2E2E2E2E2E2E2
310
E2E2E2E2E2E2E2E2E2E2E2E2E2E2E2E2E2E2E2E2E2E2E2E2E2E2E2E2E2E2E2E2E2E2E2E2E2E2E2E2E2E2E2E2E2E2E2E2E2E2E2E2E2E2E2F5E2E2E2E2E2E2E2E2E2E2E2E2E2E2E2E2F5E2F5F5EFEFF5E2F5E2E2E2E2E2E2E2E2E2E2E2E2E2E2E2E2F5E2E2E2E2E2E2E2E2E2E2E2E2E2E2E2E2E2E2E2E2E2E2E2E2E2E2E2E2E2
310
E2E2E2E2E2E2E2E2E2E2E2E2E2E2E2E2E2E2E2E2E2E2E2E2E2E2E2E2E2E2E2E2E2E2E2E2E2E2E2E2E2E2E2E2E2E2E2E2E2E2E2E2E2E2E2E2E2E2E2E2E2E2E2E2E2E2E2E2E2E2E2E2E2E2E2E2E2E2E2E2E2E2E2E2E2E2E2E2E2E2E2E2E2E2E2E2E2E2E2E2E2E2E2E2E2E2E2E2F5E2E2E2E2E2E2E2E2E2E2E2E2E2E2E2E2F5E2
310
F5F5EFEFF5E2F5E2E2E2E2E2E2E2E2E2E2E2E2E2E2E2E2F5E2E2E2E2E2E2E2E2E2E2E2E2E2E2E2E2E2E2E2E2E2E2E2E2E2E2E2E2E2E2E2E2E2E2E2E2E2E2E2E2E2E2E2E2E2E2E2E2E2E2E2E2E2E2E2E2E2E2E2E2E2E2E2E2E2E2E2E2E2E2E2E2E2E2E2E2E2E2E2E2E2E2E2E2E2E2E2E2E2E2E2E2E2E2E2E2E2E2E2E2E2E2E2
310
E2E2E2E2E2E2E2E2E2E2E2E2E2E2E2E2E2E2E2E2E2E2E2E2E2E2E2E2E2E2E2E2E2E2F5E2E2E2E2E2E2E2E2E2E2E2E2E2E2E2E2F5E2F5F5EFEFF5E2F5E2E2E2E2E2E2E2E2E2E2E2E2E2E2E2E2F5E2E2E2E2E2E2E2E2E2E2E2E2E2E2E2E2E2E2E2E2E2E2E2E2E2E2E2E2E2E2E2E2E2E2E2E2E2E2E2E2E2E2E2E2E2E2E2E2E2E2
310
E2E2E2E2E2E2E2E2E2E2E2E2E2E2E2E2E2E2E2E2E2E2E2E2E2E2E2E2E2E2E2E2E2E2E2E2E2E2E2E2E2E2E2E2E2E2E2E2E2E2E2E2E2E2E2E2E2E2E2E2E2E2E2E2E2E2E2E2E2E2E2E2E2E2E2E2E2E2E2E2E2E2E2E2E2E2E2F5E2E2E2E2E2E2E2E2E2E2E2E2E2E2E2E2F5E2F5F5EFEFF5E2F5E2E2E2E2E2E2E2E2E2E2E2E2E2E2
310
E2E2F5E2E2E2E2E2E2E2E2E2E2E2E2E2E2E2E2E2E2E2E2E2E2E2E2E2E2E2E2E2E2E2E2E2E2E2E2E2E2E2E2E2E2E2E2E2E2E2E2E2E2E2E2E2E2E2E2E2E2E2E2E2E2E2E2E2E2E2E2E2E2E2E2E2E2E2E2E2E2E2E2E2E2E2E2E2E2E2E2E2E2E2E2E2E2E2E2E2E2E2E2E2E2E2E2E2E2E2E2E2E2E2E2E2E2E2E2E2E2E2E2E2E2E2E2
310
E2E2E2E2E2E2E2E2E2E2E2E2E2F5E2E2E2E2E2E2E2E2E2E2E2E2E2E2E2E2F5E2F5F5EFEFF5E2F5E2E2E2E2E2E2E2E2E2E2E2E2E2E2E2E2F5E2E2E2E2E2E2E2E2E2E2E2E2E2E2E2E2E2E2E2E2E2E2E2E2E2E2E2E2E2E2E2E2E2E2E2E2E2E2E2E2E2E2E2E2E2E2E2E2E2E2E2E2E2E2E2E2E2E2E2E2E2E2E2E2E2E2E2E2E2E2E2
310
E2E2E2E2E2E2E2E2E2E2E2E2E2E2E2E2E2E2E2E2E2E2E2E2E2E2E2E2E2E2E2E2E2E2E2E2E2E2E2E2E2E2E2E2E2E2E2E2E2E2E2E2E2E2E2E2E2E2E2E2E2E2E2E2E2E2F5E2E2E2E2E2E2E2E2E2E2E2E2E2E2E2E2F5E2F5F5EFEFF5E2F5E2E2E2E2E2E2E2E2E2E2E2E2E2E2E2E2F5E2E2E2E2E2E2E2E2E2E2E2E2E2E2E2E2E2E2
310
E2E2E2E2E2E2E2E2E2E2E2E2E2E2E2E2E2E2E2E2E2E2E2E2E2E2E2E2E2E2E2E2E2E2E2E2E2E2E2E2E2E2E2E2E2E2E2E2E2E2E2E2E2E2E2E2E2E2E2E2E2E2E2E2E2E2E2E2E2E2E2E2E2E2E2E2E2E2E2E2E2E2E2E2E2E2E2E2E2E2E2E2E2E2E2E2E2E2E2E2E2E2E2E2E2E2E2E2E2E2E2E2E2E2E2E2E2E2E2F5E2E2E2E2E2E2E2
310
E2E2E2E2E2E2E2E2E2F5E2F5F5EFEFF5E2F5E2E2E2E2E2E2E2E2E2E2E2E2E2E2E2E2F5E2E2E2E2E2E2E2E2E2E2E2E2E2E2E2E2E2E2E2E2E2E2E2E2E2E2E2E2E2E2E2E2E2E2E2E2E2E2E2E2E2E2E2E2E2E2E2E2E2E2E2E2E2E2E2E2E2E2E2E2E2E2E2E2E2E2E2E2E2E2E2E2E2E2E2E2E2E2E2E2E2E2E2E2E2E2E2E2E2E2E2E2
310
E2E2E2E2E2E2E2E2E2E2E2E2E2E2E2E2E2E2E2E2E2E2E2E2E2E2E2E2E2E2E2E2E2E2E2E2E2E2E2E2E2E2E2E2E2F5E2E2E2E2E2E2E2E2E2E2E2E2E2E2E2E2F5E2F5F5EFEFF5E2F5E2E2E2E2E2E2E2E2E2E2E2E2E2E2E2E2F5E2E2E2E2E2E2E2E2E2E2E2E2E2E2E2E2E2E2E2E2E2E2E2E2E2E2E2E2E2E2E2E2E2E2E2E2E2E2E2
310
E2E2E2E2E2E2E2E2E2E2E2E2E2E2E2E2E2E2E2E2E2E2E2E2E2E2E2E2E2E2E2E2E2E2E2E2E2E2E2E2E2E2E2E2E2E2E2E2E2E2E2E2E2E2E2E2E2E2E2E2E2E2E2E2E2E2E2E2E2E2E2E2E2E2E2E2E2E2E2E2E2E2E2E2E2E2E2E2E2E2E2E2E2E2E2E2E2E2F5E2E2E2E2E2E2E2E2E2E2E2E2E2E2E2E2F5E2F5F5EFEFF5E2F5E2E2E2
310
E2E2E2E2E2E2E2E2E2E2E2E2E2F5E2E2E2E2E2E2E2E2E2E2E2E2E2E2E2E2E2E2E2E2E2E2E2E2E2E2E2E2E2E2E2E2E2E2E2E2E2E2E2E2E2E2E2E2E2E2E2E2E2E2E2E2E2E2E2E2E2E2E2E2E2E2E2E2E2E2E2E2E2E2E2E2E2E2E2E2E2E2E2E2E2E2E2E2E2E2E2E2E2E2E2E2E2E2E2E2E2E2E2E2E2E2E2E2E2E2E2E2E2E2E2E2E2
310
E2E2E2E2E2E2E2E2E2E2E2E2E2E2E2E2E2E2E2E2E2E2E2E2F5E2E2E2E2E2E2E2E2E2E2E2E2E2E2E2E2F5E2F5F5EFEFF5E2F5E2E2E2E2E2E2E2E2E2E2E2E2E2E2E2E2F5E2E2E2E2E2E2E2E2E2E2E2E2E2E2E2E2E2E2E2E2E2E2E2E2E2E2E2E2E2E2E2E2E2E2E2E2E2E2E2E2E2E2E2E2E2E2E2E2E2E2E2E2E2E2E2E2E2E2E2E2
310
E2E2E2E2E2E2E2E2E2E2E2E2E2E2E2E2E2E2E2E2E2E2E2E2E2E2E2E2E2E2E2E2E2E2E2E2E2E2E2E2E2E2E2E2E2E2E2E2E2E2E2E2E2E2E2E2E2E2E2E2E2E2E2E2E2E2E2E2E2E2E2E2E2E2E2E2E2F5E2E2E2E2E2E2E2E2E2E2E2E2E2E2E2E2F5E2F5F5EFEFF5E2F5E2E2E2E2E2E2E2E2E2E2E2E2E2E2E2E2F5E2E2E2E2E2E2E2
310
E2E2E2E2E2E2E2E2E2E2E2E2E2E2E2E2E2E2E2E2E2E2E2E2E2E2E2E2E2E2E2E2E2E2E2E2E2E2E2E2E2E2E2E2E2E2E2E2E2E2E2E2E2E2E2E2E2E2E2E2E2E2E2E2E2E2E2E2E2E2E2E2E2E2E2E2E2E2E2E2E2E2E2E2E2E2E2E2E2E2E2E2E2E2E2E2E2E2E2E2E2E2E2E2E2E2E2E2E2E2E2E2E2E2E2E2E2E2E2E2E2E2E2E2E2E2E2
310
E2E2E2F5E2E2E2E2E2E2E2E2E2E2E2E2E2E2E2E2F5E2F5F5EFEFF5E2E2E2E2E2E2E2E2E2E2E2E2E2E2E2E2E2E2F5E2E2E2E2E2E2E2E2E2E2E2E2E2E2E2E2E2E2E2E2E2E2E2E2E2E2E2E2E2E2E2E2E2E2E2E2E2E2E2E2E2E2E2E2E2E2E2E2E2E2E2E2E2E2E2E2E2E2E2E2E2E2E2E2E2E2E2E2E2E2E2E2E2E2E2E2E2E2E2E2E2
310
E2E2E2E2E2E2E2E2E2E2E2E2E2E2E2E2E2E2E2E2E2E2E2E2E2E2E2E2E2E2E2E2E2E2E2E2E2E2E2E2E2E2E2E2E2E2E2E2E2E2E2E2E2E2E2E2F5E2E2E2E2E2E2E2E2E2E2E2E2E2E2E2E2E2E2F5F5EFEFF5E2E2E2E2E2E2E2E2E2E2E2E2E2E2E2E2E2E2F5E2E2E2E2E2E2E2E2E2E2E2E2E2E2E2E2E2E2E2E2E2E2E2E2E2E2E2E2
310
E2E2E2E2E2E2E2E2E2E2E2E2E2E2E2E2E2E2E2E2E2E2E2E2E2E2E2E2E2E2E2E2E2E2E2E2E2E2E2E2E2E2E2E2E2E2E2E2E2E2E2E2E2E2E2E2E2E2E2E2E2E2E2E2E2E2E2E2E2E2E2E2E2E2E2E2E2E2E2E2E2E2E2E2E2E2E2E2E2E2E2E2E2E2E2E2E2E2E2E2E2E2E2E2E2E2E2E2E2F5E2E2E2E2E2E2E2E2E2E2E2E2E2E2E2E2E2
310
E2F5F5EFEFF5E2E2E2E2E2E2E2E2E2E2E2E2E2E2E2E2E2E2F5E2E2E2E2E2E2E2E2E2E2E2E2E2E2E2E2E2E2E2E2E2E2E2E2E2E2E2E2E2E2E2E2E2E2E2E2E2E2E2E2E2E2E2E2E2E2E2E2E2E2E2E2E2E2E2E2E2E2E2E2E2E2E2E2E2E2E2E2E2E2E2E2E2E2E2E2E2E2E2E2E2E2E2E2E2E2E2E2E2E2E2E2E2E2E2E2E2E2E2E2E2E2
310
E2E2E2E2E2E2E2E2E2E2E2E2E2E2E2E2E2E2E2E2E2E2E2E2E2E2E2E2E2E2E2E2E2E2E2F5E2E2E2E2E2E2E2E2E2E2E2E2E2E2E2E2E2E2F5F5EFEFF5E2E2E2E2E2E2E2E2E2E2E2E2E2E2E2E2E2E2F5E2E2E2E2E2E2E2E2E2E2E2E2E2E2E2E2E2E2E2E2E2E2E2E2E2E2E2E2E2E2E2E2E2E2E2E2E2E2E2E2E2E2E2E2E2E2E2E2E2
310
E2E2E2E2E2E2E2E2E2E2E2E2E2E2E2E2E2E2E2E2E2E2E2E2E2E2E2E2E2E2E2E2E2E2E2E2E2E2E2E2E2E2E2E2E2E2E2E2E2E2E2E2E2E2E2E2E2E2E2E2E2E2E2E2E2E2E2E2E2E2E2E2E2E2E2E2E2E2E2E2E2E2E2E2E2E2E2E2F5E2E2E2E2E2E2E2E2E2E2E2E2E2E2E2E2E2E2F5F5EFEFF5E2E2E2E2E2E2E2E2E2E2E2E2E2E2E2
310
E2E2E2F5F5F5F5F5F5F5F5F5F5F5F5F5F5F5F5F5F5F5F5F5F5F5F5F5F5F5F5F5F5F5F5F5F5F5F5F5F5F5F5F5F5F5F5F5F5F5F5F5F5F5F5F5F5F5F5F5F5F5F5F5F5F5F5F5F5F5F5F5F5F5F5F5F5F5F5F5F5F5F5F5F5F5F5F5F5F5F5F5F5F5F5F5F5F5F5F5F5F5F5F5F5F5F5F5F5F5F5F5F5F5F5F5F5F5F5F5F5F5F5F5F5F5F5
310
F5F5F5F5F5F5F5F5F5F5F5F5F5F5F5E2E2E2E2E2E2E2E2E2E2E2E2E2E2E2E2E2E2F5F5EFEFF5E2E2E2E2E2E2E2E2E2E2E2E2E2E2E2E2E2E2E2E2E2E2E2E2E2E2E2E2E2E2E2E2E2E2E2E2E2E2E2E2E2E2E2E2E2E2E2E2E2E2E2E2E2E2E2E2E2E2E2E2E2E2E2E2E2E2E2E2E2E2E2E2E2E2E2E2E2E2E2E2E2E2E2E2E2E2E2E2E2
310
E2E2E2E2E2E2E2E2E2E2E2E2E2E2E2E2E2E2E2E2E2E2E2E2E2E2E2E2E2E2E2E2E2E2E2E2E2E2E2E2E2E2E2E2E2E2E2E2E2E2E2E2E2E2E2E2E2E2E2E2E2E2E2E2E2E2E2E2E2E2E2E2E2E2E2E2E2E2E2E2E2E2E2E2E2E2F5F5EFEFF5E2E2E2E2E2E2E2E2E2E2E2E2E2E2E2E2E2E2E2E2E2E2E2E2E2E2E2E2E2E2E2E2E2E2E2E2
310
E2E2E2E2E2E2E2E2E2E2E2E2E2E2E2E2E2E2E2E2E2E2E2E2E2E2E2E2E2E2E2E2E2E2E2E2E2E2E2E2E2E2E2E2E2E2E2E2E2E2E2E2E2E2E2E2E2E2E2E2E2E2E2E2E2E2E2E2E2E2E2E2E2E2E2E2E2E2E2E2E2E2E2E2E2E2E2E2E2E2E2E2E2E2E2E2E2E2E2E2E2E2E2E2E2E2E2E2E2E2E2E2E2E2E2E2E2E2E2E2E2E2E2E2E2E2E2
310
E2E2E2E2E2E2E2E2E2E2E2E2F5F5EFEFF5E2E2E2E2E2E2E2E2E2E2E2E2E2E2E2E2E2E2E2E2E2E2E2E2E2E2E2E2E2E2E2E2E2E2E2E2E2E2E2E2E2E2E2E2E2E2E2E2E2E2E2E2E2E2E2E2E2E2E2E2E2E2E2E2E2E2E2E2E2E2E2E2E2E2E2E2E2E2E2E2E2E2E2E2E2E2E2E2E2E2E2E2E2E2E2E2E2E2E2E2E2E2E2E2E2E2E2E2E2E2
310
E2E2E2E2E2E2E2E2E2E2E2E2E2E2E2E2E2E2E2E2E2E2E2E2E2E2E2E2E2E2E2E2E2E2E2E2E2E2E2E2E2E2E2E2E2E2E2E2E2E2E2E2E2E2E2E2E2E2E2E2E2E2E2E2E2F5F5EFEFF5E2E2E2E2E2E2E2E2E2E2E2E2E2E2E2E2E2E2E2E2E2E2E2E2E2E2E2E2E2E2E2E2E2E2E2E2E2E2E2E2E2E2E2E2E2E2E2E2E2E2E2E2E2E2E2E2E2
310
E2E2E2E2E2E2E2E2E2E2E2E2E2E2E2E2E2E2E2E2E2E2E2E2E2E2E2E2E2E2E2E2E2E2E2E2E2E2E2E2E2E2E2E2E2E2E2E2E2E2E2E2E2E2E2E2E2E2E2E2E2E2E2E2E2E2E2E2E2E2E2E2E2E2E2E2E2E2E2E2E2E2E2E2E2E2E2E2E2E2E2E2E2E2E2E2E2E2E2E2E2E2E2E2E2E2E2E2E2E2E2E2E2E2E2E2E2E2F5F5EFEFF5E2E2E2E2
310
E2E2E2E2E2E2E2E2E2E2E2E2E2E2E2E2E2E2E2E2E2E2E2E2E2E2E2E2E2E2E2E2E2E2E2E2E2E2E2E2E2E2E2E2E2E2E2E2E2E2E2E2E2E2E2E2E2E2E2E2E2E2E2E2E2E2E2E2E2E2E2E2E2E2E2E2E2E2E2E2E2E2E2E2E2E2E2E2E2E2E2E2E2E2E2E2E2E2E2E2E2E2E2E2E2E2E2E2E2F5E2F5F5E2E2E2F5F5F5F5F5F5F5F5F5E2F5
310
E2F5F5E2F5F5F5F5F5F5F5F5F5F5F5E2F5E2E2F5E2F5F5F5F5E2E2E2E2E2E2E2E2E2E2E2E2E2E2E2E2E2E2E2F5F5EFEFF5E2F5E2E2E2E2E2E2E2E2E2E2E2E2E2E2E2E2E2E2E2E2E2E2E2E2E2E2E2E2E2E2E2E2E2E2E2E2E2E2E2E2E2E2E2E2E2E2E2E2E2E2E2E2E2E2E2E2E2E2E2E2E2E2E2E2E2E2E2E2E2E2E2E2E2E2E2E2
310
E2E2E2E2E2E2E2E2E2E2E2E2E2E2E2E2E2E2E2E2E2E2E2E2E2E2E2E2E2E2E2E2E2E2E2F5F5F5F5F5E2F5F5F5F5F5F5F5F5F5F5E2F5E2E2F5F5F5E2F5F5E2F5F5F5F5F5F5E2F5E2E2F5E2F5F5F5F5E2E2E2E2E2E2E2E2E2E2E2E2E2E2E2E2E2F5E2F5F5EFEFF5E2F5E2E2E2E2E2E2E2E2E2E2E2E2E2E2E2E2E2E2E2E2E2E2E2
310
E2E2E2E2E2E2E2E2E2E2E2E2E2E2E2E2E2E2E2E2E2E2E2E2E2E2E2E2E2E2E2E2E2E2E2E2E2E2E2E2E2E2E2E2E2E2E2E2E2E2E2E2E2E2E2E2E2E2E2E2E2E2E2E2E2E2E2E2E2E2E2E2E2E2E2E2E2E2E2E2E2E2E2E2E2E2E2E2E2F5F5F5F5F5F5F5F5F5F5F5F5F5F5E2E2F5F5E2F5F5F5F5F5E2F5F5F5F5F5F5F5F5E2E2F5E2F5
310
E2F5F5F5E2E2E2E2E2E2E2E2E2E2E2E2E2E2E2E2E2F5E2F5F5EFEFF5E2F5E2E2E2E2E2E2E2E2E2E2E2E2E2E2E2E2E2E2E2E2E2E2E2E2E2E2E2E2E2E2E2E2E2E2E2E2E2E2E2E2E2E2E2E2E2E2E2E2E2E2E2E2E2E2E2E2E2E2E2E2E2E2E2E2E2E2E2E2E2E2E2E2E2E2E2E2E2E2E2E2E2E2E2E2E2E2E2E2E2E2E2E2E2E2E2E2E2
310
E2E2E2E2E2E2E2E2E2E2E2E2E2E2E2F5F5F5E2E2E2F5F5E2F5F5F5F5F5E2E2F5F5F5F5F5E2F5F5F5F5F5F5F5F5F5F5F5E2E2F5E2F5E2F5E2F5E2E2E2E2E2E2E2E2E2E2E2E2E2E2E2E2E2F5E2F5F5EFEFF5E2F5E2E2E2E2E2E2E2E2E2E2E2E2E2E2E2E2E2E2E2E2E2E2E2E2E2E2E2E2E2E2E2E2E2E2E2E2E2E2E2E2E2E2E2E2
310
E2E2E2E2E2E2E2E2E2E2E2E2E2E2E2E2E2E2E2E2E2E2E2E2E2E2E2E2E2E2E2E2E2E2E2E2E2E2E2E2E2E2E2E2E2E2E2E2E2E2E2E2E2E2E2E2E2E2E2E2E2E2E2E2E2E2E2E2E2E2E2E2E2E2E2E2E2E2E2E2E2E2E2E2E2E2E2E2E2E2E2E2E2E2E2E2E2E2E2E2E2E2E2E2E2E2E2E2E2E2E2E2E2E2E2E2E2E2E2E2E2E2E2E2E2E2E2
310
F5E2F5F5EFEFF5E2F5E2E2E2E2E2E2E2E2E2E2E2E2E2E2E2E2E2E2E2E2E2E2E2E2E2E2E2E2E2E2E2E2E2E2E2E2E2E2E2E2E2E2E2E2E2E2E2E2E2E2E2E2E2E2E2E2E2E2E2E2E2E2E2E2E2E2E2E2E2E2E2E2E2E2E2E2E2E2E2E2E2E2E2E2E2E2E2E2E2E2E2E2E2E2E2E2E2E2E2E2E2E2E2E2E2E2E2E2E2E2E2E2E2E2E2E2E2E2
310
E2E2E2E2E2E2E2E2E2E2E2E2E2E2E2E2E2E2E2E2E2E2E2E2E2E2E2E2E2E2E2E2E2E2E2E2E2E2E2E2E2E2E2E2E2E2E2E2E2E2E2E2E2F5E2F5F5EFEFF5E2F5E2E2E2E2E2E2E2E2E2E2E2E2E2E2E2E2E2E2E2E2E2E2E2E2E2E2E2E2E2E2E2E2E2E2E2E2E2E2E2E2E2E2E2E2E2E2E2E2E2E2E2E2E2E2E2E2E2E2E2E2E2E2E2E2E2
310
E2E2E2E2E2E2E2E2E2E2E2E2E2E2E2E2E2E2E2E2E2E2E2E2E2E2E2E2E2E2E2E2E2E2E2E2E2E2E2E2E2E2E2E2E2E2E2E2E2E2E2E2E2E2E2E2E2E2E2E2E2E2E2E2E2E2E2E2E2E2E2E2E2E2E2E2E2E2E2E2E2E2E2E2E2E2E2E2E2E2E2E2E2E2E2E2E2E2E2E2E2E2E2E2E2E2F5E2F5F5EFEFF5E2F5E2E2E2E2E2E2E2E2E2E2E2E2
310
E2E2E2E2E2E2E2E2E2E2E2E2E2E2E2E2E2E2E2E2E2E2E2E2E2E2E2E2E2E2E2E2E2E2E2E2E2E2E2E2E2E2E2E2E2E2E2E2E2E2E2E2E2E2E2E2E2E2E2E2E2E2E2E2E2E2E2E2E2E2E2E2E2E2E2E2E2E2E2E2E2E2E2E2E2E2E2E2E2E2E2E2E2E2E2E2E2E2E2E2E2E2E2E2E2E2E2E2E2E2E2E2E2E2E2E2E2E2E2E2E2E2E2E2E2E2E2
310
E2E2E2E2E2E2E2E2E2E2E2E2E2E2E2E2E2E2E2E2E2E2E2E2E2E2E2E2E2E2E2E2F5E2F5F5EFEFF5E2F5E2E2E2E2E2E2E2E2E2E2E2E2E2E2E2E2E2E2E2E2E2E2E2E2E2E2E2E2E2E2E2E2E2E2E2E2E2E2E2E2E2E2E2E2E2E2E2E2E2E2E2E2E2E2E2E2E2E2E2E2E2E2E2E2E2E2E2E2E2E2E2E2E2E2E2E2E2E2E2E2E2E2E2E2E2E2
310
E2E2E2E2E2E2E2E2E2E2E2E2E2E2E2E2E2E2E2E2E2E2E2E2E2E2E2E2E2E2E2E2E2E2E2E2E2E2E2E2E2E2E2E2E2E2E2E2E2E2E2E2E2E2E2E2E2E2E2E2E2E2E2E2E2E2E2E2E2E2E2E2E2E2E2E2E2E2E2E2E2E2E2E2E2F5E2F5F5EFEFF5E2F5F5F5F5F5F5F5F5E2E2E2E2E2E2E2E2E2F5F5F5F5F5F5F5F5F5F5F5F5F5F5F5F5E2
310
E2E2E2E2E2E2E2E2F5F5F5F5F5F5F5F5F5F5F5F5F5F5F5F5E2E2E2E2E2E2E2E2F5F5F5F5F5F5F5F5F5F5F5F5F5F5F5F5E2E2E2E2E2E2E2E2E2F5F5F5F5F5F5F5F5F5F5F5F5F5F5F5F5E2E2E2E2E2E2E2E2F5F5F5F5F5F5F5F5F5F5F5F5F5F5F5F5E2E2E2E2E2E2E2E2E2F5F5F5F5F5F5F5F5F5F5F5F5F5F5F5F5E2E2E2E2E2
310
E2E2E2E2F5F5F5F5F5F5F5F5E2F5EFEFEFF5E2E2E2E2E2E2E2E2E2E2E2E2E2E2E2E2E2E2E2E2E2E2E2E2E2E2E2E2E2E2E2E2E2E2E2E2E2E2E2E2E2E2E2E2E2E2E2E2E2E2E2E2E2E2E2E2E2E2E2E2E2E2E2E2E2E2E2E2E2E2E2E2E2E2E2E2E2E2E2E2E2E2E2E2E2E2E2E2E2E2E2E2E2E2E2E2E2E2E2E2E2E2E2E2E2E2E2E2E2
310
E2E2E2E2E2E2E2E2E2E2E2E2E2E2E2E2E2E2E2E2E2E2E2E2E2E2E2E2E2E2E2E2E2E2E2E2E2E2E2E2E2E2E2E2E2E2E2E2E2E2E2E2E2E2E2E2E2E2E2E2E2E2E2E2E2E2F5EFEFEFF5F5F5F5F5F5F5F5F5F5F5F5F5F5F5F5F5F5F5F5F5F5F5F5F5F5F5F5F5F5F5F5F5F5F5F5F5F5F5F5F5F5F5F5F5F5F5F5F5F5F5F5F5F5F5F5F5
310
F5F5F5F5F5F5F5F5F5F5F5F5F5F5F5F5F5F5F5F5F5F5F5F5F5F5F5F5F5F5F5F5F5F5F5F5F5F5F5F5F5F5F5F5F5F5F5F5F5F5F5F5F5F5F5F5F5F5F5F5F5F5F5F5F5F5F5F5F5F5F5F5F5F5F5F5F5F5F5F5F5F5F5F5F5F5F5F5F5F5F5F5F5F5F5F5F5F5F5F5F5F5F5F5F5F5F5F5F5F5F5F5F5F5F5F5F5F5F5F5EFEFEF
  0
XRECORD
  5
20A0E
102
{ACAD_REACTORS
330
20A0D
102
}
330
20A0D
100
AcDbXrecord
280
     1
102
SHADEPLOT
 70
     0
102
SHADEPLOTRESLEVEL
 70
     2
102
SHADEPLOTCUSTOMDPI
 70
   300
  0
XRECORD
  5
20A12
102
{ACAD_REACTORS
330
20A11
102
}
330
20A11
100
AcDbXrecord
280
     1
102
MATERIAL
148
0.0
149
0.0
149
0.0
 93
        0
 94
       63
282
     0
 72
     1
 77
     1
171
     1
175
     1
179
     1
273
     0
  0
XRECORD
  5
20A10
102
{ACAD_REACTORS
330
20A0F
102
}
330
20A0F
100
AcDbXrecord
280
     1
102
MATERIAL
148
0.0
149
0.0
149
0.0
 93
        0
 94
       63
282
     0
 72
     1
 77
     1
171
     1
175
     1
179
     1
273
     0
  0
XRECORD
  5
20A14
102
{ACAD_REACTORS
330
20A13
102
}
330
20A13
100
AcDbXrecord
280
     1
102
MATERIAL
148
0.0
149
0.0
149
0.0
 93
        0
 94
       63
282
     0
 72
     1
 77
     1
171
     1
175
     1
179
     1
273
     0
  0
XRECORD
  5
20A16
102
{ACAD_REACTORS
330
20A15
102
}
330
20A15
100
AcDbXrecord
280
     1
102
ACAD_ROUNDTRIP_PRE2007_TABLESTYLE
 90
      512
 91
        0
  1

 92
      512
 93
        0
  2

 94
      512
 95
        0
  3

  0
ENDSEC
  0
EOF
