  0
SECTION
  2
HEADER
  9
$ACADVER
  1
AC1015
  9
$ACADMAINTVER
 70
    20
  9
$DWGCODEPAGE
  3
ANSI_1252
  9
$INSBASE
 10
0.0
 20
0.0
 30
0.0
  9
$EXTMIN
 10
11.22600005405263
 20
19.66422814674888
 30
-0.0015258207003583
  9
$EXTMAX
 10
64.29516582961756
 20
67.48110668578334
 30
0.0000000349246037
  9
$LIMMIN
 10
0.0
 20
0.0
  9
$LIMMAX
 10
12.0
 20
9.0
  9
$ORTHOMODE
 70
     1
  9
$REGENMODE
 70
     1
  9
$FILLMODE
 70
     1
  9
$QTEXTMODE
 70
     0
  9
$MIRRTEXT
 70
     0
  9
$LTSCALE
 40
1.0
  9
$ATTMODE
 70
     1
  9
$TEXTSIZE
 40
0.2
  9
$TRACEWID
 40
0.05
  9
$TEXTSTYLE
  7
Standard
  9
$CLAYER
  8
0
  9
$CELTYPE
  6
ByLayer
  9
$CECOLOR
 62
   256
  9
$CELTSCALE
 40
1.0
  9
$DISPSILH
 70
     0
  9
$DIMSCALE
 40
1.0
  9
$DIMASZ
 40
0.18
  9
$DIMEXO
 40
0.0625
  9
$DIMDLI
 40
0.38
  9
$DIMRND
 40
0.0
  9
$DIMDLE
 40
0.0
  9
$DIMEXE
 40
0.18
  9
$DIMTP
 40
0.0
  9
$DIMTM
 40
0.0
  9
$DIMTXT
 40
0.18
  9
$DIMCEN
 40
0.09
  9
$DIMTSZ
 40
0.0
  9
$DIMTOL
 70
     0
  9
$DIMLIM
 70
     0
  9
$DIMTIH
 70
     1
  9
$DIMTOH
 70
     1
  9
$DIMSE1
 70
     0
  9
$DIMSE2
 70
     0
  9
$DIMTAD
 70
     0
  9
$DIMZIN
 70
     0
  9
$DIMBLK
  1

  9
$DIMASO
 70
     1
  9
$DIMSHO
 70
     1
  9
$DIMPOST
  1

  9
$DIMAPOST
  1

  9
$DIMALT
 70
     1
  9
$DIMALTD
 70
     2
  9
$DIMALTF
 40
25.4
  9
$DIMLFAC
 40
1.0
  9
$DIMTOFL
 70
     0
  9
$DIMTVP
 40
0.0
  9
$DIMTIX
 70
     0
  9
$DIMSOXD
 70
     0
  9
$DIMSAH
 70
     0
  9
$DIMBLK1
  1

  9
$DIMBLK2
  1

  9
$DIMSTYLE
  2
Standard
  9
$DIMCLRD
 70
     0
  9
$DIMCLRE
 70
     0
  9
$DIMCLRT
 70
     0
  9
$DIMTFAC
 40
1.0
  9
$DIMGAP
 40
0.09
  9
$DIMJUST
 70
     0
  9
$DIMSD1
 70
     0
  9
$DIMSD2
 70
     0
  9
$DIMTOLJ
 70
     1
  9
$DIMTZIN
 70
     0
  9
$DIMALTZ
 70
     0
  9
$DIMALTTZ
 70
     0
  9
$DIMUPT
 70
     0
  9
$DIMDEC
 70
     4
  9
$DIMTDEC
 70
     4
  9
$DIMALTU
 70
     2
  9
$DIMALTTD
 70
     2
  9
$DIMTXSTY
  7
Standard
  9
$DIMAUNIT
 70
     0
  9
$DIMADEC
 70
     0
  9
$DIMALTRND
 40
0.0
  9
$DIMAZIN
 70
     0
  9
$DIMDSEP
 70
    46
  9
$DIMATFIT
 70
     3
  9
$DIMFRAC
 70
     0
  9
$DIMLDRBLK
  1

  9
$DIMLUNIT
 70
     2
  9
$DIMLWD
 70
    -2
  9
$DIMLWE
 70
    -2
  9
$DIMTMOVE
 70
     0
  9
$LUNITS
 70
     2
  9
$LUPREC
 70
     4
  9
$SKETCHINC
 40
0.1
  9
$FILLETRAD
 40
0.0
  9
$AUNITS
 70
     0
  9
$AUPREC
 70
     0
  9
$MENU
  1
.
  9
$ELEVATION
 40
0.0
  9
$PELEVATION
 40
0.0
  9
$THICKNESS
 40
0.0
  9
$LIMCHECK
 70
     0
  9
$CHAMFERA
 40
0.0
  9
$CHAMFERB
 40
0.0
  9
$CHAMFERC
 40
0.0
  9
$CHAMFERD
 40
0.0
  9
$SKPOLY
 70
     0
  9
$TDCREATE
 40
2454617.584509595
  9
$TDUCREATE
 40
2454617.876176262
  9
$TDUPDATE
 40
2454922.583008010
  9
$TDUUPDATE
 40
2454922.874674676
  9
$TDINDWG
 40
0.0270074653
  9
$TDUSRTIMER
 40
0.0270074653
  9
$USRTIMER
 70
     1
  9
$ANGBASE
 50
0.0
  9
$ANGDIR
 70
     0
  9
$PDMODE
 70
     0
  9
$PDSIZE
 40
0.0
  9
$PLINEWID
 40
0.0
  9
$SPLFRAME
 70
     0
  9
$SPLINETYPE
 70
     6
  9
$SPLINESEGS
 70
     8
  9
$HANDSEED
  5
D32
  9
$SURFTAB1
 70
     6
  9
$SURFTAB2
 70
     6
  9
$SURFTYPE
 70
     6
  9
$SURFU
 70
     6
  9
$SURFV
 70
     6
  9
$UCSBASE
  2

  9
$UCSNAME
  2

  9
$UCSORG
 10
0.0
 20
0.0
 30
0.0
  9
$UCSXDIR
 10
1.0
 20
0.0
 30
0.0
  9
$UCSYDIR
 10
0.0
 20
1.0
 30
0.0
  9
$UCSORTHOREF
  2

  9
$UCSORTHOVIEW
 70
     0
  9
$UCSORGTOP
 10
0.0
 20
0.0
 30
0.0
  9
$UCSORGBOTTOM
 10
0.0
 20
0.0
 30
0.0
  9
$UCSORGLEFT
 10
0.0
 20
0.0
 30
0.0
  9
$UCSORGRIGHT
 10
0.0
 20
0.0
 30
0.0
  9
$UCSORGFRONT
 10
0.0
 20
0.0
 30
0.0
  9
$UCSORGBACK
 10
0.0
 20
0.0
 30
0.0
  9
$PUCSBASE
  2

  9
$PUCSNAME
  2

  9
$PUCSORG
 10
0.0
 20
0.0
 30
0.0
  9
$PUCSXDIR
 10
1.0
 20
0.0
 30
0.0
  9
$PUCSYDIR
 10
0.0
 20
1.0
 30
0.0
  9
$PUCSORTHOREF
  2

  9
$PUCSORTHOVIEW
 70
     0
  9
$PUCSORGTOP
 10
0.0
 20
0.0
 30
0.0
  9
$PUCSORGBOTTOM
 10
0.0
 20
0.0
 30
0.0
  9
$PUCSORGLEFT
 10
0.0
 20
0.0
 30
0.0
  9
$PUCSORGRIGHT
 10
0.0
 20
0.0
 30
0.0
  9
$PUCSORGFRONT
 10
0.0
 20
0.0
 30
0.0
  9
$PUCSORGBACK
 10
0.0
 20
0.0
 30
0.0
  9
$USERI1
 70
     0
  9
$USERI2
 70
     0
  9
$USERI3
 70
     0
  9
$USERI4
 70
     0
  9
$USERI5
 70
     0
  9
$USERR1
 40
0.0
  9
$USERR2
 40
0.0
  9
$USERR3
 40
0.0
  9
$USERR4
 40
0.0
  9
$USERR5
 40
0.0
  9
$WORLDVIEW
 70
     1
  9
$SHADEDGE
 70
     3
  9
$SHADEDIF
 70
    70
  9
$TILEMODE
 70
     1
  9
$MAXACTVP
 70
    64
  9
$PINSBASE
 10
0.0
 20
0.0
 30
0.0
  9
$PLIMCHECK
 70
     0
  9
$PEXTMIN
 10
1.000000000000000E+20
 20
1.000000000000000E+20
 30
1.000000000000000E+20
  9
$PEXTMAX
 10
-1.000000000000000E+20
 20
-1.000000000000000E+20
 30
-1.000000000000000E+20
  9
$PLIMMIN
 10
-20.0
 20
-7.5
  9
$PLIMMAX
 10
277.0
 20
202.5
  9
$UNITMODE
 70
     0
  9
$VISRETAIN
 70
     1
  9
$PLINEGEN
 70
     0
  9
$PSLTSCALE
 70
     1
  9
$TREEDEPTH
 70
  3020
  9
$CMLSTYLE
  2
Standard
  9
$CMLJUST
 70
     0
  9
$CMLSCALE
 40
1.0
  9
$PROXYGRAPHICS
 70
     1
  9
$MEASUREMENT
 70
     0
  9
$CELWEIGHT
370
    -1
  9
$ENDCAPS
280
     0
  9
$JOINSTYLE
280
     0
  9
$LWDISPLAY
290
     0
  9
$INSUNITS
 70
     1
  9
$HYPERLINKBASE
  1

  9
$STYLESHEET
  1

  9
$XEDIT
290
     1
  9
$CEPSNTYPE
380
     0
  9
$PSTYLEMODE
290
     1
  9
$FINGERPRINTGUID
  2
{F581CD9C-7017-4B5B-83EA-6F013C9C94BB}
  9
$VERSIONGUID
  2
{7C0331F1-C7AB-4158-B171-42691359C84E}
  9
$EXTNAMES
290
     1
  9
$PSVPSCALE
 40
0.0
  9
$OLESTARTUP
290
     0
  0
ENDSEC
  0
SECTION
  2
CLASSES
  0
CLASS
  1
ACDBDICTIONARYWDFLT
  2
AcDbDictionaryWithDefault
  3
ObjectDBX Classes
 90
        0
280
     0
281
     0
  0
CLASS
  1
ACDBPLACEHOLDER
  2
AcDbPlaceHolder
  3
ObjectDBX Classes
 90
        0
280
     0
281
     0
  0
CLASS
  1
LAYOUT
  2
AcDbLayout
  3
ObjectDBX Classes
 90
        0
280
     0
281
     0
  0
CLASS
  1
DICTIONARYVAR
  2
AcDbDictionaryVar
  3
ObjectDBX Classes
 90
        0
280
     0
281
     0
  0
CLASS
  1
TABLESTYLE
  2
AcDbTableStyle
  3
ObjectDBX Classes
 90
     4095
280
     0
281
     0
  0
CLASS
  1
SORTENTSTABLE
  2
AcDbSortentsTable
  3
ObjectDBX Classes
 90
    32768
280
     0
281
     0
  0
CLASS
  1
DIMASSOC
  2
AcDbDimAssoc
  3
"AcDbDimAssoc|Product Desc:     AcDim ARX App For Dimension|Company:          Autodesk, Inc.|WEB Address:      www.autodesk.com"
 90
    32768
280
     0
281
     0
  0
CLASS
  1
MATERIAL
  2
AcDbMaterial
  3
ObjectDBX Classes
 90
     1024
280
     0
281
     0
  0
CLASS
  1
VISUALSTYLE
  2
AcDbVisualStyle
  3
ObjectDBX Classes
 90
     4095
280
     0
281
     0
  0
ENDSEC
  0
SECTION
  2
TABLES
  0
TABLE
  2
VPORT
  5
8
330
0
100
AcDbSymbolTable
 70
     1
  0
VPORT
  5
CFC
330
8
100
AcDbSymbolTableRecord
100
AcDbViewportTableRecord
  2
*Active
 70
     0
 10
0.0
 20
0.0
 11
1.0
 21
1.0
 12
37.7605829418351
 22
43.57266741626611
 13
0.0
 23
0.0
 14
0.5
 24
0.5
 15
0.5
 25
0.5
 16
0.0
 26
0.0
 36
1.0
 17
0.0
 27
0.0
 37
0.0
 40
48.21982976267801
 41
1.646976090014064
 42
50.0
 43
0.0
 44
0.0
 50
0.0
 51
0.0
 71
     0
 72
 20000
 73
     1
 74
     3
 75
     0
 76
     0
 77
     0
 78
     0
281
     0
 65
     1
110
0.0
120
0.0
130
0.0
111
1.0
121
0.0
131
0.0
112
0.0
122
1.0
132
0.0
 79
     0
146
0.0
  0
ENDTAB
  0
TABLE
  2
LTYPE
  5
5
330
0
100
AcDbSymbolTable
 70
     4
  0
LTYPE
  5
14
330
5
100
AcDbSymbolTableRecord
100
AcDbLinetypeTableRecord
  2
ByBlock
 70
     0
  3

 72
    65
 73
     0
 40
0.0
  0
LTYPE
  5
15
330
5
100
AcDbSymbolTableRecord
100
AcDbLinetypeTableRecord
  2
ByLayer
 70
     0
  3

 72
    65
 73
     0
 40
0.0
  0
LTYPE
  5
16
330
5
100
AcDbSymbolTableRecord
100
AcDbLinetypeTableRecord
  2
Continuous
 70
     0
  3
Solid line
 72
    65
 73
     0
 40
0.0
  0
LTYPE
  5
B36
330
5
100
AcDbSymbolTableRecord
100
AcDbLinetypeTableRecord
  2
DASHED
 70
     0
  3
-- -- -- -- -- -- -- -- -- --
 72
    65
 73
     2
 40
3.0
 49
2.0
 74
     0
 49
-1.0
 74
     0
  0
LTYPE
  5
B37
330
5
100
AcDbSymbolTableRecord
100
AcDbLinetypeTableRecord
  2
CENTER
 70
     0
  3
--- - --- - --- - --- - --- -
 72
    65
 73
     4
 40
6.0
 49
3.0
 74
     0
 49
-1.0
 74
     0
 49
1.0
 74
     0
 49
-1.0
 74
     0
  0
LTYPE
  5
B38
330
5
100
AcDbSymbolTableRecord
100
AcDbLinetypeTableRecord
  2
PHANTOM
 70
     0
  3
----- - - ----- - - ----- - -
 72
    65
 73
     6
 40
12.0
 49
7.0
 74
     0
 49
-1.0
 74
     0
 49
1.0
 74
     0
 49
-1.0
 74
     0
 49
1.0
 74
     0
 49
-1.0
 74
     0
  0
ENDTAB
  0
TABLE
  2
LAYER
  5
2
102
{ACAD_XDICTIONARY
360
1D0
102
}
330
0
100
AcDbSymbolTable
 70
     2
  0
LAYER
  5
10
330
2
100
AcDbSymbolTableRecord
100
AcDbLayerTableRecord
  2
0
 70
     0
 62
     7
  6
Continuous
370
    -3
390
F
  0
LAYER
  5
200
330
2
100
AcDbSymbolTableRecord
100
AcDbLayerTableRecord
  2
Defpoints
 70
     0
 62
     7
  6
Continuous
290
     0
370
    -3
390
F
  0
ENDTAB
  0
TABLE
  2
STYLE
  5
3
330
0
100
AcDbSymbolTable
 70
     1
  0
STYLE
  5
11
330
3
100
AcDbSymbolTableRecord
100
AcDbTextStyleTableRecord
  2
Standard
 70
     0
 40
0.0
 41
1.0
 50
0.0
 71
     0
 42
0.2
  3
txt
  4

  0
ENDTAB
  0
TABLE
  2
VIEW
  5
6
330
0
100
AcDbSymbolTable
 70
     3
  0
ENDTAB
  0
TABLE
  2
UCS
  5
7
330
0
100
AcDbSymbolTable
 70
     0
  0
ENDTAB
  0
TABLE
  2
APPID
  5
9
330
0
100
AcDbSymbolTable
 70
    12
  0
APPID
  5
12
330
9
100
AcDbSymbolTableRecord
100
AcDbRegAppTableRecord
  2
ACAD
 70
     0
  0
APPID
  5
1CA
330
9
100
AcDbSymbolTableRecord
100
AcDbRegAppTableRecord
  2
ACAD_PSEXT
 70
     0
  0
APPID
  5
1CB
330
9
100
AcDbSymbolTableRecord
100
AcDbRegAppTableRecord
  2
ACAD_DSTYLE_DIMEXT_LENGTH
 70
     0
  0
APPID
  5
1CC
330
9
100
AcDbSymbolTableRecord
100
AcDbRegAppTableRecord
  2
ACAD_DSTYLE_DIMEXT_ENABLED
 70
     0
  0
APPID
  5
1CD
330
9
100
AcDbSymbolTableRecord
100
AcDbRegAppTableRecord
  2
ACAD_DSTYLE_DIMJOGGED_JOGANGLE_SYMBOL
 70
     0
  0
APPID
  5
1CE
330
9
100
AcDbSymbolTableRecord
100
AcDbRegAppTableRecord
  2
ACAD_DSTYLE_DIMARC_LENGTH_SYMBOL
 70
     0
  0
APPID
  5
1CF
330
9
100
AcDbSymbolTableRecord
100
AcDbRegAppTableRecord
  2
DCO15
 70
     0
  0
APPID
  5
2A8
330
9
100
AcDbSymbolTableRecord
100
AcDbRegAppTableRecord
  2
ACAD_DSTYLE_DIMTEXT_FILL
 70
     0
  0
APPID
  5
2AB
330
9
100
AcDbSymbolTableRecord
100
AcDbRegAppTableRecord
  2
ACAD_DSTYLE_DIM_LINETYPE
 70
     0
  0
APPID
  5
2AC
330
9
100
AcDbSymbolTableRecord
100
AcDbRegAppTableRecord
  2
ACAD_DSTYLE_DIM_EXT1_LINETYPE
 70
     0
  0
APPID
  5
2AD
330
9
100
AcDbSymbolTableRecord
100
AcDbRegAppTableRecord
  2
ACAD_DSTYLE_DIM_EXT2_LINETYPE
 70
     0
  0
APPID
  5
CEE
330
9
100
AcDbSymbolTableRecord
100
AcDbRegAppTableRecord
  2
ACAD_EXEMPT_FROM_CAD_STANDARDS
 70
     0
  0
ENDTAB
  0
TABLE
  2
DIMSTYLE
  5
A
330
0
100
AcDbSymbolTable
 70
     1
100
AcDbDimStyleTable
 71
     1
340
27
  0
DIMSTYLE
105
27
330
A
100
AcDbSymbolTableRecord
100
AcDbDimStyleTableRecord
  2
Standard
 70
     0
170
     1
340
11
1001
ACAD_DSTYLE_DIMJOGGED_JOGANGLE_SYMBOL
1070
   384
1040
0.7853981633974483
1001
ACAD_DSTYLE_DIMEXT_LENGTH
1070
   378
1040
0.18
  0
ENDTAB
  0
TABLE
  2
BLOCK_RECORD
  5
1
330
0
100
AcDbSymbolTable
 70
     0
  0
BLOCK_RECORD
  5
1F
330
1
100
AcDbSymbolTableRecord
100
AcDbBlockTableRecord
  2
*Model_Space
340
22
  0
BLOCK_RECORD
  5
58
330
1
100
AcDbSymbolTableRecord
100
AcDbBlockTableRecord
  2
*Paper_Space
340
59
  0
ENDTAB
  0
ENDSEC
  0
SECTION
  2
BLOCKS
  0
BLOCK
  5
20
330
1F
100
AcDbEntity
  8
0
100
AcDbBlockBegin
  2
*Model_Space
 70
     0
 10
0.0
 20
0.0
 30
0.0
  3
*Model_Space
  1

  0
ENDBLK
  5
21
330
1F
100
AcDbEntity
  8
0
100
AcDbBlockEnd
  0
BLOCK
  5
5A
330
58
100
AcDbEntity
 67
     1
  8
0
100
AcDbBlockBegin
  2
*Paper_Space
 70
     0
 10
0.0
 20
0.0
 30
0.0
  3
*Paper_Space
  1

  0
ENDBLK
  5
5B
330
58
100
AcDbEntity
 67
     1
  8
0
100
AcDbBlockEnd
  0
ENDSEC
  0
SECTION
  2
ENTITIES
  0
LINE
  5
875
330
1F
100
AcDbEntity
  8
0
100
AcDbLine
 10
24.14386833865528
 20
19.66452075376813
 30
0.0
 11
24.21347449865532
 21
20.18672443376821
 31
0.0
  0
ARC
  5
877
330
1F
100
AcDbEntity
  8
0
100
AcDbCircle
 10
4.200364918655324
 20
14.28114569376819
 30
0.0
 40
19.68490408519437
100
AcDbArc
 50
33.0780273126505
 51
41.94108995139155
  0
ARC
  5
878
330
1F
100
AcDbEntity
  8
0
100
AcDbCircle
 10
4.200364918655324
 20
14.28114569376819
 30
0.0
 40
21.85026498393739
100
AcDbArc
 50
31.95338207241519
 51
41.94106426568576
  0
LINE
  5
879
330
1F
100
AcDbEntity
  8
0
100
AcDbLine
 10
15.67238921865525
 20
22.95195512376816
 30
0.0
 11
14.83180034865533
 21
24.4078577237681
 31
0.0
  0
LINE
  5
87A
330
1F
100
AcDbEntity
  8
0
100
AcDbLine
 10
16.03364833865525
 20
22.73538075376817
 30
0.0
 11
16.02471134865531
 21
22.73538075376817
 31
0.0
  0
LINE
  5
87B
330
1F
100
AcDbEntity
  8
0
100
AcDbLine
 10
12.64782833865529
 20
22.34168075376809
 30
0.0
 11
13.22192167865528
 21
22.34168075376809
 31
0.0
  0
ARC
  5
87C
330
1F
100
AcDbEntity
  8
0
100
AcDbCircle
 10
12.64782833865529
 20
22.38105075376828
 30
0.0
 40
0.03937
100
AcDbArc
 50
180.0
 51
270.0
  0
LINE
  5
87D
330
1F
100
AcDbEntity
  8
0
100
AcDbLine
 10
12.29349833865528
 20
22.34168075376809
 30
0.0
 11
12.29349833865528
 21
26.12120075376814
 31
0.0
  0
LINE
  5
87E
330
1F
100
AcDbEntity
  8
0
100
AcDbLine
 10
12.60845833865532
 20
22.38105075376828
 30
0.0
 11
12.60845833865532
 21
26.12120075376814
 31
0.0
  0
ARC
  5
87F
330
1F
100
AcDbEntity
  8
0
100
AcDbCircle
 10
16.9391583386553
 20
25.72750075376828
 30
0.0
 40
2.559052100842909
100
AcDbArc
 50
41.94128342101907
 51
90.0
  0
ARC
  5
880
330
1F
100
AcDbEntity
  8
0
100
AcDbCircle
 10
16.9391583386553
 20
26.12120075376814
 30
0.0
 40
2.16535
100
AcDbArc
 50
90.0
 51
180.0
  0
LINE
  5
881
330
1F
100
AcDbEntity
  8
0
100
AcDbLine
 10
14.77380833865531
 20
26.12120075376814
 30
0.0
 11
14.77380833865531
 21
24.62439272376812
 31
0.0
  0
ARC
  5
882
330
1F
100
AcDbEntity
  8
0
100
AcDbCircle
 10
15.20687833865524
 20
24.62439272376812
 30
0.0
 40
0.4330700000000001
100
AcDbArc
 50
180.0
 51
209.9981235177719
  0
LINE
  5
883
330
1F
100
AcDbEntity
  8
0
100
AcDbLine
 10
16.03364833865525
 20
23.0503407537681
 30
0.0
 11
16.04746720865527
 21
23.0503407537681
 31
0.0
  0
ARC
  5
884
330
1F
100
AcDbEntity
  8
0
100
AcDbCircle
 10
16.04742783865531
 20
23.16849012376818
 30
0.0
 40
0.4330415184475148
100
AcDbArc
 50
210.0007277808539
 51
270.4063092907014
  0
ARC
  5
885
330
1F
100
AcDbEntity
  8
0
100
AcDbCircle
 10
16.40148224865531
 20
25.09762012376817
 30
0.0
 40
2.3622
100
AcDbArc
 50
270.0
 51
301.5856061934097
  0
ARC
  5
886
330
1F
100
AcDbEntity
  8
0
100
AcDbCircle
 10
19.18529557865524
 20
20.57003075376818
 30
0.0
 40
2.952753233850031
100
AcDbArc
 50
89.91520230830808
 51
121.5854314154598
  0
ARC
  5
88B
330
1F
100
AcDbEntity
  8
0
100
AcDbCircle
 10
40.36367841865528
 20
37.47688670376809
 30
0.0
 40
19.88184282549836
100
AcDbArc
 50
197.4485707681534
 51
207.4436898110014
  0
LINE
  5
88C
330
1F
100
AcDbEntity
  8
0
100
AcDbLine
 10
22.71922551865525
 20
28.31379479376827
 30
0.0
 11
23.62953865865534
 21
26.56096365376814
 31
0.0
  0
ARC
  5
88E
330
1F
100
AcDbEntity
  8
0
100
AcDbCircle
 10
31.58479833865526
 20
29.58576075376825
 30
0.0
 40
2.362180781128234
100
AcDbArc
 50
287.1716736305701
 51
323.1301023541911
  0
LINE
  5
892
330
1F
100
AcDbEntity
  8
0
100
AcDbLine
 10
26.30923932319801
 20
19.66452075376813
 30
0.0
 11
26.27475120319803
 21
20.18156696376812
 31
0.0
  0
LINE
  5
893
330
1F
100
AcDbEntity
  8
0
100
AcDbLine
 10
16.05049869865529
 20
22.7354594937681
 30
0.0
 11
16.40148224865531
 21
22.7354594937681
 31
0.0
  0
CIRCLE
  5
894
330
1F
100
AcDbEntity
  8
0
100
AcDbCircle
 10
20.67930833865528
 20
61.99734937764995
 30
0.0
 40
0.27559
  0
CIRCLE
  5
895
330
1F
100
AcDbEntity
  8
0
100
AcDbCircle
 10
20.67930833865528
 20
56.48554937764996
 30
0.0
 40
0.27559
  0
ARC
  5
896
330
1F
100
AcDbEntity
  8
0
100
AcDbCircle
 10
23.82890833865524
 20
27.06608075376815
 30
0.0
 40
3.740173956982693
100
AcDbArc
 50
213.0776712133115
 51
270.0
  0
ARC
  5
897
330
1F
100
AcDbEntity
  8
0
100
AcDbCircle
 10
22.09662833865529
 20
25.75407550376829
 30
0.0
 40
1.732254761856585
100
AcDbArc
 50
1.725646920158902
 51
27.44328392863982
  0
ARC
  5
898
330
1F
100
AcDbEntity
  8
0
100
AcDbCircle
 10
38.09384043865536
 20
8.521314693767891
 30
0.0
 40
19.68499191816434
100
AcDbArc
 50
107.1714427611213
 51
119.3490082171186
  0
LINE
  5
89A
330
1F
100
AcDbEntity
  8
0
100
AcDbLine
 10
47.76722878505704
 20
36.19992075376811
 30
0.0
 11
47.88541752505698
 21
32.49414076376823
 31
0.0
  0
LINE
  5
89B
330
1F
100
AcDbEntity
  8
0
100
AcDbLine
 10
11.23783115865528
 20
36.03039353376815
 30
0.0
 11
11.40247649865527
 21
34.12555482376823
 31
0.0
  0
ARC
  5
89C
330
1F
100
AcDbEntity
  8
0
100
AcDbCircle
 10
11.71625539865526
 20
34.15268075376824
 30
0.0
 40
0.3149600000000023
100
AcDbArc
 50
184.9408893298
 51
270.0
  0
ARC
  5
89D
330
1F
100
AcDbEntity
  8
0
100
AcDbCircle
 10
56.03021619605708
 20
-71.79198924623185
 30
0.0
 40
118.110003937
100
AcDbArc
 50
90.0
 51
93.06568578930059
  0
ARC
  5
89E
330
1F
100
AcDbEntity
  8
0
100
AcDbCircle
 10
56.92391519605705
 20
33.7196107537682
 30
0.0
 40
7.874018452324384
100
AcDbArc
 50
187.9280699079585
 51
224.1455787227552
  0
LINE
  5
89F
330
1F
100
AcDbEntity
  8
0
100
AcDbLine
 10
12.09664833865524
 20
19.66452075376813
 30
0.0
 11
35.75801833865528
 21
19.66452075376813
 31
0.0
  0
ARC
  5
8A0
330
1F
100
AcDbEntity
  8
0
100
AcDbCircle
 10
51.7042287850566
 20
36.19992075376811
 30
0.0
 40
3.936999999999549
100
AcDbArc
 50
177.2103125585941
 51
180.0
  0
ARC
  5
8A1
330
1F
100
AcDbEntity
  8
0
100
AcDbCircle
 10
51.93400785305771
 20
36.19992075376811
 30
0.0
 40
3.937001739366896
100
AcDbArc
 50
177.3732136660533
 51
180.0538580169579
  0
ARC
  5
8A2
330
1F
100
AcDbEntity
  8
0
100
AcDbCircle
 10
53.90250391605689
 20
36.20177114376819
 30
0.0
 40
5.905486676258232
100
AcDbArc
 50
180.0538580526925
 51
196.6214616264846
  0
ARC
  5
8A3
330
1F
100
AcDbEntity
  8
0
100
AcDbCircle
 10
48.62102235305705
 20
34.62512075376825
 30
0.0
 40
0.3936925991775242
100
AcDbArc
 50
196.6189541308268
 51
270.0
  0
ARC
  5
8A6
330
1F
100
AcDbEntity
  8
0
100
AcDbCircle
 10
24.02575833865528
 20
32.34166075376814
 30
0.0
 40
2.7559
100
AcDbArc
 50
180.0
 51
197.4482146919609
  0
LINE
  5
8A7
330
1F
100
AcDbEntity
  8
0
100
AcDbLine
 10
21.26985833865528
 20
32.34166075376814
 30
0.0
 11
21.26985833865528
 21
32.85347075376811
 31
0.0
  0
ARC
  5
8A9
330
1F
100
AcDbEntity
  8
0
100
AcDbCircle
 10
27.35665718865532
 20
24.68604614376821
 30
0.0
 40
0.1968620389778593
100
AcDbArc
 50
130.1327372500921
 51
175.7102753188886
  0
ARC
  5
8AA
330
1F
100
AcDbEntity
  8
0
100
AcDbCircle
 10
4.200364918655324
 20
14.28114569376819
 30
0.0
 40
19.56682730515494
100
AcDbArc
 50
33.07801100307197
 51
41.94113713684932
  0
ARC
  5
8AB
330
1F
100
AcDbEntity
  8
0
100
AcDbCircle
 10
23.82890833865524
 20
27.06608075376815
 30
0.0
 40
3.858250736991175
100
AcDbArc
 50
213.0777648247697
 51
270.0
  0
ARC
  5
8AC
330
1F
100
AcDbEntity
  8
0
100
AcDbCircle
 10
16.9391583386553
 20
25.72750075376828
 30
0.0
 40
2.440929970154392
100
AcDbArc
 50
41.94167102894089
 51
90.0
  0
ARC
  5
8AD
330
1F
100
AcDbEntity
  8
0
100
AcDbCircle
 10
16.9391583386553
 20
26.12120075376814
 30
0.0
 40
2.047239999999999
100
AcDbArc
 50
90.0
 51
180.0
  0
LINE
  5
8AE
330
1F
100
AcDbEntity
  8
0
100
AcDbLine
 10
14.89191833865531
 20
26.12120075376814
 30
0.0
 11
14.89191833865531
 21
24.62439272376812
 31
0.0
  0
ARC
  5
8AF
330
1F
100
AcDbEntity
  8
0
100
AcDbCircle
 10
15.20687833865524
 20
24.62439272376812
 30
0.0
 40
0.31496
100
AcDbArc
 50
180.0
 51
210.0007277808539
  0
LINE
  5
8B0
330
1F
100
AcDbEntity
  8
0
100
AcDbLine
 10
15.77467247865529
 20
23.0110101237681
 30
0.0
 11
14.93412297865534
 21
24.46691272376828
 31
0.0
  0
ARC
  5
8B1
330
1F
100
AcDbEntity
  8
0
100
AcDbCircle
 10
16.04742783865531
 20
23.16849012376818
 30
0.0
 40
0.3149286254685699
100
AcDbArc
 50
210.0007277808539
 51
270.4082765540308
  0
LINE
  5
8B2
330
1F
100
AcDbEntity
  8
0
100
AcDbLine
 10
16.05049869865529
 20
22.85356949376822
 30
0.0
 11
16.40148224865531
 21
22.85356949376822
 31
0.0
  0
ARC
  5
8B3
330
1F
100
AcDbEntity
  8
0
100
AcDbCircle
 10
16.40148224865531
 20
25.09762012376817
 30
0.0
 40
2.244089999999999
100
AcDbArc
 50
270.0
 51
301.5855735077159
  0
ARC
  5
8B4
330
1F
100
AcDbEntity
  8
0
100
AcDbCircle
 10
19.18324833865533
 20
19.19208075376812
 30
0.0
 40
4.448826681699698
100
AcDbArc
 50
19.63758901734193
 51
89.91481695690268
  0
ARC
  5
8B5
330
1F
100
AcDbEntity
  8
0
100
AcDbCircle
 10
19.18529557865524
 20
20.57003075376818
 30
0.0
 40
3.070863395912997
100
AcDbArc
 50
89.91479095487679
 51
121.5854620220107
  0
ARC
  5
8B6
330
1F
100
AcDbEntity
  8
0
100
AcDbCircle
 10
20.61037146865526
 20
20.1763307537681
 30
0.0
 40
0.0787205094377433
100
AcDbArc
 50
7.587069070371946
 51
90.0
  0
ARC
  5
8B9
330
1F
100
AcDbEntity
  8
0
100
AcDbCircle
 10
20.50915119865526
 20
20.04176409376808
 30
0.0
 40
0.5905346323768076
100
AcDbArc
 50
21.17448797988604
 51
32.65283193041232
  0
LINE
  5
8BB
330
1F
100
AcDbEntity
  8
0
100
AcDbLine
 10
20.68840280865531
 20
20.18672443376821
 30
0.0
 11
20.75804833865531
 21
19.66452075376813
 31
0.0
  0
ARC
  5
8BC
330
1F
100
AcDbEntity
  8
0
100
AcDbCircle
 10
19.18324833865533
 20
19.19208075376812
 30
0.0
 40
4.330688098253689
100
AcDbArc
 50
19.63728628582669
 51
89.9150981342734
  0
ARC
  5
8BD
330
1F
100
AcDbEntity
  8
0
100
AcDbCircle
 10
24.29154520865534
 20
20.1763307537681
 30
0.0
 40
0.0787595349392452
100
AcDbArc
 50
90.0
 51
172.4167124490706
  0
ARC
  5
8BE
330
1F
100
AcDbEntity
  8
0
100
AcDbCircle
 10
26.19620805319805
 20
20.1763307537681
 30
0.0
 40
0.0787399999999911
100
AcDbArc
 50
3.81407483432715
 51
90.0
  0
LINE
  5
8C4
330
1F
100
AcDbEntity
  8
0
100
AcDbLine
 10
11.23050833865527
 20
36.19992075376811
 30
0.0
 11
11.39101982865524
 21
44.86893884876806
 31
0.0
  0
ARC
  5
8C5
330
1F
100
AcDbEntity
  8
0
100
AcDbCircle
 10
90.13601981865535
 20
59.24144937765007
 30
0.0
 40
78.74002179240417
100
AcDbArc
 50
175.9039614803394
 51
180.0
  0
LINE
  5
8C9
330
1F
100
AcDbEntity
  8
0
100
AcDbLine
 10
27.46165697865528
 20
24.50703075376808
 30
0.0
 11
27.14583083865527
 21
24.50703075376808
 31
0.0
  0
ARC
  5
8CA
330
1F
100
AcDbEntity
  8
0
100
AcDbCircle
 10
23.70701881865527
 20
20.80625075376818
 30
0.0
 40
0.3543018974544569
100
AcDbArc
 50
199.6349801440455
 51
206.3900547318777
  0
LINE
  5
8D2
330
1F
100
AcDbEntity
  8
0
100
AcDbLine
 10
17.49033833865523
 20
19.66452075376813
 30
0.0
 11
17.52478708865526
 21
20.18156696376812
 31
0.0
  0
LINE
  5
8D3
330
1F
100
AcDbEntity
  8
0
100
AcDbLine
 10
17.1753783386553
 20
19.66452075376813
 30
0.0
 11
17.14089021865531
 21
20.18156696376812
 31
0.0
  0
LINE
  5
8D4
330
1F
100
AcDbEntity
  8
0
100
AcDbLine
 10
20.61037146865526
 20
20.25507075376825
 30
0.0
 11
17.60336960865531
 21
20.25507075376825
 31
0.0
  0
ARC
  5
8D5
330
1F
100
AcDbEntity
  8
0
100
AcDbCircle
 10
17.60336960865531
 20
20.1763307537681
 30
0.0
 40
0.0787567796746105
100
AcDbArc
 50
90.0
 51
176.1878303890707
  0
ARC
  5
8D6
330
1F
100
AcDbEntity
  8
0
100
AcDbCircle
 10
17.06234706865534
 20
20.1763307537681
 30
0.0
 40
0.0787399999999911
100
AcDbArc
 50
3.81407483432715
 51
90.0
  0
ARC
  5
8D7
330
1F
100
AcDbEntity
  8
0
100
AcDbCircle
 10
13.19900833865533
 20
36.19992075376811
 30
0.0
 40
1.9685
100
AcDbArc
 50
180.0
 51
184.9404558702893
  0
LINE
  5
8D8
330
1F
100
AcDbEntity
  8
0
100
AcDbLine
 10
11.62294849865525
 20
36.12885790376825
 30
0.0
 11
11.81952290865528
 21
34.26665690376811
 31
0.0
  0
LINE
  5
8D9
330
1F
100
AcDbEntity
  8
0
100
AcDbLine
 10
23.82890833865524
 20
23.20782075376818
 30
0.0
 11
24.06079763865527
 21
23.20782075376818
 31
0.0
  0
ARC
  5
8DA
330
1F
100
AcDbEntity
  8
0
100
AcDbCircle
 10
24.06079763865527
 20
23.36530075376825
 30
0.0
 40
0.15748
100
AcDbArc
 50
270.0
 51
345.522547450744
  0
LINE
  5
8DF
330
1F
100
AcDbEntity
  8
0
100
AcDbLine
 10
21.66355833865525
 20
32.3314639237681
 30
0.0
 11
21.66355833865525
 21
32.85347075376811
 31
0.0
  0
ARC
  5
8E0
330
1F
100
AcDbEntity
  8
0
100
AcDbCircle
 10
24.02575833865528
 20
32.34166075376814
 30
0.0
 40
2.3622
100
AcDbArc
 50
180.0
 51
197.4486460223707
  0
LINE
  5
8E1
330
1F
100
AcDbEntity
  8
0
100
AcDbLine
 10
27.05724833865524
 20
23.32593075376829
 30
0.0
 11
27.16035836865528
 21
24.70077052376817
 31
0.0
  0
ARC
  5
8E2
330
1F
100
AcDbEntity
  8
0
100
AcDbCircle
 10
32.30495437865549
 20
18.81637284376805
 30
0.0
 40
7.874017093353036
100
AcDbArc
 50
119.3491081006853
 51
130.1318395394503
  0
ARC
  5
8E3
330
1F
100
AcDbEntity
  8
0
100
AcDbCircle
 10
13.22192167865528
 20
21.94798075376823
 30
0.0
 40
0.3937062086000448
100
AcDbArc
 50
17.92038415581486
 51
90.0
  0
ARC
  5
8E4
330
1F
100
AcDbEntity
  8
0
100
AcDbCircle
 10
15.65679869865532
 20
22.7354594937681
 30
0.0
 40
2.165344586260322
100
AcDbArc
 50
233.9808218032921
 51
254.5095829923601
  0
ARC
  5
8E9
330
1F
100
AcDbEntity
  8
0
100
AcDbCircle
 10
11.51483847865533
 20
45.1762846907682
 30
0.0
 40
0.1180909194943197
100
AcDbArc
 50
178.9378858176733
 51
270.0
  0
ARC
  5
8EA
330
1F
100
AcDbEntity
  8
0
100
AcDbCircle
 10
56.03021619605708
 20
-71.28017924623188
 30
0.0
 40
118.1099958482299
100
AcDbArc
 50
90.0
 51
93.13684998740182
  0
LINE
  5
8EB
330
1F
100
AcDbEntity
  8
0
100
AcDbLine
 10
56.03021619605708
 20
45.05817469076808
 30
0.0
 11
55.164076196057
 21
45.05817469076808
 31
0.0
  0
ARC
  5
8EC
330
1F
100
AcDbEntity
  8
0
100
AcDbCircle
 10
19.18324833865533
 20
19.19208075376812
 30
0.0
 40
2.165329911901186
100
AcDbArc
 50
32.65304195290532
 51
90.0
  0
ARC
  5
8ED
330
1F
100
AcDbEntity
  8
0
100
AcDbCircle
 10
19.18324833865533
 20
19.19208075376812
 30
0.0
 40
1.850395984649153
100
AcDbArc
 50
51.92753801754481
 51
90.0
  0
LINE
  5
8EE
330
1F
100
AcDbEntity
  8
0
100
AcDbLine
 10
17.8038810186553
 20
20.68286517376808
 30
0.0
 11
18.78954833865525
 21
21.25195852376808
 31
0.0
  0
ARC
  5
8EF
330
1F
100
AcDbEntity
  8
0
100
AcDbCircle
 10
19.18324833865533
 20
20.57003075376818
 30
0.0
 40
0.7874000000000001
100
AcDbArc
 50
90.0
 51
119.9992953853695
  0
ARC
  5
8F0
330
1F
100
AcDbEntity
  8
0
100
AcDbCircle
 10
19.18324833865533
 20
20.57003075376818
 30
0.0
 40
0.4724400000000001
100
AcDbArc
 50
90.0
 51
120.000727780769
  0
LINE
  5
8F1
330
1F
100
AcDbEntity
  8
0
100
AcDbLine
 10
18.37474601865533
 20
20.64877075376811
 30
0.0
 11
20.32430904865525
 21
20.64877075376811
 31
0.0
  0
LINE
  5
8F2
330
1F
100
AcDbEntity
  8
0
100
AcDbLine
 10
18.37474601865533
 20
20.64877075376811
 30
0.0
 11
18.94702833865533
 21
20.9791637937681
 31
0.0
  0
LINE
  5
8F3
330
1F
100
AcDbEntity
  8
0
100
AcDbLine
 10
17.06234706865534
 20
20.25507075376825
 30
0.0
 11
15.65723176865531
 21
20.25507075376825
 31
0.0
  0
ARC
  5
8FC
330
1F
100
AcDbEntity
  8
0
100
AcDbCircle
 10
16.9391583386553
 20
26.12120075376814
 30
0.0
 40
4.645679105254146
100
AcDbArc
 50
166.9179285839574
 51
180.0
  0
LINE
  5
8FD
330
1F
100
AcDbEntity
  8
0
100
AcDbLine
 10
12.09664833865524
 20
19.66452075376813
 30
0.0
 11
12.29349833865528
 21
22.34168075376809
 31
0.0
  0
LINE
  5
8FE
330
1F
100
AcDbEntity
  8
0
100
AcDbLine
 10
12.53483643865529
 20
20.25514949376819
 30
0.0
 11
15.65723176865531
 21
20.25514949376819
 31
0.0
  0
LINE
  5
900
330
1F
100
AcDbEntity
  8
0
100
AcDbLine
 10
12.73471792865534
 20
27.15938765376816
 30
0.0
 11
12.73471792865534
 21
27.19482065376818
 31
0.0
  0
LINE
  5
901
330
1F
100
AcDbEntity
  8
0
100
AcDbLine
 10
11.41409064865529
 20
44.92315921276807
 30
0.0
 11
11.52605892865533
 21
45.03511568176807
 31
0.0
  0
ARC
  5
902
330
1F
100
AcDbEntity
  8
0
100
AcDbCircle
 10
11.46975982865528
 20
44.86747822176815
 30
0.0
 40
0.0787535461502363
100
AcDbArc
 50
134.9939225918346
 51
178.9372851730485
  0
ARC
  5
903
330
1F
100
AcDbEntity
  8
0
100
AcDbCircle
 10
11.58172810865532
 20
44.97943469076815
 30
0.0
 40
0.0787364614433103
100
AcDbArc
 50
90.0
 51
134.9939225917241
  0
ARC
  5
905
330
1F
100
AcDbEntity
  8
0
100
AcDbCircle
 10
28.54429260865531
 20
52.64697437764997
 30
0.0
 40
13.58263705296963
100
AcDbArc
 50
48.1113810675059
 51
82.71260114461268
  0
ARC
  5
906
330
1F
100
AcDbEntity
  8
0
100
AcDbCircle
 10
34.45880833865526
 20
59.24144937765007
 30
0.0
 40
4.724395970150698
100
AcDbArc
 50
312.1939405140691
 51
48.11134267225554
  0
ARC
  5
907
330
1F
100
AcDbEntity
  8
0
100
AcDbCircle
 10
28.54429260865531
 20
65.83592437764995
 30
0.0
 40
13.58263705296962
100
AcDbArc
 50
277.2934345922479
 51
311.8886189324941
  0
ARC
  5
908
330
1F
100
AcDbEntity
  8
0
100
AcDbCircle
 10
33.00944115865529
 20
35.13523784376824
 30
0.0
 40
5.905470376100433
100
AcDbArc
 50
316.327912041226
 51
336.2987957038778
  0
LINE
  5
909
330
1F
100
AcDbEntity
  8
0
100
AcDbLine
 10
35.80730957865528
 20
29.3854855637683
 30
0.0
 11
35.73419948865528
 21
29.34304470376813
 31
0.0
  0
ARC
  5
90A
330
1F
100
AcDbEntity
  8
0
100
AcDbCircle
 10
33.00944115865529
 20
35.13523784376824
 30
0.0
 40
6.299188337733983
100
AcDbArc
 50
316.3277220973575
 51
348.2487430632752
  0
ARC
  5
90B
330
1F
100
AcDbEntity
  8
0
100
AcDbCircle
 10
38.86824833865528
 20
33.91646075376824
 30
0.0
 40
0.3149600000000023
100
AcDbArc
 50
347.5916021986324
 51
90.0
  0
LINE
  5
90C
330
1F
100
AcDbEntity
  8
0
100
AcDbLine
 10
35.75801833865528
 20
19.66452075376813
 30
0.0
 11
34.71809915865531
 21
27.05175007376809
 31
0.0
  0
ARC
  5
90D
330
1F
100
AcDbEntity
  8
0
100
AcDbCircle
 10
37.05722833865529
 20
27.38104075376808
 30
0.0
 40
2.36221958846228
100
AcDbArc
 50
120.9804608405525
 51
188.0131508570169
  0
ARC
  5
90E
330
1F
100
AcDbEntity
  8
0
100
AcDbCircle
 10
34.26195833865533
 20
27.57789075376812
 30
0.0
 40
0.9842390802762263
100
AcDbArc
 50
131.526574751951
 51
143.1301023541911
  0
ARC
  5
90F
330
1F
100
AcDbEntity
  8
0
100
AcDbCircle
 10
31.58562510865527
 20
36.49456583376835
 30
0.0
 40
7.87397862560434
100
AcDbArc
 50
299.5919457590038
 51
316.3277739000144
  0
ARC
  5
910
330
1F
100
AcDbEntity
  8
0
100
AcDbCircle
 10
40.9176536886553
 20
20.06192153376813
 30
0.0
 40
11.02356544749822
100
AcDbArc
 50
119.5921381932909
 51
131.5262255374731
  0
LINE
  5
912
330
1F
100
AcDbEntity
  8
0
100
AcDbLine
 10
35.36042070865533
 20
19.66452075376813
 30
0.0
 11
34.40483206865535
 21
26.4526174137682
 31
0.0
  0
ARC
  5
913
330
1F
100
AcDbEntity
  8
0
100
AcDbCircle
 10
49.61020462665707
 20
45.8666415777682
 30
0.0
 40
0.7873908141147902
100
AcDbArc
 50
93.13688580330561
 51
170.1712060130204
  0
ARC
  5
914
330
1F
100
AcDbEntity
  8
0
100
AcDbCircle
 10
13.09349673865533
 20
65.90423132765002
 30
0.0
 40
1.574815903923318
100
AcDbArc
 50
88.59611316947974
 51
175.0463905213385
  0
ARC
  5
915
330
1F
100
AcDbEntity
  8
0
100
AcDbCircle
 10
13.16790603865529
 20
64.75324937765006
 30
0.0
 40
1.574806325269918
100
AcDbArc
 50
90.0
 51
175.9041778728007
  0
ARC
  5
916
330
1F
100
AcDbEntity
  8
0
100
AcDbCircle
 10
9.349173518655263
 20
-91.10513969234986
 30
0.0
 40
157.4799490768505
100
AcDbArc
 50
87.5405244922601
 51
88.61049405567813
  0
ARC
  5
917
330
1F
100
AcDbEntity
  8
0
100
AcDbCircle
 10
-40.73773418134472
 20
59.24144937765007
 30
0.0
 40
59.05482073080825
100
AcDbArc
 50
353.1269213039126
 51
6.873116619140119
  0
ARC
  5
918
330
1F
100
AcDbEntity
  8
0
100
AcDbCircle
 10
16.05640419865533
 20
65.04974484765014
 30
0.0
 40
1.181079806298206
100
AcDbArc
 50
5.760383978542926
 51
87.54122525452354
  0
ARC
  5
919
330
1F
100
AcDbEntity
  8
0
100
AcDbCircle
 10
11.81381425865531
 20
46.43612469076813
 30
0.0
 40
0.3936887853745206
100
AcDbArc
 50
86.25029535342052
 51
178.9387912628793
  0
ARC
  5
91A
330
1F
100
AcDbEntity
  8
0
100
AcDbCircle
 10
16.7201036586553
 20
52.31567582765004
 30
0.0
 40
1.181083435612512
100
AcDbArc
 50
272.7302172249476
 51
353.1270377817305
  0
ARC
  5
91B
330
1F
100
AcDbEntity
  8
0
100
AcDbCircle
 10
16.7201036586553
 20
66.1672229276501
 30
0.0
 40
1.181088147602029
100
AcDbArc
 50
6.874858372209051
 51
87.26978277505233
  0
ARC
  5
91C
330
1F
100
AcDbEntity
  8
0
100
AcDbCircle
 10
13.09349673865533
 20
52.57866742765012
 30
0.0
 40
1.574800267715974
100
AcDbArc
 50
184.9521824458246
 51
271.4038868305203
  0
ARC
  5
91E
330
1F
100
AcDbEntity
  8
0
100
AcDbCircle
 10
18.68596586865526
 20
34.62512075376825
 30
0.0
 40
0.3936665025789616
100
AcDbArc
 50
183.727170711795
 51
270.0
  0
ARC
  5
91F
330
1F
100
AcDbEntity
  8
0
100
AcDbCircle
 10
19.24068916865524
 20
35.80622075376826
 30
0.0
 40
1.574821500302357
100
AcDbArc
 50
233.3684502302452
 51
270.0
  0
ARC
  5
920
330
1F
100
AcDbEntity
  8
0
100
AcDbCircle
 10
17.15825238865527
 20
45.9637279977683
 30
0.0
 40
0.3936984867127089
100
AcDbArc
 50
3.727370000228453
 51
83.64430640648377
  0
LINE
  5
921
330
1F
100
AcDbEntity
  8
0
100
AcDbLine
 10
11.78830249865534
 20
45.05817469076808
 30
0.0
 11
11.62294849865525
 21
36.12885790376825
 31
0.0
  0
LINE
  5
922
330
1F
100
AcDbEntity
  8
0
100
AcDbLine
 10
11.42019299865528
 20
46.44341601476824
 30
0.0
 11
11.3967678486553
 21
45.17847366276808
 31
0.0
  0
ARC
  5
923
330
1F
100
AcDbEntity
  8
0
100
AcDbCircle
 10
17.54537759865529
 20
44.86598609876821
 30
0.0
 40
0.0787336773178291
100
AcDbArc
 50
3.726425888593837
 51
45.00405174875148
  0
ARC
  5
924
330
1F
100
AcDbEntity
  8
0
100
AcDbCircle
 10
17.43195262865531
 20
44.97943469076815
 30
0.0
 40
0.0787364614433137
100
AcDbArc
 50
45.00607740827589
 51
90.0
  0
ARC
  5
925
330
1F
100
AcDbEntity
  8
0
100
AcDbCircle
 10
17.48573204865526
 20
45.1762846907682
 30
0.0
 40
0.11811
100
AcDbArc
 50
270.0
 51
3.729573655963203
  0
LINE
  5
926
330
1F
100
AcDbEntity
  8
0
100
AcDbLine
 10
18.29313200865526
 20
34.59953025376811
 30
0.0
 11
17.62396011865523
 21
44.87110419876811
 31
0.0
  0
LINE
  5
927
330
1F
100
AcDbEntity
  8
0
100
AcDbLine
 10
17.60104677865529
 20
44.92166315276816
 30
0.0
 11
17.4876218086553
 21
45.03511568176807
 31
0.0
  0
ARC
  5
928
330
1F
100
AcDbEntity
  8
0
100
AcDbCircle
 10
48.72550639605702
 20
44.86310421476813
 30
0.0
 40
0.078741098120069
100
AcDbArc
 50
135.0000000001197
 51
170.9992253853663
  0
ARC
  5
929
330
1F
100
AcDbEntity
  8
0
100
AcDbCircle
 10
48.84183687205704
 20
44.97943469076815
 30
0.0
 40
0.0787420288083884
100
AcDbArc
 50
90.0
 51
134.9979743403634
  0
ARC
  5
92A
330
1F
100
AcDbEntity
  8
0
100
AcDbCircle
 10
48.81563613705707
 20
45.1762846907682
 30
0.0
 40
0.1181097077430052
100
AcDbArc
 50
170.7640577552431
 51
270.0
  0
ARC
  5
92B
330
1F
100
AcDbEntity
  8
0
100
AcDbCircle
 10
126.418658096057
 20
32.5595343337682
 30
0.0
 40
78.74006414579143
100
AcDbArc
 50
170.1710422261426
 51
170.7656118529088
  0
LINE
  5
92C
330
1F
100
AcDbEntity
  8
0
100
AcDbLine
 10
48.66982934205707
 20
44.91878126876807
 30
0.0
 11
48.78615981805698
 21
45.03511568176807
 31
0.0
  0
LINE
  5
92D
330
1F
100
AcDbEntity
  8
0
100
AcDbLine
 10
56.03021619605708
 20
44.90069469076823
 30
0.0
 11
48.65631755805707
 21
44.90069469076823
 31
0.0
  0
LINE
  5
92E
330
1F
100
AcDbEntity
  8
0
100
AcDbLine
 10
48.81563613705707
 20
45.05817469076808
 30
0.0
 11
55.164076196057
 21
45.05817469076808
 31
0.0
  0
ARC
  5
92F
330
1F
100
AcDbEntity
  8
0
100
AcDbCircle
 10
126.418658096057
 20
32.5595343337682
 30
0.0
 40
78.74006356912669
100
AcDbArc
 50
171.001304718417
 51
177.210515365603
  0
ARC
  5
930
330
1F
100
AcDbEntity
  8
0
100
AcDbCircle
 10
49.75571142225708
 20
45.36271345176831
 30
0.0
 40
0.7874020025540785
100
AcDbArc
 50
93.06569472647197
 51
170.5382241140062
  0
ARC
  5
932
330
1F
100
AcDbEntity
  8
0
100
AcDbCircle
 10
-41.52513418134465
 20
59.24144937765007
 30
0.0
 40
59.05484252
100
AcDbArc
 50
0.0
 51
5.759995599511015
  0
ARC
  5
933
330
1F
100
AcDbEntity
  8
0
100
AcDbCircle
 10
89.97066581865526
 20
59.24144937765007
 30
0.0
 40
78.74016945760861
100
AcDbArc
 50
175.0466673645022
 51
180.0
  0
ARC
  5
934
330
1F
100
AcDbEntity
  8
0
100
AcDbCircle
 10
10.27594331865525
 20
208.5690641076501
 30
0.0
 40
157.4801068153456
100
AcDbArc
 50
273.191203293813
 51
277.293591956401
  0
ARC
  5
935
330
1F
100
AcDbEntity
  8
0
100
AcDbCircle
 10
-41.52513418134465
 20
59.24144937765007
 30
0.0
 40
59.13357584155068
100
AcDbArc
 50
353.9876995279676
 51
0.0
  0
ARC
  5
936
330
1F
100
AcDbEntity
  8
0
100
AcDbCircle
 10
90.13601981864921
 20
59.24144937764984
 30
0.0
 40
78.77937412698692
100
AcDbArc
 50
180.0
 51
184.290655236431
  0
ARC
  5
937
330
1F
100
AcDbEntity
  8
0
100
AcDbCircle
 10
13.14778796865532
 20
53.46531919764996
 30
0.0
 40
1.417317723646643
100
AcDbArc
 50
184.2916530025788
 51
271.3943093813593
  0
ARC
  5
938
330
1F
100
AcDbEntity
  8
0
100
AcDbCircle
 10
9.349173518646281
 20
209.5879597079223
 30
0.0
 40
157.5861879678531
100
AcDbArc
 50
271.3937912936517
 51
272.4744363731276
  0
ARC
  5
939
330
1F
100
AcDbEntity
  8
0
100
AcDbCircle
 10
16.10856944865524
 20
53.17138277765005
 30
0.0
 40
1.023628676505534
100
AcDbArc
 50
272.4732803352359
 51
353.9883410809464
  0
ARC
  5
93A
330
1F
100
AcDbEntity
  8
0
100
AcDbCircle
 10
-41.52513418134465
 20
59.24144937765007
 30
0.0
 40
58.97609562009961
100
AcDbArc
 50
353.9877007411094
 51
0.0
  0
ARC
  5
93B
330
1F
100
AcDbEntity
  8
0
100
AcDbCircle
 10
90.1360198186391
 20
59.24144937764939
 30
0.0
 40
78.62192589705661
100
AcDbArc
 50
180.0
 51
184.2906611051683
  0
ARC
  5
941
330
1F
100
AcDbEntity
  8
0
100
AcDbCircle
 10
89.97066581865526
 20
59.24144937765007
 30
0.0
 40
78.74015747999997
100
AcDbArc
 50
180.0
 51
184.9533040946221
  0
ARC
  5
942
330
1F
100
AcDbEntity
  8
0
100
AcDbCircle
 10
-41.52513418134271
 20
59.24144937765007
 30
0.0
 40
59.1335758415488
100
AcDbArc
 50
0.0
 51
6.012300472032567
  0
ARC
  5
943
330
1F
100
AcDbEntity
  8
0
100
AcDbCircle
 10
16.10856944865524
 20
65.31151597765009
 30
0.0
 40
1.181098562337948
100
AcDbArc
 50
6.011805023274763
 51
87.52596042765908
  0
ARC
  5
944
330
1F
100
AcDbEntity
  8
0
100
AcDbCircle
 10
9.349173518655263
 20
-91.10513969234986
 30
0.0
 40
157.7437365201749
100
AcDbArc
 50
87.52556033100706
 51
88.60621368853559
  0
ARC
  5
945
330
1F
100
AcDbEntity
  8
0
100
AcDbCircle
 10
13.14778796865532
 20
65.01761892764992
 30
0.0
 40
1.574763008005643
100
AcDbArc
 50
88.6061369624412
 51
175.7101681732779
  0
ARC
  5
946
330
1F
100
AcDbEntity
  8
0
100
AcDbCircle
 10
90.13601981865535
 20
59.24144937765007
 30
0.0
 40
78.77937412699306
100
AcDbArc
 50
175.709344763569
 51
180.0
  0
LINE
  5
947
330
1F
100
AcDbEntity
  8
0
100
AcDbLine
 10
17.63360576865527
 20
35.80622075376826
 30
0.0
 11
17.67620410865531
 21
35.80622075376826
 31
0.0
  0
LINE
  5
948
330
1F
100
AcDbEntity
  8
0
100
AcDbLine
 10
17.43730694865523
 20
35.62409513376818
 30
0.0
 11
17.34651972865531
 21
34.41354637376824
 31
0.0
  0
LINE
  5
949
330
1F
100
AcDbEntity
  8
0
100
AcDbLine
 10
17.15022090865527
 20
34.23142075376816
 30
0.0
 11
11.85865668865533
 21
34.23142075376816
 31
0.0
  0
ARC
  5
94A
330
1F
100
AcDbEntity
  8
0
100
AcDbCircle
 10
17.63360576865527
 20
35.60937075376822
 30
0.0
 40
0.1968502834637909
100
AcDbArc
 50
90.0
 51
175.7102753188886
  0
LINE
  5
94B
330
1F
100
AcDbEntity
  8
0
100
AcDbLine
 10
17.79431410865531
 20
36.19992075376811
 30
0.0
 11
17.79431410865531
 21
35.92433075376815
 31
0.0
  0
ARC
  5
94C
330
1F
100
AcDbEntity
  8
0
100
AcDbCircle
 10
17.67620410865531
 20
35.92433075376815
 30
0.0
 40
0.11811
100
AcDbArc
 50
270.0
 51
0.0
  0
ARC
  5
94D
330
1F
100
AcDbEntity
  8
0
100
AcDbCircle
 10
17.15022090865527
 20
34.42827075376821
 30
0.0
 40
0.19685
100
AcDbArc
 50
270.0
 51
355.7102753188886
  0
LINE
  5
94E
330
1F
100
AcDbEntity
  8
0
100
AcDbLine
 10
17.21722864865528
 20
45.05817469076808
 30
0.0
 11
17.79431410865531
 21
36.19992075376811
 31
0.0
  0
ARC
  5
94F
330
1F
100
AcDbEntity
  8
0
100
AcDbCircle
 10
17.67620410865531
 20
35.92433075376815
 30
0.0
 40
0.4330654849532828
100
AcDbArc
 50
278.9485262491951
 51
303.4228114724811
  0
LINE
  5
950
330
1F
100
AcDbEntity
  8
0
100
AcDbLine
 10
17.66436686559522
 20
34.44057054018756
 30
0.0
 11
17.74356617865526
 21
35.49653633376809
 31
0.0
  0
LINE
  5
951
330
1F
100
AcDbEntity
  8
0
100
AcDbLine
 10
17.91474693865534
 20
35.5628747837682
 30
0.0
 11
17.97884129865524
 21
34.57905785376809
 31
0.0
  0
ARC
  5
952
330
1F
100
AcDbEntity
  8
0
100
AcDbCircle
 10
18.68596586865526
 20
34.62512075376825
 30
0.0
 40
0.708623276680985
100
AcDbArc
 50
183.7270465537777
 51
193.2122682332301
  0
ARC
  5
953
330
1F
100
AcDbEntity
  8
0
100
AcDbCircle
 10
4.123987118655279
 20
-71.02860494623175
 30
0.0
 40
118.1098742603819
100
AcDbArc
 50
83.64282523623987
 51
86.25446311450847
  0
LINE
  5
954
330
1F
100
AcDbEntity
  8
0
100
AcDbLine
 10
17.60356645865526
 20
45.18396577776823
 30
0.0
 11
17.55112561865523
 21
45.98932243476818
 31
0.0
  0
ARC
  5
956
330
1F
100
AcDbEntity
  8
0
100
AcDbCircle
 10
31.58562510865527
 20
36.49456583376835
 30
0.0
 40
8.267696587276564
100
AcDbArc
 50
300.9797123574034
 51
316.3276357595153
  0
ARC
  5
958
330
1F
100
AcDbEntity
  8
0
100
AcDbCircle
 10
16.9391583386553
 20
25.72750075376828
 30
0.0
 40
4.724404792638902
100
AcDbArc
 50
41.94107595207742
 51
90.0
  0
ARC
  5
95A
330
1F
100
AcDbEntity
  8
0
100
AcDbCircle
 10
15.75805833865529
 20
30.81749057376808
 30
0.0
 40
0.5118259960838821
100
AcDbArc
 50
234.5837428670648
 51
284.1132050298546
  0
ARC
  5
95B
330
1F
100
AcDbEntity
  8
0
100
AcDbCircle
 10
14.97065833865524
 20
30.54556198376829
 30
0.0
 40
0.5117854461590978
100
AcDbArc
 50
293.9839700241872
 51
343.5194279955601
  0
ARC
  5
95D
330
1F
100
AcDbEntity
  8
0
100
AcDbCircle
 10
16.9391583386553
 20
26.12120075376814
 30
0.0
 40
4.3307
100
AcDbArc
 50
90.0
 51
104.1173470170404
  0
ARC
  5
95E
330
1F
100
AcDbEntity
  8
0
100
AcDbCircle
 10
16.9391583386553
 20
26.12120075376814
 30
0.0
 40
4.330730898181592
100
AcDbArc
 50
113.9855472850623
 51
180.0
  0
LINE
  5
964
330
1F
100
AcDbEntity
  8
0
100
AcDbLine
 10
48.39121966305701
 20
31.67237075376809
 30
0.0
 11
48.10255488605701
 21
31.67237075376809
 31
0.0
  0
ARC
  5
965
330
1F
100
AcDbEntity
  8
0
100
AcDbCircle
 10
48.10255488605701
 20
31.86922075376813
 30
0.0
 40
0.1968499999999978
100
AcDbArc
 50
181.856698887458
 51
270.0
  0
LINE
  5
966
330
1F
100
AcDbEntity
  8
0
100
AcDbLine
 10
47.88533878505704
 20
32.49914075376822
 30
0.0
 11
47.88533878505704
 21
32.49662107376824
 31
0.0
  0
LINE
  5
967
330
1F
100
AcDbEntity
  8
0
100
AcDbLine
 10
47.90580724805697
 20
31.86284281376814
 30
0.0
 11
47.88541752505698
 21
32.49414076376823
 31
0.0
  0
LINE
  5
968
330
1F
100
AcDbEntity
  8
0
100
AcDbLine
 10
11.73511362865524
 20
46.43758531776805
 30
0.0
 11
11.72052678241896
 21
45.65018312108739
 31
0.0
  0
LINE
  5
969
330
1F
100
AcDbEntity
  8
0
100
AcDbLine
 10
17.23683490865532
 20
45.96884609776819
 30
0.0
 11
17.27289782865527
 21
45.41506767776811
 31
0.0
  0
LINE
  5
96A
330
1F
100
AcDbEntity
  8
0
100
AcDbLine
 10
16.88823519417285
 20
45.37313469076823
 30
0.0
 11
17.23360656865525
 21
45.37313469076823
 31
0.0
  0
ARC
  5
96B
330
1F
100
AcDbEntity
  8
0
100
AcDbCircle
 10
17.23360656865525
 20
45.4125046907682
 30
0.0
 40
0.03937
100
AcDbArc
 50
270.0
 51
3.732142660901829
  0
ARC
  5
96C
330
1F
100
AcDbEntity
  8
0
100
AcDbCircle
 10
17.15825238865527
 20
45.9637279977683
 30
0.0
 40
0.0787379555877807
100
AcDbArc
 50
3.726425888593837
 51
83.65569542808231
  0
ARC
  5
96D
330
1F
100
AcDbEntity
  8
0
100
AcDbCircle
 10
11.81381425865531
 20
46.43612469076813
 30
0.0
 40
0.0787437266760103
100
AcDbArc
 50
86.24461578007931
 51
178.9367536719595
  0
ARC
  5
96E
330
1F
100
AcDbEntity
  8
0
100
AcDbCircle
 10
4.123987118655279
 20
-71.02860494623175
 30
0.0
 40
117.7161744376634
100
AcDbArc
 50
84.13430533110926
 51
85.70863344693595
  0
ARC
  5
96F
330
1F
100
AcDbEntity
  8
0
100
AcDbCircle
 10
4.123987118655279
 20
-71.02860494623175
 30
0.0
 40
117.7949111995303
100
AcDbArc
 50
85.91865462456253
 51
86.25447046178981
  0
ARC
  5
970
330
1F
100
AcDbEntity
  8
0
100
AcDbCircle
 10
4.123987118655279
 20
-71.02860494623175
 30
0.0
 40
117.7949137274024
100
AcDbArc
 50
83.64282888867075
 51
83.94651702475819
  0
LINE
  5
972
330
1F
100
AcDbEntity
  8
0
100
AcDbLine
 10
12.10326249865527
 20
44.86132469076827
 30
0.0
 11
12.26074249865535
 21
44.86132469076827
 31
0.0
  0
LINE
  5
973
330
1F
100
AcDbEntity
  8
0
100
AcDbLine
 10
16.74478864865527
 20
44.86132469076827
 30
0.0
 11
16.90226864865524
 21
44.86132469076827
 31
0.0
  0
ARC
  5
974
330
1F
100
AcDbEntity
  8
0
100
AcDbCircle
 10
12.10326249865527
 20
44.94006469076819
 30
0.0
 40
0.07874
100
AcDbArc
 50
180.0
 51
270.0
  0
ARC
  5
975
330
1F
100
AcDbEntity
  8
0
100
AcDbCircle
 10
12.26074249865535
 20
44.94006469076819
 30
0.0
 40
0.07874
100
AcDbArc
 50
270.0
 51
0.0
  0
ARC
  5
976
330
1F
100
AcDbEntity
  8
0
100
AcDbCircle
 10
16.74478864865527
 20
44.94006469076819
 30
0.0
 40
0.07874
100
AcDbArc
 50
180.0
 51
270.0
  0
ARC
  5
977
330
1F
100
AcDbEntity
  8
0
100
AcDbCircle
 10
16.90226864865524
 20
44.94006469076819
 30
0.0
 40
0.07874
100
AcDbArc
 50
270.0
 51
0.0
  0
LINE
  5
978
330
1F
100
AcDbEntity
  8
0
100
AcDbLine
 10
12.02452249865534
 20
44.94006469076819
 30
0.0
 11
12.02452249865534
 21
45.01880469076811
 31
0.0
  0
LINE
  5
979
330
1F
100
AcDbEntity
  8
0
100
AcDbLine
 10
16.98100864865527
 20
44.94006469076819
 30
0.0
 11
16.98100864865527
 21
45.01880469076811
 31
0.0
  0
LINE
  5
97A
330
1F
100
AcDbEntity
  8
0
100
AcDbLine
 10
16.66604864865523
 20
45.05817469076808
 30
0.0
 11
16.66604864865523
 21
44.94006469076819
 31
0.0
  0
LINE
  5
97B
330
1F
100
AcDbEntity
  8
0
100
AcDbLine
 10
12.33948249865527
 20
45.00217462572803
 30
0.0
 11
12.33948249865527
 21
44.94006469076819
 31
0.0
  0
ARC
  5
97C
330
1F
100
AcDbEntity
  8
0
100
AcDbCircle
 10
11.98515249865526
 20
45.01880469076811
 30
0.0
 40
0.03937
100
AcDbArc
 50
0.0
 51
90.0
  0
ARC
  5
97D
330
1F
100
AcDbEntity
  8
0
100
AcDbCircle
 10
17.02037864865524
 20
45.01880469076811
 30
0.0
 40
0.0393699999999955
100
AcDbArc
 50
90.0
 51
180.0
  0
LINE
  5
97E
330
1F
100
AcDbEntity
  8
0
100
AcDbLine
 10
11.71625539865526
 20
33.83772075376808
 30
0.0
 11
11.69310583865528
 21
33.83772075376808
 31
0.0
  0
LINE
  5
980
330
1F
100
AcDbEntity
  8
0
100
AcDbLine
 10
18.68596586865526
 20
34.23142075376816
 30
0.0
 11
38.86824833865528
 21
34.23142075376816
 31
0.0
  0
ARC
  5
981
330
1F
100
AcDbEntity
  8
0
100
AcDbCircle
 10
51.82674428805698
 20
20.25507075376825
 30
0.0
 40
0.3936996488391383
100
AcDbArc
 50
132.5906959266425
 51
175.4229260825431
  0
LINE
  5
982
330
1F
100
AcDbEntity
  8
0
100
AcDbLine
 10
12.64782833865529
 20
32.76427081014029
 30
0.0
 11
12.64782833865529
 21
33.79835075376812
 31
0.0
  0
LINE
  5
983
330
1F
100
AcDbEntity
  8
0
100
AcDbLine
 10
11.71625539865526
 20
33.83772075376808
 30
0.0
 11
12.13601833865532
 21
33.83772075376808
 31
0.0
  0
ARC
  5
984
330
1F
100
AcDbEntity
  8
0
100
AcDbCircle
 10
12.13601833865532
 20
33.7196107537682
 30
0.0
 40
0.1181099999999989
100
AcDbArc
 50
0.0
 51
90.0
  0
ARC
  5
985
330
1F
100
AcDbEntity
  8
0
100
AcDbCircle
 10
12.68719833865525
 20
33.79835075376812
 30
0.0
 40
0.03937
100
AcDbArc
 50
90.0
 51
180.0
  0
ARC
  5
986
330
1F
100
AcDbEntity
  8
0
100
AcDbCircle
 10
11.85865668865533
 20
34.27079075376813
 30
0.0
 40
0.0393515114437933
100
AcDbArc
 50
186.0300088082978
 51
270.0
  0
LINE
  5
989
330
1F
100
AcDbEntity
  8
0
100
AcDbLine
 10
56.03021619605708
 20
34.23142075376816
 30
0.0
 11
48.62102235305705
 21
34.23142075376816
 31
0.0
  0
LINE
  5
98B
330
1F
100
AcDbEntity
  8
0
100
AcDbLine
 10
51.56030781305701
 20
20.54491269376811
 30
0.0
 11
51.93610153893899
 21
26.43997126833941
 31
0.0
  0
LINE
  5
98C
330
1F
100
AcDbEntity
  8
0
100
AcDbLine
 10
56.03021619605708
 20
19.66452075376813
 30
0.0
 11
51.54202438505699
 21
19.66452075376813
 31
0.0
  0
LINE
  5
98D
330
1F
100
AcDbEntity
  8
0
100
AcDbLine
 10
51.43430019105704
 20
20.28648801376815
 30
0.0
 11
51.38454438505703
 21
19.66452075376813
 31
0.0
  0
ARC
  5
99E
330
1F
100
AcDbEntity
  8
0
100
AcDbCircle
 10
23.7420187486553
 20
26.47001895376823
 30
0.0
 40
1.181127527839329
100
AcDbArc
 50
211.9529510809482
 51
232.5968743631203
  0
ARC
  5
9A1
330
1F
100
AcDbEntity
  8
0
100
AcDbCircle
 10
13.14778796865532
 20
53.46531919764996
 30
0.0
 40
1.57476595344021
100
AcDbArc
 50
184.2912602389685
 51
271.3938281951708
  0
ARC
  5
9A2
330
1F
100
AcDbEntity
  8
0
100
AcDbCircle
 10
16.10856944865524
 20
53.17138277765005
 30
0.0
 40
1.181100262466638
100
AcDbArc
 50
272.4759476509135
 51
353.9881949767251
  0
ARC
  5
9A3
330
1F
100
AcDbEntity
  8
0
100
AcDbCircle
 10
9.357834918655314
 20
209.3245744076501
 30
0.0
 40
157.4801605130224
100
AcDbArc
 50
271.3929675512819
 51
272.4754440998505
  0
ARC
  5
9A4
330
1F
100
AcDbEntity
  8
0
100
AcDbCircle
 10
126.6477914960614
 20
32.5483532537676
 30
0.0
 40
78.74000000000447
100
AcDbArc
 50
171.2933695614225
 51
177.2105099946753
  0
ARC
  5
9AB
330
1F
100
AcDbEntity
  8
0
100
AcDbCircle
 10
126.6477914974502
 20
32.54835325353773
 30
0.0
 40
78.7400000014121
100
AcDbArc
 50
170.5383936646957
 51
170.8434891731231
  0
LWPOLYLINE
  5
9AC
330
1F
100
AcDbEntity
  8
0
100
AcDbPolyline
 90
       13
 70
     0
 43
0.0
 10
48.87982066376053
 20
44.88246500237349
 10
48.87434794105153
 20
44.84790924560686
 10
48.86889057434125
 20
44.81335106909253
 10
48.8634485644274
 20
44.77879047794957
 10
48.85802191210796
 20
44.74422747729616
 10
48.85261061818077
 20
44.70966207225117
 10
48.84721468344348
 20
44.67509426793301
 10
48.84183410869415
 20
44.64052406946055
 10
48.83646889473054
 20
44.60595148195219
 10
48.83111904235049
 20
44.57137651052656
 10
48.82578455235186
 20
44.53679916030253
 10
48.82046542553239
 20
44.50221943639852
 10
48.81516166268993
 20
44.46763734393337
  0
ARC
  5
9AD
330
1F
100
AcDbEntity
  8
0
100
AcDbCircle
 10
22.52969833865534
 20
33.91646075376824
 30
0.0
 40
0.31496
100
AcDbArc
 50
0.0
 51
90.0
  0
LINE
  5
9AE
330
1F
100
AcDbEntity
  8
0
100
AcDbLine
 10
22.84465833865526
 20
33.91646075376824
 30
0.0
 11
22.84465833865526
 21
33.25043846376824
 31
0.0
  0
LINE
  5
9AF
330
1F
100
AcDbEntity
  8
0
100
AcDbLine
 10
22.52969833865534
 20
33.91646075376824
 30
0.0
 11
22.52969833865534
 21
33.31713124376828
 31
0.0
  0
LINE
  5
9B0
330
1F
100
AcDbEntity
  8
0
100
AcDbLine
 10
19.96269559865531
 20
33.91646075376824
 30
0.0
 11
22.52969833865534
 21
33.91646075376824
 31
0.0
  0
ARC
  5
9BA
330
1F
100
AcDbEntity
  8
0
100
AcDbCircle
 10
22.60843833865526
 20
33.25043846376824
 30
0.0
 40
0.2362033327786635
100
AcDbArc
 50
279.4591821970994
 51
0.0
  0
LINE
  5
9BB
330
1F
100
AcDbEntity
  8
0
100
AcDbLine
 10
21.66355833865525
 20
32.85347075376811
 30
0.0
 11
22.64725715865534
 21
33.01744680376808
 31
0.0
  0
LINE
  5
9BC
330
1F
100
AcDbEntity
  8
0
100
AcDbLine
 10
21.71458185865531
 20
32.85347075376811
 30
0.0
 11
23.19316157865528
 21
32.85347075376811
 31
0.0
  0
LINE
  5
9BD
330
1F
100
AcDbEntity
  8
0
100
AcDbLine
 10
22.52969833865534
 20
33.31713124376828
 30
0.0
 11
21.63749539865527
 21
33.16843075376826
 31
0.0
  0
LINE
  5
9BE
330
1F
100
AcDbEntity
  8
0
100
AcDbLine
 10
21.33399206865526
 20
33.16843075376826
 30
0.0
 11
20.00986085865525
 21
33.73118553376824
 31
0.0
  0
LINE
  5
9BF
330
1F
100
AcDbEntity
  8
0
100
AcDbLine
 10
21.26985833865528
 20
32.85347075376811
 30
0.0
 11
19.83887694865534
 21
33.4616585137683
 31
0.0
  0
ARC
  5
9C0
330
1F
100
AcDbEntity
  8
0
100
AcDbCircle
 10
19.9312783386553
 20
33.67905965376829
 30
0.0
 40
0.2362229297660003
100
AcDbArc
 50
180.0
 51
246.9731897309443
  0
LINE
  5
9C1
330
1F
100
AcDbEntity
  8
0
100
AcDbLine
 10
19.6950583386553
 20
33.7196107537682
 30
0.0
 11
19.6950583386553
 21
33.67905965376829
 31
0.0
  0
LINE
  5
9C2
330
1F
100
AcDbEntity
  8
0
100
AcDbLine
 10
21.63749539865527
 20
33.16843075376826
 30
0.0
 11
21.33399206865526
 21
33.16843075376826
 31
0.0
  0
ARC
  5
9C3
330
1F
100
AcDbEntity
  8
0
100
AcDbCircle
 10
19.5769483386553
 20
33.7196107537682
 30
0.0
 40
0.4330672297747752
100
AcDbArc
 50
1.53155210338086
 51
27.03559465011838
  0
ARC
  5
9C4
330
1F
100
AcDbEntity
  8
0
100
AcDbCircle
 10
19.5769483386553
 20
33.7196107537682
 30
0.0
 40
0.11811
100
AcDbArc
 50
0.0
 51
90.0
  0
LINE
  5
9C5
330
1F
100
AcDbEntity
  8
0
100
AcDbLine
 10
12.25412833865532
 20
33.7196107537682
 30
0.0
 11
12.25412833865532
 21
32.71410702123243
 31
0.0
  0
ARC
  5
9C6
330
1F
100
AcDbEntity
  8
0
100
AcDbCircle
 10
38.34470607865528
 20
32.79307717376813
 30
0.0
 40
0.0787659799140206
100
AcDbArc
 50
336.3050289615354
 51
80.03848340152
  0
LWPOLYLINE
  5
9C9
330
1F
100
AcDbEntity
  8
0
100
AcDbPolyline
 90
       13
 70
     0
 43
0.0
 10
48.65878742629438
 20
44.22349531173497
 10
48.65030820148756
 20
44.16671361917727
 10
48.64187032347222
 20
44.10992580613495
 10
48.63347379552878
 20
44.0531318951935
 10
48.62511862093747
 20
43.99633190893839
 10
48.61680480297848
 20
43.93952586995513
 10
48.60853234493236
 20
43.88271380082872
 10
48.6003012500792
 20
43.82589572414488
 10
48.59211152169932
 20
43.76907166248886
 10
48.58396316307282
 20
43.7122416384457
 10
48.57585617748036
 20
43.65540567460132
 10
48.56779056820191
 20
43.59856379354098
 10
48.55976633851792
 20
43.54171601784972
  0
ARC
  5
9CA
330
1F
100
AcDbEntity
  8
0
100
AcDbCircle
 10
126.6477914949852
 20
32.54835325392358
 30
0.0
 40
78.81878898560367
100
AcDbArc
 50
171.4857630981638
 51
171.9865998531316
  0
LINE
  5
9CB
330
1F
100
AcDbEntity
  8
0
100
AcDbLine
 10
48.69775842005701
 20
44.21787715876805
 30
0.0
 11
48.65879393105699
 21
44.22353856476823
 31
0.0
  0
LINE
  5
9CC
330
1F
100
AcDbEntity
  8
0
100
AcDbLine
 10
48.59873105905698
 20
43.53605962476811
 30
0.0
 11
48.55977050705705
 21
43.54171709376808
 31
0.0
  0
LINE
  5
9CD
330
1F
100
AcDbEntity
  8
0
100
AcDbLine
 10
21.26985833865528
 20
32.85347075376811
 30
0.0
 11
21.26985833865528
 21
33.19571416376815
 31
0.0
  0
LINE
  5
9CE
330
1F
100
AcDbEntity
  8
0
100
AcDbLine
 10
20.18285263865532
 20
33.65768174376811
 30
0.0
 11
20.05966390865528
 21
33.36780043376828
 31
0.0
  0
ARC
  5
9CF
330
1F
100
AcDbEntity
  8
0
100
AcDbCircle
 10
49.00818299605707
 20
32.61725075376811
 30
0.0
 40
0.1181101291991452
100
AcDbArc
 50
7.932122618710059
 51
90.0
  0
LINE
  5
9D0
330
1F
100
AcDbEntity
  8
0
100
AcDbLine
 10
48.698329285057
 20
32.73536075376822
 30
0.0
 11
49.00818299605707
 21
32.73536075376822
 31
0.0
  0
ARC
  5
9D1
330
1F
100
AcDbEntity
  8
0
100
AcDbCircle
 10
49.03205696405705
 20
32.61725075376811
 30
0.0
 40
0.118112123926785
100
AcDbArc
 50
90.0
 51
160.6911165660245
  0
ARC
  5
9D2
330
1F
100
AcDbEntity
  8
0
100
AcDbCircle
 10
48.698329285057
 20
32.61725075376811
 30
0.0
 40
0.1181121239267846
100
AcDbArc
 50
90.0
 51
160.6911165660245
  0
ARC
  5
9D3
330
1F
100
AcDbEntity
  8
0
100
AcDbCircle
 10
48.49212891005702
 20
31.79048075376821
 30
0.0
 40
0.1181100000000022
100
AcDbArc
 50
270.0
 51
340.6911165660245
  0
ARC
  5
9D4
330
1F
100
AcDbEntity
  8
0
100
AcDbCircle
 10
48.15840123105697
 20
31.79048075376821
 30
0.0
 40
0.1181100000000022
100
AcDbArc
 50
270.0
 51
340.6911165660245
  0
LINE
  5
9D5
330
1F
100
AcDbEntity
  8
0
100
AcDbLine
 10
48.60359719105706
 20
31.75142571376821
 30
0.0
 11
48.920588683057
 21
32.6563057937681
 31
0.0
  0
LINE
  5
9D6
330
1F
100
AcDbEntity
  8
0
100
AcDbLine
 10
48.26986951205701
 20
31.75142571376821
 30
0.0
 11
48.58686100405707
 21
32.6563057937681
 31
0.0
  0
LINE
  5
9D7
330
1F
100
AcDbEntity
  8
0
100
AcDbLine
 10
48.10255488605701
 20
31.67237075376809
 30
0.0
 11
48.49212891005702
 21
31.67237075376809
 31
0.0
  0
ARC
  5
9DB
330
1F
100
AcDbEntity
  8
0
100
AcDbCircle
 10
34.28790316865529
 20
26.43616075376829
 30
0.0
 40
0.11811
100
AcDbArc
 50
8.011231612813251
 51
90.0
  0
LINE
  5
9E0
330
1F
100
AcDbEntity
  8
0
100
AcDbLine
 10
27.41268372744212
 20
19.96230937131716
 30
0.0
 11
27.66330356267444
 21
22.82442358323877
 31
0.0
  0
ARC
  5
9E2
330
1F
100
AcDbEntity
  8
0
100
AcDbCircle
 10
13.69270813865528
 20
19.18775005376827
 30
0.0
 40
1.574804253922752
100
AcDbArc
 50
61.03012389035856
 51
137.3281771115032
  0
LINE
  5
9E3
330
1F
100
AcDbEntity
  8
0
100
AcDbLine
 10
12.53483643865529
 20
20.25514949376819
 30
0.0
 11
12.49141132865524
 21
19.66452075376813
 31
0.0
  0
LINE
  5
9EB
330
1F
100
AcDbEntity
  8
0
100
AcDbLine
 10
11.47838185865525
 20
45.25502469076812
 30
0.0
 11
12.35224392974832
 21
45.25502469076812
 31
0.0
  0
ARC
  5
9EC
330
1F
100
AcDbEntity
  8
0
100
AcDbCircle
 10
11.47838185865525
 20
45.33376469076827
 30
0.0
 40
0.0787399999999972
100
AcDbArc
 50
178.9367536719595
 51
270.0
  0
ARC
  5
9ED
330
1F
100
AcDbEntity
  8
0
100
AcDbCircle
 10
0.8511075492961452
 20
29.58487697090007
 30
0.0
 40
11.811
100
AcDbArc
 50
347.8499676467184
 51
14.85629029574661
  0
ARC
  5
9EF
330
1F
100
AcDbEntity
  8
0
100
AcDbCircle
 10
12.64782833865529
 20
32.71410702123243
 30
0.0
 40
0.3937
100
AcDbArc
 50
180.0
 51
194.8562902957466
  0
ARC
  5
9F0
330
1F
100
AcDbEntity
  8
0
100
AcDbCircle
 10
12.72656833865532
 20
32.76427081014029
 30
0.0
 40
0.07874
100
AcDbArc
 50
180.0
 51
244.8837253990086
  0
ARC
  5
9F3
330
1F
100
AcDbEntity
  8
0
100
AcDbCircle
 10
18.68596586865526
 20
34.62512075376825
 30
0.0
 40
0.7873665025789557
100
AcDbArc
 50
226.7707744824968
 51
270.0
  0
ARC
  5
9F4
330
1F
100
AcDbEntity
  8
0
100
AcDbCircle
 10
17.15022090865527
 20
34.42827075376821
 30
0.0
 40
0.59055
100
AcDbArc
 50
270.0
 51
317.5987551291918
  0
LINE
  5
9F5
330
1F
100
AcDbEntity
  8
0
100
AcDbLine
 10
19.5769483386553
 20
33.83772075376808
 30
0.0
 11
18.68596586865526
 21
33.83772075376808
 31
0.0
  0
LINE
  5
9F6
330
1F
100
AcDbEntity
  8
0
100
AcDbLine
 10
17.15022090865527
 20
33.83772075376808
 30
0.0
 11
12.68719833865525
 21
33.83772075376808
 31
0.0
  0
ARC
  5
9F7
330
1F
100
AcDbEntity
  8
0
100
AcDbCircle
 10
17.87703115761114
 20
33.76457283715811
 30
0.0
 40
0.3936999999999994
100
AcDbArc
 50
46.77077448249678
 51
137.5987551291918
  0
ARC
  5
9F8
330
1F
100
AcDbEntity
  8
0
100
AcDbCircle
 10
17.87703115761114
 20
33.76457283715811
 30
0.0
 40
0.7086600000000011
100
AcDbArc
 50
80.32731117840874
 51
107.4632217731855
  0
LWPOLYLINE
  5
9FB
330
1F
100
AcDbEntity
  8
0
100
AcDbPolyline
 90
        8
 70
     0
 43
0.0
 10
21.7535402614531
 20
34.022721498739
 10
21.81342080103847
 20
33.94477724989
 10
21.83258303366999
 20
33.90111760347512
 10
21.80559048237687
 20
33.88161248029795
 10
21.78262215042211
 20
33.87262101472428
 10
21.77482082297654
 20
33.85855648042824
 10
21.79167470996588
 20
33.80912756595902
 10
21.84778171836233
 20
33.72175209825676
  0
ARC
  5
9FC
330
1F
100
AcDbEntity
  8
0
100
AcDbCircle
 10
15.65679869865532
 20
22.7354594937681
 30
0.0
 40
2.165346129567629
100
AcDbArc
 50
197.921746342449
 51
233.9808218032921
  0
LINE
  5
9FD
330
1F
100
AcDbEntity
  8
0
100
AcDbLine
 10
19.30135833865533
 20
34.27079075376813
 30
0.0
 11
19.30135833865533
 21
34.23142075376816
 31
0.0
  0
LINE
  5
9FE
330
1F
100
AcDbEntity
  8
0
100
AcDbLine
 10
19.51001933865534
 20
34.27079075376813
 30
0.0
 11
19.51001933865534
 21
34.23142075376816
 31
0.0
  0
LINE
  5
9FF
330
1F
100
AcDbEntity
  8
0
100
AcDbLine
 10
19.60844433865524
 20
34.27079075376813
 30
0.0
 11
19.60844433865524
 21
34.23142075376816
 31
0.0
  0
LINE
  5
A00
330
1F
100
AcDbEntity
  8
0
100
AcDbLine
 10
19.72655433865525
 20
34.27079075376813
 30
0.0
 11
19.72655433865525
 21
34.23142075376816
 31
0.0
  0
LINE
  5
A01
330
1F
100
AcDbEntity
  8
0
100
AcDbLine
 10
19.84466433865525
 20
34.27079075376813
 30
0.0
 11
19.84466433865525
 21
34.23142075376816
 31
0.0
  0
LINE
  5
A02
330
1F
100
AcDbEntity
  8
0
100
AcDbLine
 10
20.04151433865529
 20
34.27079075376813
 30
0.0
 11
20.04151433865529
 21
34.23142075376816
 31
0.0
  0
LINE
  5
A03
330
1F
100
AcDbEntity
  8
0
100
AcDbLine
 10
19.30135833865533
 20
34.27079075376813
 30
0.0
 11
19.51001933865534
 21
34.27079075376813
 31
0.0
  0
LINE
  5
A04
330
1F
100
AcDbEntity
  8
0
100
AcDbLine
 10
19.60844433865524
 20
34.27079075376813
 30
0.0
 11
19.72655433865525
 21
34.27079075376813
 31
0.0
  0
LINE
  5
A05
330
1F
100
AcDbEntity
  8
0
100
AcDbLine
 10
19.84466433865525
 20
34.27079075376813
 30
0.0
 11
20.04151433865529
 21
34.27079075376813
 31
0.0
  0
LINE
  5
A07
330
1F
100
AcDbEntity
  8
0
100
AcDbLine
 10
26.45538070950163
 20
22.34168075376809
 30
0.0
 11
24.21323827865528
 21
22.34168075376809
 31
0.0
  0
LINE
  5
A08
330
1F
100
AcDbEntity
  8
0
100
AcDbLine
 10
26.35205021274366
 20
22.02672075376816
 30
0.0
 11
24.21323827865528
 21
22.02672075376816
 31
0.0
  0
LINE
  5
A09
330
1F
100
AcDbEntity
  8
0
100
AcDbLine
 10
23.46520827865531
 20
22.92076515202032
 30
0.0
 11
23.46520827865531
 21
22.77475075376813
 31
0.0
  0
LINE
  5
A0A
330
1F
100
AcDbEntity
  8
0
100
AcDbLine
 10
23.78016827865535
 20
22.89286075376825
 30
0.0
 11
23.78016827865535
 21
22.77475075376813
 31
0.0
  0
ARC
  5
A0B
330
1F
100
AcDbEntity
  8
0
100
AcDbCircle
 10
23.89827827865536
 20
22.89286075376825
 30
0.0
 40
0.11811
100
AcDbArc
 50
90.0
 51
180.0
  0
ARC
  5
A0C
330
1F
100
AcDbEntity
  8
0
100
AcDbCircle
 10
24.21323827865528
 20
22.77475075376813
 30
0.0
 40
0.4330700000000001
100
AcDbArc
 50
180.0
 51
270.0
  0
ARC
  5
A0D
330
1F
100
AcDbEntity
  8
0
100
AcDbCircle
 10
24.21323827865528
 20
22.77475075376813
 30
0.0
 40
0.7480300000000001
100
AcDbArc
 50
180.0
 51
270.0
  0
ARC
  5
A0E
330
1F
100
AcDbEntity
  8
0
100
AcDbCircle
 10
23.82890833865524
 20
27.06608075376815
 30
0.0
 40
4.05511206119098
100
AcDbArc
 50
262.4244571914398
 51
270.0577690646298
  0
LINE
  5
A0F
330
1F
100
AcDbEntity
  8
0
100
AcDbLine
 10
23.89827827865536
 20
23.01097075376814
 30
0.0
 11
23.82481973051033
 21
23.01097075376814
 31
0.0
  0
ARC
  5
A10
330
1F
100
AcDbEntity
  8
0
100
AcDbCircle
 10
23.34709827865531
 20
22.92076515202032
 30
0.0
 40
0.11811
100
AcDbArc
 50
0.0
 51
83.37025900800121
  0
LINE
  5
A11
330
1F
100
AcDbEntity
  8
0
100
AcDbLine
 10
26.7442724876983
 20
19.78263075376824
 30
0.0
 11
27.21658409428407
 21
19.78263075376824
 31
0.0
  0
LINE
  5
A12
330
1F
100
AcDbEntity
  8
0
100
AcDbLine
 10
24.29154520865534
 20
20.25507075376825
 30
0.0
 11
26.19620805319805
 21
20.25507075376825
 31
0.0
  0
LINE
  5
A13
330
1F
100
AcDbEntity
  8
0
100
AcDbLine
 10
26.59601248101755
 20
20.09759075376817
 30
0.0
 11
27.07229117422121
 21
20.09759075376817
 31
0.0
  0
LINE
  5
A14
330
1F
100
AcDbEntity
  8
0
100
AcDbLine
 10
26.88680282236753
 20
22.73700707310198
 30
0.0
 11
26.71742850529226
 21
20.80100548427461
 31
0.0
  0
ARC
  5
A15
330
1F
100
AcDbEntity
  8
0
100
AcDbCircle
 10
26.20756499865529
 20
20.84562075376815
 30
0.0
 40
0.5118099999999972
100
AcDbArc
 50
304.9293499103584
 51
354.9975003941856
  0
ARC
  5
A16
330
1F
100
AcDbEntity
  8
0
100
AcDbCircle
 10
26.19620805319805
 20
20.1763307537681
 30
0.0
 40
0.3936999999999951
100
AcDbArc
 50
3.81407483432715
 51
39.3594679788117
  0
LINE
  5
A17
330
1F
100
AcDbEntity
  8
0
100
AcDbLine
 10
26.59601248101755
 20
20.09759075376817
 30
0.0
 11
26.58901287515111
 21
20.20252890884015
 31
0.0
  0
LINE
  5
A18
330
1F
100
AcDbEntity
  8
0
100
AcDbLine
 10
27.11151110085284
 20
20.13352647727791
 30
0.0
 11
27.34954414962162
 21
22.85189779516034
 31
0.0
  0
ARC
  5
A19
330
1F
100
AcDbEntity
  8
0
100
AcDbCircle
 10
26.35205021274366
 20
21.59365075376812
 30
0.0
 40
0.4330700000000001
100
AcDbArc
 50
355.0001137949025
 51
90.0
  0
ARC
  5
A1A
330
1F
100
AcDbEntity
  8
0
100
AcDbCircle
 10
26.45538070950163
 20
22.77475075376813
 30
0.0
 40
0.4330699999999976
100
AcDbArc
 50
270.0
 51
33.05573115091198
  0
LINE
  5
A1B
330
1F
100
AcDbEntity
  8
0
100
AcDbLine
 10
27.39521769787579
 20
23.01097075376814
 30
0.0
 11
26.81835417478514
 21
23.01097075376814
 31
0.0
  0
ARC
  5
A1C
330
1F
100
AcDbEntity
  8
0
100
AcDbCircle
 10
27.78096334256934
 20
22.8141207537681
 30
0.0
 40
0.1181099999999988
100
AcDbArc
 50
90.0
 51
174.9956832494469
  0
ARC
  5
A1D
330
1F
100
AcDbEntity
  8
0
100
AcDbCircle
 10
27.78096334256934
 20
22.8141207537681
 30
0.0
 40
0.4330699999999986
100
AcDbArc
 50
152.9643082106569
 51
174.9956832494469
  0
LINE
  5
A1E
330
1F
100
AcDbEntity
  8
0
100
AcDbLine
 10
26.66562153937075
 20
19.70763453890848
 30
0.0
 11
26.66356932319802
 21
19.66452075376813
 31
0.0
  0
ARC
  5
A1F
330
1F
100
AcDbEntity
  8
0
100
AcDbCircle
 10
26.7442724876983
 20
19.70389075376809
 30
0.0
 40
0.0787399999999989
100
AcDbArc
 50
90.0
 51
177.2747778859805
  0
LINE
  5
A20
330
1F
100
AcDbEntity
  8
0
100
AcDbLine
 10
26.7442724876983
 20
19.78263075376824
 30
0.0
 11
26.7442724876983
 21
20.09759075376817
 31
0.0
  0
LINE
  5
A21
330
1F
100
AcDbEntity
  8
0
100
AcDbLine
 10
26.9804924876983
 20
19.78263075376824
 30
0.0
 11
26.9804924876983
 21
20.09759075376817
 31
0.0
  0
ARC
  5
A22
330
1F
100
AcDbEntity
  8
0
100
AcDbCircle
 10
27.21658409428407
 20
19.97948075376828
 30
0.0
 40
0.19685
100
AcDbArc
 50
270.0
 51
354.9956832494469
  0
ARC
  5
A23
330
1F
100
AcDbEntity
  8
0
100
AcDbCircle
 10
9.273583118655253
 20
-89.95435459234997
 30
0.0
 40
157.4801963433283
100
AcDbArc
 50
87.26924066872509
 51
88.59602865545214
  0
ARC
  5
A24
330
1F
100
AcDbEntity
  8
0
100
AcDbCircle
 10
18.82661762004083
 20
66.84621722947125
 30
0.0
 40
0.3149599999999979
100
AcDbArc
 50
353.0865103587755
 51
86.88124693171298
  0
LINE
  5
A25
330
1F
100
AcDbEntity
  8
0
100
AcDbLine
 10
18.85501070064838
 20
67.15989482601528
 30
0.0
 11
16.82657664246078
 21
67.34350211055065
 31
0.0
  0
ARC
  5
A26
330
1F
100
AcDbEntity
  8
0
100
AcDbCircle
 10
10.27594331865423
 20
-90.08624409236606
 30
0.0
 40
157.4801961291721
100
AcDbArc
 50
82.70641349911933
 51
86.8812468907784
  0
LINE
  5
A27
330
1F
100
AcDbEntity
  8
0
100
AcDbLine
 10
18.84642882587825
 20
51.32222712576165
 30
0.0
 11
16.82657664246078
 21
51.13939664474926
 31
0.0
  0
ARC
  5
A28
330
1F
100
AcDbEntity
  8
0
100
AcDbCircle
 10
81.84166632865439
 20
59.20550456765003
 30
0.0
 40
63.16162508244947
100
AcDbArc
 50
173.0865103587755
 51
186.8488354599241
  0
ARC
  5
A29
330
1F
100
AcDbEntity
  8
0
100
AcDbCircle
 10
18.8180357452707
 20
51.6359047223057
 30
0.0
 40
0.314959999999999
100
AcDbArc
 50
275.1721336283119
 51
6.848835459924101
  0
ARC
  5
A2A
330
1F
100
AcDbEntity
  8
0
100
AcDbCircle
 10
9.273583118651956
 20
208.4371746077354
 30
0.0
 40
157.4800971004323
100
AcDbArc
 50
271.4015296431695
 51
272.7292071202132
  0
ARC
  5
A2C
330
1F
100
AcDbEntity
  8
0
100
AcDbCircle
 10
27.07229117422121
 20
20.13696075376814
 30
0.0
 40
0.03937
100
AcDbArc
 50
270.0
 51
354.9956832494469
  0
LINE
  5
A2D
330
1F
100
AcDbEntity
  8
0
100
AcDbLine
 10
64.29320360705701
 20
36.19992075376811
 30
0.0
 11
64.17501486705707
 21
32.49414076376823
 31
0.0
  0
ARC
  5
A2E
330
1F
100
AcDbEntity
  8
0
100
AcDbCircle
 10
56.03021619605708
 20
-71.79198924623185
 30
0.0
 40
118.110003937
100
AcDbArc
 50
86.9343142106994
 51
90.0
  0
ARC
  5
A2F
330
1F
100
AcDbEntity
  8
0
100
AcDbCircle
 10
55.136517196057
 20
33.7196107537682
 30
0.0
 40
7.874018452324387
100
AcDbArc
 50
315.8544212772448
 51
352.0719300920414
  0
ARC
  5
A30
330
1F
100
AcDbEntity
  8
0
100
AcDbCircle
 10
60.35620360705745
 20
36.19992075376811
 30
0.0
 40
3.936999999999549
100
AcDbArc
 50
0.0
 51
2.789687441405839
  0
ARC
  5
A31
330
1F
100
AcDbEntity
  8
0
100
AcDbCircle
 10
60.12642453905634
 20
36.19992075376811
 30
0.0
 40
3.937001739366896
100
AcDbArc
 50
359.9461419830421
 51
2.626786333946675
  0
ARC
  5
A32
330
1F
100
AcDbEntity
  8
0
100
AcDbCircle
 10
58.15792847605705
 20
36.20177114376819
 30
0.0
 40
5.905486676258232
100
AcDbArc
 50
343.3785383735154
 51
359.9461419473075
  0
ARC
  5
A33
330
1F
100
AcDbEntity
  8
0
100
AcDbCircle
 10
63.43941003905699
 20
34.62512075376825
 30
0.0
 40
0.3936925991775242
100
AcDbArc
 50
270.0
 51
343.3810458691732
  0
ARC
  5
A34
330
1F
100
AcDbEntity
  8
0
100
AcDbCircle
 10
62.45022776545697
 20
45.8666415777682
 30
0.0
 40
0.7873908141147902
100
AcDbArc
 50
9.828793986979562
 51
86.8631141966944
  0
ARC
  5
A35
330
1F
100
AcDbEntity
  8
0
100
AcDbCircle
 10
63.33492599605704
 20
44.86310421476813
 30
0.0
 40
0.078741098120069
100
AcDbArc
 50
9.000774614633712
 51
44.99999999988024
  0
ARC
  5
A36
330
1F
100
AcDbEntity
  8
0
100
AcDbCircle
 10
63.21859552005701
 20
44.97943469076815
 30
0.0
 40
0.0787420288083884
100
AcDbArc
 50
45.00202565963649
 51
90.0
  0
ARC
  5
A37
330
1F
100
AcDbEntity
  8
0
100
AcDbCircle
 10
63.24479625505698
 20
45.1762846907682
 30
0.0
 40
0.1181097077430052
100
AcDbArc
 50
270.0
 51
9.235942244756925
  0
ARC
  5
A38
330
1F
100
AcDbEntity
  8
0
100
AcDbCircle
 10
-14.358225703943
 20
32.5595343337682
 30
0.0
 40
78.74006414579143
100
AcDbArc
 50
9.234388147091175
 51
9.828957773857364
  0
LINE
  5
A39
330
1F
100
AcDbEntity
  8
0
100
AcDbLine
 10
63.39060305005698
 20
44.91878126876807
 30
0.0
 11
63.27427257405706
 21
45.03511568176807
 31
0.0
  0
LINE
  5
A3A
330
1F
100
AcDbEntity
  8
0
100
AcDbLine
 10
56.03021619605708
 20
44.90069469076823
 30
0.0
 11
63.40411483405699
 21
44.90069469076823
 31
0.0
  0
LINE
  5
A3B
330
1F
100
AcDbEntity
  8
0
100
AcDbLine
 10
63.24479625505698
 20
45.05817469076808
 30
0.0
 11
56.03021619605708
 21
45.05817469076808
 31
0.0
  0
ARC
  5
A3C
330
1F
100
AcDbEntity
  8
0
100
AcDbCircle
 10
-14.358225703943
 20
32.5595343337682
 30
0.0
 40
78.74006356912669
100
AcDbArc
 50
2.789484634397006
 51
8.998695281582914
  0
ARC
  5
A3D
330
1F
100
AcDbEntity
  8
0
100
AcDbCircle
 10
62.30472096985697
 20
45.36271345176831
 30
0.0
 40
0.7874020025540785
100
AcDbArc
 50
9.461775885993759
 51
86.93430527352791
  0
LINE
  5
A3E
330
1F
100
AcDbEntity
  8
0
100
AcDbLine
 10
63.66921272905703
 20
31.67237075376809
 30
0.0
 11
63.95787750605705
 21
31.67237075376809
 31
0.0
  0
ARC
  5
A3F
330
1F
100
AcDbEntity
  8
0
100
AcDbCircle
 10
63.95787750605705
 20
31.86922075376813
 30
0.0
 40
0.1968499999999978
100
AcDbArc
 50
270.0
 51
358.143301112542
  0
LINE
  5
A40
330
1F
100
AcDbEntity
  8
0
100
AcDbLine
 10
64.175093607057
 20
32.49914075376822
 30
0.0
 11
64.175093607057
 21
32.49662107376824
 31
0.0
  0
LINE
  5
A41
330
1F
100
AcDbEntity
  8
0
100
AcDbLine
 10
64.15462514405696
 20
31.86284281376814
 30
0.0
 11
64.17501486705707
 21
32.49414076376823
 31
0.0
  0
LINE
  5
A42
330
1F
100
AcDbEntity
  8
0
100
AcDbLine
 10
60.50012457905705
 20
20.54491269376811
 30
0.0
 11
60.12433085317507
 21
26.43997126833941
 31
0.0
  0
LINE
  5
A43
330
1F
100
AcDbEntity
  8
0
100
AcDbLine
 10
60.62613220105702
 20
20.28648801376815
 30
0.0
 11
60.67588800705703
 21
19.66452075376813
 31
0.0
  0
LWPOLYLINE
  5
A44
330
1F
100
AcDbEntity
  8
0
100
AcDbPolyline
 90
        9
 70
     0
 43
0.0
 10
63.24527072942412
 20
44.46763734393337
 10
63.39264964388387
 20
43.46191527020121
 10
63.5270335629754
 20
42.45437458105906
 10
63.6484001099647
 20
41.44518304444889
 10
63.75672905788376
 20
40.43450885024961
 10
63.85200234950336
 20
39.42252046707452
 10
63.93420410373089
 20
38.40938658258736
 10
64.00332062123634
 20
37.39527604374283
 10
64.05934039341961
 20
36.38035771247522
  0
LWPOLYLINE
  5
A45
330
1F
100
AcDbEntity
  8
0
100
AcDbPolyline
 90
       13
 70
     0
 43
0.0
 10
63.08146018891425
 20
45.4921590949223
 10
63.08719627328985
 20
45.45769277789557
 10
63.09291706148626
 20
45.42322392739587
 10
63.09862255266903
 20
45.38875254851521
 10
63.10431274600334
 20
45.35427864634565
 10
63.10998764065452
 20
45.3198022259792
 10
63.11564723578776
 20
45.28532329250814
 10
63.1212915305686
 20
45.25084185102426
 10
63.12692052416223
 20
45.2163579066196
 10
63.13253421573408
 20
45.1818714643862
 10
63.13813260444935
 20
45.14738252941632
 10
63.14371568947335
 20
45.11289110680175
 10
63.14928346997151
 20
45.07839720163454
  0
LWPOLYLINE
  5
A46
330
1F
100
AcDbEntity
  8
0
100
AcDbPolyline
 90
       13
 70
     0
 43
0.0
 10
63.18061172835353
 20
44.88246500237349
 10
63.18608445106251
 20
44.84790924560686
 10
63.1915418177728
 20
44.81335106909253
 10
63.19698382768665
 20
44.77879047794957
 10
63.20241048000609
 20
44.74422747729616
 10
63.20782177393327
 20
44.70966207225117
 10
63.21321770867057
 20
44.67509426793301
 10
63.21859828341989
 20
44.64052406946055
 10
63.22396349738339
 20
44.60595148195219
 10
63.22931334976356
 20
44.57137651052656
 10
63.23464783976219
 20
44.53679916030253
 10
63.23996696658166
 20
44.50221943639852
 10
63.24527072942412
 20
44.46763734393337
  0
ARC
  5
A47
330
1F
100
AcDbEntity
  8
0
100
AcDbCircle
 10
63.05224939605698
 20
32.61725075376811
 30
0.0
 40
0.1181101291991452
100
AcDbArc
 50
90.0
 51
172.0678773812899
  0
LINE
  5
A48
330
1F
100
AcDbEntity
  8
0
100
AcDbLine
 10
63.36210310705705
 20
32.73536075376822
 30
0.0
 11
63.05224939605698
 21
32.73536075376822
 31
0.0
  0
ARC
  5
A49
330
1F
100
AcDbEntity
  8
0
100
AcDbCircle
 10
63.02837542805701
 20
32.61725075376811
 30
0.0
 40
0.118112123926785
100
AcDbArc
 50
19.30888343397549
 51
90.0
  0
ARC
  5
A4A
330
1F
100
AcDbEntity
  8
0
100
AcDbCircle
 10
63.36210310705705
 20
32.61725075376811
 30
0.0
 40
0.1181121239267846
100
AcDbArc
 50
19.30888343397549
 51
90.0
  0
ARC
  5
A4B
330
1F
100
AcDbEntity
  8
0
100
AcDbCircle
 10
63.56830348205703
 20
31.79048075376821
 30
0.0
 40
0.1181100000000022
100
AcDbArc
 50
199.3088834339755
 51
270.0
  0
ARC
  5
A4C
330
1F
100
AcDbEntity
  8
0
100
AcDbCircle
 10
63.90203116105697
 20
31.79048075376821
 30
0.0
 40
0.1181100000000022
100
AcDbArc
 50
199.3088834339755
 51
270.0
  0
LINE
  5
A4D
330
1F
100
AcDbEntity
  8
0
100
AcDbLine
 10
63.45683520105699
 20
31.75142571376821
 30
0.0
 11
63.13984370905704
 21
32.6563057937681
 31
0.0
  0
LINE
  5
A4E
330
1F
100
AcDbEntity
  8
0
100
AcDbLine
 10
63.79056288005704
 20
31.75142571376821
 30
0.0
 11
63.47357138805698
 21
32.6563057937681
 31
0.0
  0
LINE
  5
A4F
330
1F
100
AcDbEntity
  8
0
100
AcDbLine
 10
63.95787750605705
 20
31.67237075376809
 30
0.0
 11
63.56830348205703
 21
31.67237075376809
 31
0.0
  0
ARC
  5
A50
330
1F
100
AcDbEntity
  8
0
100
AcDbCircle
 10
56.03021619605708
 20
-71.28017924623188
 30
0.0
 40
118.1099958482299
100
AcDbArc
 50
86.86315001259819
 51
90.0
  0
LINE
  5
A51
330
1F
100
AcDbEntity
  8
0
100
AcDbLine
 10
56.03021619605708
 20
34.23142075376816
 30
0.0
 11
63.43941003905699
 21
34.23142075376816
 31
0.0
  0
LINE
  5
A52
330
1F
100
AcDbEntity
  8
0
100
AcDbLine
 10
51.38454438505703
 20
19.66452075376813
 30
0.0
 11
60.67588800705703
 21
19.66452075376813
 31
0.0
  0
ARC
  5
A53
330
1F
100
AcDbEntity
  8
0
100
AcDbCircle
 10
60.23368810405706
 20
20.25507075376825
 30
0.0
 40
0.3936996488391383
100
AcDbArc
 50
4.57707391745691
 51
47.42411915278825
  0
LINE
  5
A54
330
1F
100
AcDbEntity
  8
0
100
AcDbLine
 10
16.32892333865531
 20
33.83772075376808
 30
0.0
 11
16.32892333865531
 21
34.23142075376816
 31
0.0
  0
LINE
  5
A55
330
1F
100
AcDbEntity
  8
0
100
AcDbLine
 10
12.98247333865531
 20
33.83772075376808
 30
0.0
 11
12.98247333865531
 21
34.23142075376816
 31
0.0
  0
LINE
  5
A56
330
1F
100
AcDbEntity
  8
0
100
AcDbLine
 10
12.4230921321835
 20
45.19840645989373
 30
0.0
 11
12.72924617655103
 21
46.21786291287938
 31
0.0
  0
LINE
  5
A57
330
1F
100
AcDbEntity
  8
0
100
AcDbLine
 10
12.22267038477086
 20
45.6260773984184
 30
0.0
 11
12.42759504695327
 21
46.30845208227836
 31
0.0
  0
ARC
  5
A58
330
1F
100
AcDbEntity
  8
0
100
AcDbCircle
 10
12.23456017618484
 20
45.25502469076812
 30
0.0
 40
0.1968499999999987
100
AcDbArc
 50
270.0
 51
343.2844065057758
  0
ARC
  5
A59
330
1F
100
AcDbEntity
  8
0
100
AcDbCircle
 10
12.53633249865531
 20
45.00217462572803
 30
0.0
 40
0.19685
100
AcDbArc
 50
140.0409122119542
 51
180.0
  0
LINE
  5
A5A
330
1F
100
AcDbEntity
  8
0
100
AcDbLine
 10
11.51483847865533
 20
45.05817469076808
 30
0.0
 11
12.23456017618484
 21
45.05817469076808
 31
0.0
  0
LINE
  5
A5B
330
1F
100
AcDbEntity
  8
0
100
AcDbLine
 10
12.3476160043695
 20
45.05817469076808
 30
0.0
 11
17.48573204865526
 21
45.05817469076808
 31
0.0
  0
ARC
  5
A5C
330
1F
100
AcDbEntity
  8
0
100
AcDbCircle
 10
12.91777813254957
 20
46.16124468200498
 30
0.0
 40
0.1968499999999986
100
AcDbArc
 50
85.70863344693595
 51
163.2844065057758
  0
ARC
  5
A5D
330
1F
100
AcDbEntity
  8
0
100
AcDbCircle
 10
12.91777813254957
 20
46.16124468200498
 30
0.0
 40
0.5118099999999979
100
AcDbArc
 50
143.2351653244003
 51
163.2844065057758
  0
LINE
  5
A5E
330
1F
100
AcDbEntity
  8
0
100
AcDbLine
 10
11.79925327466269
 20
45.56998469076828
 30
0.0
 11
12.14725760237142
 21
45.56998469076828
 31
0.0
  0
ARC
  5
A5F
330
1F
100
AcDbEntity
  8
0
100
AcDbCircle
 10
12.35224392974832
 20
45.37313469076823
 30
0.0
 40
0.1181100000000011
100
AcDbArc
 50
270.0
 51
343.2844065057758
  0
ARC
  5
A60
330
1F
100
AcDbEntity
  8
0
100
AcDbCircle
 10
11.79925327466269
 20
45.6487246907682
 30
0.0
 40
0.0787400000000016
100
AcDbArc
 50
178.9387010330112
 51
270.0
  0
ARC
  5
A61
330
1F
100
AcDbEntity
  8
0
100
AcDbCircle
 10
12.14725760237142
 20
45.6487246907682
 30
0.0
 40
0.07874
100
AcDbArc
 50
270.0
 51
343.2844065057758
  0
LINE
  5
A62
330
1F
100
AcDbEntity
  8
0
100
AcDbLine
 10
16.59997384111982
 20
45.10821222674784
 30
0.0
 11
16.25213393347023
 21
45.99679146850329
 31
0.0
  0
ARC
  5
A63
330
1F
100
AcDbEntity
  8
0
100
AcDbCircle
 10
16.67329611712903
 20
45.13691469076824
 30
0.0
 40
0.0787400000000023
100
AcDbArc
 50
201.3781700928604
 51
270.0
  0
ARC
  5
A64
330
1F
100
AcDbEntity
  8
0
100
AcDbCircle
 10
16.14215051945648
 20
45.95373777247281
 30
0.0
 40
0.1181099999999985
100
AcDbArc
 50
21.3781700928604
 51
84.13430533110926
  0
LINE
  5
A65
330
1F
100
AcDbEntity
  8
0
100
AcDbLine
 10
16.81491291816364
 20
45.42317222674776
 30
0.0
 11
16.54542303750683
 21
46.11160132458465
 31
0.0
  0
ARC
  5
A66
330
1F
100
AcDbEntity
  8
0
100
AcDbCircle
 10
16.88823519417285
 20
45.45187469076816
 30
0.0
 40
0.0787400000000025
100
AcDbArc
 50
201.3781700928604
 51
270.0
  0
ARC
  5
A67
330
1F
100
AcDbEntity
  8
0
100
AcDbCircle
 10
62.48174578319383
 20
26.59024996850761
 30
0.0
 40
2.362199999999999
100
AcDbArc
 50
135.8544212772447
 51
183.6475124560916
  0
ARC
  5
A68
330
1F
100
AcDbEntity
  8
0
100
AcDbCircle
 10
49.5786866089201
 20
26.59024996850761
 30
0.0
 40
2.3622
100
AcDbArc
 50
356.3524875439085
 51
44.14557872275526
  0
LINE
  5
A69
330
1F
100
AcDbEntity
  8
0
100
AcDbLine
 10
26.45538070950163
 20
22.65664075376824
 30
0.0
 11
24.21323827865528
 21
22.65664075376824
 31
0.0
  0
LINE
  5
A6B
330
1F
100
AcDbEntity
  8
0
100
AcDbLine
 10
13.22192167865528
 20
22.02672075376816
 30
0.0
 11
12.73826122865527
 21
22.02672075376816
 31
0.0
  0
ARC
  5
A6C
330
1F
100
AcDbEntity
  8
0
100
AcDbCircle
 10
13.22192167865528
 20
21.94798075376823
 30
0.0
 40
0.0787485133022765
100
AcDbArc
 50
17.93673721040737
 51
90.0
  0
LINE
  5
A6D
330
1F
100
AcDbEntity
  8
0
100
AcDbLine
 10
20.36434833865524
 20
33.83772075376808
 30
0.0
 11
21.78166833865525
 21
33.83772075376808
 31
0.0
  0
LINE
  5
A6E
330
1F
100
AcDbEntity
  8
0
100
AcDbLine
 10
20.95489833865524
 20
34.23142075376816
 30
0.0
 11
20.95489833865524
 21
33.64087075376827
 31
0.0
  0
LINE
  5
A6F
330
1F
100
AcDbEntity
  8
0
100
AcDbLine
 10
20.40371833865531
 20
34.23142075376816
 30
0.0
 11
20.40371833865531
 21
33.64087075376827
 31
0.0
  0
ARC
  5
A70
330
1F
100
AcDbEntity
  8
0
100
AcDbCircle
 10
20.12812833865535
 20
33.7196107537682
 30
0.0
 40
0.07874
100
AcDbArc
 50
180.0
 51
270.0
  0
ARC
  5
A71
330
1F
100
AcDbEntity
  8
0
100
AcDbCircle
 10
19.97064833865526
 20
33.75898075376816
 30
0.0
 40
0.0787399999999989
100
AcDbArc
 50
0.0
 51
90.0
  0
LINE
  5
A72
330
1F
100
AcDbEntity
  8
0
100
AcDbLine
 10
19.5769483386553
 20
33.83772075376808
 30
0.0
 11
20.36434833865524
 21
33.83772075376808
 31
0.0
  0
LINE
  5
A73
330
1F
100
AcDbEntity
  8
0
100
AcDbLine
 10
20.0493883386553
 20
33.75898075376816
 30
0.0
 11
20.0493883386553
 21
33.7196107537682
 31
0.0
  0
LINE
  5
A74
330
1F
100
AcDbEntity
  8
0
100
AcDbLine
 10
20.12812833865535
 20
33.64087075376827
 30
0.0
 11
21.22521275865533
 21
33.64087075376827
 31
0.0
  0
LINE
  5
A75
330
1F
100
AcDbEntity
  8
0
100
AcDbLine
 10
20.67930833865528
 20
34.35228665376829
 30
0.0
 11
20.67930833865528
 21
33.43827273376817
 31
0.0
  0
LINE
  5
A86
330
1F
100
AcDbEntity
  8
0
100
AcDbLine
 10
18.37474601865533
 20
20.64877075376811
 30
0.0
 11
12.53483643865529
 21
20.64877075376811
 31
0.0
  0
LINE
  5
A87
330
1F
100
AcDbEntity
  8
0
100
AcDbLine
 10
23.70701881865527
 20
20.64877075376811
 30
0.0
 11
20.32430904865525
 21
20.64877075376811
 31
0.0
  0
ARC
  5
A88
330
1F
100
AcDbEntity
  8
0
100
AcDbCircle
 10
26.45882433865534
 20
22.8141207537681
 30
0.0
 40
0.1181100000000022
100
AcDbArc
 50
355.0095805494022
 51
90.0
  0
LINE
  5
A8D
330
1F
100
AcDbEntity
  8
0
100
AcDbLine
 10
24.38930627120367
 20
22.93223075376821
 30
0.0
 11
26.45882433865534
 21
22.93223075376821
 31
0.0
  0
LINE
  5
A90
330
1F
100
AcDbEntity
  8
0
100
AcDbLine
 10
16.40148224865531
 20
23.0503407537681
 30
0.0
 11
16.04746720865527
 21
23.0503407537681
 31
0.0
  0
ARC
  5
A91
330
1F
100
AcDbEntity
  8
0
100
AcDbCircle
 10
26.20756499865529
 20
20.84562075376815
 30
0.0
 40
0.19685
100
AcDbArc
 50
270.0
 51
354.9975003941856
  0
ARC
  5
A94
330
1F
100
AcDbEntity
  8
0
100
AcDbCircle
 10
19.18324833865533
 20
19.19208075376812
 30
0.0
 40
4.64566518899647
100
AcDbArc
 50
19.63746034965402
 51
89.91502750795431
  0
ARC
  5
A95
330
1F
100
AcDbEntity
  8
0
100
AcDbCircle
 10
19.18529557865524
 20
20.57003075376818
 30
0.0
 40
3.267713588122908
100
AcDbArc
 50
89.91509185873839
 51
121.5852975431277
  0
ARC
  5
A96
330
1F
100
AcDbEntity
  8
0
100
AcDbCircle
 10
16.40148224865531
 20
25.09762012376817
 30
0.0
 40
2.047239999999999
100
AcDbArc
 50
270.0
 51
301.5858467676986
  0
ARC
  5
A97
330
1F
100
AcDbEntity
  8
0
100
AcDbCircle
 10
16.04746720865527
 20
23.16845075376821
 30
0.0
 40
0.1181074015514153
100
AcDbArc
 50
210.0007277808539
 51
270.0
  0
ARC
  5
A98
330
1F
100
AcDbEntity
  8
0
100
AcDbCircle
 10
15.20687833865524
 20
24.62439272376812
 30
0.0
 40
0.11811
100
AcDbArc
 50
180.0
 51
210.0007277808539
  0
LINE
  5
A99
330
1F
100
AcDbEntity
  8
0
100
AcDbLine
 10
15.10459507865532
 20
24.56533772376818
 30
0.0
 11
15.94518394865524
 21
23.10939575376827
 31
0.0
  0
LINE
  5
A9A
330
1F
100
AcDbEntity
  8
0
100
AcDbLine
 10
15.08876833865524
 20
26.12120075376814
 30
0.0
 11
15.08876833865524
 21
24.62439272376812
 31
0.0
  0
ARC
  5
A9B
330
1F
100
AcDbEntity
  8
0
100
AcDbCircle
 10
16.9391583386553
 20
26.12120075376814
 30
0.0
 40
1.85039
100
AcDbArc
 50
90.0
 51
180.0
  0
ARC
  5
A9C
330
1F
100
AcDbEntity
  8
0
100
AcDbCircle
 10
16.9391583386553
 20
25.72750075376828
 30
0.0
 40
2.244080265573711
100
AcDbArc
 50
41.94148664004553
 51
90.0
  0
ARC
  5
A9D
330
1F
100
AcDbEntity
  8
0
100
AcDbCircle
 10
4.200364918655324
 20
14.28114569376819
 30
0.0
 40
19.36996336478306
100
AcDbArc
 50
33.07802425571863
 51
41.94111034905062
  0
ARC
  5
A9E
330
1F
100
AcDbEntity
  8
0
100
AcDbCircle
 10
23.70701881865527
 20
20.80625075376818
 30
0.0
 40
0.1574633899052778
100
AcDbArc
 50
199.6355150032072
 51
270.0
  0
LINE
  5
A9F
330
1F
100
AcDbEntity
  8
0
100
AcDbLine
 10
23.73682083213184
 20
20.64877075376811
 30
0.0
 11
26.22925786865533
 21
20.64877075376811
 31
0.0
  0
ARC
  5
AA2
330
1F
100
AcDbEntity
  8
0
100
AcDbCircle
 10
12.73826122865527
 20
21.94798075376823
 30
0.0
 40
0.0787560810029048
100
AcDbArc
 50
90.0
 51
175.7858214772424
  0
ARC
  5
AA3
330
1F
100
AcDbEntity
  8
0
100
AcDbCircle
 10
12.53483643865529
 20
20.25507075376825
 30
0.0
 40
0.3937
100
AcDbArc
 50
90.0
 51
175.7964076803208
  0
LINE
  5
AA4
330
1F
100
AcDbEntity
  8
0
100
AcDbLine
 10
20.61037146865526
 20
20.25507075376825
 30
0.0
 11
24.29154520865534
 21
20.25507075376825
 31
0.0
  0
LINE
  5
AA5
330
1F
100
AcDbEntity
  8
0
100
AcDbLine
 10
22.15568333865524
 20
20.25507075376825
 30
0.0
 11
22.15568333865524
 21
20.64877075376811
 31
0.0
  0
LINE
  5
AA6
330
1F
100
AcDbEntity
  8
0
100
AcDbLine
 10
22.74623333865525
 20
20.25507075376825
 30
0.0
 11
22.74623333865525
 21
20.64877075376811
 31
0.0
  0
ARC
  5
AA9
330
1F
100
AcDbEntity
  8
0
100
AcDbCircle
 10
14.97065833865524
 20
30.54556198376829
 30
0.0
 40
0.1968328654302731
100
AcDbArc
 50
293.9811066113788
 51
48.61756796435839
  0
ARC
  5
AAA
330
1F
100
AcDbEntity
  8
0
100
AcDbCircle
 10
16.9391583386553
 20
26.12120075376814
 30
0.0
 40
4.645683479307826
100
AcDbArc
 50
113.9851995068686
 51
166.9179285839574
  0
ARC
  5
AAC
330
1F
100
AcDbEntity
  8
0
100
AcDbCircle
 10
21.38796833865528
 20
33.75898075376816
 30
0.0
 40
0.0787399999999989
100
AcDbArc
 50
90.0
 51
180.0
  0
LINE
  5
AAD
330
1F
100
AcDbEntity
  8
0
100
AcDbLine
 10
21.30922833865525
 20
33.75898075376816
 30
0.0
 11
21.30922833865525
 21
33.7196107537682
 31
0.0
  0
ARC
  5
AAE
330
1F
100
AcDbEntity
  8
0
100
AcDbCircle
 10
21.23048833865532
 20
33.7196107537682
 30
0.0
 40
0.07874
100
AcDbArc
 50
270.0
 51
0.0
  0
LINE
  5
ABE
330
1F
100
AcDbEntity
  8
0
100
AcDbLine
 10
14.82326209184093
 20
51.93868645867363
 30
0.0
 11
14.8080652718409
 21
52.3321108686737
 31
0.0
  0
LINE
  5
ABF
330
1F
100
AcDbEntity
  8
0
100
AcDbLine
 10
15.51172528184092
 20
51.96530057867383
 30
0.0
 11
15.49648909184092
 21
52.35872498867369
 31
0.0
  0
LINE
  5
AC9
330
1F
100
AcDbEntity
  8
0
100
AcDbLine
 10
12.6597180786553
 20
21.95376814376826
 30
0.0
 11
12.53483643865529
 21
20.25514949376819
 31
0.0
  0
ARC
  5
ACA
330
1F
100
AcDbEntity
  8
0
100
AcDbCircle
 10
15.65679869865532
 20
22.7354594937681
 30
0.0
 40
2.480303827338746
100
AcDbArc
 50
197.9215827132101
 51
241.0301086115461
  0
ARC
  5
ACF
330
1F
100
AcDbEntity
  8
0
100
AcDbCircle
 10
32.30495437873257
 20
18.81637284367733
 30
0.0
 40
7.874017093472108
100
AcDbArc
 50
130.1318395394503
 51
130.736688960873
  0
ARC
  5
AD0
330
1F
100
AcDbEntity
  8
0
100
AcDbCircle
 10
7.51278081287505
 20
21.64225130513958
 30
0.0
 40
11.811
100
AcDbArc
 50
50.04870196720862
 51
65.11846651667045
  0
ARC
  5
AD1
330
1F
100
AcDbEntity
  8
0
100
AcDbCircle
 10
12.64782833865529
 20
32.71410702123243
 30
0.0
 40
0.3936999999999985
100
AcDbArc
 50
199.8266741144776
 51
245.1184755826254
  0
LINE
  5
AD2
330
1F
100
AcDbEntity
  8
0
100
AcDbLine
 10
14.88207583865532
 20
44.22156219076808
 30
0.0
 11
15.45294083865524
 21
44.22156219076808
 31
0.0
  0
LINE
  5
AD3
330
1F
100
AcDbEntity
  8
0
100
AcDbLine
 10
14.88207583865532
 20
43.53258719076805
 30
0.0
 11
15.45294083865524
 21
43.53258719076805
 31
0.0
  0
LINE
  5
AD4
330
1F
100
AcDbEntity
  8
0
100
AcDbLine
 10
14.82302083865526
 20
44.16250719076813
 30
0.0
 11
14.82302083865526
 21
43.59164219076823
 31
0.0
  0
LINE
  5
AD5
330
1F
100
AcDbEntity
  8
0
100
AcDbLine
 10
15.51199583865529
 20
44.16250719076813
 30
0.0
 11
15.51199583865529
 21
43.59164219076823
 31
0.0
  0
ARC
  5
AD6
330
1F
100
AcDbEntity
  8
0
100
AcDbCircle
 10
15.45294083865524
 20
43.59164219076823
 30
0.0
 40
0.059055
100
AcDbArc
 50
270.0
 51
0.0
  0
ARC
  5
AD7
330
1F
100
AcDbEntity
  8
0
100
AcDbCircle
 10
15.45294083865524
 20
44.16250719076813
 30
0.0
 40
0.059055
100
AcDbArc
 50
0.0
 51
90.0
  0
ARC
  5
AD8
330
1F
100
AcDbEntity
  8
0
100
AcDbCircle
 10
14.88207583865532
 20
44.16250719076813
 30
0.0
 40
0.059055
100
AcDbArc
 50
90.0
 51
180.0
  0
ARC
  5
AD9
330
1F
100
AcDbEntity
  8
0
100
AcDbCircle
 10
14.88207583865532
 20
43.59164219076823
 30
0.0
 40
0.059055
100
AcDbArc
 50
180.0
 51
270.0
  0
ARC
  5
ADB
330
1F
100
AcDbEntity
  8
0
100
AcDbCircle
 10
24.21323827865528
 20
22.77475075376813
 30
0.0
 40
0.11811
100
AcDbArc
 50
180.0
 51
270.0
  0
LINE
  5
ADC
330
1F
100
AcDbEntity
  8
0
100
AcDbLine
 10
23.15024827865527
 20
22.96962620824982
 30
0.0
 11
23.15024827865527
 21
22.77475075376813
 31
0.0
  0
LINE
  5
ADD
330
1F
100
AcDbEntity
  8
0
100
AcDbLine
 10
26.35205021274366
 20
21.71176075376823
 30
0.0
 11
24.21323827865528
 21
21.71176075376823
 31
0.0
  0
ARC
  5
ADE
330
1F
100
AcDbEntity
  8
0
100
AcDbCircle
 10
26.45538070950163
 20
22.77475075376813
 30
0.0
 40
0.11811
100
AcDbArc
 50
270.0
 51
355.0001137949025
  0
LINE
  5
ADF
330
1F
100
AcDbEntity
  8
0
100
AcDbLine
 10
24.09512827865528
 20
22.89286075376825
 30
0.0
 11
24.09512827865528
 21
22.77475075376813
 31
0.0
  0
ARC
  5
AE0
330
1F
100
AcDbEntity
  8
0
100
AcDbCircle
 10
24.21323827865528
 20
22.89286075376825
 30
0.0
 40
0.11811
100
AcDbArc
 50
41.81031489571502
 51
180.0
  0
ARC
  5
AE1
330
1F
100
AcDbEntity
  8
0
100
AcDbCircle
 10
24.38930627120367
 20
23.0503407537681
 30
0.0
 40
0.11811
100
AcDbArc
 50
221.810314895715
 51
270.0
  0
ARC
  5
AE2
330
1F
100
AcDbEntity
  8
0
100
AcDbCircle
 10
24.21323827865528
 20
22.77475075376813
 30
0.0
 40
1.06299
100
AcDbArc
 50
180.0
 51
270.0
  0
ARC
  5
AE3
330
1F
100
AcDbEntity
  8
0
100
AcDbCircle
 10
23.82890833865524
 20
27.06608075376815
 30
0.0
 40
4.05511206119098
100
AcDbArc
 50
215.0907733990074
 51
262.4244571914398
  0
LINE
  5
AE4
330
1F
100
AcDbEntity
  8
0
100
AcDbLine
 10
24.21323827865528
 20
23.01097075376814
 30
0.0
 11
23.89827827865536
 21
23.01097075376814
 31
0.0
  0
ARC
  5
AE5
330
1F
100
AcDbEntity
  8
0
100
AcDbCircle
 10
23.03213827865527
 20
22.96962620824982
 30
0.0
 40
0.11811
100
AcDbArc
 50
0.0
 51
78.9932619820067
  0
ARC
  5
AE6
330
1F
100
AcDbEntity
  8
0
100
AcDbCircle
 10
26.35205021274366
 20
21.59365075376812
 30
0.0
 40
0.11811
100
AcDbArc
 50
355.0001137949025
 51
90.0
  0
LINE
  5
B00
330
1F
100
AcDbEntity
  8
0
100
AcDbLine
 10
14.65569833865531
 20
33.64160336641456
 30
0.0
 11
14.65569833865531
 21
34.40441333635479
 31
0.0
  0
LINE
  5
C12
330
1F
100
AcDbEntity
  8
0
  6
CENTER
 48
0.25
100
AcDbLine
 10
20.75937844247984
 20
59.25403561839423
 30
0.0
 11
39.50338299390462
 21
59.25403561839423
 31
0.0
  0
LINE
  5
C13
330
1F
100
AcDbEntity
  8
0
  6
Continuous
100
AcDbLine
 10
21.50239186564689
 20
55.00207561839423
 30
0.0
 11
21.50239186564689
 21
63.50599561839422
 31
0.0
  0
ARC
  5
C14
330
1F
100
AcDbEntity
  8
0
  6
Continuous
100
AcDbCircle
 10
21.15035864312206
 20
63.58473561839423
 30
0.0
 40
0.07874
100
AcDbArc
 50
180.0
 51
270.0
  0
LINE
  5
C15
330
1F
100
AcDbEntity
  8
0
  6
Continuous
100
AcDbLine
 10
21.15035864312206
 20
63.50599561839422
 30
0.0
 11
21.66376074015621
 21
63.50599561839422
 31
0.0
  0
ARC
  5
C16
330
1F
100
AcDbEntity
  8
0
  6
Continuous
100
AcDbCircle
 10
21.20232498801728
 20
63.68316061839422
 30
0.0
 40
0.019685
100
AcDbArc
 50
180.0
 51
270.0
  0
LINE
  5
C17
330
1F
100
AcDbEntity
  8
0
  6
Continuous
100
AcDbLine
 10
21.20232498801728
 20
63.66347561839422
 30
0.0
 11
21.65261687554694
 21
63.66347561839422
 31
0.0
  0
LINE
  5
C18
330
1F
100
AcDbEntity
  8
0
  6
Continuous
100
AcDbLine
 10
21.1826399880173
 20
64.18790143661522
 30
0.0
 11
21.1826399880173
 21
63.68316061839422
 31
0.0
  0
LINE
  5
C19
330
1F
100
AcDbEntity
  8
0
  6
Continuous
100
AcDbLine
 10
21.63822441699633
 20
64.06142834750403
 30
0.0
 11
21.20917942558727
 21
64.20636378648069
 31
0.0
  0
ARC
  5
C1A
330
1F
100
AcDbEntity
  8
0
  6
Continuous
100
AcDbCircle
 10
21.97712864312207
 20
64.15840855722738
 30
0.0
 40
0.7944886551047655
100
AcDbArc
 50
177.8323703251701
 51
180.0
  0
ARC
  5
C1B
330
1F
100
AcDbEntity
  8
0
  6
Continuous
100
AcDbCircle
 10
21.20287940276684
 20
64.18771415009118
 30
0.0
 40
0.019685
100
AcDbArc
 50
71.33454724872689
 51
177.8323703252125
  0
ARC
  5
C1C
330
1F
100
AcDbEntity
  8
0
  6
Continuous
100
AcDbCircle
 10
-46.24025460687805
 20
59.25403561839423
 30
0.0
 40
68.03700804776664
100
AcDbArc
 50
356.4169761570165
 51
3.583023842983495
  0
ARC
  5
C1D
330
1F
100
AcDbEntity
  8
0
  6
Continuous
100
AcDbCircle
 10
21.65261687554694
 20
63.68316061839422
 30
0.0
 40
0.019685
100
AcDbArc
 50
270.0
 51
3.293176902471099
  0
LINE
  5
C1E
330
1F
100
AcDbEntity
  8
0
  6
Continuous
100
AcDbLine
 10
21.67226936900916
 20
63.68429142594561
 30
0.0
 11
21.65157688763806
 21
64.04390951866588
 31
0.0
  0
ARC
  5
C1F
330
1F
100
AcDbEntity
  8
0
  6
Continuous
100
AcDbCircle
 10
21.63192439417584
 20
64.0427787111145
 30
0.0
 40
0.0196849999999993
100
AcDbArc
 50
3.293176902471099
 51
71.33454724872689
  0
ARC
  5
C20
330
1F
100
AcDbEntity
  8
0
  6
Continuous
100
AcDbCircle
 10
21.15035864312206
 20
54.92333561839422
 30
0.0
 40
0.07874
100
AcDbArc
 50
90.0
 51
180.0
  0
LINE
  5
C21
330
1F
100
AcDbEntity
  8
0
  6
Continuous
100
AcDbLine
 10
21.15035864312206
 20
55.00207561839423
 30
0.0
 11
21.66376074015621
 21
55.00207561839423
 31
0.0
  0
LINE
  5
C22
330
1F
100
AcDbEntity
  8
0
  6
Continuous
100
AcDbLine
 10
21.20232498801728
 20
54.84459561839424
 30
0.0
 11
21.65261687554694
 21
54.84459561839424
 31
0.0
  0
LINE
  5
C23
330
1F
100
AcDbEntity
  8
0
  6
Continuous
100
AcDbLine
 10
21.1826399880173
 20
54.32016980017323
 30
0.0
 11
21.1826399880173
 21
54.82491061839422
 31
0.0
  0
ARC
  5
C24
330
1F
100
AcDbEntity
  8
0
  6
Continuous
100
AcDbCircle
 10
21.97712864312207
 20
54.34966267956108
 30
0.0
 40
0.7944886551047655
100
AcDbArc
 50
180.0
 51
182.1676296748298
  0
LINE
  5
C25
330
1F
100
AcDbEntity
  8
0
  6
Continuous
100
AcDbLine
 10
21.67226936900916
 20
54.82377981084287
 30
0.0
 11
21.65157688763806
 21
54.46416171812259
 31
0.0
  0
LINE
  5
C26
330
1F
100
AcDbEntity
  8
0
  6
Continuous
100
AcDbLine
 10
21.63822441699633
 20
54.44664288928442
 30
0.0
 11
21.20917942558727
 21
54.30170745030776
 31
0.0
  0
ARC
  5
C27
330
1F
100
AcDbEntity
  8
0
  6
Continuous
100
AcDbCircle
 10
21.20232498801728
 20
54.82491061839422
 30
0.0
 40
0.019685
100
AcDbArc
 50
90.0
 51
180.0
  0
ARC
  5
C28
330
1F
100
AcDbEntity
  8
0
  6
Continuous
100
AcDbCircle
 10
21.65261687554694
 20
54.82491061839422
 30
0.0
 40
0.019685
100
AcDbArc
 50
356.7068230975289
 51
90.0
  0
ARC
  5
C29
330
1F
100
AcDbEntity
  8
0
  6
Continuous
100
AcDbCircle
 10
21.63192439417584
 20
54.46529252567396
 30
0.0
 40
0.0196849999999993
100
AcDbArc
 50
288.665452751273
 51
356.7068230975289
  0
ARC
  5
C2A
330
1F
100
AcDbEntity
  8
0
  6
Continuous
100
AcDbCircle
 10
21.20287940276684
 20
54.32035708669729
 30
0.0
 40
0.019685
100
AcDbArc
 50
182.1676296748298
 51
288.665452751273
  0
ARC
  5
C2B
330
1F
100
AcDbEntity
  8
0
  6
Continuous
100
AcDbCircle
 10
28.65034364312204
 20
49.52964561839422
 30
0.0
 40
16.63382500000001
100
AcDbArc
 50
77.87487661688546
 51
90.15683198586506
  0
ARC
  5
C2C
330
1F
100
AcDbEntity
  8
0
  6
Continuous
100
AcDbCircle
 10
29.86183442919567
 20
55.16868020263681
 30
0.0
 40
10.86612
100
AcDbArc
 50
44.32888412673434
 51
77.87487661688546
  0
ARC
  5
C2D
330
1F
100
AcDbEntity
  8
0
  6
Continuous
100
AcDbCircle
 10
23.36521507636355
 20
66.20151633087622
 30
0.0
 40
0.94488
100
AcDbArc
 50
259.0718032158064
 51
289.4894722258257
  0
ARC
  5
C2E
330
1F
100
AcDbEntity
  8
0
  6
Continuous
100
AcDbCircle
 10
28.64554808765469
 20
51.28160405507952
 30
0.0
 40
14.88185999999999
100
AcDbArc
 50
90.15683189974607
 51
109.4894720415483
  0
ARC
  5
C2F
330
1F
100
AcDbEntity
  8
0
  6
Continuous
100
AcDbCircle
 10
28.65034364312204
 20
54.24065981839422
 30
0.0
 40
11.811
100
AcDbArc
 50
89.99999727404011
 51
103.9661913660563
  0
ARC
  5
C30
330
1F
100
AcDbEntity
  8
0
  6
Continuous
100
AcDbCircle
 10
28.64554808765469
 20
67.22646718170896
 30
0.0
 40
14.88185999999999
100
AcDbArc
 50
250.5105279584517
 51
269.8431681002539
  0
ARC
  5
C31
330
1F
100
AcDbEntity
  8
0
  6
Continuous
100
AcDbCircle
 10
28.65034364312204
 20
64.26741141839423
 30
0.0
 40
11.811
100
AcDbArc
 50
256.0338086339437
 51
270.0000027259566
  0
ARC
  5
C32
330
1F
100
AcDbEntity
  8
0
  6
Continuous
100
AcDbCircle
 10
28.65034364312204
 20
68.97842561839422
 30
0.0
 40
16.63382500000001
100
AcDbArc
 50
269.843168014135
 51
282.1251233831146
  0
ARC
  5
C33
330
1F
100
AcDbEntity
  8
0
  6
Continuous
100
AcDbCircle
 10
23.36521507636355
 20
52.30655490591224
 30
0.0
 40
0.94488
100
AcDbArc
 50
70.51052777417433
 51
100.9281967841935
  0
ARC
  5
C34
330
1F
100
AcDbEntity
  8
0
  6
Continuous
100
AcDbCircle
 10
34.04403364312204
 20
59.25403561839423
 30
0.0
 40
4.958651500000004
100
AcDbArc
 50
314.8055206333294
 51
45.19448182080505
  0
ARC
  5
C35
330
1F
100
AcDbEntity
  8
0
  6
Continuous
100
AcDbCircle
 10
29.86183442919567
 20
63.33939103415167
 30
0.0
 40
10.86612
100
AcDbArc
 50
282.1251233831146
 51
315.6711148256843
  0
ARC
  5
C36
330
1F
100
AcDbEntity
  8
0
  6
Continuous
100
AcDbCircle
 10
34.04403364312204
 20
59.25403561839423
 30
0.0
 40
5.019675
100
AcDbArc
 50
315.6711136055025
 51
44.32888412673434
  0
ARC
  5
C37
330
1F
100
AcDbEntity
  8
0
  6
Continuous
100
AcDbCircle
 10
22.74983811480048
 20
63.78450804311881
 30
0.0
 40
0.9055099999999928
100
AcDbArc
 50
111.3114006173383
 51
182.3628512653269
  0
ARC
  5
C38
330
1F
100
AcDbEntity
  8
0
  6
Continuous
100
AcDbCircle
 10
-87.04538351212788
 20
59.25403561839423
 30
0.0
 40
108.9831421552499
100
AcDbArc
 50
357.6371487346731
 51
2.362851265326902
  0
ARC
  5
C39
330
1F
100
AcDbEntity
  8
0
  6
Continuous
100
AcDbCircle
 10
22.74983811480048
 20
54.72356319366963
 30
0.0
 40
0.9055099999999839
100
AcDbArc
 50
177.6371487346731
 51
248.6885993826617
  0
ARC
  5
C3A
330
1F
100
AcDbEntity
  8
0
  6
Continuous
100
AcDbCircle
 10
32.47961765305805
 20
38.84357869602144
 30
0.0
 40
27.67711
100
AcDbArc
 50
103.9661899192751
 51
111.311400306454
  0
ARC
  5
C3B
330
1F
100
AcDbEntity
  8
0
  6
Continuous
100
AcDbCircle
 10
32.47961765305805
 20
79.66449254076704
 30
0.0
 40
27.67711
100
AcDbArc
 50
248.6885989430256
 51
256.0338100807248
  0
ARC
  5
C3C
330
1F
100
AcDbEntity
  8
0
  6
Continuous
100
AcDbCircle
 10
22.5973667474499
 20
65.3072468965743
 30
0.0
 40
0.078739999999999
100
AcDbArc
 50
79.07180321580643
 51
109.4944007934685
  0
LINE
  5
C3D
330
1F
100
AcDbEntity
  8
0
  6
Continuous
100
AcDbLine
 10
22.61229417178357
 20
65.38455898878996
 30
0.0
 11
23.18608598435931
 21
65.27377122428837
 31
0.0
  0
ARC
  5
C3E
330
1F
100
AcDbEntity
  8
0
  6
Continuous
100
AcDbCircle
 10
27.86584479681598
 20
50.42490196843051
 30
0.0
 40
15.86610999999999
100
AcDbArc
 50
109.4944007934827
 51
113.1796212282974
  0
LINE
  5
C3F
330
1F
100
AcDbEntity
  8
0
  6
Continuous
100
AcDbLine
 10
22.59130064312207
 20
65.38861242081606
 30
0.0
 11
22.61229417178357
 21
65.38455898878996
 31
0.0
  0
ARC
  5
C40
330
1F
100
AcDbEntity
  8
0
  6
Continuous
100
AcDbCircle
 10
27.86584479681598
 20
50.42490196843051
 30
0.0
 40
15.86610999999999
100
AcDbArc
 50
109.4169963365553
 51
109.4944007934827
  0
ARC
  5
C41
330
1F
100
AcDbEntity
  8
0
  6
Continuous
100
AcDbCircle
 10
21.97712864312207
 20
64.17781345731984
 30
0.0
 40
0.9055099999999999
100
AcDbArc
 50
113.1796213873057
 51
180.0
  0
LINE
  5
C42
330
1F
100
AcDbEntity
  8
0
  6
Continuous
100
AcDbLine
 10
21.07161864312202
 20
64.17781345731984
 30
0.0
 11
21.07161864312202
 21
63.58473561839423
 31
0.0
  0
LINE
  5
C43
330
1F
100
AcDbEntity
  8
0
  6
Continuous
100
AcDbLine
 10
21.07161864312202
 20
54.33025777946864
 30
0.0
 11
21.07161864312202
 21
54.92333561839422
 31
0.0
  0
ARC
  5
C44
330
1F
100
AcDbEntity
  8
0
  6
Continuous
100
AcDbCircle
 10
21.97712864312207
 20
54.33025777946864
 30
0.0
 40
0.9055099999999999
100
AcDbArc
 50
180.0
 51
246.8203786126943
  0
ARC
  5
C45
330
1F
100
AcDbEntity
  8
0
  6
Continuous
100
AcDbCircle
 10
27.86584479681598
 20
68.08316926835797
 30
0.0
 40
15.86610999999999
100
AcDbArc
 50
246.8203787717021
 51
250.5055992065173
  0
ARC
  5
C46
330
1F
100
AcDbEntity
  8
0
  6
Continuous
100
AcDbCircle
 10
22.5973667474499
 20
53.20082434021415
 30
0.0
 40
0.078739999999999
100
AcDbArc
 50
250.505599206531
 51
280.9281967841936
  0
LINE
  5
C47
330
1F
100
AcDbEntity
  8
0
  6
Continuous
100
AcDbLine
 10
22.61229417178357
 20
53.12351224799849
 30
0.0
 11
23.18608598435931
 21
53.23430001250011
 31
0.0
  0
LINE
  5
C48
330
1F
100
AcDbEntity
  8
0
  6
Continuous
100
AcDbLine
 10
21.17950459906611
 20
53.71998125972112
 30
0.0
 11
21.27148044571909
 21
53.76279949885688
 31
0.0
  0
LINE
  5
C49
330
1F
100
AcDbEntity
  8
0
  6
Continuous
100
AcDbLine
 10
21.27148044571909
 20
53.76279949885688
 30
0.0
 11
21.21047499791179
 21
53.68173584224066
 31
0.0
  0
ARC
  5
C4A
330
1F
100
AcDbEntity
  8
0
  6
Continuous
100
AcDbCircle
 10
28.65034364312204
 20
68.99181141839424
 30
0.0
 40
16.53539999999999
100
AcDbArc
 50
270.00000193792
 51
282.9299013953859
  0
ARC
  5
C4B
330
1F
100
AcDbEntity
  8
0
  6
Continuous
100
AcDbCircle
 10
29.93651365364634
 20
63.38953503959714
 30
0.0
 40
10.78738
100
AcDbArc
 50
282.9299013953859
 51
314.8055206333294
  0
ARC
  5
C4C
330
1F
100
AcDbEntity
  8
0
  6
Continuous
100
AcDbCircle
 10
28.65034364312204
 20
49.51625981839422
 30
0.0
 40
16.53539999999999
100
AcDbArc
 50
77.07009860461413
 51
89.99999806208
  0
ARC
  5
C4D
330
1F
100
AcDbEntity
  8
0
  6
Continuous
100
AcDbCircle
 10
29.93651365364634
 20
55.11853619719133
 30
0.0
 40
10.78738
100
AcDbArc
 50
45.19448049476341
 51
77.07009860461413
  0
ARC
  5
C4E
330
1F
100
AcDbEntity
  8
0
  6
Continuous
100
AcDbCircle
 10
56.02831189188223
 20
-1.672268718076622
 30
0.0
 40
39.17065834232346
100
AcDbArc
 50
82.92660012951621
 51
98.15849792170084
  0
ARC
  5
C4F
330
1F
100
AcDbEntity
  8
0
  6
Continuous
100
AcDbCircle
 10
62.51479703677942
 20
36.4496581944336
 30
0.0
 40
0.3140228813873713
100
AcDbArc
 50
5.258555111951895
 51
56.55308137356858
  0
ARC
  5
C50
330
1F
100
AcDbEntity
  8
0
  6
Continuous
100
AcDbCircle
 10
61.8340035760127
 20
35.5648898682802
 30
0.0
 40
1.429762047382001
100
AcDbArc
 50
53.32948935082479
 51
71.72200186726501
  0
ARC
  5
C51
330
1F
100
AcDbEntity
  8
0
  6
Continuous
100
AcDbCircle
 10
60.8873801802645
 20
32.95021316636525
 30
0.0
 40
4.210143272313914
100
AcDbArc
 50
70.64918348656442
 51
79.5629783371929
  0
ARC
  5
C52
330
1F
100
AcDbEntity
  8
0
  6
Continuous
100
AcDbCircle
 10
60.16873457947029
 20
29.26142819961757
 30
0.0
 40
7.968174970784469
100
AcDbArc
 50
79.28603347674173
 51
85.08220924315017
  0
ARC
  5
C53
330
1F
100
AcDbEntity
  8
0
  6
Continuous
100
AcDbCircle
 10
24.07021678442002
 20
29.57778160303002
 30
0.0
 40
39.37000000000001
100
AcDbArc
 50
7.245879347668458
 51
8.343901473917982
  0
ARC
  5
C54
330
1F
100
AcDbEntity
  8
0
  6
Continuous
100
AcDbCircle
 10
63.02660747594084
 20
34.53081343107113
 30
0.0
 40
0.1
100
AcDbArc
 50
270.0
 51
7.245879347675021
  0
ARC
  5
C55
330
1F
100
AcDbEntity
  8
0
  6
Continuous
100
AcDbCircle
 10
62.92453948469328
 20
35.27642245002372
 30
0.0
 40
0.1
100
AcDbArc
 50
8.343901473908111
 51
89.99999999996743
  0
ARC
  5
C56
330
1F
100
AcDbEntity
  8
0
  6
Continuous
100
AcDbCircle
 10
24.07021678442002
 20
29.57778160303002
 30
0.0
 40
39.37000000000001
100
AcDbArc
 50
8.808458136680782
 51
10.09560616178414
  0
ARC
  5
C57
330
1F
100
AcDbEntity
  8
0
  6
Continuous
100
AcDbCircle
 10
62.87705802233885
 20
35.59126421587246
 30
0.0
 40
0.1
100
AcDbArc
 50
269.9999999999674
 51
8.808458136677502
  0
LINE
  5
C58
330
1F
100
AcDbEntity
  8
0
  6
Continuous
100
AcDbLine
 10
62.83063632711529
 20
36.47899721147536
 30
0.0
 11
62.82749827559619
 21
36.4784384876437
 31
0.0
  0
ARC
  5
C59
330
1F
100
AcDbEntity
  8
0
  6
Continuous
100
AcDbCircle
 10
51.89169781264386
 20
29.26142819961768
 30
0.0
 40
7.968174970784354
100
AcDbArc
 50
100.2242111647365
 51
100.7139665232582
  0
ARC
  5
C5A
330
1F
100
AcDbEntity
  8
0
  6
Continuous
100
AcDbCircle
 10
51.17305221184981
 20
32.95021316636451
 30
0.0
 40
4.210143272314642
100
AcDbArc
 50
100.4370216628071
 51
109.3508165134355
  0
ARC
  5
C5B
330
1F
100
AcDbEntity
  8
0
  6
Continuous
100
AcDbCircle
 10
50.22642881610168
 20
35.56488986827986
 30
0.0
 40
1.429762047382381
100
AcDbArc
 50
108.2779981327349
 51
126.6705106491752
  0
ARC
  5
C5C
330
1F
100
AcDbEntity
  8
0
  6
Continuous
100
AcDbCircle
 10
49.54563535533484
 20
36.4496581944336
 30
0.0
 40
0.3140228813874047
100
AcDbArc
 50
123.4469186264309
 51
174.7414448880481
  0
ARC
  5
C5D
330
1F
100
AcDbEntity
  8
0
  6
Continuous
100
AcDbCircle
 10
71.22745398185131
 20
32.28667759314735
 30
0.0
 40
22.39039444724391
100
AcDbArc
 50
169.2098487670397
 51
171.4731195043488
  0
ARC
  5
C5E
330
1F
100
AcDbEntity
  8
0
  6
Continuous
100
AcDbCircle
 10
49.1833743697753
 20
35.59126421587249
 30
0.0
 40
0.1
100
AcDbArc
 50
171.1915418633225
 51
270.0
  0
ARC
  5
C5F
330
1F
100
AcDbEntity
  8
0
  6
Continuous
100
AcDbCircle
 10
87.99021560769412
 20
29.57778160303002
 30
0.0
 40
39.37000000000001
100
AcDbArc
 50
171.656098526082
 51
172.7541206523315
  0
ARC
  5
C60
330
1F
100
AcDbEntity
  8
0
  6
Continuous
100
AcDbCircle
 10
49.03382491617331
 20
34.53081343107115
 30
0.0
 40
0.1
100
AcDbArc
 50
172.7541206523249
 51
270.0
  0
ARC
  5
C61
330
1F
100
AcDbEntity
  8
0
  6
Continuous
100
AcDbCircle
 10
49.13589290742088
 20
35.27642245002374
 30
0.0
 40
0.1
100
AcDbArc
 50
89.99999999996743
 51
171.6560985260754
  0
LINE
  5
C62
330
1F
100
AcDbEntity
  8
0
  6
CENTER
 48
0.25
100
AcDbLine
 10
20.78977765702443
 20
35.1172478363778
 30
0.0
 11
22.52205765702443
 21
35.1172478363778
 31
0.0
  0
ARC
  5
C63
330
1F
100
AcDbEntity
  8
0
  6
Continuous
100
AcDbCircle
 10
38.78187660952686
 20
35.74878495124756
 30
0.0
 40
0.1574799999999942
100
AcDbArc
 50
9.960278375026975
 51
80.15117894448456
  0
ARC
  5
C64
330
1F
100
AcDbEntity
  8
0
  6
Continuous
100
AcDbCircle
 10
25.34040794163097
 20
-41.67562573169128
 30
0.0
 40
78.74000000000001
100
AcDbArc
 50
80.15117894448456
 51
84.10501628932909
  0
ARC
  5
C65
330
1F
100
AcDbEntity
  8
0
  6
Continuous
100
AcDbCircle
 10
38.93934765702447
 20
35.53063283637781
 30
0.0
 40
0.0393699999999998
100
AcDbArc
 50
269.5203589917609
 51
9.607589859040283
  0
ARC
  5
C66
330
1F
100
AcDbEntity
  8
0
  6
Continuous
100
AcDbCircle
 10
0.1603715554759759
 20
28.96637593156114
 30
0.0
 40
39.37000000000001
100
AcDbArc
 50
9.60758985907991
 51
9.960278313173015
  0
ARC
  5
C67
330
1F
100
AcDbEntity
  8
0
  6
Continuous
100
AcDbCircle
 10
21.90596826448733
 20
37.41797056900012
 30
0.0
 40
0.0787400000000049
100
AcDbArc
 50
87.46704770502551
 51
159.0131342496699
  0
ARC
  5
C68
330
1F
100
AcDbEntity
  8
0
  6
Continuous
100
AcDbCircle
 10
23.77792811602249
 20
35.41306112048682
 30
0.0
 40
0.7873999999999994
100
AcDbArc
 50
85.1211281026954
 51
115.0433910525455
  0
ARC
  5
C69
330
1F
100
AcDbEntity
  8
0
  6
Continuous
100
AcDbCircle
 10
40.58689215785203
 20
232.3343667392555
 30
0.0
 40
196.85
100
AcDbArc
 50
265.1211280257298
 51
269.5203589917609
  0
LINE
  5
C6A
330
1F
100
AcDbEntity
  8
0
  6
CENTER
 48
0.25
100
AcDbLine
 10
28.56535265702444
 20
32.94824546218277
 30
0.0
 11
28.56535265702444
 21
37.35425019870803
 31
0.0
  0
ARC
  5
C6B
330
1F
100
AcDbEntity
  8
0
  6
Continuous
100
AcDbCircle
 10
21.65591765702446
 20
35.1172478363778
 30
0.0
 40
0.669289999999999
100
AcDbArc
 50
159.0131342496699
 51
299.6363270915253
  0
LINE
  5
C6C
330
1F
100
AcDbEntity
  8
0
  6
Continuous
100
AcDbLine
 10
22.46178218133683
 20
34.80569545378484
 30
0.0
 11
21.98687691101928
 21
34.53551329528952
 31
0.0
  0
ARC
  5
C6D
330
1F
100
AcDbEntity
  8
0
  6
DASHED
100
AcDbCircle
 10
21.65591765702446
 20
35.1172478363778
 30
0.0
 40
0.1732279999999998
100
AcDbArc
 50
47.01411391977851
 51
132.9858860802215
  0
ARC
  5
C6E
330
1F
100
AcDbEntity
  8
0
  6
DASHED
100
AcDbCircle
 10
21.65591765702446
 20
35.1172478363778
 30
0.0
 40
0.1732279999999998
100
AcDbArc
 50
227.0141139197785
 51
312.9858860802215
  0
LINE
  5
C6F
330
1F
100
AcDbEntity
  8
0
  6
DASHED
100
AcDbLine
 10
21.77402765702446
 20
34.99052779895672
 30
0.0
 11
21.77402765702446
 21
35.24396787379888
 31
0.0
  0
LINE
  5
C70
330
1F
100
AcDbEntity
  8
0
  6
DASHED
100
AcDbLine
 10
21.53780765702446
 20
34.99052779895672
 30
0.0
 11
21.53780765702446
 21
35.24396787379888
 31
0.0
  0
LINE
  5
C71
330
1F
100
AcDbEntity
  8
0
  6
Continuous
100
AcDbLine
 10
21.65591765702446
 20
36.6600247183587
 30
0.0
 11
21.65591765702446
 21
36.70310487949149
 31
0.0
  0
LINE
  5
C72
330
1F
100
AcDbEntity
  8
0
  6
PHANTOM
100
AcDbLine
 10
21.7319486722066
 20
37.18417283637788
 30
0.0
 11
22.21145336803953
 21
37.11786844812806
 31
0.0
  0
LINE
  5
C73
330
1F
100
AcDbEntity
  8
0
  6
PHANTOM
100
AcDbLine
 10
22.21145336803953
 20
37.11786844812806
 30
0.0
 11
22.58036168641665
 21
37.0704603583315
 31
0.0
  0
LINE
  5
C74
330
1F
100
AcDbEntity
  8
0
  6
PHANTOM
100
AcDbLine
 10
22.58036168641665
 20
37.0704603583315
 30
0.0
 11
22.85699758927016
 21
37.03891117841016
 31
0.0
  0
LINE
  5
C75
330
1F
100
AcDbEntity
  8
0
  6
PHANTOM
100
AcDbLine
 10
22.85699758927016
 20
37.03891117841016
 30
0.0
 11
23.19856730947144
 21
37.00412094273125
 31
0.0
  0
LINE
  5
C76
330
1F
100
AcDbEntity
  8
0
  6
PHANTOM
100
AcDbLine
 10
23.19856730947144
 20
37.00412094273125
 30
0.0
 11
23.36721634943346
 21
36.98730658453039
 31
0.0
  0
LINE
  5
C77
330
1F
100
AcDbEntity
  8
0
  6
PHANTOM
100
AcDbLine
 10
23.36721634943346
 20
36.98730658453039
 30
0.0
 11
23.97726140076735
 21
36.9223797172038
 31
0.0
  0
LINE
  5
C78
330
1F
100
AcDbEntity
  8
0
  6
PHANTOM
100
AcDbLine
 10
23.97726140076735
 20
36.9223797172038
 30
0.0
 11
24.15406429695359
 21
36.90316167023067
 31
0.0
  0
LINE
  5
C79
330
1F
100
AcDbEntity
  8
0
  6
PHANTOM
100
AcDbLine
 10
24.15406429695359
 20
36.90316167023067
 30
0.0
 11
24.53785826182535
 21
36.86185315823991
 31
0.0
  0
LINE
  5
C7A
330
1F
100
AcDbEntity
  8
0
  6
PHANTOM
100
AcDbLine
 10
24.53785826182535
 20
36.86185315823991
 30
0.0
 11
24.94090806434217
 21
36.81839981062578
 31
0.0
  0
LINE
  5
C7B
330
1F
100
AcDbEntity
  8
0
  6
PHANTOM
100
AcDbLine
 10
24.94090806434217
 20
36.81839981062578
 30
0.0
 11
25.09888232660005
 21
36.80105169667275
 31
0.0
  0
LINE
  5
C7C
330
1F
100
AcDbEntity
  8
0
  6
PHANTOM
100
AcDbLine
 10
25.09888232660005
 20
36.80105169667275
 30
0.0
 11
25.7277498521663
 21
36.73334578697225
 31
0.0
  0
LINE
  5
C7D
330
1F
100
AcDbEntity
  8
0
  6
PHANTOM
100
AcDbLine
 10
25.7277498521663
 20
36.73334578697225
 30
0.0
 11
26.44822426541786
 21
36.65829789993822
 31
0.0
  0
LINE
  5
C7E
330
1F
100
AcDbEntity
  8
0
  6
PHANTOM
100
AcDbLine
 10
26.44822426541786
 20
36.65829789993822
 30
0.0
 11
27.30147495698473
 21
36.56936702959729
 31
0.0
  0
LINE
  5
C7F
330
1F
100
AcDbEntity
  8
0
  6
PHANTOM
100
AcDbLine
 10
27.30147495698473
 20
36.56936702959729
 30
0.0
 11
27.38725958214802
 21
36.56032762350466
 31
0.0
  0
LINE
  5
C80
330
1F
100
AcDbEntity
  8
0
  6
PHANTOM
100
AcDbLine
 10
27.38725958214802
 20
36.56032762350466
 30
0.0
 11
27.76372328624204
 21
36.52131399480234
 31
0.0
  0
LINE
  5
C81
330
1F
100
AcDbEntity
  8
0
  6
PHANTOM
100
AcDbLine
 10
27.76372328624204
 20
36.52131399480234
 30
0.0
 11
28.07033162546666
 21
36.49203067671758
 31
0.0
  0
LINE
  5
C82
330
1F
100
AcDbEntity
  8
0
  6
PHANTOM
100
AcDbLine
 10
28.07033162546666
 20
36.49203067671758
 30
0.0
 11
28.42991110495329
 21
36.46075225042094
 31
0.0
  0
LINE
  5
C83
330
1F
100
AcDbEntity
  8
0
  6
PHANTOM
100
AcDbLine
 10
28.42991110495329
 20
36.46075225042094
 30
0.0
 11
28.87533137388827
 21
36.42476862142044
 31
0.0
  0
LINE
  5
C84
330
1F
100
AcDbEntity
  8
0
  6
PHANTOM
100
AcDbLine
 10
28.87533137388827
 20
36.42476862142044
 30
0.0
 11
29.58860092753825
 21
36.37012038877094
 31
0.0
  0
LINE
  5
C85
330
1F
100
AcDbEntity
  8
0
  6
PHANTOM
100
AcDbLine
 10
29.58860092753825
 20
36.37012038877094
 30
0.0
 11
30.44650093521425
 21
36.30672390982975
 31
0.0
  0
LINE
  5
C86
330
1F
100
AcDbEntity
  8
0
  6
PHANTOM
100
AcDbLine
 10
30.44650093521425
 20
36.30672390982975
 30
0.0
 11
31.30564095124429
 21
36.24516738500214
 31
0.0
  0
LINE
  5
C87
330
1F
100
AcDbEntity
  8
0
  6
PHANTOM
100
AcDbLine
 10
31.30564095124429
 20
36.24516738500214
 30
0.0
 11
32.02345142631582
 21
36.19567319698024
 31
0.0
  0
LINE
  5
C88
330
1F
100
AcDbEntity
  8
0
  6
PHANTOM
100
AcDbLine
 10
32.02345142631582
 20
36.19567319698024
 30
0.0
 11
32.44620195178651
 21
36.16815637559526
 31
0.0
  0
LINE
  5
C89
330
1F
100
AcDbEntity
  8
0
  6
PHANTOM
100
AcDbLine
 10
32.44620195178651
 20
36.16815637559526
 30
0.0
 11
32.80042854627372
 21
36.14690001260968
 31
0.0
  0
LINE
  5
C8A
330
1F
100
AcDbEntity
  8
0
  6
PHANTOM
100
AcDbLine
 10
32.80042854627372
 20
36.14690001260968
 30
0.0
 11
33.10574292559015
 21
36.13062098266354
 31
0.0
  0
LINE
  5
C8B
330
1F
100
AcDbEntity
  8
0
  6
PHANTOM
100
AcDbLine
 10
33.10574292559015
 20
36.13062098266354
 30
0.0
 11
33.46326501841093
 21
36.11392517717837
 31
0.0
  0
LINE
  5
C8C
330
1F
100
AcDbEntity
  8
0
  6
PHANTOM
100
AcDbLine
 10
33.46326501841093
 20
36.11392517717837
 30
0.0
 11
33.59769244775355
 21
36.10783856793708
 31
0.0
  0
LINE
  5
C8D
330
1F
100
AcDbEntity
  8
0
  6
PHANTOM
100
AcDbLine
 10
33.59769244775355
 20
36.10783856793708
 30
0.0
 11
34.63001123411674
 21
36.05850871260046
 31
0.0
  0
LINE
  5
C8E
330
1F
100
AcDbEntity
  8
0
  6
PHANTOM
100
AcDbLine
 10
34.63001123411674
 20
36.05850871260046
 30
0.0
 11
35.17201647202016
 21
36.03225432554103
 31
0.0
  0
LINE
  5
C8F
330
1F
100
AcDbEntity
  8
0
  6
PHANTOM
100
AcDbLine
 10
35.17201647202016
 20
36.03225432554103
 30
0.0
 11
35.98034881869192
 21
35.99432908362727
 31
0.0
  0
LINE
  5
C90
330
1F
100
AcDbEntity
  8
0
  6
PHANTOM
100
AcDbLine
 10
35.98034881869192
 20
35.99432908362727
 30
0.0
 11
36.7463663291516
 21
35.96048275538564
 31
0.0
  0
LINE
  5
C91
330
1F
100
AcDbEntity
  8
0
  6
PHANTOM
100
AcDbLine
 10
36.7463663291516
 20
35.96048275538564
 30
0.0
 11
37.6573775736271
 21
35.92291898865943
 31
0.0
  0
LINE
  5
C92
330
1F
100
AcDbEntity
  8
0
  6
PHANTOM
100
AcDbLine
 10
37.6573775736271
 20
35.92291898865943
 30
0.0
 11
38.3207825925612
 21
35.89851208712358
 31
0.0
  0
LINE
  5
C93
330
1F
100
AcDbEntity
  8
0
  6
PHANTOM
100
AcDbLine
 10
38.3207825925612
 20
35.89851208712358
 30
0.0
 11
38.5439306460189
 21
35.89188987921204
 31
0.0
  0
LINE
  5
C94
330
1F
100
AcDbEntity
  8
0
  6
PHANTOM
100
AcDbLine
 10
38.5439306460189
 20
35.89188987921204
 30
0.0
 11
38.72595776924281
 21
35.88792266005888
 31
0.0
  0
ARC
  5
C95
330
1F
100
AcDbEntity
  8
0
  6
Continuous
100
AcDbCircle
 10
33.44744431864659
 20
35.62905685790699
 30
0.0
 40
0.1181100000000003
100
AcDbArc
 50
212.2408423748062
 51
267.613203049261
  0
ARC
  5
C96
330
1F
100
AcDbEntity
  8
0
  6
Continuous
100
AcDbCircle
 10
41.64042612546499
 20
232.190272747729
 30
0.0
 40
196.85
100
AcDbArc
 50
267.613203049261
 51
267.9065453056707
  0
ARC
  5
C97
330
1F
100
AcDbEntity
  8
0
  6
Continuous
100
AcDbCircle
 10
34.45389909561304
 20
35.58968685790697
 30
0.0
 40
0.1181100000000003
100
AcDbArc
 50
267.9065453056707
 51
325.4719629009766
  0
LINE
  5
C98
330
1F
100
AcDbEntity
  8
0
  6
CENTER
 48
0.25
100
AcDbLine
 10
21.65591765702441
 20
34.03247355908292
 30
0.0
 11
21.65591765702441
 21
36.20202211367268
 31
0.0
  0
ARC
  5
C99
330
1F
100
AcDbEntity
  8
0
  6
Continuous
100
AcDbCircle
 10
13.20986731289808
 20
-159.1610379497819
 30
0.0
 40
196.85
100
AcDbArc
 50
84.10501524020258
 51
87.46704770502551
  0
LINE
  5
C9A
330
1F
100
AcDbEntity
  8
0
  6
Continuous
100
AcDbLine
 10
21.83245167508243
 20
37.44617160944682
 30
0.0
 11
21.03102664708301
 21
35.35695668017459
 31
0.0
  0
ARC
  5
C9B
330
1F
100
AcDbEntity
  8
0
  6
Continuous
100
AcDbCircle
 10
34.64850868865533
 20
35.45579513039587
 30
0.0
 40
0.1181100000000005
100
AcDbArc
 50
88.27233009579932
 51
145.4719629009766
  0
ARC
  5
C9C
330
1F
100
AcDbEntity
  8
0
  6
Continuous
100
AcDbCircle
 10
33.24764634842715
 20
35.5030383691992
 30
0.0
 40
0.1181100000000006
100
AcDbArc
 50
32.24084237480626
 51
87.86460267484597
  0
LINE
  5
C9D
330
1F
100
AcDbEntity
  8
0
  6
Continuous
100
AcDbLine
 10
21.09271025600568
 20
62.85733926740966
 30
0.0
 11
21.50239186564689
 21
62.85733926740963
 31
0.0
  0
LINE
  5
C9E
330
1F
100
AcDbEntity
  8
0
  6
Continuous
100
AcDbLine
 10
21.05334025600566
 20
63.52662926740967
 30
0.0
 11
21.05334025600566
 21
62.89670926740967
 31
0.0
  0
ARC
  5
C9F
330
1F
100
AcDbEntity
  8
0
  6
Continuous
100
AcDbCircle
 10
21.09271025600568
 20
63.52662926740967
 30
0.0
 40
0.03937
100
AcDbArc
 50
90.0
 51
180.0
  0
ARC
  5
CA0
330
1F
100
AcDbEntity
  8
0
  6
Continuous
100
AcDbCircle
 10
21.09271025600568
 20
62.89670926740967
 30
0.0
 40
0.03937
100
AcDbArc
 50
180.0
 51
270.0
  0
ARC
  5
CA1
330
1F
100
AcDbEntity
  8
0
  6
Continuous
100
AcDbCircle
 10
28.63206525600567
 20
49.70775926740967
 30
0.0
 40
16.77162000000001
100
AcDbArc
 50
78.16381752157662
 51
93.52298253665912
  0
ARC
  5
CA2
330
1F
100
AcDbEntity
  8
0
  6
Continuous
100
AcDbCircle
 10
33.87855384182775
 20
59.31526977871681
 30
0.0
 40
5.304987118667767
100
AcDbArc
 50
317.7327480286233
 51
42.2672609260812
  0
ARC
  5
CA3
330
1F
100
AcDbEntity
  8
0
  6
Continuous
100
AcDbCircle
 10
27.84756640969956
 20
50.54396061744594
 30
0.0
 40
15.86610999999999
100
AcDbArc
 50
97.07444465178797
 51
108.7370903564484
  0
ARC
  5
CA4
330
1F
100
AcDbEntity
  8
0
  6
Continuous
100
AcDbCircle
 10
29.84336698156302
 20
55.48769684316789
 30
0.0
 40
10.86612
100
AcDbArc
 50
42.89178310275928
 51
78.16381752157662
  0
ARC
  5
CA5
330
1F
100
AcDbEntity
  8
0
  6
Continuous
100
AcDbCircle
 10
34.02575525600567
 20
59.37309426740966
 30
0.0
 40
5.03936
100
AcDbArc
 50
316.397421431581
 51
43.60257856841893
  0
ARC
  5
CA6
330
1F
100
AcDbEntity
  8
0
  6
Continuous
100
AcDbCircle
 10
28.63206525600567
 20
49.70775926740967
 30
0.0
 40
16.63382500000001
100
AcDbArc
 50
78.25254004636924
 51
90.15683198586506
  0
ARC
  5
CA7
330
1F
100
AcDbEntity
  8
0
  6
Continuous
100
AcDbCircle
 10
22.77625113366055
 20
65.49463996281057
 30
0.0
 40
0.0787399999999983
100
AcDbArc
 50
108.7370903564484
 51
169.8949048991216
  0
ARC
  5
CA8
330
1F
100
AcDbEntity
  8
0
  6
Continuous
100
AcDbCircle
 10
23.22422813944975
 20
65.27214648147768
 30
0.0
 40
0.1968499999999994
100
AcDbArc
 50
355.9548627793198
 51
80.91902316414833
  0
LINE
  5
CA9
330
1F
100
AcDbEntity
  8
0
  6
Continuous
100
AcDbLine
 10
22.7068823588976
 20
65.55418426740965
 30
0.0
 11
23.25529701835974
 21
65.4665292154416
 31
0.0
  0
LINE
  5
CAA
330
1F
100
AcDbEntity
  8
0
  6
Continuous
100
AcDbLine
 10
22.67451101814312
 20
65.37254615561352
 30
0.0
 11
22.69873258150342
 21
65.50845523231465
 31
0.0
  0
ARC
  5
CAB
330
1F
100
AcDbEntity
  8
0
  6
Continuous
100
AcDbCircle
 10
27.84756640969956
 20
68.08657962274779
 30
0.0
 40
15.86610999999999
100
AcDbArc
 50
251.2629096435516
 51
262.9255553482121
  0
LINE
  5
CAC
330
1F
100
AcDbEntity
  8
0
  6
Continuous
100
AcDbLine
 10
22.7068823588976
 20
53.07635597278405
 30
0.0
 11
23.25529701835974
 21
53.16401102475214
 31
0.0
  0
ARC
  5
CAD
330
1F
100
AcDbEntity
  8
0
  6
Continuous
100
AcDbCircle
 10
22.77625113366055
 20
53.13590027738317
 30
0.0
 40
0.0787399999999983
100
AcDbArc
 50
190.1050951008784
 51
251.2629096435516
  0
LINE
  5
CAE
330
1F
100
AcDbEntity
  8
0
  6
Continuous
100
AcDbLine
 10
22.69561123731161
 20
53.13959911301188
 30
0.0
 11
22.69873258150342
 21
53.12208500787909
 31
0.0
  0
ARC
  5
CAF
330
1F
100
AcDbEntity
  8
0
  6
Continuous
100
AcDbCircle
 10
29.84336753921282
 20
63.14284332781887
 30
0.0
 40
10.86612
100
AcDbArc
 50
281.8361824784234
 51
317.1082168972408
  0
ARC
  5
CB0
330
1F
100
AcDbEntity
  8
0
  6
Continuous
100
AcDbCircle
 10
28.63206581365695
 20
68.9227809035774
 30
0.0
 40
16.77162000000001
100
AcDbArc
 50
266.4770174633409
 51
281.8361824784234
  0
ARC
  5
CB1
330
1F
100
AcDbEntity
  8
0
  6
Continuous
100
AcDbCircle
 10
23.22422813944975
 20
53.35839375871604
 30
0.0
 40
0.1968499999999994
100
AcDbArc
 50
279.0809768358516
 51
326.9814972167782
  0
ARC
  5
CB2
330
1F
100
AcDbEntity
  8
0
  6
Continuous
100
AcDbCircle
 10
29.30219570091056
 20
38.82287813223363
 30
0.0
 40
27.67711
100
AcDbArc
 50
93.52298253665912
 51
97.0744434885084
  0
ARC
  5
CB3
330
1F
100
AcDbEntity
  8
0
  6
Continuous
100
AcDbCircle
 10
29.30219625856326
 20
79.80766203875337
 30
0.0
 40
27.67711
100
AcDbArc
 50
262.9255541849226
 51
266.4770174633409
  0
ARC
  5
CB4
330
1F
100
AcDbEntity
  8
0
  6
Continuous
100
AcDbCircle
 10
29.8063604641883
 20
55.35465679889227
 30
0.0
 40
10.86612
100
AcDbArc
 50
43.60257856841893
 51
78.25254004636924
  0
ARC
  5
CB5
330
1F
100
AcDbEntity
  8
0
  6
Continuous
100
AcDbCircle
 10
29.8063604641883
 20
63.39153173592706
 30
0.0
 40
10.86612
100
AcDbArc
 50
281.7474599536274
 51
316.397421431581
  0
ARC
  5
CB6
330
1F
100
AcDbEntity
  8
0
  6
Continuous
100
AcDbCircle
 10
28.62726970053832
 20
51.45971770409497
 30
0.0
 40
14.88186
100
AcDbArc
 50
90.15683189974607
 51
110.6300713579044
  0
ARC
  5
CB7
330
1F
100
AcDbEntity
  8
0
  6
Continuous
100
AcDbCircle
 10
28.62726970053832
 20
67.17082253609877
 30
0.0
 40
14.88186
100
AcDbArc
 50
249.8233407581372
 51
269.8431681002539
  0
ARC
  5
CB8
330
1F
100
AcDbEntity
  8
0
  6
Continuous
100
AcDbCircle
 10
28.63206525600567
 20
69.03842926740967
 30
0.0
 40
16.63382500000001
100
AcDbArc
 50
269.843168014135
 51
281.7474599536274
  0
ARC
  5
CB9
330
1F
100
AcDbEntity
  8
0
  6
Continuous
100
AcDbCircle
 10
21.59686265702446
 20
35.90242806824998
 30
0.0
 40
0.11811
100
AcDbArc
 50
274.3012223046991
 51
0.0
  0
ARC
  5
CBA
330
1F
100
AcDbEntity
  8
0
  6
Continuous
100
AcDbCircle
 10
21.65591765702446
 20
35.11724575376817
 30
0.0
 40
0.6692900000000007
100
AcDbArc
 50
94.30122230469908
 51
270.0
  0
LINE
  5
CBB
330
1F
100
AcDbEntity
  8
0
  6
Continuous
100
AcDbLine
 10
37.02337495202629
 20
34.42827075376817
 30
0.0
 11
39.03777265702443
 21
34.42827075376817
 31
0.0
  0
ARC
  5
CBC
330
1F
100
AcDbEntity
  8
0
  6
Continuous
100
AcDbCircle
 10
21.79371265702444
 20
36.19992075376817
 30
0.0
 40
0.0787399999999994
100
AcDbArc
 50
77.44759233358914
 51
180.0
  0
LINE
  5
CBD
330
1F
100
AcDbEntity
  8
0
  6
Continuous
100
AcDbLine
 10
21.71497265702446
 20
35.90242806824998
 30
0.0
 11
21.71497265702446
 21
36.19992075376817
 31
0.0
  0
ARC
  5
CBE
330
1F
100
AcDbEntity
  8
0
  6
Continuous
100
AcDbCircle
 10
26.7369360949363
 20
61.98727075376817
 30
0.0
 40
27.559
100
AcDbArc
 50
262.6895703800273
 51
264.2294994842853
  0
LINE
  5
CBF
330
1F
100
AcDbEntity
  8
0
  6
Continuous
100
AcDbLine
 10
21.65591765702446
 20
34.44795575376816
 30
0.0
 11
22.48268765702441
 21
34.44795575376816
 31
0.0
  0
ARC
  5
CC0
330
1F
100
AcDbEntity
  8
0
  6
Continuous
100
AcDbCircle
 10
23.18009032881604
 20
34.26178995566417
 30
0.0
 40
0.3937000000000177
100
AcDbArc
 50
82.68957054616651
 51
114.9774430808784
  0
ARC
  5
CC1
330
1F
100
AcDbEntity
  8
0
  6
Continuous
100
AcDbCircle
 10
22.06880100423568
 20
36.64740923115485
 30
0.0
 40
2.23805669288003
100
AcDbArc
 50
280.6571249581872
 51
294.9774430808784
  0
ARC
  5
CC2
330
1F
100
AcDbEntity
  8
0
  6
Continuous
100
AcDbCircle
 10
39.03777265702443
 20
34.50701075376816
 30
0.0
 40
0.0787400000000449
100
AcDbArc
 50
255.3997188709601
 51
7.183788055980627
  0
ARC
  5
CC3
330
1F
100
AcDbEntity
  8
0
  6
Continuous
100
AcDbCircle
 10
40.73649062763791
 20
232.2154808523064
 30
0.0
 40
196.85
100
AcDbArc
 50
264.4801253147293
 51
269.3958951756648
  0
ARC
  5
CC4
330
1F
100
AcDbEntity
  8
0
  6
Continuous
100
AcDbCircle
 10
38.0255048915282
 20
30.62094825831892
 30
0.0
 40
3.937
100
AcDbArc
 50
75.39966332744033
 51
113.264963549857
  0
ARC
  5
CC5
330
1F
100
AcDbEntity
  8
0
  6
Continuous
100
AcDbCircle
 10
24.47087265702446
 20
34.31016075376817
 30
0.0
 40
0.0787400000000007
100
AcDbArc
 50
236.8363691737886
 51
270.0
  0
ARC
  5
CC6
330
1F
100
AcDbEntity
  8
0
  6
Continuous
100
AcDbCircle
 10
29.16587574398834
 20
41.49479704859894
 30
0.0
 40
8.661400000000003
100
AcDbArc
 50
227.0636104594738
 51
236.8362608842053
  0
ARC
  5
CC7
330
1F
100
AcDbEntity
  8
0
  6
Continuous
100
AcDbCircle
 10
21.73465765702444
 20
36.05706003141376
 30
0.0
 40
0.019685
100
AcDbArc
 50
180.0
 51
253.0936679297139
  0
ARC
  5
CC8
330
1F
100
AcDbEntity
  8
0
  6
Continuous
100
AcDbCircle
 10
20.5840222645853
 20
32.27137721547533
 30
0.0
 40
3.936999999999997
100
AcDbArc
 50
47.06360827380542
 51
73.09366792971101
  0
LINE
  5
CC9
330
1F
100
AcDbEntity
  8
0
  6
Continuous
100
AcDbLine
 10
24.47087265702446
 20
34.23142075376816
 30
0.0
 11
36.43935265702446
 21
34.23142075376816
 31
0.0
  0
LINE
  5
CCA
330
1F
100
AcDbEntity
  8
0
  6
Continuous
100
AcDbLine
 10
22.65926307046418
 20
35.19840126088713
 30
0.0
 11
22.48268765702441
 21
34.44795575376816
 31
0.0
  0
ARC
  5
CCB
330
1F
100
AcDbEntity
  8
0
  6
Continuous
100
AcDbCircle
 10
23.00417397571981
 20
35.11724575376815
 30
0.0
 40
0.3543299999999976
100
AcDbArc
 50
107.2277136169001
 51
166.7594800847903
  0
LINE
  5
CCC
330
1F
100
AcDbEntity
  8
0
  6
Continuous
100
AcDbLine
 10
22.80686679160031
 20
35.4115578737952
 30
0.0
 11
23.11254756957474
 21
34.66763882328226
 31
0.0
  0
LINE
  5
CCD
330
1F
100
AcDbEntity
  8
0
  6
Continuous
100
AcDbLine
 10
21.77402765702446
 20
34.9905257163471
 30
0.0
 11
21.77402765702446
 21
35.24396579118926
 31
0.0
  0
LINE
  5
CCE
330
1F
100
AcDbEntity
  8
0
  6
Continuous
100
AcDbLine
 10
21.53780765702446
 20
34.9905257163471
 30
0.0
 11
21.53780765702446
 21
35.24396579118926
 31
0.0
  0
ARC
  5
CCF
330
1F
100
AcDbEntity
  8
0
  6
Continuous
100
AcDbCircle
 10
21.65591765702446
 20
35.11724575376817
 30
0.0
 40
0.1732280000000025
100
AcDbArc
 50
47.01411391977851
 51
132.9858860802215
  0
ARC
  5
CD0
330
1F
100
AcDbEntity
  8
0
  6
Continuous
100
AcDbCircle
 10
21.65591765702446
 20
35.11724575376817
 30
0.0
 40
0.1732280000000025
100
AcDbArc
 50
227.0141139197785
 51
312.9858860802215
  0
LINE
  5
CD1
330
1F
100
AcDbEntity
  8
0
  6
CENTER
 48
0.25
100
AcDbLine
 10
20.78977765702443
 20
35.11724575376817
 30
0.0
 11
22.52205765702443
 21
35.11724575376817
 31
0.0
  0
ARC
  5
CD2
330
1F
100
AcDbEntity
  8
0
  6
Continuous
100
AcDbCircle
 10
0.0549441419992007
 20
29.59354015186824
 30
0.0
 40
39.37000000000001
100
AcDbArc
 50
7.183788055980627
 51
7.94767822632519
  0
ARC
  5
CD3
330
1F
100
AcDbEntity
  8
0
  6
Continuous
100
AcDbCircle
 10
38.65686689180136
 20
34.98274433321995
 30
0.0
 40
0.3937000000000485
100
AcDbArc
 50
7.947652212831066
 51
89.76963867181734
  0
ARC
  5
CD4
330
1F
100
AcDbEntity
  8
0
  6
Continuous
100
AcDbCircle
 10
38.65686689180136
 20
34.98274433321995
 30
0.0
 40
0.3937000000000446
100
AcDbArc
 50
89.39589517566473
 51
89.76963867181734
  0
LINE
  5
CD5
330
1F
100
AcDbEntity
  8
0
  6
Continuous
100
AcDbLine
 10
21.09271025600568
 20
55.6507319693788
 30
0.0
 11
21.50239186564689
 21
55.65073196937882
 31
0.0
  0
LINE
  5
CD6
330
1F
100
AcDbEntity
  8
0
  6
Continuous
100
AcDbLine
 10
21.05334025600566
 20
54.98144196937878
 30
0.0
 11
21.05334025600566
 21
55.61136196937877
 31
0.0
  0
ARC
  5
CD7
330
1F
100
AcDbEntity
  8
0
  6
Continuous
100
AcDbCircle
 10
21.09271025600568
 20
54.98144196937878
 30
0.0
 40
0.03937
100
AcDbArc
 50
180.0
 51
270.0
  0
ARC
  5
CD8
330
1F
100
AcDbEntity
  8
0
  6
Continuous
100
AcDbCircle
 10
21.09271025600568
 20
55.61136196937877
 30
0.0
 40
0.03937
100
AcDbArc
 50
90.0
 51
180.0
  0
LINE
  5
CD9
330
1F
100
AcDbEntity
  8
0
  6
Continuous
100
AcDbLine
 10
49.13589290742093
 20
35.37642245002377
 30
0.0
 11
62.92453948469333
 21
35.37642245002374
 31
0.0
  0
LINE
  5
CDA
330
1F
100
AcDbEntity
  8
0
  6
Continuous
100
AcDbLine
 10
49.1833743697753
 20
35.49126421587246
 30
0.0
 11
62.8770580223388
 21
35.49126421587244
 31
0.0
  0
LINE
  5
CDB
330
1F
100
AcDbEntity
  8
0
  6
Continuous
100
AcDbLine
 10
49.03382491617331
 20
34.43081343107116
 30
0.0
 11
63.02660747594084
 21
34.43081343107116
 31
0.0
  0
ARC
  5
CDC
330
1F
100
AcDbEntity
  8
0
  6
Continuous
100
AcDbCircle
 10
49.72152595387101
 20
36.38981576953881
 30
0.0
 40
0.4965641647282834
100
AcDbArc
 50
169.7192387918306
 51
258.0883564887524
  0
ARC
  5
CDD
330
1F
100
AcDbEntity
  8
0
  6
Continuous
100
AcDbCircle
 10
54.72357229118743
 20
94.80291689374274
 30
0.0
 40
59.11975399500652
100
AcDbArc
 50
265.0467801359786
 51
271.2664341851051
  0
ARC
  5
CDE
330
1F
100
AcDbEntity
  8
0
  6
Continuous
100
AcDbCircle
 10
62.33890643824291
 20
36.38981576953881
 30
0.0
 40
0.4965641647282834
100
AcDbArc
 50
281.9116435112509
 51
10.28076120817107
  0
ARC
  5
CDF
330
1F
100
AcDbEntity
  8
0
  6
Continuous
100
AcDbCircle
 10
57.33686010092649
 20
94.80291689374274
 30
0.0
 40
59.11975399500652
100
AcDbArc
 50
268.7335658148916
 51
274.9532198640214
  0
LWPOLYLINE
  5
CE0
330
1F
100
AcDbEntity
  8
0
  6
Continuous
100
AcDbPolyline
 90
        4
 70
     1
 43
0.0
 10
49.88066255132848
 20
34.23142075376816
 10
51.76887439866088
 20
34.23142075376816
 10
51.76887439866088
 20
34.43081343107116
 10
49.88066255132848
 20
34.43081343107116
  0
LWPOLYLINE
  5
CE1
330
1F
100
AcDbEntity
  8
0
  6
Continuous
100
AcDbPolyline
 90
        4
 70
     1
 43
0.0
 10
62.17596123243598
 20
34.23142075376816
 10
60.28774938510359
 20
34.23142075376816
 10
60.28774938510359
 20
34.43081343107116
 10
62.17596123243598
 20
34.43081343107116
  0
LWPOLYLINE
  5
CE2
330
1F
100
AcDbEntity
  8
0
  6
Continuous
100
AcDbPolyline
 90
        4
 70
     1
 43
0.0
 10
50.18538667478422
 20
35.37642245002377
 10
51.76887439866093
 20
35.37642245002377
 10
51.76887439866093
 20
35.49126421587249
 10
50.18538667478416
 20
35.49126421587249
  0
LWPOLYLINE
  5
CE3
330
1F
100
AcDbEntity
  8
0
  6
Continuous
100
AcDbPolyline
 90
        4
 70
     1
 43
0.0
 10
61.87123710898024
 20
35.37642245002377
 10
60.28774938510353
 20
35.37642245002377
 10
60.28774938510353
 20
35.49126421587249
 10
61.8712371089803
 20
35.49126421587249
  0
LINE
  5
CE4
330
1F
100
AcDbEntity
  8
0
  6
CENTER
 48
0.25
100
AcDbLine
 10
56.03021619605708
 20
33.29454978137397
 30
0.0
 11
56.03021619605708
 21
39.15459959316391
 31
0.0
  0
LINE
  5
CE6
330
1F
100
AcDbEntity
  8
0
100
AcDbLine
 10
47.83001031426754
 20
34.23142075376816
 30
0.0
 11
64.23042207784651
 21
34.23142075376816
 31
0.0
  0
LWPOLYLINE
  5
CE7
330
1F
100
AcDbEntity
  8
0
100
AcDbPolyline
 90
        4
 70
     1
 43
0.0
 10
20.07611713071204
 20
61.63309151645199
 10
21.50239186564689
 20
61.63309151645199
 10
21.50239186564689
 20
62.3616072388479
 10
20.07611713071204
 20
62.3616072388479
  0
LWPOLYLINE
  5
CE9
330
1F
100
AcDbEntity
  8
0
100
AcDbPolyline
 90
        4
 70
     1
 43
0.0
 10
20.07611713071204
 20
56.12129151645199
 10
21.50239186564689
 20
56.12129151645199
 10
21.50239186564689
 20
56.84980723884791
 10
20.07611713071204
 20
56.84980723884791
  0
LINE
  5
CEA
330
1F
100
AcDbEntity
  8
0
100
AcDbLine
 10
21.05334025600566
 20
55.61136196937877
 30
0.0
 11
21.05334025600566
 21
56.12129151645199
 31
0.0
  0
LINE
  5
CEB
330
1F
100
AcDbEntity
  8
0
100
AcDbLine
 10
21.05334025600566
 20
62.89670926740967
 30
0.0
 11
21.05334025600566
 21
62.38621951314158
 31
0.0
  0
LINE
  5
CEC
330
1F
100
AcDbEntity
  8
0
100
AcDbLine
 10
21.05334025600566
 20
61.63309151645199
 30
0.0
 11
21.05334025600566
 21
56.84980723884791
 31
0.0
  0
VIEWPORT
  5
220
102
{ACAD_XDICTIONARY
360
D2A
102
}
330
58
100
AcDbEntity
 67
     1
  8
0
100
AcDbViewport
 10
128.5
 20
97.5
 30
0.0
 40
348.7795714217987
 41
211.7696629213483
 68
     1
 69
     1
 12
128.5
 22
97.5
 13
0.0
 23
0.0
 14
0.5
 24
0.5
 15
0.5
 25
0.5
 16
0.0
 26
0.0
 36
1.0
 17
0.0
 27
0.0
 37
0.0
 42
50.0
 43
0.0
 44
0.0
 45
211.7696629213483
 50
0.0
 51
0.0
 72
  1000
 90
    32800
  1

281
     0
 71
     1
 74
     0
110
0.0
120
0.0
130
0.0
111
1.0
121
0.0
131
0.0
112
0.0
122
1.0
132
0.0
 79
     0
146
0.0
  0
ENDSEC
  0
SECTION
  2
OBJECTS
  0
DICTIONARY
  5
C
330
0
100
AcDbDictionary
281
     1
  3
ACAD_2007HEADERVARS_RT
350
D23
  3
ACAD_COLOR
350
73
  3
ACAD_GROUP
350
D
  3
ACAD_LAYOUT
350
1A
  3
ACAD_MATERIAL
350
72
  3
ACAD_MLINESTYLE
350
17
  3
ACAD_PLOTSETTINGS
350
19
  3
ACAD_PLOTSTYLENAME
350
E
  3
ACAD_TABLESTYLE
350
86
  3
ACAD_VISUALSTYLE
350
D01
  3
AcDbVariableDictionary
350
66
  3
ASE_INDEX_DICTIONARY
350
D1E
  3
DWGPROPS
350
D22
  0
DICTIONARY
  5
1D0
330
2
100
AcDbDictionary
280
     1
281
     1
  3
ACAD_LAYERSTATES
360
1D1
  0
DICTIONARY
  5
D2A
330
220
100
AcDbDictionary
280
     1
281
     1
  3
ACAD_XREC_ROUNDTRIP
360
D2B
  0
DICTIONARY
  5
D23
102
{ACAD_REACTORS
330
C
102
}
330
C
100
AcDbDictionary
281
     1
  3
DIMFXL
350
D24
  0
DICTIONARY
  5
73
102
{ACAD_REACTORS
330
C
102
}
330
C
100
AcDbDictionary
281
     1
  0
DICTIONARY
  5
D
102
{ACAD_REACTORS
330
C
102
}
330
C
100
AcDbDictionary
281
     1
  0
DICTIONARY
  5
1A
102
{ACAD_REACTORS
330
C
102
}
330
C
100
AcDbDictionary
281
     1
  3
Layout1
350
59
  3
Model
350
22
  0
DICTIONARY
  5
72
102
{ACAD_REACTORS
330
C
102
}
330
C
100
AcDbDictionary
281
     1
  3
ByBlock
350
CFF
  3
ByLayer
350
CFE
  3
Global
350
D00
  0
DICTIONARY
  5
17
102
{ACAD_REACTORS
330
C
102
}
330
C
100
AcDbDictionary
281
     1
  3
Standard
350
18
  0
DICTIONARY
  5
19
102
{ACAD_REACTORS
330
C
102
}
330
C
100
AcDbDictionary
281
     1
  0
ACDBDICTIONARYWDFLT
  5
E
102
{ACAD_REACTORS
330
C
102
}
330
C
100
AcDbDictionary
281
     1
  3
Normal
350
F
100
AcDbDictionaryWithDefault
340
F
  0
DICTIONARY
  5
86
102
{ACAD_REACTORS
330
C
102
}
330
C
100
AcDbDictionary
281
     1
  3
Standard
350
87
  0
DICTIONARY
  5
D01
102
{ACAD_REACTORS
330
C
102
}
330
C
100
AcDbDictionary
281
     1
  3
2dWireframe
350
D07
  3
3D Hidden
350
D09
  3
3dWireframe
350
D08
  3
Basic
350
D06
  3
Brighten
350
D0D
  3
ColorChange
350
D11
  3
Conceptual
350
D0A
  3
Dim
350
D0C
  3
Facepattern
350
D10
  3
Flat
350
D02
  3
FlatWithEdges
350
D03
  3
Gouraud
350
D04
  3
GouraudWithEdges
350
D05
  3
Linepattern
350
D0F
  3
Realistic
350
D0B
  3
Thicken
350
D0E
  0
DICTIONARY
  5
66
102
{ACAD_REACTORS
330
C
102
}
330
C
100
AcDbDictionary
281
     1
  3
CTABLESTYLE
350
1FB
  3
DIMASSOC
350
67
  3
HIDETEXT
350
6B
  3
INDEXCTL
350
D21
  3
SORTENTS
350
D20
  0
DICTIONARY
  5
D1E
102
{ACAD_REACTORS
330
C
102
}
330
C
100
AcDbDictionary
281
     1
  3
ASEBlockHierarchyIndexRecord
350
D1F
1001
DCO15
1040
1651913667.892
  0
XRECORD
  5
D22
102
{ACAD_REACTORS
330
C
102
}
330
C
100
AcDbXrecord
280
     1
  1
DWGPROPS COOKIE
  2

  3

  4

  6

  7

  8
nnguyen
  9

300
=
301
=
302
=
303
=
304
=
305
=
306
=
307
=
308
=
309
=
 40
0.0270074652777778
 41
2454617.584509595
 42
2454922.58300801
  1

 90
        0
  0
DICTIONARY
  5
1D1
102
{ACAD_REACTORS
330
1D0
102
}
330
1D0
100
AcDbDictionary
281
     1
  0
XRECORD
  5
D2B
102
{ACAD_REACTORS
330
D2A
102
}
330
D2A
100
AcDbXrecord
280
     1
102
SHADEPLOT
 70
     0
  0
XRECORD
  5
D24
102
{ACAD_REACTORS
330
D23
102
}
330
D23
100
AcDbXrecord
280
     1
 40
0.18
  0
LAYOUT
  5
59
102
{ACAD_XDICTIONARY
360
227
102
}
102
{ACAD_REACTORS
330
1A
102
}
330
1A
100
AcDbPlotSettings
  1

  2
none_device
  4
ISO_A4_(210.00_x_297.00_MM)
  6

 40
7.5
 41
20.0
 42
7.5
 43
20.0
 44
210.0
 45
297.0
 46
0.0
 47
0.0
 48
0.0
 49
0.0
140
0.0
141
0.0
142
1.0
143
1.0
 70
   688
 72
     1
 73
     1
 74
     5
  7

 75
    16
147
1.0
148
0.0
149
0.0
100
AcDbLayout
  1
Layout1
 70
     1
 71
     1
 10
-20.0
 20
-7.5
 11
277.0
 21
202.5
 12
0.0
 22
0.0
 32
0.0
 14
1.000000000000000E+20
 24
1.000000000000000E+20
 34
1.000000000000000E+20
 15
-1.000000000000000E+20
 25
-1.000000000000000E+20
 35
-1.000000000000000E+20
146
0.0
 13
0.0
 23
0.0
 33
0.0
 16
1.0
 26
0.0
 36
0.0
 17
0.0
 27
1.0
 37
0.0
 76
     0
330
58
331
220
1001
ACAD_PSEXT
1000
None
1000
None
1000
Not applicable
1000
The layout will not be plotted unless a new plotter configuration name is selected.
1070
     0
  0
LAYOUT
  5
22
102
{ACAD_XDICTIONARY
360
D25
102
}
102
{ACAD_REACTORS
330
1A
102
}
330
1A
100
AcDbPlotSettings
  1

  2
none_device
  4
ANSI_A_(8.50_x_11.00_Inches)
  6

 40
6.349999904632568
 41
19.04999923706055
 42
6.350006103515625
 43
19.04998779296875
 44
215.8999938964844
 45
279.3999938964844
 46
0.0
 47
0.0
 48
0.0
 49
0.0
140
0.0
141
0.0
142
1.0
143
2.584895464708373
 70
 11952
 72
     0
 73
     1
 74
     0
  7

 75
     0
147
0.3868628397755418
148
0.0
149
0.0
100
AcDbLayout
  1
Model
 70
     1
 71
     0
 10
0.0
 20
0.0
 11
12.0
 21
9.0
 12
0.0
 22
0.0
 32
0.0
 14
0.0
 24
0.0
 34
0.0
 15
0.0
 25
0.0
 35
0.0
146
0.0
 13
0.0
 23
0.0
 33
0.0
 16
1.0
 26
0.0
 36
0.0
 17
0.0
 27
1.0
 37
0.0
 76
     0
330
1F
331
CFC
  0
MATERIAL
  5
CFF
102
{ACAD_XDICTIONARY
360
D2E
102
}
102
{ACAD_REACTORS
330
72
102
}
330
72
100
AcDbMaterial
  1
ByBlock
  0
MATERIAL
  5
CFE
102
{ACAD_XDICTIONARY
360
D2C
102
}
102
{ACAD_REACTORS
330
72
102
}
330
72
100
AcDbMaterial
  1
ByLayer
  0
MATERIAL
  5
D00
102
{ACAD_XDICTIONARY
360
D30
102
}
102
{ACAD_REACTORS
330
72
102
}
330
72
100
AcDbMaterial
  1
Global
  0
MLINESTYLE
  5
18
102
{ACAD_REACTORS
330
17
102
}
330
17
100
AcDbMlineStyle
  2
STANDARD
 70
     0
  3

 62
   256
 51
90.0
 52
90.0
 71
     2
 49
0.5
 62
   256
  6
BYLAYER
 49
-0.5
 62
   256
  6
BYLAYER
  0
ACDBPLACEHOLDER
  5
F
102
{ACAD_REACTORS
330
E
102
}
330
E
  0
TABLESTYLE
  5
87
102
{ACAD_XDICTIONARY
360
D28
102
}
102
{ACAD_REACTORS
330
86
102
}
330
86
100
AcDbTableStyle
  3
Standard
 70
     0
 71
     0
 40
0.06
 41
0.06
280
     0
281
     0
  7
Standard
140
0.18
170
     2
 62
     0
 63
     7
283
     0
274
    -2
284
     1
 64
     0
275
    -2
285
     1
 65
     0
276
    -2
286
     1
 66
     0
277
    -2
287
     1
 67
     0
278
    -2
288
     1
 68
     0
279
    -2
289
     1
 69
     0
  7
Standard
140
0.25
170
     5
 62
     0
 63
     7
283
     0
274
    -2
284
     1
 64
     0
275
    -2
285
     1
 65
     0
276
    -2
286
     1
 66
     0
277
    -2
287
     1
 67
     0
278
    -2
288
     1
 68
     0
279
    -2
289
     1
 69
     0
  7
Standard
140
0.18
170
     5
 62
     0
 63
     7
283
     0
274
    -2
284
     1
 64
     0
275
    -2
285
     1
 65
     0
276
    -2
286
     1
 66
     0
277
    -2
287
     1
 67
     0
278
    -2
288
     1
 68
     0
279
    -2
289
     1
 69
     0
  0
VISUALSTYLE
  5
D07
102
{ACAD_REACTORS
330
D01
102
}
330
D01
100
AcDbVisualStyle
  2
2dWireframe
 70
     4
 71
     0
 72
     2
 73
     0
 90
        0
 40
-0.6
 41
-30.0
 62
     5
 63
     7
 74
     1
 91
        4
 64
     7
 65
   257
 75
     1
175
     1
 42
1.0
 92
        0
 66
   257
 43
1.0
 76
     1
 77
     6
 78
     2
 67
     7
 79
     5
170
     0
171
     0
290
     0
174
     0
 93
        1
 44
0.0
173
     0
291
     0
 45
0.0
1001
ACAD
1000
AcDbSavedByObjectVersion
1070
     0
  0
VISUALSTYLE
  5
D09
102
{ACAD_REACTORS
330
D01
102
}
330
D01
100
AcDbVisualStyle
  2
3D Hidden
 70
     6
 71
     1
 72
     2
 73
     2
 90
        0
 40
-0.6
 41
-30.0
 62
     5
 63
     7
 74
     2
 91
        2
 64
     7
 65
   257
 75
     2
175
     1
 42
40.0
 92
        0
 66
   257
 43
1.0
 76
     1
 77
     6
 78
     2
 67
     7
 79
     3
170
     0
171
     0
290
     0
174
     0
 93
        1
 44
0.0
173
     0
291
     0
 45
0.0
1001
ACAD
1000
AcDbSavedByObjectVersion
1070
     0
  0
VISUALSTYLE
  5
D08
102
{ACAD_REACTORS
330
D01
102
}
330
D01
100
AcDbVisualStyle
  2
3dWireframe
 70
     5
 71
     0
 72
     2
 73
     0
 90
        0
 40
-0.6
 41
-30.0
 62
     5
 63
     7
 74
     1
 91
        4
 64
     7
 65
   257
 75
     1
175
     1
 42
1.0
 92
        0
 66
   257
 43
1.0
 76
     1
 77
     6
 78
     2
 67
     7
 79
     5
170
     0
171
     0
290
     0
174
     0
 93
        1
 44
0.0
173
     0
291
     0
 45
0.0
1001
ACAD
1000
AcDbSavedByObjectVersion
1070
     0
  0
VISUALSTYLE
  5
D06
102
{ACAD_REACTORS
330
D01
102
}
330
D01
100
AcDbVisualStyle
  2
Basic
 70
     7
 71
     1
 72
     0
 73
     1
 90
        0
 40
-0.6
 41
-30.0
 62
     5
 63
     7
 74
     0
 91
        4
 64
     7
 65
   257
 75
     1
175
     1
 42
1.0
 92
        8
 66
     7
 43
1.0
 76
     1
 77
     6
 78
     2
 67
     7
 79
     5
170
     0
171
     0
290
     0
174
     0
 93
        1
 44
0.0
173
     0
291
     1
 45
0.0
1001
ACAD
1000
AcDbSavedByObjectVersion
1070
     0
  0
VISUALSTYLE
  5
D0D
102
{ACAD_REACTORS
330
D01
102
}
330
D01
100
AcDbVisualStyle
  2
Brighten
 70
    12
 71
     2
 72
     2
 73
     0
 90
        0
 40
-0.6
 41
-30.0
 62
     5
 63
     7
 74
     1
 91
        4
 64
     7
 65
   257
 75
     1
175
     1
 42
1.0
 92
        8
 66
     7
 43
1.0
 76
     1
 77
     6
 78
     2
 67
     7
 79
     5
170
     0
171
     0
290
     0
174
     0
 93
        1
 44
50.0
173
     0
291
     1
 45
0.0
1001
ACAD
1000
AcDbSavedByObjectVersion
1070
     0
  0
VISUALSTYLE
  5
D11
102
{ACAD_REACTORS
330
D01
102
}
330
D01
100
AcDbVisualStyle
  2
ColorChange
 70
    16
 71
     2
 72
     2
 73
     3
 90
        0
 40
-0.6
 41
-30.0
 62
     5
 63
     8
 74
     1
 91
        4
 64
     7
 65
   257
 75
     1
175
     1
 42
1.0
 92
        8
 66
     8
 43
1.0
 76
     1
 77
     6
 78
     2
 67
     7
 79
     5
170
     0
171
     0
290
     0
174
     0
 93
        1
 44
0.0
173
     0
291
     1
 45
0.0
1001
ACAD
1000
AcDbSavedByObjectVersion
1070
     0
  0
VISUALSTYLE
  5
D0A
102
{ACAD_REACTORS
330
D01
102
}
330
D01
100
AcDbVisualStyle
  2
Conceptual
 70
     9
 71
     3
 72
     2
 73
     0
 90
        0
 40
-0.6
 41
-30.0
 62
     5
 63
     7
 74
     2
 91
        2
 64
     7
 65
   257
 75
     1
175
     1
 42
40.0
 92
        8
 66
     7
 43
1.0
 76
     1
 77
     6
 78
     2
 67
     7
 79
     3
170
     0
171
     0
290
     0
174
     0
 93
        1
 44
0.0
173
     0
291
     0
 45
0.0
1001
ACAD
1000
AcDbSavedByObjectVersion
1070
     0
  0
VISUALSTYLE
  5
D0C
102
{ACAD_REACTORS
330
D01
102
}
330
D01
100
AcDbVisualStyle
  2
Dim
 70
    11
 71
     2
 72
     2
 73
     0
 90
        0
 40
-0.6
 41
-30.0
 62
     5
 63
     7
 74
     1
 91
        4
 64
     7
 65
   257
 75
     1
175
     1
 42
1.0
 92
        8
 66
     7
 43
1.0
 76
     1
 77
     6
 78
     2
 67
     7
 79
     5
170
     0
171
     0
290
     0
174
     0
 93
        1
 44
-50.0
173
     0
291
     1
 45
0.0
1001
ACAD
1000
AcDbSavedByObjectVersion
1070
     0
  0
VISUALSTYLE
  5
D10
102
{ACAD_REACTORS
330
D01
102
}
330
D01
100
AcDbVisualStyle
  2
Facepattern
 70
    15
 71
     2
 72
     2
 73
     0
 90
        0
 40
-0.6
 41
-30.0
 62
     5
 63
     7
 74
     1
 91
        4
 64
     7
 65
   257
 75
     1
175
     1
 42
1.0
 92
        8
 66
     7
 43
1.0
 76
     1
 77
     6
 78
     2
 67
     7
 79
     5
170
     0
171
     0
290
     0
174
     0
 93
        1
 44
0.0
173
     0
291
     1
 45
0.0
1001
ACAD
1000
AcDbSavedByObjectVersion
1070
     0
  0
VISUALSTYLE
  5
D02
102
{ACAD_REACTORS
330
D01
102
}
330
D01
100
AcDbVisualStyle
  2
Flat
 70
     0
 71
     2
 72
     1
 73
     1
 90
        2
 40
-0.6
 41
30.0
 62
     5
 63
     7
 74
     0
 91
        4
 64
     7
 65
   257
 75
     1
175
     1
 42
1.0
 92
        8
 66
     7
 43
1.0
 76
     1
 77
     6
 78
     2
 67
     7
 79
     5
170
     0
171
     0
290
     0
174
     0
 93
       13
 44
0.0
173
     0
291
     1
 45
0.0
1001
ACAD
1000
AcDbSavedByObjectVersion
1070
     0
  0
VISUALSTYLE
  5
D03
102
{ACAD_REACTORS
330
D01
102
}
330
D01
100
AcDbVisualStyle
  2
FlatWithEdges
 70
     1
 71
     2
 72
     1
 73
     1
 90
        2
 40
-0.6
 41
30.0
 62
     5
 63
     7
 74
     1
 91
        4
 64
     7
 65
   257
 75
     1
175
     1
 42
1.0
 92
        0
 66
   257
 43
1.0
 76
     1
 77
     6
 78
     2
 67
     7
 79
     5
170
     0
171
     0
290
     0
174
     0
 93
       13
 44
0.0
173
     0
291
     1
 45
0.0
1001
ACAD
1000
AcDbSavedByObjectVersion
1070
     0
  0
VISUALSTYLE
  5
D04
102
{ACAD_REACTORS
330
D01
102
}
330
D01
100
AcDbVisualStyle
  2
Gouraud
 70
     2
 71
     2
 72
     2
 73
     1
 90
        2
 40
-0.6
 41
30.0
 62
     5
 63
     7
 74
     0
 91
        4
 64
     7
 65
   257
 75
     1
175
     1
 42
1.0
 92
        0
 66
     7
 43
1.0
 76
     1
 77
     6
 78
     2
 67
     7
 79
     5
170
     0
171
     0
290
     0
174
     0
 93
       13
 44
0.0
173
     0
291
     1
 45
0.0
1001
ACAD
1000
AcDbSavedByObjectVersion
1070
     0
  0
VISUALSTYLE
  5
D05
102
{ACAD_REACTORS
330
D01
102
}
330
D01
100
AcDbVisualStyle
  2
GouraudWithEdges
 70
     3
 71
     2
 72
     2
 73
     1
 90
        2
 40
-0.6
 41
30.0
 62
     5
 63
     7
 74
     1
 91
        4
 64
     7
 65
   257
 75
     1
175
     1
 42
1.0
 92
        0
 66
   257
 43
1.0
 76
     1
 77
     6
 78
     2
 67
     7
 79
     5
170
     0
171
     0
290
     0
174
     0
 93
       13
 44
0.0
173
     0
291
     1
 45
0.0
1001
ACAD
1000
AcDbSavedByObjectVersion
1070
     0
  0
VISUALSTYLE
  5
D0F
102
{ACAD_REACTORS
330
D01
102
}
330
D01
100
AcDbVisualStyle
  2
Linepattern
 70
    14
 71
     2
 72
     2
 73
     0
 90
        0
 40
-0.6
 41
-30.0
 62
     5
 63
     7
 74
     1
 91
        4
 64
     7
 65
   257
 75
     7
175
     7
 42
1.0
 92
        8
 66
     7
 43
1.0
 76
     1
 77
     6
 78
     2
 67
     7
 79
     5
170
     0
171
     0
290
     0
174
     0
 93
        1
 44
0.0
173
     0
291
     1
 45
0.0
1001
ACAD
1000
AcDbSavedByObjectVersion
1070
     0
  0
VISUALSTYLE
  5
D0B
102
{ACAD_REACTORS
330
D01
102
}
330
D01
100
AcDbVisualStyle
  2
Realistic
 70
     8
 71
     2
 72
     2
 73
     0
 90
        0
 40
-0.6
 41
-30.0
 62
     5
 63
     7
 74
     1
 91
        0
 64
     7
 65
   257
 75
     1
175
     1
 42
1.0
 92
        8
 66
     8
 43
1.0
 76
     1
 77
     6
 78
     2
 67
     7
 79
     5
170
     0
171
     0
290
     0
174
     0
 93
       13
 44
0.0
173
     0
291
     0
 45
0.0
1001
ACAD
1000
AcDbSavedByObjectVersion
1070
     0
  0
VISUALSTYLE
  5
D0E
102
{ACAD_REACTORS
330
D01
102
}
330
D01
100
AcDbVisualStyle
  2
Thicken
 70
    13
 71
     2
 72
     2
 73
     0
 90
        0
 40
-0.6
 41
-30.0
 62
     5
 63
     7
 74
     1
 91
        4
 64
     7
 65
   257
 75
     1
175
     1
 42
1.0
 92
       12
 66
     7
 43
1.0
 76
     1
 77
     6
 78
     2
 67
     7
 79
     5
170
     0
171
     0
290
     0
174
     0
 93
        1
 44
0.0
173
     0
291
     1
 45
0.0
1001
ACAD
1000
AcDbSavedByObjectVersion
1070
     0
  0
DICTIONARYVAR
  5
1FB
102
{ACAD_REACTORS
330
66
102
}
330
66
100
DictionaryVariables
280
     0
  1
STANDARD
  0
DICTIONARYVAR
  5
67
102
{ACAD_REACTORS
330
66
102
}
330
66
100
DictionaryVariables
280
     0
  1
2
  0
DICTIONARYVAR
  5
6B
102
{ACAD_REACTORS
330
66
102
}
330
66
100
DictionaryVariables
280
     0
  1
1
  0
DICTIONARYVAR
  5
D21
102
{ACAD_REACTORS
330
66
102
}
330
66
100
DictionaryVariables
280
     0
  1
0
  0
DICTIONARYVAR
  5
D20
102
{ACAD_REACTORS
330
66
102
}
330
66
100
DictionaryVariables
280
     0
  1
127
  0
XRECORD
  5
D1F
102
{ACAD_REACTORS
330
D1E
102
}
330
D1E
100
AcDbXrecord
280
     1
  0
DICTIONARY
  5
227
330
59
100
AcDbDictionary
280
     1
281
     1
  3
ACAD_XREC_ROUNDTRIP
360
D27
  3
ADSK_XREC_LAYOUTTHUMBNAIL
360
228
  0
DICTIONARY
  5
D25
330
22
100
AcDbDictionary
280
     1
281
     1
  3
ACAD_XREC_ROUNDTRIP
360
D26
  0
DICTIONARY
  5
D2E
330
CFF
100
AcDbDictionary
280
     1
281
     1
  3
ACAD_XREC_ROUNDTRIP
360
D2F
  0
DICTIONARY
  5
D2C
330
CFE
100
AcDbDictionary
280
     1
281
     1
  3
ACAD_XREC_ROUNDTRIP
360
D2D
  0
DICTIONARY
  5
D30
330
D00
100
AcDbDictionary
280
     1
281
     1
  3
ACAD_XREC_ROUNDTRIP
360
D31
  0
DICTIONARY
  5
D28
330
87
100
AcDbDictionary
280
     1
281
     1
  3
ACAD_XREC_ROUNDTRIP
360
D29
  0
XRECORD
  5
D27
102
{ACAD_REACTORS
330
227
102
}
330
227
100
AcDbXrecord
280
     1
102
SHADEPLOT
 70
     0
102
SHADEPLOTRESLEVEL
 70
     2
102
SHADEPLOTCUSTOMDPI
 70
   300
  0
XRECORD
  5
228
102
{ACAD_REACTORS
330
227
102
}
330
227
100
AcDbXrecord
280
     1
310
28000000B40000007F00000001000800000000004C5900000000000000000000000100000000000000000000000000007F7F00000000000000000000000000000000000000000000000000000000000000000000330000006600000099000000CC000000FF00000000330000333300006633000099330000CC330000FF3300
310
0000660000336600006666000099660000CC660000FF66000000990000339900006699000099990000CC990000FF99000000CC000033CC000066CC000099CC0000CCCC0000FFCC000000FF000033FF000066FF000099FF0000CCFF0000FFFF000000003300330033006600330099003300CC003300FF003300003333003333
310
33006633330099333300CC333300FF33330000663300336633006666330099663300CC663300FF66330000993300339933006699330099993300CC993300FF99330000CC330033CC330066CC330099CC3300CCCC3300FFCC330000FF330033FF330066FF330099FF3300CCFF3300FFFF330000006600330066006600660099
310
006600CC006600FF00660000336600333366006633660099336600CC336600FF33660000666600336666006666660099666600CC666600FF66660000996600339966006699660099996600CC996600FF99660000CC660033CC660066CC660099CC6600CCCC6600FFCC660000FF660033FF660066FF660099FF6600CCFF6600
310
FFFF660000009900330099006600990099009900CC009900FF00990000339900333399006633990099339900CC339900FF33990000669900336699006666990099669900CC669900FF66990000999900339999006699990099999900CC999900FF99990000CC990033CC990066CC990099CC9900CCCC9900FFCC990000FF99
310
0033FF990066FF990099FF9900CCFF9900FFFF99000000CC003300CC006600CC009900CC00CC00CC00FF00CC000033CC003333CC006633CC009933CC00CC33CC00FF33CC000066CC003366CC006666CC009966CC00CC66CC00FF66CC000099CC003399CC006699CC009999CC00CC99CC00FF99CC0000CCCC0033CCCC0066CC
310
CC0099CCCC00CCCCCC00FFCCCC0000FFCC0033FFCC0066FFCC0099FFCC00CCFFCC00FFFFCC000000FF003300FF006600FF009900FF00CC00FF00FF00FF000033FF003333FF006633FF009933FF00CC33FF00FF33FF000066FF003366FF006666FF009966FF00CC66FF00FF66FF000099FF003399FF006699FF009999FF00CC
310
99FF00FF99FF0000CCFF0033CCFF0066CCFF0099CCFF00CCCCFF00FFCCFF0000FFFF0033FFFF0066FFFF0099FFFF00CCFFFF00FFFFFF00000000000D0D0D001A1A1A00282828003535350043434300505050005D5D5D006B6B6B00787878008686860093939300A1A1A100AEAEAE00BBBBBB00C9C9C900D6D6D600E4E4E400
310
F1F1F100FFFFFF0000000000000000000000000000000000000000000000000000000000000000000000000000000000F5F5F5F5F5F5F5F5F5F5F5F5F5F5F5F5F5F5F5F5F5F5F5F5F5F5F5F5F5F5F5F5F5F5F5F5F5F5F5F5F5F5F5F5F5F5F5F5F5F5F5F5F5F5F5F5F5F5F5F5F5F5F5F5F5F5F5F5F5F5F5F5F5F5F5F5F5F5F5
310
F5F5F5F5F5F5F5F5F5F5F5F5F5F5F5F5F5F5F5F5F5F5F5F5F5F5F5F5F5F5F5F5F5F5F5F5F5F5F5F5F5F5F5F5F5F5F5F5F5F5F5F5F5F5F5F5F5F5F5F5F5F5F5F5F5F5F5F5F5F5F5F5F5F5F5F5F5F5F5F5F5F5F5F5F5F5F5F5F5F5F5F5F5F5F5F5F5F5F5F5EFF5E2E2E2E2E2E2E2E2E2E2E2E2E2E2E2E2E2E2E2E2E2E2E2E2E2
310
E2E2E2E2E2E2E2E2E2E2E2E2E2E2E2E2E2E2E2E2E2E2E2E2E2E2E2E2E2E2E2E2E2E2E2E2E2E2E2E2E2E2E2E2E2E2E2E2E2E2E2E2E2E2E2E2E2E2E2E2E2E2E2E2E2E2E2E2E2E2E2E2E2E2E2E2E2E2E2E2E2E2E2E2E2E2E2E2E2E2E2E2E2E2E2E2E2E2E2E2E2E2E2E2E2E2E2E2E2E2E2E2E2E2E2E2E2E2E2E2E2E2E2E2E2E2E2
310
E2E2E2E2E2E2E2E2E2E2E2E2E2E2E2E2E2E2E2E2E2E2E2E2F5F5EFF5E2E2E2E2E2E2E2E2E2E2E2E2E2E2E2E2E2E2E2E2E2E2E2E2E2E2E2E2E2E2E2E2E2E2E2E2E2E2E2E2E2E2E2E2E2E2E2E2E2E2E2E2E2E2E2E2E2E2E2E2E2E2E2E2E2E2E2E2E2E2E2E2E2E2E2E2E2E2E2E2E2E2E2E2E2E2E2E2E2E2E2E2E2E2E2E2E2E2E2
310
E2E2E2E2E2E2E2E2E2E2E2E2E2E2E2E2E2E2E2E2E2E2E2E2E2E2E2E2E2E2E2E2E2E2E2E2E2E2E2E2E2E2E2E2E2E2E2E2E2E2E2E2E2E2E2E2E2E2E2E2E2E2E2E2E2E2E2E2E2E2E2E2E2E2E2E2E2F5F5EFF5E2E2E2E2E2E2E2E2E2E2E2E2E2E2E2E2E2E2E2E2E2E2E2E2E2E2E2E2E2E2E2E2E2E2E2E2E2E2E2E2E2E2E2E2E2E2
310
E2E2E2E2E2E2E2E2E2E2E2E2E2E2E2E2E2E2E2E2E2E2E2E2E2E2E2E2E2E2E2E2E2E2E2E2E2E2E2E2E2E2E2E2E2E2E2E2E2E2E2E2E2E2E2E2E2E2E2E2E2E2E2E2E2E2E2E2E2E2E2E2E2E2E2E2E2E2E2E2E2E2E2E2E2E2E2E2E2E2E2E2E2E2E2E2E2E2E2E2E2E2E2E2E2E2E2E2E2E2E2E2E2E2E2E2E2E2E2E2E2E2E2E2E2E2E2
310
E2E2E2F5F5EFF5E2E2E2E2E2E2E2E2E2E2E2E2E2E2E2E2E2E2E2E2E2E2E2E2E2E2E2E2E2E2E2E2E2E2E2E2E2E2E2E2E2E2E2E2E2E2E2E2E2E2E2E2E2E2E2E2E2E2E2E2E2E2E2E2E2E2E2E2E2E2E2E2E2E2E2E2E2E2E2E2E2E2E2E2E2E2E2E2E2E2E2E2E2E2E2E2E2E2E2E2E2E2E2E2E2E2E2E2E2E2E2E2E2E2E2E2E2E2E2E2
310
E2E2E2E2E2E2E2E2E2E2E2E2E2E2E2E2E2E2E2E2E2E2E2E2E2E2E2E2E2E2E2E2E2E2E2E2E2E2E2E2E2E2E2E2E2E2E2E2E2E2E2E2E2E2E2E2F5F5EFF5E2E2E2E2E2E2E2E2E2E2E2F5F5F5F5F5F5F5F5F5E2E2E2E2E2E2E2E2E2F5F5F5F5F5F5F5F5F5F5F5F5F5F5F5F5E2E2E2E2E2E2E2E2E2F5F5F5F5F5F5F5F5F5F5F5F5F5
310
F5F5F5F5E2E2E2E2E2E2E2E2E2F5F5F5F5F5F5F5F5F5F5F5F5F5F5F5F5E2E2E2E2E2E2E2E2E2F5F5F5F5F5F5F5F5F5F5F5F5F5F5F5F5F5E2E2E2E2E2E2E2E2E2F5F5F5F5F5F5F5F5F5F5F5F5F5F5F5F5E2E2E2E2E2E2E2E2E2F5F5F5F5F5F5F5F5F5E2E2E2E2E2E2E2E2E2E2E2F5F5EFF5E2E2E2E2E2E2E2E2E2E2E2F5E2E2
310
E2E2E2E2E2E2E2E2E2E2E2E2E2E2E2E2E2E2E2E2E2E2E2E2E2E2E2E2E2E2E2E2E2E2E2E2E2E2E2E2E2E2E2E2E2E2E2E2E2E2E2E2E2E2E2E2E2E2E2E2E2E2E2E2E2E2E2E2E2E2E2E2E2E2E2E2E2E2E2E2E2E2E2E2E2E2E2E2E2E2E2E2E2E2E2E2E2E2E2E2E2E2E2E2E2E2E2E2E2E2E2E2E2E2E2E2E2E2E2E2E2E2E2E2E2E2E2
310
E2E2E2E2E2E2E2E2E2E2E2E2E2E2E2E2E2E2E2E2E2E2E2F5E2E2E2E2E2E2E2E2E2E2E2F5F5EFF5E2E2E2E2E2E2E2E2E2E2E2F5E2E2E2E2E2E2E2E2E2E2E2E2E2E2E2E2E2E2E2E2E2E2E2E2E2E2E2E2E2E2E2E2E2E2E2E2E2E2E2E2E2E2E2E2E2E2E2E2E2E2E2E2E2E2E2E2E2E2E2E2E2E2E2E2E2E2E2E2E2E2E2E2E2E2E2E2
310
E2E2E2E2E2E2E2E2E2E2E2E2E2E2E2E2E2E2E2E2E2E2E2E2E2E2E2E2E2E2E2E2E2E2E2E2E2E2E2E2E2E2E2E2E2E2E2E2E2E2E2E2E2E2E2E2E2E2E2E2E2E2E2E2E2E2E2E2E2E2E2E2E2E2E2E2F5E2E2E2E2E2E2E2E2E2E2E2F5F5EFF5E2E2E2E2E2E2E2E2E2E2E2F5E2E2E2E2E2E2E2E2E2E2E2E2E2E2E2E2E2E2E2E2E2E2E2
310
E2E2E2E2E2E2E2E2E2E2E2E2E2E2E2E2E2E2E2E2E2E2E2E2E2E2E2E2E2E2E2E2E2E2E2E2E2E2E2E2E2E2E2E2E2E2E2E2E2E2E2E2E2E2E2E2E2E2E2E2E2E2E2E2E2E2E2E2E2E2E2E2E2E2E2E2E2E2E2E2E2E2E2E2E2E2E2E2E2E2E2E2E2E2E2E2E2E2E2E2E2E2E2E2E2E2E2E2E2E2E2E2E2E2E2E2E2E2E2E2E2E2E2E2E2E2E2
310
E2E2F5E2E2E2E2E2E2E2E2E2E2E2F5F5EFF5E2E2E2E2E2E2E2E2E2E2E2F5E2E2E2E2E2E2E2E2E2E2E2E2E2E2E2E2E2E2E2E2E2E2E2E2E2E2E2E2E2E2E2E2E2E2E2E2E2E2E2E2E2E2E2E2E2E2E2E2E2E2E2E2E2E2E2E2E2E2E2E2E2E2E2E2E2E2E2E2E2E2E2E2E2E2E2E2E2E2E2E2E2E2E2E2E2E2E2E2E2E2E2E2E2E2E2E2E2
310
E2E2E2E2E2E2E2E2E2E2E2E2E2E2E2E2E2E2E2E2E2E2E2E2E2E2E2E2E2E2E2E2E2E2E2E2E2E2E2E2E2E2E2E2E2E2E2E2E2E2E2E2E2E2E2F5E2E2E2E2E2E2E2E2E2E2E2F5F5EFF5E2E2E2E2E2E2E2E2E2E2E2F5E2E2E2E2E2E2E2E2E2E2E2E2E2E2E2E2E2E2E2E2E2E2E2E2E2E2E2E2E2E2E2E2E2E2E2E2E2E2E2E2E2E2E2E2
310
E2E2E2E2E2E2E2E2E2E2E2E2E2E2E2E2E2E2E2E2E2E2E2E2E2E2E2E2E2E2E2E2E2E2E2E2E2E2E2E2E2E2E2E2E2E2E2E2E2E2E2E2E2E2E2E2E2E2E2E2E2E2E2E2E2E2E2E2E2E2E2E2E2E2E2E2E2E2E2E2E2E2E2E2E2E2E2E2E2E2E2E2E2E2E2E2E2E2E2E2E2E2E2E2E2E2E2E2F5E2E2E2E2E2E2E2E2E2E2E2F5F5EFF5E2E2E2
310
E2E2E2E2E2E2E2E2F5E2E2E2E2E2E2E2E2E2E2E2E2E2E2E2E2E2E2E2E2E2E2E2E2E2E2E2E2E2E2E2E2E2E2E2E2E2E2E2E2E2E2E2E2E2E2E2E2E2E2E2E2E2E2E2E2E2E2E2E2E2E2E2E2E2E2E2E2E2E2E2E2E2E2E2E2E2E2E2E2E2E2E2E2E2E2E2E2E2E2E2E2E2E2E2E2E2E2E2E2E2E2E2E2E2E2E2E2E2E2E2E2E2E2E2E2E2E2
310
E2E2E2E2E2E2E2E2E2E2E2E2E2E2E2E2E2E2E2E2E2E2E2E2E2E2E2E2E2E2E2E2E2E2F5E2E2E2E2E2E2E2E2E2E2E2F5F5EFF5E2E2E2E2E2E2E2E2E2E2E2F5E2E2E2E2E2E2E2E2E2E2E2E2E2E2E2E2E2E2E2E2E2E2E2E2E2E2E2E2E2E2E2E2E2E2E2E2E2E2E2E2E2E2E2E2E2E2E2E2E2E2E2E2E2E2E2E2E2E2E2E2E2E2E2E2E2
310
E2E2E2E2E2E2E2E2E2E2E2E2E2E2E2E2E2E2E2E2E2E2E2E2E2E2E2E2E2E2E2E2E2E2E2E2E2E2E2E2E2E2E2E2E2E2E2E2E2E2E2E2E2E2E2E2E2E2E2E2E2E2E2E2E2E2E2E2E2E2E2E2E2E2E2E2E2E2E2E2E2E2E2E2E2E2E2F5E2E2E2E2E2E2E2E2E2E2E2F5F5EFF5E2E2E2E2E2E2E2E2E2E2E2E2E2E2E2E2E2E2E2E2E2E2E2E2
310
E2E2E2E2E2E2E2E2E2E2E2E2E2E2E2E2E2E2E2E2E2E2E2E2E2E2E2E2E2E2E2E2E2E2E2E2E2E2E2E2E2E2E2E2E2E2E2E2E2E2E2E2E2E2E2E2E2E2E2E2E2E2E2E2E2E2E2E2E2E2E2E2E2E2E2E2E2E2E2E2E2E2E2E2E2E2E2E2E2E2E2E2E2E2E2E2E2E2E2E2E2E2E2E2E2E2E2E2E2E2E2E2E2E2E2E2E2E2E2E2E2E2E2E2E2E2E2
310
E2E2E2E2E2E2E2E2E2E2E2E2E2E2E2E2E2E2E2E2E2E2E2E2E2F5F5EFF5E2E2E2E2E2E2E2E2E2E2E2E2E2E2E2E2E2E2E2E2E2E2E2E2E2E2E2E2E2E2E2E2E2E2E2E2E2E2E2E2E2E2E2E2E2E2E2E2E2E2E2E2E2E2E2E2E2E2E2E2E2E2E2E2E2E2E2E2E2E2E2E2E2E2E2E2E2E2E2E2E2E2E2E2E2E2E2E2E2E2E2E2E2E2E2E2E2E2
310
E2E2E2E2E2E2E2E2E2E2E2E2E2E2E2E2E2E2E2E2E2E2E2E2E2E2E2E2E2E2E2E2E2E2E2E2E2E2E2E2E2E2E2E2E2E2E2E2E2E2E2E2E2E2E2E2E2E2E2E2E2E2E2E2E2E2E2E2E2E2E2E2E2E2E2E2E2E2F5F5EFF5E2E2E2E2E2E2E2E2E2E2E2E2E2E2E2E2E2E2E2E2E2E2E2E2E2E2E2E2E2E2E2E2E2E2E2E2E2E2E2E2E2E2E2E2E2
310
E2E2E2E2E2E2E2E2E2E2E2E2E2E2E2E2E2E2E2E2E2E2E2E2E2E2E2E2E2E2E2E2E2E2E2E2E2E2E2E2E2E2E2E2E2E2E2E2E2E2E2E2E2E2E2E2E2E2E2E2E2E2E2E2E2E2E2E2E2E2E2E2E2E2E2E2E2E2E2E2E2E2E2E2E2E2E2E2E2E2E2E2E2E2E2E2E2E2E2E2E2E2E2E2E2E2E2E2E2E2E2E2E2E2E2E2E2E2E2E2E2E2E2E2E2E2E2
310
E2E2E2E2F5F5EFF5E2E2E2E2E2E2E2E2E2E2E2E2E2E2E2E2E2E2E2E2E2E2E2E2E2E2E2E2E2E2E2E2E2E2E2E2E2E2E2E2E2E2E2E2E2E2E2E2E2E2E2E2E2E2E2E2E2E2E2E2E2E2E2E2E2E2E2E2E2E2E2E2E2E2E2E2E2E2E2E2E2E2E2E2E2E2E2E2E2E2E2E2E2E2E2E2E2E2E2E2E2E2E2E2E2E2E2E2E2E2E2E2E2E2E2E2E2E2E2
310
E2E2E2E2E2E2E2E2E2E2E2E2E2E2E2E2E2E2E2E2E2E2E2E2E2E2E2E2E2E2E2E2E2E2E2E2E2E2E2E2E2E2E2E2E2E2E2E2E2E2E2E2E2E2E2E2E2F5F5EFF5E2E2E2E2E2E2E2E2E2E2E2E2E2E2E2E2E2E2E2E2E2E2E2E2E2E2E2E2E2E2E2E2E2E2E2E2E2E2E2E2E2E2E2E2E2E2E2E2E2E2E2E2E2E2E2E2E2E2E2E2E2E2E2E2E2E2
310
E2E2E2E2E2E2E2E2E2E2E2E2E2E2E2E2E2E2E2E2E2E2E2E2E2E2E2E2E2E2E2E2E2E2E2E2E2E2E2E2E2E2E2E2E2E2E2E2E2E2E2E2E2E2E2E2E2E2E2E2E2E2E2E2E2E2E2E2E2E2E2E2E2E2E2E2E2E2E2E2E2E2E2E2E2E2E2E2E2E2E2E2E2E2E2E2E2E2E2E2E2E2E2E2E2E2E2E2E2E2F5F5EFF5E2E2E2E2E2E2E2E2E2E2E2E2E2
310
E2E2E2E2E2E2E2E2E2E2E2E2E2E2E2E2E2E2E2E2E2E2E2E2E2E2E2E2E2E2E2E2E2E2E2E2E2E2E2E2E2E2E2E2E2E2E2E2E2E2E2E2E2E2E2E2E2E2E2E2E2E2E2E2E2E2E2E2E2E2E2E2E2E2E2E2E2E2E2E2E2E2E2E2E2E2E2E2E2E2E2E2E2E2E2E2E2E2E2E2E2E2E2E2E2E2E2E2E2E2E2E2E2E2E2E2E2E2E2E2E2E2E2E2E2E2E2
310
E2E2E2E2E2E2E2E2E2E2E2E2E2E2E2E2E2E2E2E2E2E2E2E2E2E2E2E2E2E2E2E2E2E2E2E2F5F5EFF5E2E2E2E2E2E2E2E2E2E2E2E2E2E2E2E2E2E2E2E2E2E2E2E2E2E2E2E2E2E2E2E2E2E2E2E2E2E2E2E2E2E2E2E2E2E2E2E2E2E2E2E2E2E2E2E2E2E2E2E2E2E2E2E2E2E2E2E2E2E2E2E2E2E2E2E2E2E2E2E2E2E2E2E2E2E2E2
310
E2E2E2E2E2E2E2E2E2E2E2E2E2E2E2E2E2E2E2E2E2E2E2E2E2E2E2E2E2E2E2E2E2E2E2E2E2E2E2E2E2E2E2E2E2E2E2E2E2E2E2E2E2E2E2E2E2E2E2E2E2E2E2E2E2E2E2E2E2E2E2E2E2E2E2E2E2E2E2E2E2E2E2E2E2E2E2E2E2F5F5EFF5E2E2E2E2E2E2E2E2E2E2E2E2E2E2E2E2E2E2E2E2E2E2E2E2E2E2E2E2E2E2E2E2E2E2
310
E2E2E2E2E2E2E2E2E2E2E2E2E2E2E2E2E2E2E2E2E2E2E2E2E2E2E2E2E2E2E2E2E2E2E2E2E2E2E2E2E2E2E2E2E2E2E2E2E2E2E2E2E2E2E2E2E2E2E2E2E2E2E2E2E2E2E2E2E2E2E2E2E2E2E2E2E2E2E2E2E2E2E2E2E2E2E2E2E2E2E2E2E2E2E2E2E2E2E2E2E2E2E2E2E2E2E2E2E2E2E2E2E2E2E2E2E2E2E2E2E2E2E2E2E2E2E2
310
E2E2E2E2E2E2E2E2E2E2E2E2E2E2E2F5F5EFF5E2E2E2E2E2E2E2E2E2E2E2F5E2E2E2E2E2E2E2E2E2E2E2E2E2E2E2E2E2E2E2E2E2E2E2E2E2E2E2E2E2E2E2E2E2E2E2E2E2E2E2E2E2E2E2E2E2E2E2E2E2E2E2E2E2E2E2E2E2E2E2E2E2E2E2E2E2E2E2E2E2E2E2E2E2E2E2E2E2E2E2E2E2E2E2E2E2E2E2E2E2E2E2E2E2E2E2E2
310
E2E2E2E2E2E2E2E2E2E2E2E2E2E2E2E2E2E2E2E2E2E2E2E2E2E2E2E2E2E2E2E2E2E2E2E2E2E2E2E2E2E2E2E2E2E2E2E2E2E2E2E2E2E2E2E2F5E2E2E2E2E2E2E2E2E2E2E2F5F5EFF5E2E2E2E2E2E2E2E2E2E2E2F5E2E2E2E2E2E2E2E2E2E2E2E2E2E2E2E2E2E2E2E2E2E2E2E2E2E2E2E2E2E2E2E2E2E2E2E2E2E2E2E2E2E2E2
310
E2E2E2E2E2E2E2E2E2E2E2E2E2E2E2E2E2E2E2E2E2E2E2E2E2E2E2E2E2E2E2E2E2E2E2E2E2E2E2E2E2E2E2E2E2E2E2E2E2E2E2E2E2E2E2E2E2E2E2E2E2E2E2E2E2E2E2E2E2E2E2E2E2E2E2E2E2E2E2E2E2E2E2E2E2E2E2E2E2E2E2E2E2E2E2E2E2E2E2E2E2E2E2E2E2E2E2E2E2F5E2E2E2E2E2E2E2E2E2E2E2F5F5EFF5E2E2
310
E2E2E2E2E2E2E2E2E2F5E2E2E2E2E2E2E2E2E2E2E2E2E2E2E2E2E2E2E2E2E2E2E2E2E2E2E2E2E2E2E2E2E2E2E2E2E2E2E2E2E2E2E2E2E2E2E2E2E2E2E2E2E2E2E2E2E2E2E2E2E2E2E2E2E2E2E2E2E2E2E2E2E2E2E2E2E2E2E2E2E2E2E2E2E2E2E2E2E2E2E2E2E2E2E2E2E2E2E2E2E2E2E2E2E2E2E2E2E2E2E2E2E2E2E2E2E2
310
E2E2E2E2E2E2E2E2E2E2E2E2E2E2E2E2E2E2E2E2E2E2E2E2E2E2E2E2E2E2E2E2E2E2E2F5E2E2E2E2E2E2E2E2E2E2E2F5F5EFF5E2E2E2E2E2E2E2E2E2E2E2F5E2E2E2E2E2E2E2E2E2E2E2E2E2E2E2E2E2E2E2E2E2E2E2E2E2E2E2E2E2E2E2E2E2E2E2E2E2E2E2E2E2E2E2E2E2E2E2E2E2E2E2E2E2E2E2E2E2E2E2E2E2E2E2E2
310
E2E2E2E2E2E2E2E2E2E2E2E2E2E2E2E2E2E2E2E2E2E2E2E2E2E2E2E2E2E2E2E2E2E2E2E2E2E2E2E2E2E2E2E2E2E2E2E2E2E2E2E2E2E2E2E2E2E2E2E2E2E2E2E2E2E2E2E2E2E2E2E2E2E2E2E2E2E2E2E2E2E2E2E2E2E2E2E2F5E2E2E2E2E2E2E2E2E2E2E2F5F5EFF5E2E2E2E2E2E2E2E2E2E2E2F5E2E2E2E2E2E2E2E2E2E2E2
310
E2E2E2E2E2E2E2E2E2E2E2E2E2E2E2E2E2E2E2E2E2E2E2E2E2E2E2E2E2E2E2E2E2E2E2E2E2E2E2E2E2E2E2E2E2E2E2E2E2E2E2E2E2E2E2E2E2E2E2E2E2E2E2E2E2E2E2E2E2E2E2E2E2E2E2E2E2E2E2E2E2E2E2E2E2E2E2E2E2E2E2E2E2E2E2E2E2E2E2E2E2E2E2E2E2E2E2E2E2E2E2E2E2E2E2E2E2E2E2E2E2E2E2E2E2E2E2
310
E2E2E2E2E2E2E2E2E2E2E2E2E2E2F5E2E2E2E2E2E2E2E2E2E2E2F5F5EFF5E2E2E2E2E2E2E2E2E2E2E2F5E2E2E2E2E2E2E2E2E2E2E2E2E2E2E2E2E2E2E2E2E2E2E2E2E2E2E2E2E2E2E2E2E2E2E2E2E2E2E2E2E2E2E2E2E2E2E2E2E2E2E2E2E2E2E2E2E2E2E2E2E2E2E2E2E2E2E2E2E2E2E2E2E2E2E2E2E2E2E2E2E2E2E2E2E2
310
E2E2E2E2E2E2E2E2E2E2E2E2E2E2E2E2E2E2E2E2E2E2E2E2E2E2E2E2E2E2E2E2E2E2E2E2E2E2E2E2E2E2E2E2E2E2E2E2E2E2E2E2E2E2E2E2E2E2E2E2E2E2E2E2E2E2E2F5E2E2E2E2E2E2E2E2E2E2E2F5F5EFF5E2E2E2E2E2E2E2E2E2E2E2F5E2E2E2E2E2E2E2E2E2E2E2E2E2E2E2E2E2E2E2E2E2E2E2E2E2E2E2E2E2E2E2E2
310
E2E2E2E2E2E2E2E2E2E2E2E2E2E2E2E2E2E2E2E2E2E2E2E2E2E2E2E2E2E2E2E2E2E2E2E2E2E2E2E2E2E2E2E2E2E2E2E2E2E2E2E2E2E2E2E2E2E2E2E2E2E2E2E2E2E2E2E2E2E2E2E2E2E2E2E2E2E2E2E2E2E2E2E2E2E2E2E2E2E2E2E2E2E2E2E2E2E2E2E2E2E2E2E2E2E2E2E2E2E2E2E2E2E2E2E2E2E2E2E2F5E2E2E2E2E2E2
310
E2E2E2E2E2F5F5EFF5E2E2E2E2E2E2E2E2E2E2E2F5E2E2E2E2E2E2E2E2E2E2E2E2E2E2E2E2E2E2E2E2E2E2E2E2E2E2E2E2E2E2E2E2E2E2E2E2E2E2E2E2E2E2E2E2E2E2E2E2E2E2E2E2E2E2E2E2E2E2E2E2E2E2E2E2E2E2E2E2E2E2E2E2E2E2E2E2E2E2E2E2E2E2E2E2E2E2E2E2E2E2E2E2E2E2E2E2E2E2E2E2E2E2E2E2E2E2
310
E2E2E2E2E2E2E2E2E2E2E2E2E2E2E2E2E2E2E2E2E2E2E2E2E2E2E2E2E2E2E2E2E2E2E2E2E2E2E2E2E2E2E2E2E2E2F5E2E2E2E2E2E2E2E2E2E2E2F5F5EFF5E2E2E2E2E2E2E2E2E2E2E2F5E2E2E2E2E2E2E2E2E2E2E2E2E2E2E2E2E2E2E2E2E2E2E2E2E2E2E2E2E2E2E2E2E2E2E2E2E2E2E2E2E2E2E2E2E2E2E2E2E2E2E2E2E2
310
E2E2E2E2E2E2E2E2E2E2E2E2E2E2E2E2E2E2E2E2E2E2E2E2E2E2E2E2E2E2E2E2E2E2E2E2E2E2E2E2E2E2E2E2E2E2E2E2E2E2E2E2E2E2E2E2E2E2E2E2E2E2E2E2E2E2E2E2E2E2E2E2E2E2E2E2E2E2E2E2E2E2E2E2E2E2E2E2E2E2E2E2E2E2E2E2E2E2E2F5E2E2E2E2E2E2E2E2E2E2E2F5F5EFF5E2E2E2E2E2E2E2E2E2E2E2F5
310
E2E2E2E2E2E2E2E2E2E2E2E2E2E2E2E2E2E2E2E2E2E2E2E2E2E2E2E2E2E2E2E2E2E2E2E2E2E2E2E2E2E2E2E2E2E2E2E2E2E2E2E2E2E2E2E2E2E2E2E2E2E2E2E2E2E2E2E2E2E2E2E2E2E2E2E2E2E2E2E2E2E2E2E2E2E2E2E2E2E2E2E2E2E2E2E2E2E2E2E2E2E2E2E2E2E2E2E2E2E2E2E2E2E2E2E2E2E2E2E2E2E2E2E2E2E2E2
310
E2E2E2E2E2E2E2E2E2E2E2E2E2E2E2E2E2E2E2E2E2E2E2E2E2F5E2E2E2E2E2E2E2E2E2E2E2F5F5EFF5E2E2E2E2E2E2E2E2E2E2E2F5E2E2E2E2E2E2E2E2E2E2E2E2E2E2E2E2E2E2E2E2E2E2E2E2E2E2E2E2E2E2E2E2E2E2E2E2E2E2E2E2E2E2E2E2E2E2E2E2E2E2E2E2E2E2E2E2E2E2E2E2E2E2E2E2E2E2E2E2E2E2E2E2E2E2
310
E2E2E2E2E2E2E2E2E2E2E2E2E2E2E2E2E2E2E2E2E2E2E2E2E2E2E2E2E2E2E2E2E2E2E2E2E2E2E2E2E2E2E2E2E2E2E2E2E2E2E2E2E2E2E2E2E2E2E2E2E2E2E2E2E2E2E2E2E2E2E2E2E2E2E2E2E2E2F5E2E2E2E2E2E2E2E2E2E2E2F5F5EFF5E2E2E2E2E2E2E2E2E2E2E2F5E2E2E2E2E2E2E2E2E2E2E2E2E2E2E2E2E2E2E2E2E2
310
E2E2E2E2E2E2E2E2E2E2E2E2E2E2E2E2E2E2E2E2E2E2E2E2E2E2E2E2E2E2E2E2E2E2E2E2E2E2E2E2E2E2E2E2E2E2E2E2E2E2E2E2E2E2E2E2E2E2E2E2E2E2E2E2E2E2E2E2E2E2E2E2E2E2E2E2E2E2E2E2E2E2E2E2E2E2E2E2E2E2E2E2E2E2E2E2E2E2E2E2E2E2E2E2E2E2E2E2E2E2E2E2E2E2E2E2E2E2E2E2E2E2E2E2E2E2E2
310
E2E2E2E2F5E2E2E2E2E2E2E2E2E2E2E2F5F5EFF5E2E2E2E2E2E2E2E2E2E2E2F5E2E2E2E2E2E2E2E2E2E2E2E2E2E2E2E2E2E2E2E2E2E2E2E2E2E2E2E2E2E2E2E2E2E2E2E2E2E2E2E2E2E2E2E2E2E2E2E2E2E2E2E2E2E2E2E2E2E2E2E2E2E2E2E2E2E2E2E2E2E2E2E2E2E2E2E2E2E2E2E2E2E2E2E2E2E2E2E2E2E2E2E2E2E2E2
310
E2E2E2E2E2E2E2E2E2E2E2E2E2E2E2E2E2E2E2E2E2E2E2E2E2E2E2E2E2E2E2E2E2E2E2E2E2E2E2E2E2E2E2E2E2E2E2E2E2E2E2E2E2E2E2E2E2F5E2E2E2E2E2E2E2E2E2E2E2F5F5EFF5E2E2E2E2E2E2E2E2E2E2E2F5E2E2E2E2E2E2E2E2E2E2E2E2E2E2E2E2E2E2E2E2E2E2E2E2E2E2E2E2E2E2E2E2E2E2E2E2E2E2E2E2E2E2
310
E2E2E2E2E2E2E2E2E2E2E2E2E2E2E2E2E2E2E2E2E2E2E2E2E2E2E2E2E2E2E2E2E2E2E2E2E2E2E2E2E2E2E2E2E2E2E2E2E2E2E2E2E2E2E2E2E2E2E2E2E2E2E2E2E2E2E2E2E2E2E2E2E2E2E2E2E2E2E2E2E2E2E2E2E2E2E2E2E2E2E2E2E2E2E2E2E2E2E2E2E2E2E2E2E2E2E2E2E2E2F5E2E2E2E2E2E2E2E2E2E2E2F5F5EFF5E2
310
E2E2E2E2E2E2E2E2E2E2F5E2E2E2E2E2E2E2E2E2E2E2E2E2E2E2E2E2E2E2E2E2E2E2E2E2E2E2E2E2E2E2E2E2E2E2E2E2E2E2E2E2E2E2E2E2E2E2E2E2E2E2E2E2E2E2E2E2E2E2E2E2E2E2E2E2E2E2E2E2E2E2E2E2E2E2E2E2E2E2E2E2E2E2E2E2E2E2E2E2E2E2E2E2E2E2E2E2E2E2E2E2E2E2E2E2E2E2E2E2E2E2E2E2E2E2E2
310
E2E2E2E2E2E2E2E2E2E2E2E2E2E2E2E2E2E2E2E2E2E2E2E2E2E2E2E2E2E2E2E2E2E2E2E2F5E2E2E2E2E2E2E2E2E2E2E2F5F5EFF5E2E2E2E2E2E2E2E2E2E2E2E2E2E2E2E2E2E2E2E2E2E2E2E2E2E2E2E2E2E2E2E2E2E2E2E2E2E2E2E2E2E2E2E2E2E2E2E2E2E2E2E2E2E2E2E2E2E2E2E2E2E2E2E2E2E2E2E2E2E2E2E2E2E2E2
310
E2E2E2E2E2E2E2E2E2E2E2E2E2E2E2E2E2E2E2E2E2E2E2E2E2E2E2E2E2E2E2E2E2E2E2E2E2E2E2E2E2E2E2E2E2E2E2E2E2E2E2E2E2E2E2E2E2E2E2E2E2E2E2E2E2E2E2E2E2E2E2E2E2E2E2E2E2E2E2E2E2E2E2E2E2E2E2E2E2E2E2E2E2E2E2E2E2E2E2E2E2F5F5EFF5E2E2E2E2E2E2E2E2E2E2E2E2E2E2E2E2E2E2E2E2E2E2
310
E2E2E2E2E2E2E2E2E2E2E2E2E2E2E2E2E2E2E2E2E2E2E2E2E2E2E2E2E2E2E2E2E2E2E2E2E2E2E2E2E2E2E2E2E2E2E2E2E2E2E2E2E2E2E2E2E2E2E2E2E2E2E2E2E2E2E2E2E2E2E2E2E2E2E2E2E2E2E2E2E2E2E2E2E2E2E2E2E2E2E2E2E2E2E2E2E2E2E2E2E2E2E2E2E2E2E2E2E2E2E2E2E2E2E2E2E2E2E2E2E2E2E2E2E2E2E2
310
E2E2E2E2E2E2E2E2E2E2E2E2E2E2E2E2E2E2E2E2E2E2E2E2E2E2E2F5F5EFF5E2E2E2E2E2E2E2E2E2E2E2E2E2E2E2E2E2E2E2E2E2E2E2E2E2E2E2E2E2E2E2E2E2E2E2E2E2E2E2E2E2E2E2E2E2E2E2E2E2E2E2E2E2E2E2E2E2E2E2E2E2E2E2E2E2E2E2E2E2E2E2E2E2E2E2E2E2E2E2E2E2E2E2E2E2E2E2E2E2E2E2E2E2E2E2E2
310
E2E2E2E2E2E2E2E2E2E2E2E2E2E2E2E2E2E2E2E2E2E2E2E2E2E2E2E2E2E2E2E2E2E2E2E2E2E2E2E2E2E2E2E2E2E2E2E2E2E2E2E2E2E2E2E2E2E2E2E2E2E2E2E2E2E2E2E2E2E2E2E2E2E2E2E2E2E2E2E2F5F5EFF5E2E2E2E2E2E2E2E2E2E2E2E2E2E2E2E2E2E2E2E2E2E2E2E2E2E2E2E2E2E2E2E2E2E2E2E2E2E2E2E2E2E2E2
310
E2E2E2E2E2E2E2E2E2E2E2E2E2E2E2E2E2E2E2E2E2E2E2E2E2E2E2E2E2E2E2E2E2E2E2E2E2E2E2E2E2E2E2E2E2E2E2E2E2E2E2E2E2E2E2E2E2E2E2E2E2E2E2E2E2E2E2E2E2E2E2E2E2E2E2E2E2E2E2E2E2E2E2E2E2E2E2E2E2E2E2E2E2E2E2E2E2E2E2E2E2E2E2E2E2E2E2E2E2E2E2E2E2E2E2E2E2E2E2E2E2E2E2E2E2E2E2
310
E2E2E2E2E2E2F5F5EFF5E2E2E2E2E2E2E2E2E2E2E2E2E2E2E2E2E2E2E2E2E2E2E2E2E2E2E2E2E2E2E2E2E2E2E2E2E2E2E2E2E2E2E2E2E2E2E2E2E2E2E2E2E2E2E2E2E2E2E2E2E2E2E2E2E2E2E2E2E2E2E2E2E2E2E2E2E2E2E2E2E2E2E2E2E2E2E2E2E2E2E2E2E2E2E2E2E2E2E2E2E2E2E2E2E2E2E2E2E2E2E2E2E2E2E2E2E2
310
E2E2E2E2E2E2E2E2E2E2E2E2E2E2E2E2E2E2E2E2E2E2E2E2E2E2E2E2E2E2E2E2E2E2E2E2E2E2E2E2E2E2E2E2E2E2E2E2E2E2E2E2E2E2E2E2E2E2E2F5F5EFF5E2E2E2E2E2E2E2E2E2E2E2E2E2E2E2E2E2E2E2E2E2E2E2E2E2E2E2E2E2E2E2E2E2E2E2E2E2E2E2E2E2E2E2E2E2E2E2E2E2E2E2E2E2E2E2E2E2E2E2E2E2E2E2E2
310
E2E2E2E2E2E2E2E2E2E2E2E2E2E2E2E2E2E2E2E2E2E2E2E2E2E2E2E2E2E2E2E2E2E2E2E2E2E2E2E2E2E2E2E2E2E2E2E2E2E2E2E2E2E2E2E2E2E2E2E2E2E2E2E2E2E2E2E2E2E2E2E2E2E2E2E2E2E2E2E2E2E2E2E2E2E2E2E2E2E2E2E2E2E2E2E2E2E2E2E2E2E2E2E2E2E2E2E2E2E2E2E2F5F5EFF5E2E2E2E2E2E2E2E2E2E2E2
310
E2E2E2E2E2E2E2E2E2E2E2E2E2E2E2E2E2E2E2E2E2E2E2E2E2E2E2E2E2E2E2E2E2E2E2E2E2E2E2E2E2E2E2E2E2E2E2E2E2E2E2E2E2E2E2E2E2E2E2E2E2E2E2E2E2E2E2E2E2E2E2E2E2E2E2E2E2E2E2E2E2E2E2E2E2E2E2E2E2E2E2E2E2E2E2E2E2E2E2E2E2E2E2E2E2E2E2E2E2E2E2E2E2E2E2E2E2E2E2E2E2E2E2E2E2E2E2
310
E2E2E2E2E2E2E2E2E2E2E2E2E2E2E2E2E2E2E2E2E2E2E2E2E2E2E2E2E2E2E2E2E2E2E2E2E2E2F5F5EFF5E2E2E2E2E2E2E2E2E2E2E2E2E2E2E2E2E2E2E2E2E2E2E2E2E2E2E2E2E2E2E2E2E2E2E2E2E2E2E2E2E2E2E2E2E2E2E2E2E2E2E2E2E2E2E2E2E2E2E2E2E2E2E2E2E2E2E2E2E2E2E2E2E2E2E2E2E2E2E2E2E2E2E2E2E2
310
E2E2E2E2E2E2E2E2E2E2E2E2E2E2E2E2E2E2E2E2E2E2E2E2E2E2E2E2E2E2E2E2E2E2E2E2E2E2E2E2E2E2E2E2E2E2E2E2E2E2E2E2E2E2E2E2E2E2E2E2E2E2E2E2E2E2E2E2E2E2E2E2E2E2E2E2E2E2E2E2E2E2E2E2E2E2E2E2E2E2E2F5F5EFF5E2E2E2E2E2E2E2E2E2E2E2F5E2E2E2E2E2E2E2E2E2E2E2E2E2E2E2E2E2E2E2E2
310
E2E2E2E2E2E2E2E2E2E2E2E2E2E2E2E2E2E2E2E2E2E2E2E2E2E2E2E2E2E2E2E2E2E2E2E2E2E2E2E2E2E2E2E2E2E2E2E2E2E2E2E2E2E2E2E2E2E2E2E2E2E2E2E2E2E2E2E2E2E2E2E2E2E2E2E2E2E2E2E2E2E2E2E2E2E2E2E2E2E2E2E2E2E2E2E2E2E2E2E2E2E2E2E2E2E2E2E2E2E2E2E2E2E2E2E2E2E2E2E2E2E2E2E2E2E2E2
310
E2E2E2E2E2F5E2E2E2E2E2E2E2E2E2E2E2F5F5EFF5E2E2E2E2E2E2E2E2E2E2E2F5E2E2E2E2E2E2E2E2E2E2E2E2E2E2E2E2E2E2E2E2E2E2E2E2E2E2E2E2E2E2E2E2E2E2E2E2E2E2E2E2E2E2E2E2E2E2E2E2E2E2E2E2E2E2E2E2E2E2E2E2E2E2E2E2E2E2E2E2E2E2E2E2E2E2E2E2E2E2E2E2E2E2E2E2E2E2E2E2E2E2E2E2E2E2
310
E2E2E2E2E2E2E2E2E2E2E2E2E2E2E2E2E2E2E2E2E2E2E2E2E2E2E2E2E2E2E2E2E2E2E2E2E2E2E2E2E2E2E2E2E2E2E2E2E2E2E2E2E2E2E2E2E2E2F5E2E2E2E2E2E2E2E2E2E2E2F5F5EFF5E2E2E2E2E2E2E2E2E2E2E2F5E2E2E2E2E2E2E2E2E2E2E2E2E2E2E2E2E2E2E2E2E2E2E2E2E2E2E2E2E2E2E2E2E2E2E2E2E2E2E2E2E2
310
E2E2E2E2E2E2E2E2E2E2E2E2E2E2E2E2E2E2E2E2E2E2E2E2E2E2E2E2E2E2E2E2E2E2E2E2E2E2E2E2E2E2E2E2E2E2E2E2E2E2E2E2E2E2E2E2E2E2E2E2E2E2E2E2E2E2E2E2E2E2E2E2E2E2E2E2E2E2E2E2E2E2E2E2E2E2E2E2E2E2E2E2E2E2E2E2E2E2E2E2E2E2E2E2E2E2E2E2E2E2E2F5E2E2E2E2E2E2E2E2E2E2E2F5F5EFF5
310
E2E2E2E2E2E2E2E2E2E2E2F5E2E2E2E2E2E2E2E2E2E2E2E2E2E2E2E2E2E2E2E2E2E2E2E2E2E2E2E2E2E2E2E2E2E2E2E2E2E2E2E2E2E2E2E2E2E2E2E2E2E2E2E2E2E2E2E2E2E2E2E2E2E2E2E2E2E2E2E2E2E2E2E2E2E2E2E2E2E2E2E2E2E2E2E2E2E2E2E2E2E2E2E2E2E2E2E2E2E2E2E2E2E2E2E2E2E2E2E2E2E2E2E2E2E2E2
310
E2E2E2E2E2E2E2E2E2E2E2E2E2E2E2E2E2E2E2E2E2E2E2E2E2E2E2E2E2E2E2E2E2E2E2E2E2F5E2E2E2E2E2E2E2E2E2E2E2F5F5EFF5E2E2E2E2E2E2E2E2E2E2E2F5E2E2E2E2E2E2E2E2E2E2E2E2E2E2E2E2E2E2E2E2E2E2E2E2E2E2E2E2E2E2E2E2E2E2E2E2E2E2E2E2E2E2E2E2E2E2E2E2E2E2E2E2E2E2E2E2E2E2E2E2E2E2
310
E2E2E2E2E2E2E2E2E2E2E2E2E2E2E2E2E2E2E2E2E2E2E2E2E2E2E2E2E2E2E2E2E2E2E2E2E2E2E2E2E2E2E2E2E2E2E2E2E2E2E2E2E2E2E2E2E2E2E2E2E2E2E2E2E2E2E2E2E2E2E2E2E2E2E2E2E2E2E2E2E2E2E2E2E2E2E2E2E2E2F5E2E2E2E2E2E2E2E2E2E2E2F5F5EFF5E2E2E2E2E2E2E2E2E2E2E2F5E2E2E2E2E2E2E2E2E2
310
E2E2E2E2E2E2E2E2E2E2E2E2E2E2E2E2E2E2E2E2E2E2E2E2E2E2E2E2E2E2E2E2E2E2E2E2E2E2E2E2E2E2E2E2E2E2E2E2E2E2E2E2E2E2E2E2E2E2E2E2E2E2E2E2E2E2E2E2E2E2E2E2E2E2E2E2E2E2E2E2E2E2E2E2E2E2E2E2E2E2E2E2E2E2E2E2E2E2E2E2E2E2E2E2E2E2E2E2E2E2E2E2E2E2E2E2E2E2E2E2E2E2E2E2E2E2E2
310
E2E2E2E2E2E2E2E2E2E2E2E2E2E2E2E2F5E2E2E2E2E2E2E2E2E2E2E2F5F5EFF5E2E2E2E2E2E2E2E2E2E2E2F5E2E2E2E2E2E2E2E2E2E2E2E2E2E2E2E2E2E2E2E2E2E2E2E2E2E2E2E2E2E2E2E2E2E2E2E2E2E2E2E2E2E2E2E2E2E2E2E2E2E2E2E2E2E2E2E2E2E2E2E2E2E2E2E2E2E2E2E2E2E2E2E2E2E2E2E2E2E2E2E2E2E2E2
310
E2E2E2E2E2E2E2E2E2E2E2E2E2E2E2E2E2E2E2E2E2E2E2E2E2E2E2E2E2E2E2E2E2E2E2E2E2E2E2E2E2E2E2E2E2E2E2E2E2E2E2E2E2E2E2E2E2E2E2E2E2E2E2E2E2E2E2E2E2F5E2E2E2E2E2E2E2E2E2E2E2F5F5EFF5E2E2E2E2E2E2E2E2E2E2E2F5E2E2E2E2E2E2E2E2E2E2E2E2E2E2E2E2E2E2E2E2E2E2E2E2E2E2E2E2E2E2
310
E2E2E2E2E2E2E2E2E2E2E2E2E2E2E2E2E2E2E2E2E2E2E2E2E2E2E2E2E2E2E2E2E2E2E2E2E2E2E2E2E2E2E2E2E2E2E2E2E2E2E2E2E2E2E2E2E2E2E2E2E2E2E2E2E2E2E2E2E2E2E2E2E2E2E2E2E2E2E2E2E2E2E2E2E2E2E2E2E2E2E2E2E2E2E2E2E2E2E2E2E2E2E2E2E2E2E2E2E2E2E2E2E2E2E2E2E2E2E2E2E2E2F5E2E2E2E2
310
E2E2E2E2E2E2E2F5F5EFF5E2E2E2E2E2E2E2E2E2E2E2F5E2E2E2E2E2E2E2E2E2E2E2E2E2E2E2E2E2E2E2E2E2E2E2E2E2E2E2E2E2E2E2E2E2E2E2E2E2E2E2E2E2E2E2E2E2E2E2E2E2E2E2E2E2E2E2E2E2E2E2E2E2E2E2E2E2E2E2E2E2E2E2E2E2E2E2E2E2E2E2E2E2E2E2E2E2E2E2E2E2E2E2E2E2E2E2E2E2E2E2E2E2E2E2E2
310
E2E2E2E2E2E2E2E2E2E2E2E2E2E2E2E2E2E2E2E2E2E2E2E2E2E2E2E2E2E2E2E2E2E2E2E2E2E2E2E2E2E2E2E2E2E2E2E2F5E2E2E2E2E2E2E2E2E2E2E2F5F5EFF5E2E2E2E2E2E2E2E2E2E2E2F5E2E2E2E2E2E2E2E2E2E2E2E2E2E2E2E2E2E2E2E2E2E2E2E2E2E2E2E2E2E2E2E2E2E2E2E2E2E2E2E2E2E2E2E2E2E2E2E2E2E2E2
310
E2E2E2E2E2E2E2E2E2E2E2E2E2E2E2E2E2E2E2E2E2E2E2E2E2E2E2E2E2E2E2E2E2E2E2E2E2E2E2E2E2E2E2E2E2E2E2E2E2E2E2E2E2E2E2E2E2E2E2E2E2E2E2E2E2E2E2E2E2E2E2E2E2E2E2E2E2E2E2E2E2E2E2E2E2E2E2E2E2E2E2E2E2E2E2E2E2E2E2E2E2F5E2E2E2E2E2E2E2E2E2E2E2F5F5EFF5E2E2E2E2E2E2E2E2E2E2
310
E2F5E2E2E2E2E2E2E2E2E2E2E2E2E2E2E2E2E2E2E2E2E2E2E2E2E2E2E2E2E2E2E2E2E2E2E2E2E2E2E2E2E2E2E2E2E2E2E2E2E2E2E2E2E2E2E2E2E2E2E2E2E2E2E2E2E2E2E2E2E2E2E2E2E2E2E2E2E2E2E2E2E2E2E2E2E2E2E2E2E2E2E2E2E2E2E2E2E2E2E2E2E2E2E2E2E2E2E2E2E2E2E2E2E2E2E2E2E2E2E2E2E2E2E2E2E2
310
E2E2E2E2E2E2E2E2E2E2E2E2E2E2E2E2E2E2E2E2E2E2E2E2E2E2E2F5E2E2E2E2E2E2E2E2E2E2E2F5F5EFF5E2E2E2E2E2E2E2E2E2E2E2F5E2E2E2E2E2E2E2E2E2E2E2E2E2E2E2E2E2E2E2E2E2E2E2E2E2E2E2E2E2E2E2E2E2E2E2E2E2E2E2E2E2E2E2E2E2E2E2E2E2E2E2E2E2E2E2E2E2E2E2E2E2E2E2E2E2E2E2E2E2E2E2E2
310
E2E2E2E2E2E2E2E2E2E2E2E2E2E2E2E2E2E2E2E2E2E2E2E2E2E2E2E2E2E2E2E2E2E2E2E2E2E2E2E2E2E2E2E2E2E2E2E2E2E2E2E2E2E2E2E2E2E2E2E2E2E2E2E2E2E2E2E2E2E2E2E2E2E2E2E2E2E2E2E2F5E2E2E2E2E2E2E2E2E2E2E2F5F5EFF5E2E2E2E2E2E2E2E2E2E2E2F5E2E2E2E2E2E2E2E2E2E2E2E2E2E2E2E2E2E2E2
310
E2E2E2E2E2E2E2E2E2E2E2E2E2E2E2E2E2E2E2E2E2E2E2E2E2E2E2E2E2E2E2E2E2E2E2E2E2E2E2E2E2E2E2E2E2E2E2E2E2E2E2E2E2E2E2E2E2E2E2E2E2E2E2E2E2E2E2E2E2E2E2E2E2E2E2E2E2E2E2E2E2E2E2E2E2E2E2E2E2E2E2E2E2E2E2E2E2E2E2E2E2E2E2E2E2E2E2E2E2E2E2E2E2E2E2E2E2E2E2E2E2E2E2E2E2E2E2
310
E2E2E2E2E2E2F5E2E2E2E2E2E2E2E2E2E2E2F5F5EFF5E2E2E2E2E2E2E2E2E2E2E2F5E2E2E2E2E2E2E2E2E2E2E2E2E2E2E2E2E2E2E2E2E2E2E2E2E2E2E2E2E2E2E2E2E2E2E2E2E2E2E2E2E2E2E2E2E2E2E2E2E2E2E2E2E2E2E2E2E2E2E2E2E2E2E2E2E2E2E2E2E2E2E2E2E2E2E2E2E2E2E2E2E2E2E2E2E2E2E2E2E2E2E2E2E2
310
E2E2E2E2E2E2E2E2E2E2E2E2E2E2E2E2E2E2E2E2E2E2E2E2E2E2E2E2E2E2E2E2E2E2E2E2E2E2E2E2E2E2E2E2E2E2E2E2E2E2E2E2E2E2E2E2E2E2E2F5E2E2E2E2E2E2E2E2E2E2E2F5F5EFF5E2E2E2E2E2E2E2E2E2E2E2F5E2E2E2E2E2E2E2E2E2E2E2E2E2E2E2E2E2E2E2E2E2E2E2E2E2E2E2E2E2E2E2E2E2E2E2E2E2E2E2E2
310
E2E2E2E2E2E2E2E2E2E2E2E2E2E2E2E2E2E2E2E2E2E2E2E2E2E2E2E2E2E2E2E2E2E2E2E2E2E2E2E2E2E2E2E2E2E2E2E2E2E2E2E2E2E2E2E2E2E2E2E2E2E2E2E2E2E2E2E2E2E2E2E2E2E2E2E2E2E2E2E2E2E2E2E2E2E2E2E2E2E2E2E2E2E2E2E2E2E2E2E2E2E2E2E2E2E2E2E2E2E2E2E2F5E2E2E2E2E2E2E2E2E2E2E2F5F5EF
310
F5E2E2E2E2E2E2E2E2E2E2E2E2E2E2E2E2E2E2E2E2E2E2E2E2E2E2E2E2E2E2E2E2E2E2E2E2E2E2E2E2E2E2E2E2E2E2E2E2E2E2E2E2E2E2E2E2E2E2E2E2E2E2E2E2E2E2E2E2E2E2E2E2E2E2E2E2E2E2E2E2E2E2E2E2E2E2E2E2E2E2E2E2E2E2E2E2E2E2E2E2E2E2E2E2E2E2E2E2E2E2E2E2E2E2E2E2E2E2E2E2E2E2E2E2E2E2
310
E2E2E2E2E2E2E2E2E2E2E2E2E2E2E2E2E2E2E2E2E2E2E2E2E2E2E2E2E2E2E2E2E2E2E2E2E2E2E2E2E2E2E2E2E2E2E2E2E2E2F5F5EFF5E2E2E2E2E2E2E2E2E2E2E2E2E2E2E2E2E2E2E2E2E2E2E2E2E2E2E2E2E2E2E2E2E2E2E2E2E2E2E2E2E2E2E2E2E2E2E2E2E2E2E2E2E2E2E2E2E2E2E2E2E2E2E2E2E2E2E2E2E2E2E2E2E2
310
E2E2E2E2E2E2E2E2E2E2E2E2E2E2E2E2E2E2E2E2E2E2E2E2E2E2E2E2E2E2E2E2E2E2E2E2E2E2E2E2E2E2E2E2E2E2E2E2E2E2E2E2E2E2E2E2E2E2E2E2E2E2E2E2E2E2E2E2E2E2E2E2E2E2E2E2E2E2E2E2E2E2E2E2E2E2E2E2E2E2E2E2E2E2E2E2E2E2E2E2E2E2E2F5F5EFF5E2E2E2E2E2E2E2E2E2E2E2E2E2E2E2E2E2E2E2E2
310
E2E2E2E2E2E2E2E2E2E2E2E2E2E2E2E2E2E2E2E2E2E2E2E2E2E2E2E2E2E2E2E2E2E2E2E2E2E2E2E2E2E2E2E2E2E2E2E2E2E2E2E2E2E2E2E2E2E2E2E2E2E2E2E2E2E2E2E2E2E2E2E2E2E2E2E2E2E2E2E2E2E2E2E2E2E2E2E2E2E2E2E2E2E2E2E2E2E2E2E2E2E2E2E2E2E2E2E2E2E2E2E2E2E2E2E2E2E2E2E2E2E2E2E2E2E2E2
310
E2E2E2E2E2E2E2E2E2E2E2E2E2E2E2E2E2E2E2E2E2E2E2E2E2E2E2E2E2F5F5EFF5E2E2E2E2E2E2E2E2E2E2E2E2E2E2E2E2E2E2E2E2E2E2E2E2E2E2E2E2E2E2E2E2E2E2E2E2E2E2E2E2E2E2E2E2E2E2E2E2E2E2E2E2E2E2E2E2E2E2E2E2E2E2E2E2E2E2E2E2E2E2E2E2E2E2E2E2E2E2E2E2E2E2E2E2E2E2E2E2E2E2E2E2E2E2
310
E2E2E2E2E2E2E2E2E2E2E2E2E2E2E2E2E2E2E2E2E2E2E2E2E2E2E2E2E2E2E2E2E2E2E2E2E2E2E2E2E2E2E2E2E2E2E2E2E2E2E2E2E2E2E2E2E2E2E2E2E2E2E2E2E2E2E2E2E2E2E2E2E2E2E2E2E2E2E2E2E2E2F5F5EFF5E2E2E2E2E2E2E2E2E2E2E2E2E2E2E2E2E2E2E2E2E2E2E2E2E2E2E2E2E2E2E2E2E2E2E2E2E2E2E2E2E2
310
E2E2E2E2E2E2E2E2E2E2E2E2E2E2E2E2E2E2E2E2E2E2E2E2E2E2E2E2E2E2E2E2E2E2E2E2E2E2E2E2E2E2E2E2E2E2E2E2E2E2E2E2E2E2E2E2E2E2E2E2E2E2E2E2E2E2E2E2E2E2E2E2E2E2E2E2E2E2E2E2E2E2E2E2E2E2E2E2E2E2E2E2E2E2E2E2E2E2E2E2E2E2E2E2E2E2E2E2E2E2E2E2E2E2E2E2E2E2E2E2E2E2E2E2E2E2E2
310
E2E2E2E2E2E2E2E2F5F5EFF5E2E2E2E2E2E2E2E2E2E2E2E2E2E2E2E2E2E2E2E2E2E2E2E2E2E2E2E2E2E2E2E2E2E2E2E2E2E2E2E2E2E2E2E2E2E2E2E2E2E2E2E2E2E2E2E2E2E2E2E2E2E2E2E2E2E2E2E2E2E2E2E2E2E2E2E2E2E2E2E2E2E2E2E2E2E2E2E2E2E2E2E2E2E2E2E2E2E2E2E2E2E2E2E2E2E2E2E2E2E2E2E2E2E2E2
310
E2E2E2E2E2E2E2E2E2E2E2E2E2E2E2E2E2E2E2E2E2E2E2E2E2E2E2E2E2E2E2E2E2E2E2E2E2E2E2E2E2E2E2E2E2E2E2E2E2E2E2E2E2E2E2E2E2E2E2E2E2F5F5EFF5E2E2E2E2E2E2E2E2E2E2E2E2E2E2E2E2E2E2E2E2E2E2E2E2E2E2E2E2E2E2E2E2E2E2E2E2E2E2E2E2E2E2E2E2E2E2E2E2E2E2E2E2E2E2E2E2E2E2E2E2E2E2
310
E2E2E2E2E2E2E2E2E2E2E2E2E2E2E2E2E2E2E2E2E2E2E2E2E2E2E2E2E2E2E2E2E2E2E2E2E2E2E2E2E2E2E2E2E2E2E2E2E2E2E2E2E2E2E2E2E2E2E2E2E2E2E2E2E2E2E2E2E2E2E2E2E2E2E2E2E2E2E2E2E2E2E2E2E2E2E2E2E2E2E2E2E2E2E2E2E2E2E2E2E2E2E2E2E2E2E2E2E2E2E2E2E2E2F5F5EFF5E2E2E2E2E2E2E2E2E2
310
E2E2E2E2E2E2E2E2E2E2E2E2E2E2E2E2E2E2E2E2E2E2E2E2E2E2E2E2E2E2E2E2E2E2E2E2E2E2E2E2E2E2E2E2E2E2E2E2E2E2E2E2E2E2E2E2E2E2E2E2E2E2E2E2E2E2E2E2E2E2E2E2E2E2E2E2E2E2E2E2E2E2E2E2E2E2E2E2E2E2E2E2E2E2E2E2E2E2E2E2E2E2E2E2E2E2E2E2E2E2E2E2E2E2E2E2E2E2E2E2E2E2E2E2E2E2E2
310
E2E2E2E2E2E2E2E2E2E2E2E2E2E2E2E2E2E2E2E2E2E2E2E2E2E2E2E2E2E2E2E2E2E2E2E2E2E2E2E2F5F5EFF5E2E2E2E2E2E2E2E2E2E2E2E2E2E2E2E2E2E2E2E2E2E2E2E2E2E2E2E2E2E2E2E2E2E2E2E2E2E2E2E2E2E2E2E2E2E2E2E2E2E2E2E2E2E2E2E2E2E2E2E2E2E2E2E2E2E2E2E2E2E2E2E2E2E2E2E2E2E2E2E2E2E2E2
310
E2E2E2E2E2E2E2E2E2E2E2E2E2E2E2E2E2E2E2E2E2E2E2E2E2E2E2E2E2E2E2E2E2E2E2E2E2E2E2E2E2E2E2E2E2E2E2E2E2E2E2E2E2E2E2E2E2E2E2E2E2E2E2E2E2E2E2E2E2E2E2E2E2E2E2E2E2E2E2E2E2E2E2E2E2E2E2E2E2E2E2E2E2F5F5EFF5E2E2E2E2E2E2E2E2E2E2E2F5E2E2E2E2E2E2E2E2E2E2E2E2E2E2E2E2E2E2
310
E2E2E2E2E2E2E2E2E2E2E2E2E2E2E2E2E2E2E2E2E2E2E2E2E2E2E2E2E2E2E2E2E2E2E2E2E2E2E2E2E2E2E2E2E2E2E2E2E2E2E2E2E2E2E2E2E2E2E2E2E2E2E2E2E2E2E2E2E2E2E2E2E2E2E2E2E2E2E2E2E2E2E2E2E2E2E2E2E2E2E2E2E2E2E2E2E2E2E2E2E2E2E2E2E2E2E2E2E2E2E2E2E2E2E2E2E2E2E2E2E2E2E2E2E2E2E2
310
E2E2E2E2E2E2E2F5E2E2E2E2E2E2E2E2E2E2E2F5F5EFF5E2E2E2E2E2E2E2E2E2E2E2F5E2E2E2E2E2E2E2E2E2E2E2E2E2E2E2E2E2E2E2E2E2E2E2E2E2E2E2E2E2E2E2E2E2E2E2E2E2E2E2E2E2E2E2E2E2E2E2E2E2E2E2E2E2E2E2E2E2E2E2E2E2E2E2E2E2E2E2E2E2E2E2E2E2E2E2E2E2E2E2E2E2E2E2E2E2E2E2E2E2E2E2E2
310
E2E2E2E2E2E2E2E2E2E2E2E2E2E2E2E2E2E2E2E2E2E2E2E2E2E2E2E2E2E2E2E2E2E2E2E2E2E2E2E2E2E2E2E2E2E2E2E2E2E2E2E2E2E2E2E2E2E2E2E2F5E2E2E2E2E2E2E2E2E2E2E2F5F5EFF5E2E2E2E2E2E2E2E2E2E2E2F5E2E2E2E2E2E2E2E2E2E2E2E2E2E2E2E2E2E2E2E2E2E2E2E2E2E2E2E2E2E2E2E2E2E2E2E2E2E2E2
310
E2E2E2E2E2E2E2E2E2E2E2E2E2E2E2E2E2E2E2E2E2E2E2E2E2E2E2E2E2E2E2E2E2E2E2E2E2E2E2E2E2E2E2E2E2E2E2E2E2E2E2E2E2E2E2E2E2E2E2E2E2E2E2E2E2E2E2E2E2E2E2E2E2E2E2E2E2E2E2E2E2E2E2E2E2E2E2E2E2E2E2E2E2E2E2E2E2E2E2E2E2E2E2E2E2E2E2E2E2E2E2E2E2F5E2E2E2E2E2E2E2E2E2E2E2F5F5
310
EFF5E2E2E2E2E2E2E2E2E2E2E2F5E2E2E2E2E2E2E2E2E2E2E2E2E2E2E2E2E2E2E2E2E2E2E2E2E2E2E2E2E2E2E2E2E2E2E2E2E2E2E2E2E2E2E2E2E2E2E2E2E2E2E2E2E2E2E2E2E2E2E2E2E2E2E2E2E2E2E2E2E2E2E2E2E2E2E2E2E2E2E2E2E2E2E2E2E2E2E2E2E2E2E2E2E2E2E2E2E2E2E2E2E2E2E2E2E2E2E2E2E2E2E2E2E2
310
E2E2E2E2E2E2E2E2E2E2E2E2E2E2E2E2E2E2E2E2E2E2E2E2E2E2E2E2E2E2E2E2E2E2E2E2E2E2E2F5E2E2E2E2E2E2E2E2E2E2E2F5F5EFF5E2E2E2E2E2E2E2E2E2E2E2F5E2E2E2E2E2E2E2E2E2E2E2E2E2E2E2E2E2E2E2E2E2E2E2E2E2E2E2E2E2E2E2E2E2E2E2E2E2E2E2E2E2E2E2E2E2E2E2E2E2E2E2E2E2E2E2E2E2E2E2E2
310
E2E2E2E2E2E2E2E2E2E2E2E2E2E2E2E2E2E2E2E2E2E2E2E2E2E2E2E2E2E2E2E2E2E2E2E2E2E2E2E2E2E2E2E2E2E2E2E2E2E2E2E2E2E2E2E2E2E2E2E2E2E2E2E2E2E2E2E2E2E2E2E2E2E2E2E2E2E2E2E2E2E2E2E2E2E2E2E2E2E2E2E2F5E2E2E2E2E2E2E2E2E2E2E2F5F5EFF5E2E2E2E2E2E2E2E2E2E2E2F5E2E2E2E2E2E2E2
310
E2E2E2E2E2E2E2E2E2E2E2E2E2E2E2E2E2E2E2E2E2E2E2E2E2E2E2E2E2E2E2E2E2E2E2E2E2E2E2E2E2E2E2E2E2E2E2E2E2E2E2E2E2E2E2E2E2E2E2E2E2E2E2E2E2E2E2E2E2E2E2E2E2E2E2E2E2E2E2E2E2E2E2E2E2E2E2E2E2E2E2E2E2E2E2E2E2E2E2E2E2E2E2E2E2E2E2E2E2E2E2E2E2E2E2E2E2E2E2E2E2E2E2E2E2E2E2
310
E2E2E2E2E2E2E2E2E2E2E2E2E2E2E2E2E2E2F5E2E2E2E2E2E2E2E2E2E2E2F5F5EFF5E2E2E2E2E2E2E2E2E2E2E2F5E2E2E2E2E2E2E2E2E2E2E2E2E2E2E2E2E2E2E2E2E2E2E2E2E2E2E2E2E2E2E2E2E2E2E2E2E2E2E2E2E2E2E2E2E2E2E2E2E2E2E2E2E2E2E2E2E2E2E2E2E2E2E2E2E2E2E2E2E2E2E2E2E2E2E2E2E2E2E2E2E2
310
E2E2E2E2E2E2E2E2E2E2E2E2E2E2E2E2E2E2E2E2E2E2E2E2E2E2E2E2E2E2E2E2E2E2E2E2E2E2E2E2E2E2E2E2E2E2E2E2E2E2E2E2E2E2E2E2E2E2E2E2E2E2E2E2E2E2E2E2E2E2E2F5E2E2E2E2E2E2E2E2E2E2E2F5F5EFF5E2E2E2E2E2E2E2E2E2E2E2F5E2E2E2E2E2E2E2E2E2E2E2E2E2E2E2E2E2E2E2E2E2E2E2E2E2E2E2E2
310
E2E2E2E2E2E2E2E2E2E2E2E2E2E2E2E2E2E2E2E2E2E2E2E2E2E2E2E2E2E2E2E2E2E2E2E2E2E2E2E2E2E2E2E2E2E2E2E2E2E2E2E2E2E2E2E2E2E2E2E2E2E2E2E2E2E2E2E2E2E2E2E2E2E2E2E2E2E2E2E2E2E2E2E2E2E2E2E2E2E2E2E2E2E2E2E2E2E2E2E2E2E2E2E2E2E2E2E2E2E2E2E2E2E2E2E2E2E2E2E2E2E2E2E2F5E2E2
310
E2E2E2E2E2E2E2E2E2F5F5EFF5E2E2E2E2E2E2E2E2E2E2E2F5E2E2E2E2E2E2E2E2E2E2E2E2E2E2E2E2E2E2E2E2E2E2E2E2E2E2E2E2E2E2E2E2E2E2E2E2E2E2E2E2E2E2E2E2E2E2E2E2E2E2E2E2E2E2E2E2E2E2E2E2E2E2E2E2E2E2E2E2E2E2E2E2E2E2E2E2E2E2E2E2E2E2E2E2E2E2E2E2E2E2E2E2E2E2E2E2E2E2E2E2E2E2
310
E2E2E2E2E2E2E2E2E2E2E2E2E2E2E2E2E2E2E2E2E2E2E2E2E2E2E2E2E2E2E2E2E2E2E2E2E2E2E2E2E2E2E2E2E2E2E2E2E2E2F5E2E2E2E2E2E2E2E2E2E2E2F5F5EFF5E2E2E2E2E2E2E2E2E2E2E2F5E2E2E2E2E2E2E2E2E2E2E2E2E2E2E2E2E2E2E2E2E2E2E2E2E2E2E2E2E2E2E2E2E2E2E2E2E2E2E2E2E2E2E2E2E2E2E2E2E2
310
E2E2E2E2E2E2E2E2E2E2E2E2E2E2E2E2E2E2E2E2E2E2E2E2E2E2E2E2E2E2E2E2E2E2E2E2E2E2E2E2E2E2E2E2E2E2E2E2E2E2E2E2E2E2E2E2E2E2E2E2E2E2E2E2E2E2E2E2E2E2E2E2E2E2E2E2E2E2E2E2E2E2E2E2E2E2E2E2E2E2E2E2E2E2E2E2E2E2E2E2E2E2E2F5E2E2E2E2E2E2E2E2E2E2E2F5F5EFF5E2E2E2E2E2E2E2E2
310
E2E2E2F5E2E2E2E2E2E2E2E2E2E2E2E2E2E2E2E2E2E2E2E2E2E2E2E2E2E2E2E2E2E2E2E2E2E2E2E2E2E2E2E2E2E2E2E2E2E2E2E2E2E2E2E2E2E2E2E2E2E2E2E2E2E2E2E2E2E2E2E2E2E2E2E2E2E2E2E2E2E2E2E2E2E2E2E2E2E2E2E2E2E2E2E2E2E2E2E2E2E2E2E2E2E2E2E2E2E2E2E2E2E2E2E2E2E2E2E2E2E2E2E2E2E2E2
310
E2E2E2E2E2E2E2E2E2E2E2E2E2E2E2E2E2E2E2E2E2E2E2E2E2E2E2E2E2F5E2E2E2E2E2E2E2E2E2E2E2F5F5EFF5E2E2E2E2E2E2E2E2E2E2E2F5E2E2E2E2E2E2E2E2E2E2E2E2E2E2E2E2E2E2E2E2E2E2E2E2E2E2E2E2E2E2E2E2E2E2E2E2E2E2E2E2E2E2E2E2E2E2E2E2E2E2E2E2E2E2E2E2E2E2E2E2E2E2E2E2E2E2E2E2E2E2
310
E2E2E2E2E2E2E2E2E2E2E2E2E2E2E2E2E2E2E2E2E2E2E2E2E2E2E2E2E2E2E2E2E2E2E2E2E2E2E2E2E2E2E2E2E2E2E2E2E2E2E2E2E2E2E2E2E2E2E2E2E2E2E2E2E2E2E2E2E2E2E2E2E2E2E2E2E2E2E2E2E2E2F5E2E2E2E2E2E2E2E2E2E2E2F5F5EFF5E2E2E2E2E2E2E2E2E2E2E2F5E2E2E2E2E2E2E2E2E2E2E2E2E2E2E2E2E2
310
E2E2E2E2E2E2E2E2E2E2E2E2E2E2E2E2E2E2E2E2E2E2E2E2E2E2E2E2E2E2E2E2E2E2E2E2E2E2E2E2E2E2E2E2E2E2E2E2E2E2E2E2E2E2E2E2E2E2E2E2E2E2E2E2E2E2E2E2E2E2E2E2E2E2E2E2E2E2E2E2E2E2E2E2E2E2E2E2E2E2E2E2E2E2E2E2E2E2E2E2E2E2E2E2E2E2E2E2E2E2E2E2E2E2E2E2E2E2E2E2E2E2E2E2E2E2E2
310
E2E2E2E2E2E2E2E2F5E2E2E2E2E2E2E2E2E2E2E2F5F5EFF5E2E2E2E2E2E2E2E2E2E2E2F5E2E2E2E2E2E2E2E2E2E2E2E2E2E2E2E2E2E2E2E2E2E2E2E2E2E2E2E2E2E2E2E2E2E2E2E2E2E2E2E2E2E2E2E2E2E2E2E2E2E2E2E2E2E2E2E2E2E2E2E2E2E2E2E2E2E2E2E2E2E2E2E2E2E2E2E2E2E2E2E2E2E2E2E2E2E2E2E2E2E2E2
310
E2E2E2E2E2E2E2E2E2E2E2E2E2E2E2E2E2E2E2E2E2E2E2E2E2E2E2E2E2E2E2E2E2E2E2E2E2E2E2E2E2E2E2E2E2E2E2E2E2E2E2E2E2E2E2E2E2E2E2E2E2F5E2E2E2E2E2E2E2E2E2E2E2F5F5EFF5E2E2E2E2E2E2E2E2E2E2E2F5E2E2E2E2E2E2E2E2E2E2E2E2E2E2E2E2E2E2E2E2E2E2E2E2E2E2E2E2E2E2E2E2E2E2E2E2E2E2
310
E2E2E2E2E2E2E2E2E2E2E2E2E2E2E2E2E2E2E2E2E2E2E2E2E2E2E2E2E2E2E2E2E2E2E2E2E2E2E2E2E2E2E2E2E2E2E2E2E2E2E2E2E2E2E2E2E2E2E2E2E2E2E2E2E2E2E2E2E2E2E2E2E2E2E2E2E2E2E2E2E2E2E2E2E2E2E2E2E2E2E2E2E2E2E2E2E2E2E2E2E2E2E2E2E2E2E2E2E2E2E2E2E2E2F5E2E2E2E2E2E2E2E2E2E2E2F5
310
F5EFF5E2E2E2E2E2E2E2E2E2E2E2E2E2E2E2E2E2E2E2E2E2E2E2E2E2E2E2E2E2E2E2E2E2E2E2E2E2E2E2E2E2E2E2E2E2E2E2E2E2E2E2E2E2E2E2E2E2E2E2E2E2E2E2E2E2E2E2E2E2E2E2E2E2E2E2E2E2E2E2E2E2E2E2E2E2E2E2E2E2E2E2E2E2E2E2E2E2E2E2E2E2E2E2E2E2E2E2E2E2E2E2E2E2E2E2E2E2E2E2E2E2E2E2E2
310
E2E2E2E2E2E2E2E2E2E2E2E2E2E2E2E2E2E2E2E2E2E2E2E2E2E2E2E2E2E2E2E2E2E2E2E2E2E2E2E2E2E2E2E2E2E2E2E2E2E2E2E2F5F5EFF5E2E2E2E2E2E2E2E2E2E2E2E2E2E2E2E2E2E2E2E2E2E2E2E2E2E2E2E2E2E2E2E2E2E2E2E2E2E2E2E2E2E2E2E2E2E2E2E2E2E2E2E2E2E2E2E2E2E2E2E2E2E2E2E2E2E2E2E2E2E2E2
310
E2E2E2E2E2E2E2E2E2E2E2E2E2E2E2E2E2E2E2E2E2E2E2E2E2E2E2E2E2E2E2E2E2E2E2E2E2E2E2E2E2E2E2E2E2E2E2E2E2E2E2E2E2E2E2E2E2E2E2E2E2E2E2E2E2E2E2E2E2E2E2E2E2E2E2E2E2E2E2E2E2E2E2E2E2E2E2E2E2E2E2E2E2E2E2E2E2E2E2E2E2E2E2E2E2F5F5EFF5E2E2E2E2E2E2E2E2E2E2E2E2E2E2E2E2E2E2
310
E2E2E2E2E2E2E2E2E2E2E2E2E2E2E2E2E2E2E2E2E2E2E2E2E2E2E2E2E2E2E2E2E2E2E2E2E2E2E2E2E2E2E2E2E2E2E2E2E2E2E2E2E2E2E2E2E2E2E2E2E2E2E2E2E2E2E2E2E2E2E2E2E2E2E2E2E2E2E2E2E2E2E2E2E2E2E2E2E2E2E2E2E2E2E2E2E2E2E2E2E2E2E2E2E2E2E2E2E2E2E2E2E2E2E2E2E2E2E2E2E2E2E2E2E2E2E2
310
E2E2E2E2E2E2E2E2E2E2E2E2E2E2E2E2E2E2E2E2E2E2E2E2E2E2E2E2E2E2E2F5F5EFF5E2E2E2E2E2E2E2E2E2E2E2E2E2E2E2E2E2E2E2E2E2E2E2E2E2E2E2E2E2E2E2E2E2E2E2E2E2E2E2E2E2E2E2E2E2E2E2E2E2E2E2E2E2E2E2E2E2E2E2E2E2E2E2E2E2E2E2E2E2E2E2E2E2E2E2E2E2E2E2E2E2E2E2E2E2E2E2E2E2E2E2E2
310
E2E2E2E2E2E2E2E2E2E2E2E2E2E2E2E2E2E2E2E2E2E2E2E2E2E2E2E2E2E2E2E2E2E2E2E2E2E2E2E2E2E2E2E2E2E2E2E2E2E2E2E2E2E2E2E2E2E2E2E2E2E2E2E2E2E2E2E2E2E2E2E2E2E2E2E2E2E2E2E2E2E2E2E2F5F5EFF5E2E2E2E2E2E2E2E2E2E2E2E2E2E2E2E2E2E2E2E2E2E2E2E2E2E2E2E2E2E2E2E2E2E2E2E2E2E2E2
310
E2E2E2E2E2E2E2E2E2E2E2E2E2E2E2E2E2E2E2E2E2E2E2E2E2E2E2E2E2E2E2E2E2E2E2E2E2E2E2E2E2E2E2E2E2E2E2E2E2E2E2E2E2E2E2E2E2E2E2E2E2E2E2E2E2E2E2E2E2E2E2E2E2E2E2E2E2E2E2E2E2E2E2E2E2E2E2E2E2E2E2E2E2E2E2E2E2E2E2E2E2E2E2E2E2E2E2E2E2E2E2E2E2E2E2E2E2E2E2E2E2E2E2E2E2E2E2
310
E2E2E2E2E2E2E2E2E2E2F5F5EFF5E2E2E2E2E2E2E2E2E2E2E2E2E2E2E2E2E2E2E2E2E2E2E2E2E2E2E2E2E2E2E2E2E2E2E2E2E2E2E2E2E2E2E2E2E2E2E2E2E2E2E2E2E2E2E2E2E2E2E2E2E2E2E2E2E2E2E2E2E2E2E2E2E2E2E2E2E2E2E2E2E2E2E2E2E2E2E2E2E2E2E2E2E2E2E2E2E2E2E2E2E2E2E2E2E2E2E2E2E2E2E2E2E2
310
E2E2E2E2E2E2E2E2E2E2E2E2E2E2E2E2E2E2E2E2E2E2E2E2E2E2E2E2E2E2E2E2E2E2E2E2E2E2E2E2E2E2E2E2E2E2E2E2E2E2E2E2E2E2E2E2E2E2E2E2E2E2E2F5F5EFF5E2E2E2E2E2E2E2E2E2E2E2E2E2E2E2E2E2E2E2E2E2E2E2E2E2E2E2E2E2E2E2E2E2E2E2E2E2E2E2E2E2E2E2E2E2E2E2E2E2E2E2E2E2E2E2E2E2E2E2E2
310
E2E2E2E2E2E2E2E2E2E2E2E2E2E2E2E2E2E2E2E2E2E2E2E2E2E2E2E2E2E2E2E2E2E2E2E2E2E2E2E2E2E2E2E2E2E2E2E2E2E2E2E2E2E2E2E2E2E2E2E2E2E2E2E2E2E2E2E2E2E2E2E2E2E2E2E2E2E2E2E2E2E2E2E2E2E2E2E2E2E2E2E2E2E2E2E2E2E2E2E2E2E2E2E2E2E2E2E2E2E2E2E2E2E2E2E2F5F5EFF5E2E2E2E2E2E2E2
310
E2E2E2E2E2E2E2E2E2E2E2E2E2E2E2E2E2E2E2E2E2E2E2E2E2E2E2E2E2E2E2E2E2E2E2E2E2E2E2E2E2E2E2E2E2E2E2E2E2E2E2E2E2E2E2E2E2E2E2E2E2E2E2E2E2E2E2E2E2E2E2E2E2E2E2E2E2E2E2E2E2E2E2E2E2E2E2E2E2E2E2E2E2E2E2E2E2E2E2E2E2E2E2E2E2E2E2E2E2E2E2E2E2E2E2E2E2E2E2E2E2E2E2E2E2E2E2
310
E2E2E2E2E2E2E2E2E2E2E2E2E2E2E2E2E2E2E2E2E2E2E2E2E2E2E2E2E2E2E2E2E2E2E2E2E2E2E2E2E2E2F5F5EFF5E2E2E2E2E2E2E2E2E2E2E2F5E2E2E2E2E2E2E2E2E2E2E2E2E2E2E2E2E2E2E2E2E2E2E2E2E2E2E2E2E2E2E2E2E2E2E2E2E2E2E2E2E2E2E2E2E2E2E2E2E2E2E2E2E2E2E2E2E2E2E2E2E2E2E2E2E2E2E2E2E2
310
E2E2E2E2E2E2E2E2E2E2E2E2E2E2E2E2E2E2E2E2E2E2E2E2E2E2E2E2E2E2E2E2E2E2E2E2E2E2E2E2E2E2E2E2E2E2E2E2E2E2E2E2E2E2E2E2E2E2E2E2E2E2E2E2E2E2E2E2E2E2E2E2E2E2E2E2E2E2E2E2E2E2E2F5E2E2E2E2E2E2E2E2E2E2E2F5F5EFF5E2E2E2E2E2E2E2E2E2E2E2F5E2E2E2E2E2E2E2E2E2E2E2E2E2E2E2E2
310
E2E2E2E2E2E2E2E2E2E2E2E2E2E2E2E2E2E2E2E2E2E2E2E2E2E2E2E2E2E2E2E2E2E2E2E2E2E2E2E2E2E2E2E2E2E2E2E2E2E2E2E2E2E2E2E2E2E2E2E2E2E2E2E2E2E2E2E2E2E2E2E2E2E2E2E2E2E2E2E2E2E2E2E2E2E2E2E2E2E2E2E2E2E2E2E2E2E2E2E2E2E2E2E2E2E2E2E2E2E2E2E2E2E2E2E2E2E2E2E2E2E2E2E2E2E2E2
310
E2E2E2E2E2E2E2E2E2F5E2E2E2E2E2E2E2E2E2E2E2F5F5EFF5E2E2E2E2E2E2E2E2E2E2E2F5E2E2E2E2E2E2E2E2E2E2E2E2E2E2E2E2E2E2E2E2E2E2E2E2E2E2E2E2E2E2E2E2E2E2E2E2E2E2E2E2E2E2E2E2E2E2E2E2E2E2E2E2E2E2E2E2E2E2E2E2E2E2E2E2E2E2E2E2E2E2E2E2E2E2E2E2E2E2E2E2E2E2E2E2E2E2E2E2E2E2
310
E2E2E2E2E2E2E2E2E2E2E2E2E2E2E2E2E2E2E2E2E2E2E2E2E2E2E2E2E2E2E2E2E2E2E2E2E2E2E2E2E2E2E2E2E2E2E2E2E2E2E2E2E2E2E2E2E2E2E2E2E2E2F5E2E2E2E2E2E2E2E2E2E2E2F5F5EFF5E2E2E2E2E2E2E2E2E2E2E2F5E2E2E2E2E2E2E2E2E2E2E2E2E2E2E2E2E2E2E2E2E2E2E2E2E2E2E2E2E2E2E2E2E2E2E2E2E2
310
E2E2E2E2E2E2E2E2E2E2E2E2E2E2E2E2E2E2E2E2E2E2E2E2E2E2E2E2E2E2E2E2E2E2E2E2E2E2E2E2E2E2E2E2E2E2E2E2E2E2E2E2E2E2E2E2E2E2E2E2E2E2E2E2E2E2E2E2E2E2E2E2E2E2E2E2E2E2E2E2E2E2E2E2E2E2E2E2E2E2E2E2E2E2E2E2E2E2E2E2E2E2E2E2E2E2E2E2E2E2E2E2E2E2E2F5E2E2E2E2E2E2E2E2E2E2E2
310
F5F5EFF5E2E2E2E2E2E2E2E2E2E2E2F5E2E2E2E2E2E2E2E2E2E2E2E2E2E2E2E2E2E2E2E2E2E2E2E2E2E2E2E2E2E2E2E2E2E2E2E2E2E2E2E2E2E2E2E2E2E2E2E2E2E2E2E2E2E2E2E2E2E2E2E2E2E2E2E2E2E2E2E2E2E2E2E2E2E2E2E2E2E2E2E2E2E2E2E2E2E2E2E2E2E2E2E2E2E2E2E2E2E2E2E2E2E2E2E2E2E2E2E2E2E2E2
310
E2E2E2E2E2E2E2E2E2E2E2E2E2E2E2E2E2E2E2E2E2E2E2E2E2E2E2E2E2E2E2E2E2E2E2E2E2E2E2E2E2F5E2E2E2E2E2E2E2E2E2E2E2F5F5EFF5E2E2E2E2E2E2E2E2E2E2E2F5E2E2E2E2E2E2E2E2E2E2E2E2E2E2E2E2E2E2E2E2E2E2E2E2E2E2E2E2E2E2E2E2E2E2E2E2E2E2E2E2E2E2E2E2E2E2E2E2E2E2E2E2E2E2E2E2E2E2
310
E2E2E2E2E2E2E2E2E2E2E2E2E2E2E2E2E2E2E2E2E2E2E2E2E2E2E2E2E2E2E2E2E2E2E2E2E2E2E2E2E2E2E2E2E2E2E2E2E2E2E2E2E2E2E2E2E2E2E2E2E2E2E2E2E2E2E2E2E2E2E2E2E2E2E2E2E2E2E2E2E2E2E2E2E2E2E2E2E2E2E2E2E2E2F5E2E2E2E2E2E2E2E2E2E2E2F5F5EFF5E2E2E2E2E2E2E2E2E2E2E2F5E2E2E2E2E2
310
E2E2E2E2E2E2E2E2E2E2E2E2E2E2E2E2E2E2E2E2E2E2E2E2E2E2E2E2E2E2E2E2E2E2E2E2E2E2E2E2E2E2E2E2E2E2E2E2E2E2E2E2E2E2E2E2E2E2E2E2E2E2E2E2E2E2E2E2E2E2E2E2E2E2E2E2E2E2E2E2E2E2E2E2E2E2E2E2E2E2E2E2E2E2E2E2E2E2E2E2E2E2E2E2E2E2E2E2E2E2E2E2E2E2E2E2E2E2E2E2E2E2E2E2E2E2E2
310
E2E2E2E2E2E2E2E2E2E2E2E2E2E2E2E2E2E2E2E2F5E2E2E2E2E2E2E2E2E2E2E2F5F5EFF5E2E2E2E2E2E2E2E2E2E2E2F5E2E2E2E2E2E2E2E2E2E2E2E2E2E2E2E2E2E2E2E2E2E2E2E2E2E2E2E2E2E2E2E2E2E2E2E2E2E2E2E2E2E2E2E2E2E2E2E2E2E2E2E2E2E2E2E2E2E2E2E2E2E2E2E2E2E2E2E2E2E2E2E2E2E2E2E2E2E2E2
310
E2E2E2E2E2E2E2E2E2E2E2E2E2E2E2E2E2E2E2E2E2E2E2E2E2E2E2E2E2E2E2E2E2E2E2E2E2E2E2E2E2E2E2E2E2E2E2E2E2E2E2E2E2E2E2E2E2E2E2E2E2E2E2E2E2E2E2E2E2E2E2E2E2F5E2E2E2E2E2E2E2E2E2E2E2F5F5EFF5E2E2E2E2E2E2E2E2E2E2E2F5E2E2E2E2E2E2E2E2E2E2E2E2E2E2E2E2E2E2E2E2E2E2E2E2E2E2
310
E2E2E2E2E2E2E2E2E2E2E2E2E2E2E2E2E2E2E2E2E2E2E2E2E2E2E2E2E2E2E2E2E2E2E2E2E2E2E2E2E2E2E2E2E2E2E2E2E2E2E2E2E2E2E2E2E2E2E2E2E2E2E2E2E2E2E2E2E2E2E2E2E2E2E2E2E2E2E2E2E2E2E2E2E2E2E2E2E2E2E2E2E2E2E2E2E2E2E2E2E2E2E2E2E2E2E2E2E2E2E2E2E2E2E2E2E2E2E2E2E2E2E2E2E2E2F5
310
E2E2E2E2E2E2E2E2E2E2E2F5F5EFF5E2E2E2E2E2E2E2E2E2E2E2F5E2E2E2E2E2E2E2E2E2E2E2E2E2E2E2E2E2E2E2E2E2E2E2E2E2E2E2E2E2E2E2E2E2E2E2E2E2E2E2E2E2E2E2E2E2E2E2E2E2E2E2E2E2E2E2E2E2E2E2E2E2E2E2E2E2E2E2E2E2E2E2E2E2E2E2E2E2E2E2E2E2E2E2E2E2E2E2E2E2E2E2E2E2E2E2E2E2E2E2E2
310
E2E2E2E2E2E2E2E2E2E2E2E2E2E2E2E2E2E2E2E2E2E2E2E2E2E2E2E2E2E2E2E2E2E2E2E2E2E2E2E2E2E2E2E2E2E2E2E2E2E2E2E2F5E2E2E2E2E2E2E2E2E2E2E2F5F5EFF5E2E2E2E2E2E2E2E2E2E2E2F5E2E2E2E2E2E2E2E2E2E2E2E2E2E2E2E2E2E2E2E2E2E2E2E2E2E2E2E2E2E2E2E2E2E2E2E2E2E2E2E2E2E2E2E2E2E2E2
310
E2E2E2E2E2E2E2E2E2E2E2E2E2E2E2E2E2E2E2E2E2E2E2E2E2E2E2E2E2E2E2E2E2E2E2E2E2E2E2E2E2E2E2E2E2E2E2E2E2E2E2E2E2E2E2E2E2E2E2E2E2E2E2E2E2E2E2E2E2E2E2E2E2E2E2E2E2E2E2E2E2E2E2E2E2E2E2E2E2E2E2E2E2E2E2E2E2E2E2E2E2E2E2E2E2F5E2E2E2E2E2E2E2E2E2E2E2F5F5EFF5E2E2E2E2E2E2
310
E2E2E2E2E2F5E2E2E2E2E2E2E2E2E2E2E2E2E2E2E2E2E2E2E2E2E2E2E2E2E2E2E2E2E2E2E2E2E2E2E2E2E2E2E2E2E2E2E2E2E2E2E2E2E2E2E2E2E2E2E2E2E2E2E2E2E2E2E2E2E2E2E2E2E2E2E2E2E2E2E2E2E2E2E2E2E2E2E2E2E2E2E2E2E2E2E2E2E2E2E2E2E2E2E2E2E2E2E2E2E2E2E2E2E2E2E2E2E2E2E2E2E2E2E2E2E2
310
E2E2E2E2E2E2E2E2E2E2E2E2E2E2E2E2E2E2E2E2E2E2E2E2E2E2E2E2E2E2E2F5E2E2E2E2E2E2E2E2E2E2E2F5F5EFF5E2E2E2E2E2E2E2E2E2E2E2F5E2E2E2E2E2E2E2E2E2E2E2E2E2E2E2E2E2E2E2E2E2E2E2E2E2E2E2E2E2E2E2E2E2E2E2E2E2E2E2E2E2E2E2E2E2E2E2E2E2E2E2E2E2E2E2E2E2E2E2E2E2E2E2E2E2E2E2E2
310
E2E2E2E2E2E2E2E2E2E2E2E2E2E2E2E2E2E2E2E2E2E2E2E2E2E2E2E2E2E2E2E2E2E2E2E2E2E2E2E2E2E2E2E2E2E2E2E2E2E2E2E2E2E2E2E2E2E2E2E2E2E2E2E2E2E2E2E2E2E2E2E2E2E2E2E2E2E2E2E2E2E2E2E2F5E2E2E2E2E2E2E2E2E2E2E2F5F5EFF5E2E2E2E2E2E2E2E2E2E2E2F5E2E2E2E2E2E2E2E2E2E2E2E2E2E2E2
310
E2E2E2E2E2E2E2E2E2E2E2E2E2E2E2E2E2E2E2E2E2E2E2E2E2E2E2E2E2E2E2E2E2E2E2E2E2E2E2E2E2E2E2E2E2E2E2E2E2E2E2E2E2E2E2E2E2E2E2E2E2E2E2E2E2E2E2E2E2E2E2E2E2E2E2E2E2E2E2E2E2E2E2E2E2E2E2E2E2E2E2E2E2E2E2E2E2E2E2E2E2E2E2E2E2E2E2E2E2E2E2E2E2E2E2E2E2E2E2E2E2E2E2E2E2E2E2
310
E2E2E2E2E2E2E2E2E2E2F5E2E2E2E2E2E2E2E2E2E2E2F5F5EFF5E2E2E2E2E2E2E2E2E2E2E2F5E2E2E2E2E2E2E2E2E2E2E2E2E2E2E2E2E2E2E2E2E2E2E2E2E2E2E2E2E2E2E2E2E2E2E2E2E2E2E2E2E2E2E2E2E2E2E2E2E2E2E2E2E2E2E2E2E2E2E2E2E2E2E2E2E2E2E2E2E2E2E2E2E2E2E2E2E2E2E2E2E2E2E2E2E2E2E2E2E2
310
E2E2E2E2E2E2E2E2E2E2E2E2E2E2E2E2E2E2E2E2E2E2E2E2E2E2E2E2E2E2E2E2E2E2E2E2E2E2E2E2E2E2E2E2E2E2E2E2E2E2E2E2E2E2E2E2E2E2E2E2E2E2E2F5E2E2E2E2E2E2E2E2E2E2E2F5F5EFF5E2E2E2E2E2E2E2E2E2E2E2E2E2E2E2E2E2E2E2E2E2E2E2E2E2E2E2E2E2E2E2E2E2E2E2E2E2E2E2E2E2E2E2E2E2E2E2E2
310
E2E2E2E2E2E2E2E2E2E2E2E2E2E2E2E2E2E2E2E2E2E2E2E2E2E2E2E2E2E2E2E2E2E2E2E2E2E2E2E2E2E2E2E2E2E2E2E2E2E2E2E2E2E2E2E2E2E2E2E2E2E2E2E2E2E2E2E2E2E2E2E2E2E2E2E2E2E2E2E2E2E2E2E2E2E2E2E2E2E2E2E2E2E2E2E2E2E2E2E2E2E2E2E2E2E2E2E2E2E2E2E2E2E2E2E2E2E2E2E2E2E2E2E2E2E2E2
310
E2F5F5EFF5E2E2E2E2E2E2E2E2E2E2E2E2E2E2E2E2E2E2E2E2E2E2E2E2E2E2E2E2E2E2E2E2E2E2E2E2E2E2E2E2E2E2E2E2E2E2E2E2E2E2E2E2E2E2E2E2E2E2E2E2E2E2E2E2E2E2E2E2E2E2E2E2E2E2E2E2E2E2E2E2E2E2E2E2E2E2E2E2E2E2E2E2E2E2E2E2E2E2E2E2E2E2E2E2E2E2E2E2E2E2E2E2E2E2E2E2E2E2E2E2E2E2
310
E2E2E2E2E2E2E2E2E2E2E2E2E2E2E2E2E2E2E2E2E2E2E2E2E2E2E2E2E2E2E2E2E2E2E2E2E2E2E2E2E2E2E2E2E2E2E2E2E2E2E2E2E2E2F5F5EFF5E2E2E2E2E2E2E2E2E2E2E2E2E2E2E2E2E2E2E2E2E2E2E2E2E2E2E2E2E2E2E2E2E2E2E2E2E2E2E2E2E2E2E2E2E2E2E2E2E2E2E2E2E2E2E2E2E2E2E2E2E2E2E2E2E2E2E2E2E2
310
E2E2E2E2E2E2E2E2E2E2E2E2E2E2E2E2E2E2E2E2E2E2E2E2E2E2E2E2E2E2E2E2E2E2E2E2E2E2E2E2E2E2E2E2E2E2E2E2E2E2E2E2E2E2E2E2E2E2E2E2E2E2E2E2E2E2E2E2E2E2E2E2E2E2E2E2E2E2E2E2E2E2E2E2E2E2E2E2E2E2E2E2E2E2E2E2E2E2E2E2E2E2E2E2E2E2E2F5F5EFF5E2E2E2E2E2E2E2E2E2E2E2E2E2E2E2E2
310
E2E2E2E2E2E2E2E2E2E2E2E2E2E2E2E2E2E2E2E2E2E2E2E2E2E2E2E2E2E2E2E2E2E2E2E2E2E2E2E2E2E2E2E2E2E2E2E2E2E2E2E2E2E2E2E2E2E2E2E2E2E2E2E2E2E2E2E2E2E2E2E2E2E2E2E2E2E2E2E2E2E2E2E2E2E2E2E2E2E2E2E2E2E2E2E2E2E2E2E2E2E2E2E2E2E2E2E2E2E2E2E2E2E2E2E2E2E2E2E2E2E2E2E2E2E2E2
310
E2E2E2E2E2E2E2E2E2E2E2E2E2E2E2E2E2E2E2E2E2E2E2E2E2E2E2E2E2E2E2E2E2F5F5EFF5E2E2E2E2E2E2E2E2E2E2E2E2E2E2E2E2E2E2E2E2E2E2E2E2E2E2E2E2E2E2E2E2E2E2E2E2E2E2E2E2E2E2E2E2E2E2E2E2E2E2E2E2E2E2E2E2E2E2E2E2E2E2E2E2E2E2E2E2E2E2E2E2E2E2E2E2E2E2E2E2E2E2E2E2E2E2E2E2E2E2
310
E2E2E2E2E2E2E2E2E2E2E2E2E2E2E2E2E2E2E2E2E2E2E2E2E2E2E2E2E2E2E2E2E2E2E2E2E2E2E2E2E2E2E2E2E2E2E2E2E2E2E2E2E2E2E2E2E2E2E2E2E2E2E2E2E2E2E2E2E2E2E2E2E2E2E2E2E2E2E2E2E2E2E2E2E2E2F5F5EFF5E2E2E2E2E2E2E2E2E2E2E2E2E2E2E2E2E2E2E2E2E2E2E2E2E2E2E2E2E2E2E2E2E2E2E2E2E2
310
E2E2E2E2E2E2E2E2E2E2E2E2E2E2E2E2E2E2E2E2E2E2E2E2E2E2E2E2E2E2E2E2E2E2E2E2E2E2E2E2E2E2E2E2E2E2E2E2E2E2E2E2E2E2E2E2E2E2E2E2E2E2E2E2E2E2E2E2E2E2E2E2E2E2E2E2E2E2E2E2E2E2E2E2E2E2E2E2E2E2E2E2E2E2E2E2E2E2E2E2E2E2E2E2E2E2E2E2E2E2E2E2E2E2E2E2E2E2E2E2E2E2E2E2E2E2E2
310
E2E2E2E2E2E2E2E2E2E2E2E2F5F5EFF5E2E2E2E2E2E2E2E2E2E2E2E2E2E2E2E2E2E2E2E2E2E2E2E2E2E2E2E2E2E2E2E2E2E2E2E2E2E2E2E2E2E2E2E2E2E2E2E2E2E2E2E2E2E2E2E2E2E2E2E2E2E2E2E2E2E2E2E2E2E2E2E2E2E2E2E2E2E2E2E2E2E2E2E2E2E2E2E2E2E2E2E2E2E2E2E2E2E2E2E2E2E2E2E2E2E2E2E2E2E2E2
310
E2E2E2E2E2E2E2E2E2E2E2E2E2E2E2E2E2E2E2E2E2E2E2E2E2E2E2E2E2E2E2E2E2E2E2E2E2E2E2E2E2E2E2E2E2E2E2E2E2E2E2E2E2E2E2E2E2E2E2E2E2E2E2E2E2F5F5EFF5E2E2E2E2E2E2E2E2E2E2E2E2E2E2E2E2E2E2E2E2E2E2E2E2E2E2E2E2E2E2E2E2E2E2E2E2E2E2E2E2E2E2E2E2E2E2E2E2E2E2E2E2E2E2E2E2E2E2
310
E2E2E2E2E2E2E2E2E2E2E2E2E2E2E2E2E2E2E2E2E2E2E2E2E2E2E2E2E2E2E2E2E2E2E2E2E2E2E2E2E2E2E2E2E2E2E2E2E2E2E2E2E2E2E2E2E2E2E2E2E2E2E2E2E2E2E2E2E2E2E2E2E2E2E2E2E2E2E2E2E2E2E2E2E2E2E2E2E2E2E2E2E2E2E2E2E2E2E2E2E2E2E2E2E2E2E2E2E2E2E2E2E2E2E2E2E2E2F5F5EFF5E2E2E2E2E2
310
E2E2E2E2E2E2F5E2E2E2E2E2E2E2E2E2E2E2E2E2E2E2E2E2E2E2E2E2E2E2E2E2E2E2E2E2E2E2E2E2E2E2E2E2E2E2E2E2E2E2E2E2E2E2E2E2E2E2E2E2E2E2E2E2E2E2E2E2E2E2E2E2E2E2E2E2E2E2E2E2E2E2E2E2E2E2E2E2E2E2E2E2E2E2E2E2E2E2E2E2E2E2E2E2E2E2E2E2E2E2E2E2E2E2E2E2E2E2E2E2E2E2E2E2E2E2E2
310
E2E2E2E2E2E2E2E2E2E2E2E2E2E2E2E2E2E2E2E2E2E2E2E2E2E2E2E2E2E2E2E2F5E2E2E2E2E2E2E2E2E2E2E2F5F5EFF5E2E2E2E2E2E2E2E2E2E2E2F5E2E2E2E2E2E2E2E2E2E2E2E2E2E2E2E2E2E2E2E2E2E2E2E2E2E2E2E2E2E2E2E2E2E2E2E2E2E2E2E2E2E2E2E2E2E2E2E2E2E2E2E2E2E2E2E2E2E2E2E2E2E2E2E2E2E2E2
310
E2E2E2E2E2E2E2E2E2E2E2E2E2E2E2E2E2E2E2E2E2E2E2E2E2E2E2E2E2E2E2E2E2E2E2E2E2E2E2E2E2E2E2E2E2E2E2E2E2E2E2E2E2E2E2E2E2E2E2E2E2E2E2E2E2E2E2E2E2E2E2E2E2E2E2E2E2E2E2E2E2E2E2E2E2F5E2E2E2E2E2E2E2E2E2E2E2F5F5EFF5E2E2E2E2E2E2E2E2E2E2E2F5E2E2E2E2E2E2E2E2E2E2E2E2E2E2
310
E2E2E2E2E2E2E2E2E2E2E2E2E2E2E2E2E2E2E2E2E2E2E2E2E2E2E2E2E2E2E2E2E2E2E2E2E2E2E2E2E2E2E2E2E2E2E2E2E2E2E2E2E2E2E2E2E2E2E2E2E2E2E2E2E2E2E2E2E2E2E2E2E2E2E2E2E2E2E2E2E2E2E2E2E2E2E2E2E2E2E2E2E2E2E2E2E2E2E2E2E2E2E2E2E2E2E2E2E2E2E2E2E2E2E2E2E2E2E2E2E2E2E2E2E2E2E2
310
E2E2E2E2E2E2E2E2E2E2E2F5E2E2E2E2E2E2E2E2E2E2E2F5F5EFF5E2E2E2E2E2E2E2E2E2E2E2F5E2E2E2E2E2E2E2E2E2E2E2E2E2E2E2E2E2E2E2E2E2E2E2E2E2E2E2E2E2E2E2E2E2E2E2E2E2E2E2E2E2E2E2E2E2E2E2E2E2E2E2E2E2E2E2E2E2E2E2E2E2E2E2E2E2E2E2E2E2E2E2E2E2E2E2E2E2E2E2E2E2E2E2E2E2E2E2E2
310
E2E2E2E2E2E2E2E2E2E2E2E2E2E2E2E2E2E2E2E2E2E2E2E2E2E2E2E2E2E2E2E2E2E2E2E2E2E2E2E2E2E2E2E2E2E2E2E2E2E2E2E2E2E2E2E2E2E2E2E2E2E2E2E2F5E2E2E2E2E2E2E2E2E2E2E2F5F5EFF5E2E2E2E2E2E2E2E2E2E2E2F5E2E2E2E2E2E2E2E2E2E2E2E2E2E2E2E2E2E2E2E2E2E2E2E2E2E2E2E2E2E2E2E2E2E2E2
310
E2E2E2E2E2E2E2E2E2E2E2E2E2E2E2E2E2E2E2E2E2E2E2E2E2E2E2E2E2E2E2E2E2E2E2E2E2E2E2E2E2E2E2E2E2E2E2E2E2E2E2E2E2E2E2E2E2E2E2E2E2E2E2E2E2E2E2E2E2E2E2E2E2E2E2E2E2E2E2E2E2E2E2E2E2E2E2E2E2E2E2E2E2E2E2E2E2E2E2E2E2E2E2E2E2E2E2E2E2E2E2E2E2E2E2E2E2F5E2E2E2E2E2E2E2E2E2
310
E2E2F5F5EFF5E2E2E2E2E2E2E2E2E2E2E2F5E2E2E2E2E2E2E2E2E2E2E2E2E2E2E2E2E2E2E2E2E2E2E2E2E2E2E2E2E2E2E2E2E2E2E2E2E2E2E2E2E2E2E2E2E2E2E2E2E2E2E2E2E2E2E2E2E2E2E2E2E2E2E2E2E2E2E2E2E2E2E2E2E2E2E2E2E2E2E2E2E2E2E2E2E2E2E2E2E2E2E2E2E2E2E2E2E2E2E2E2E2E2E2E2E2E2E2E2E2
310
E2E2E2E2E2E2E2E2E2E2E2E2E2E2E2E2E2E2E2E2E2E2E2E2E2E2E2E2E2E2E2E2E2E2E2E2E2E2E2E2E2E2E2F5E2E2E2E2E2E2E2E2E2E2E2F5F5EFF5E2E2E2E2E2E2E2E2E2E2E2F5E2E2E2E2E2E2E2E2E2E2E2E2E2E2E2E2E2E2E2E2E2E2E2E2E2E2E2E2E2E2E2E2E2E2E2E2E2E2E2E2E2E2E2E2E2E2E2E2E2E2E2E2E2E2E2E2
310
E2E2E2E2E2E2E2E2E2E2E2E2E2E2E2E2E2E2E2E2E2E2E2E2E2E2E2E2E2E2E2E2E2E2E2E2E2E2E2E2E2E2E2E2E2E2E2E2E2E2E2E2E2E2E2E2E2E2E2E2E2E2E2E2E2E2E2E2E2E2E2E2E2E2E2E2E2E2E2E2E2E2E2E2E2E2E2E2E2E2E2E2E2E2E2E2F5E2E2E2E2E2E2E2E2E2E2E2F5F5EFF5E2E2E2E2E2E2E2E2E2E2E2F5F5F5F5
310
F5F5F5F5F5E2E2E2E2E2E2E2E2E2F5F5F5F5F5F5F5F5F5F5F5F5F5F5F5F5E2E2E2E2E2E2E2E2E2F5F5F5F5F5F5F5F5F5F5F5F5F5F5F5F5F5E2E2E2E2E2E2E2E2E2F5F5F5F5F5F5F5F5F5F5F5F5F5F5F5F5E2E2E2E2E2E2E2E2E2F5F5F5F5F5F5F5F5F5F5F5F5F5F5F5F5F5E2E2E2E2E2E2E2E2E2F5F5F5F5F5F5F5F5F5F5F5
310
F5F5F5F5F5E2E2E2E2E2E2E2E2E2F5F5F5F5F5F5F5F5F5E2E2E2E2E2E2E2E2E2E2E2F5F5EFF5E2E2E2E2E2E2E2E2E2E2E2E2E2E2E2E2E2E2E2E2E2E2E2E2E2E2E2E2E2E2E2E2E2E2E2E2E2E2E2E2E2E2E2E2E2E2E2E2E2E2E2E2E2E2E2E2E2E2E2E2E2E2E2E2E2E2E2E2E2E2E2E2E2E2E2E2E2E2E2E2E2E2E2E2E2E2E2E2E2
310
E2E2E2E2E2E2E2E2E2E2E2E2E2E2E2E2E2E2E2E2E2E2E2E2E2E2E2E2E2E2E2E2E2E2E2E2E2E2E2E2E2E2E2E2E2E2E2E2E2E2E2E2E2E2E2E2E2E2E2E2E2E2E2E2E2E2E2E2E2E2E2E2E2E2E2E2E2E2E2E2E2E2E2E2E2E2E2F5F5EFF5E2E2E2E2E2E2E2E2E2E2E2E2E2E2E2E2E2E2E2E2E2E2E2E2E2E2E2E2E2E2E2E2E2E2E2E2
310
E2E2E2E2E2E2E2E2E2E2E2E2E2E2E2E2E2E2E2E2E2E2E2E2E2E2E2E2E2E2E2E2E2E2E2E2E2E2E2E2E2E2E2E2E2E2E2E2E2E2E2E2E2E2E2E2E2E2E2E2E2E2E2E2E2E2E2E2E2E2E2E2E2E2E2E2E2E2E2E2E2E2E2E2E2E2E2E2E2E2E2E2E2E2E2E2E2E2E2E2E2E2E2E2E2E2E2E2E2E2E2E2E2E2E2E2E2E2E2E2E2E2E2E2E2E2E2
310
E2E2E2E2E2E2E2E2E2E2E2E2E2F5F5EFF5E2E2E2E2E2E2E2E2E2E2E2E2E2E2E2E2E2E2E2E2E2E2E2E2E2E2E2E2E2E2E2E2E2E2E2E2E2E2E2E2E2E2E2E2E2E2E2E2E2E2E2E2E2E2E2E2E2E2E2E2E2E2E2E2E2E2E2E2E2E2E2E2E2E2E2E2E2E2E2E2E2E2E2E2E2E2E2E2E2E2E2E2E2E2E2E2E2E2E2E2E2E2E2E2E2E2E2E2E2E2
310
E2E2E2E2E2E2E2E2E2E2E2E2E2E2E2E2E2E2E2E2E2E2E2E2E2E2E2E2E2E2E2E2E2E2E2E2E2E2E2E2E2E2E2E2E2E2E2E2E2E2E2E2E2E2E2E2E2E2E2E2E2E2E2E2E2E2F5F5EFF5E2E2E2E2E2E2E2E2E2E2E2E2E2E2E2E2E2E2E2E2E2E2E2E2E2E2E2E2E2E2E2E2E2E2E2E2E2E2E2E2E2E2E2E2E2E2E2E2E2E2E2E2E2E2E2E2E2
310
E2E2E2E2E2E2E2E2E2E2E2E2E2E2E2E2E2E2E2E2E2E2E2E2E2E2E2E2E2E2E2E2E2E2E2E2E2E2E2E2E2E2E2E2E2E2E2E2E2E2E2E2E2E2E2E2E2E2E2E2E2E2E2E2E2E2E2E2E2E2E2E2E2E2E2E2E2E2E2E2E2E2E2E2E2E2E2E2E2E2E2E2E2E2E2E2E2E2E2E2E2E2E2E2E2E2E2E2E2E2E2E2E2E2E2E2E2E2E2F5EFEFF5F5F5F5F5
310
F5F5F5F5F5F5F5F5F5F5F5F5F5F5F5F5F5F5F5F5F5F5F5F5F5F5F5F5F5F5F5F5F5F5F5F5F5F5F5F5F5F5F5F5F5F5F5F5F5F5F5F5F5F5F5F5F5F5F5F5F5F5F5F5F5F5F5F5F5F5F5F5F5F5F5F5F5F5F5F5F5F5F5F5F5F5F5F5F5F5F5F5F5F5F5F5F5F5F5F5F5F5F5F5F5F5F5F5F5F5F5F5F5F5F5F5F5F5F5F5F5F5F5F5F5F5F5
310
F5F5F5F5F5F5F5F5F5F5F5F5F5F5F5F5F5F5F5F5F5F5F5F5F5F5F5F5F5F5F5F5F5F5F5F5F5F5F5F5F5F5F5F5F5F5EFEF
  0
XRECORD
  5
D26
102
{ACAD_REACTORS
330
D25
102
}
330
D25
100
AcDbXrecord
280
     1
102
SHADEPLOT
 70
     0
102
SHADEPLOTRESLEVEL
 70
     2
102
SHADEPLOTCUSTOMDPI
 70
   300
  0
XRECORD
  5
D2F
102
{ACAD_REACTORS
330
D2E
102
}
330
D2E
100
AcDbXrecord
280
     1
102
MATERIAL
148
0.0
149
0.0
149
0.0
 93
        0
 94
       63
282
     0
 72
     1
 77
     1
171
     1
175
     1
179
     1
273
     0
  0
XRECORD
  5
D2D
102
{ACAD_REACTORS
330
D2C
102
}
330
D2C
100
AcDbXrecord
280
     1
102
MATERIAL
148
0.0
149
0.0
149
0.0
 93
        0
 94
       63
282
     0
 72
     1
 77
     1
171
     1
175
     1
179
     1
273
     0
  0
XRECORD
  5
D31
102
{ACAD_REACTORS
330
D30
102
}
330
D30
100
AcDbXrecord
280
     1
102
MATERIAL
148
0.0
149
0.0
149
0.0
 93
        0
 94
       63
282
     0
 72
     1
 77
     1
171
     1
175
     1
179
     1
273
     0
  0
XRECORD
  5
D29
102
{ACAD_REACTORS
330
D28
102
}
330
D28
100
AcDbXrecord
280
     1
102
ACAD_ROUNDTRIP_PRE2007_TABLESTYLE
 90
        4
 91
        0
  1

 92
        4
 93
        0
  2

 94
        4
 95
        0
  3

  0
ENDSEC
  0
EOF
