  0
SECTION
  2
HEADER
  9
$ACADVER
  1
AC1015
  9
$ACADMAINTVER
 70
    20
  9
$DWGCODEPAGE
  3
ANSI_1252
  9
$INSBASE
 10
0.0
 20
0.0
 30
0.0
  9
$EXTMIN
 10
-0.4724019816448663
 20
-0.5345612150782984
 30
0.0
  9
$EXTMAX
 10
55.81366634162607
 20
59.0731734092777
 30
0.0
  9
$LIMMIN
 10
0.0
 20
0.0
  9
$LIMMAX
 10
257.0
 20
170.0
  9
$ORTHOMODE
 70
     1
  9
$REGENMODE
 70
     1
  9
$FILLMODE
 70
     1
  9
$QTEXTMODE
 70
     0
  9
$MIRRTEXT
 70
     1
  9
$LTSCALE
 40
1.0
  9
$ATTMODE
 70
     1
  9
$TEXTSIZE
 40
3.0
  9
$TRACEWID
 40
0.5
  9
$TEXTSTYLE
  7
STANDARD
  9
$CLAYER
  8
0
  9
$CELTYPE
  6
ByLayer
  9
$CECOLOR
 62
   256
  9
$CELTSCALE
 40
1.0
  9
$DISPSILH
 70
     0
  9
$DIMSCALE
 40
1.0
  9
$DIMASZ
 40
0.18
  9
$DIMEXO
 40
0.0625
  9
$DIMDLI
 40
0.38
  9
$DIMRND
 40
0.0
  9
$DIMDLE
 40
0.0
  9
$DIMEXE
 40
0.18
  9
$DIMTP
 40
0.0
  9
$DIMTM
 40
0.0
  9
$DIMTXT
 40
0.18
  9
$DIMCEN
 40
0.09
  9
$DIMTSZ
 40
0.0
  9
$DIMTOL
 70
     0
  9
$DIMLIM
 70
     0
  9
$DIMTIH
 70
     1
  9
$DIMTOH
 70
     1
  9
$DIMSE1
 70
     0
  9
$DIMSE2
 70
     0
  9
$DIMTAD
 70
     0
  9
$DIMZIN
 70
     0
  9
$DIMBLK
  1

  9
$DIMASO
 70
     1
  9
$DIMSHO
 70
     0
  9
$DIMPOST
  1

  9
$DIMAPOST
  1

  9
$DIMALT
 70
     0
  9
$DIMALTD
 70
     2
  9
$DIMALTF
 40
25.4
  9
$DIMLFAC
 40
1.0
  9
$DIMTOFL
 70
     0
  9
$DIMTVP
 40
0.0
  9
$DIMTIX
 70
     0
  9
$DIMSOXD
 70
     0
  9
$DIMSAH
 70
     0
  9
$DIMBLK1
  1

  9
$DIMBLK2
  1

  9
$DIMSTYLE
  2
Standard
  9
$DIMCLRD
 70
     0
  9
$DIMCLRE
 70
     0
  9
$DIMCLRT
 70
     0
  9
$DIMTFAC
 40
1.0
  9
$DIMGAP
 40
0.09
  9
$DIMJUST
 70
     0
  9
$DIMSD1
 70
     0
  9
$DIMSD2
 70
     0
  9
$DIMTOLJ
 70
     1
  9
$DIMTZIN
 70
     0
  9
$DIMALTZ
 70
     0
  9
$DIMALTTZ
 70
     0
  9
$DIMUPT
 70
     0
  9
$DIMDEC
 70
     4
  9
$DIMTDEC
 70
     4
  9
$DIMALTU
 70
     2
  9
$DIMALTTD
 70
     2
  9
$DIMTXSTY
  7
STANDARD
  9
$DIMAUNIT
 70
     0
  9
$DIMADEC
 70
     0
  9
$DIMALTRND
 40
0.0
  9
$DIMAZIN
 70
     0
  9
$DIMDSEP
 70
    46
  9
$DIMATFIT
 70
     3
  9
$DIMFRAC
 70
     0
  9
$DIMLDRBLK
  1

  9
$DIMLUNIT
 70
     2
  9
$DIMLWD
 70
    -2
  9
$DIMLWE
 70
    -2
  9
$DIMTMOVE
 70
     0
  9
$LUNITS
 70
     2
  9
$LUPREC
 70
     4
  9
$SKETCHINC
 40
1.0
  9
$FILLETRAD
 40
0.0
  9
$AUNITS
 70
     0
  9
$AUPREC
 70
     0
  9
$MENU
  1
acad
  9
$ELEVATION
 40
0.0
  9
$PELEVATION
 40
0.0
  9
$THICKNESS
 40
0.0
  9
$LIMCHECK
 70
     0
  9
$CHAMFERA
 40
0.0
  9
$CHAMFERB
 40
0.0
  9
$CHAMFERC
 40
0.0
  9
$CHAMFERD
 40
0.0
  9
$SKPOLY
 70
     0
  9
$TDCREATE
 40
2453074.617708333
  9
$TDUCREATE
 40
2453074.909375000
  9
$TDUPDATE
 40
2454922.660706829
  9
$TDUUPDATE
 40
2454922.952373495
  9
$TDINDWG
 40
0.0590844097
  9
$TDUSRTIMER
 40
0.0590786227
  9
$USRTIMER
 70
     1
  9
$ANGBASE
 50
0.0
  9
$ANGDIR
 70
     0
  9
$PDMODE
 70
     0
  9
$PDSIZE
 40
0.0
  9
$PLINEWID
 40
0.0
  9
$SPLFRAME
 70
     0
  9
$SPLINETYPE
 70
     6
  9
$SPLINESEGS
 70
     8
  9
$HANDSEED
  5
107E
  9
$SURFTAB1
 70
     6
  9
$SURFTAB2
 70
     6
  9
$SURFTYPE
 70
     6
  9
$SURFU
 70
     6
  9
$SURFV
 70
     6
  9
$UCSBASE
  2

  9
$UCSNAME
  2

  9
$UCSORG
 10
0.0
 20
0.0
 30
0.0
  9
$UCSXDIR
 10
1.0
 20
0.0
 30
0.0
  9
$UCSYDIR
 10
0.0
 20
1.0
 30
0.0
  9
$UCSORTHOREF
  2

  9
$UCSORTHOVIEW
 70
     0
  9
$UCSORGTOP
 10
0.0
 20
0.0
 30
0.0
  9
$UCSORGBOTTOM
 10
0.0
 20
0.0
 30
0.0
  9
$UCSORGLEFT
 10
0.0
 20
0.0
 30
0.0
  9
$UCSORGRIGHT
 10
0.0
 20
0.0
 30
0.0
  9
$UCSORGFRONT
 10
0.0
 20
0.0
 30
0.0
  9
$UCSORGBACK
 10
0.0
 20
0.0
 30
0.0
  9
$PUCSBASE
  2

  9
$PUCSNAME
  2

  9
$PUCSORG
 10
0.0
 20
0.0
 30
0.0
  9
$PUCSXDIR
 10
1.0
 20
0.0
 30
0.0
  9
$PUCSYDIR
 10
0.0
 20
1.0
 30
0.0
  9
$PUCSORTHOREF
  2

  9
$PUCSORTHOVIEW
 70
     0
  9
$PUCSORGTOP
 10
0.0
 20
0.0
 30
0.0
  9
$PUCSORGBOTTOM
 10
0.0
 20
0.0
 30
0.0
  9
$PUCSORGLEFT
 10
0.0
 20
0.0
 30
0.0
  9
$PUCSORGRIGHT
 10
0.0
 20
0.0
 30
0.0
  9
$PUCSORGFRONT
 10
0.0
 20
0.0
 30
0.0
  9
$PUCSORGBACK
 10
0.0
 20
0.0
 30
0.0
  9
$USERI1
 70
     0
  9
$USERI2
 70
     0
  9
$USERI3
 70
     0
  9
$USERI4
 70
     0
  9
$USERI5
 70
     0
  9
$USERR1
 40
0.0
  9
$USERR2
 40
0.0
  9
$USERR3
 40
0.0
  9
$USERR4
 40
0.0
  9
$USERR5
 40
0.0
  9
$WORLDVIEW
 70
     1
  9
$SHADEDGE
 70
     3
  9
$SHADEDIF
 70
    70
  9
$TILEMODE
 70
     0
  9
$MAXACTVP
 70
    64
  9
$PINSBASE
 10
0.0
 20
0.0
 30
0.0
  9
$PLIMCHECK
 70
     0
  9
$PEXTMIN
 10
1.049743681505489
 20
0.7996673802841308
 30
-0.0015258207003583
  9
$PEXTMAX
 10
9.450622583565561
 20
7.200576801086516
 30
0.0000000349246037
  9
$PLIMMIN
 10
-0.2500002402958907
 20
-0.2499999962453767
  9
$PLIMMAX
 10
10.74999951940822
 20
8.249999763458733
  9
$UNITMODE
 70
     0
  9
$VISRETAIN
 70
     1
  9
$PLINEGEN
 70
     0
  9
$PSLTSCALE
 70
     1
  9
$TREEDEPTH
 70
  3020
  9
$CMLSTYLE
  2
Standard
  9
$CMLJUST
 70
     0
  9
$CMLSCALE
 40
1.0
  9
$PROXYGRAPHICS
 70
     1
  9
$MEASUREMENT
 70
     0
  9
$CELWEIGHT
370
    -1
  9
$ENDCAPS
280
     0
  9
$JOINSTYLE
280
     0
  9
$LWDISPLAY
290
     0
  9
$INSUNITS
 70
     0
  9
$HYPERLINKBASE
  1

  9
$STYLESHEET
  1

  9
$XEDIT
290
     1
  9
$CEPSNTYPE
380
     0
  9
$PSTYLEMODE
290
     1
  9
$FINGERPRINTGUID
  2
{4072294C-D9EB-4688-8F0F-08C4A00CB18B}
  9
$VERSIONGUID
  2
{7AFA20CF-3E13-437E-B85A-61BA54BEF692}
  9
$EXTNAMES
290
     1
  9
$PSVPSCALE
 40
0.0
  9
$OLESTARTUP
290
     0
  0
ENDSEC
  0
SECTION
  2
CLASSES
  0
CLASS
  1
ACDBDICTIONARYWDFLT
  2
AcDbDictionaryWithDefault
  3
ObjectDBX Classes
 90
        0
280
     0
281
     0
  0
CLASS
  1
TABLESTYLE
  2
AcDbTableStyle
  3
ObjectDBX Classes
 90
     4095
280
     0
281
     0
  0
CLASS
  1
DICTIONARYVAR
  2
AcDbDictionaryVar
  3
ObjectDBX Classes
 90
        0
280
     0
281
     0
  0
CLASS
  1
SORTENTSTABLE
  2
AcDbSortentsTable
  3
ObjectDBX Classes
 90
        0
280
     0
281
     0
  0
CLASS
  1
MATERIAL
  2
AcDbMaterial
  3
ObjectDBX Classes
 90
     1024
280
     0
281
     0
  0
CLASS
  1
VISUALSTYLE
  2
AcDbVisualStyle
  3
ObjectDBX Classes
 90
     4095
280
     0
281
     0
  0
CLASS
  1
ACDBPLACEHOLDER
  2
AcDbPlaceHolder
  3
ObjectDBX Classes
 90
        0
280
     0
281
     0
  0
CLASS
  1
LAYOUT
  2
AcDbLayout
  3
ObjectDBX Classes
 90
        0
280
     0
281
     0
  0
ENDSEC
  0
SECTION
  2
TABLES
  0
TABLE
  2
VPORT
  5
8
330
0
100
AcDbSymbolTable
 70
     1
  0
VPORT
  5
1045
330
8
100
AcDbSymbolTableRecord
100
AcDbViewportTableRecord
  2
*Active
 70
     0
 10
0.0
 20
0.0
 11
1.0
 21
1.0
 12
28.8689822227298
 22
29.27452120496253
 13
0.0
 23
0.0
 14
0.0
 24
0.0
 15
0.0
 25
0.0
 16
0.0
 26
0.0
 36
1.0
 17
0.0
 27
0.0
 37
0.0
 40
60.41092376461261
 41
1.646976090014064
 42
50.0
 43
0.0
 44
0.0
 50
0.0
 51
0.0
 71
     0
 72
   100
 73
     1
 74
     1
 75
     0
 76
     0
 77
     0
 78
     0
281
     0
 65
     0
110
0.0
120
0.0
130
0.0
111
1.0
121
0.0
131
0.0
112
0.0
122
1.0
132
0.0
 79
     0
146
0.0
  0
ENDTAB
  0
TABLE
  2
LTYPE
  5
5
330
0
100
AcDbSymbolTable
 70
     4
  0
LTYPE
  5
13
330
5
100
AcDbSymbolTableRecord
100
AcDbLinetypeTableRecord
  2
ByBlock
 70
     0
  3

 72
    65
 73
     0
 40
0.0
  0
LTYPE
  5
14
330
5
100
AcDbSymbolTableRecord
100
AcDbLinetypeTableRecord
  2
ByLayer
 70
     0
  3

 72
    65
 73
     0
 40
0.0
  0
LTYPE
  5
15
330
5
100
AcDbSymbolTableRecord
100
AcDbLinetypeTableRecord
  2
CONTINUOUS
 70
     0
  3
solid line
 72
    65
 73
     0
 40
0.0
  0
LTYPE
  5
27
330
5
100
AcDbSymbolTableRecord
100
AcDbLinetypeTableRecord
  2
DASHED
 70
     0
  3
-- -- -- -- -- -- -- -- -- --
 72
    65
 73
     2
 40
3.0
 49
2.0
 74
     0
 49
-1.0
 74
     0
  0
LTYPE
  5
28
330
5
100
AcDbSymbolTableRecord
100
AcDbLinetypeTableRecord
  2
CENTER
 70
     0
  3
--- - --- - --- - --- - --- -
 72
    65
 73
     4
 40
6.0
 49
3.0
 74
     0
 49
-1.0
 74
     0
 49
1.0
 74
     0
 49
-1.0
 74
     0
  0
LTYPE
  5
8C3
330
5
100
AcDbSymbolTableRecord
100
AcDbLinetypeTableRecord
  2
PHANTOM
 70
     0
  3
----- - - ----- - - ----- - -
 72
    65
 73
     6
 40
12.0
 49
7.0
 74
     0
 49
-1.0
 74
     0
 49
1.0
 74
     0
 49
-1.0
 74
     0
 49
1.0
 74
     0
 49
-1.0
 74
     0
  0
ENDTAB
  0
TABLE
  2
LAYER
  5
2
330
0
100
AcDbSymbolTable
 70
     3
  0
LAYER
  5
10
330
2
100
AcDbSymbolTableRecord
100
AcDbLayerTableRecord
  2
0
 70
     0
 62
     7
  6
CONTINUOUS
370
    -3
390
F
  0
LAYER
  5
29
330
2
100
AcDbSymbolTableRecord
100
AcDbLayerTableRecord
  2
PIC06
 70
     0
 62
     7
  6
CONTINUOUS
370
    -3
390
F
  0
LAYER
  5
2A
330
2
100
AcDbSymbolTableRecord
100
AcDbLayerTableRecord
  2
PIC07
 70
     0
 62
     7
  6
CONTINUOUS
370
    -3
390
F
  0
ENDTAB
  0
TABLE
  2
STYLE
  5
3
330
0
100
AcDbSymbolTable
 70
     1
  0
STYLE
  5
11
330
3
100
AcDbSymbolTableRecord
100
AcDbTextStyleTableRecord
  2
STANDARD
 70
     0
 40
0.0
 41
1.0
 50
0.0
 71
     0
 42
3.0
  3
monotxt
  4
extfont
  0
ENDTAB
  0
TABLE
  2
VIEW
  5
6
330
0
100
AcDbSymbolTable
 70
     1
  0
ENDTAB
  0
TABLE
  2
UCS
  5
7
330
0
100
AcDbSymbolTable
 70
     0
  0
ENDTAB
  0
TABLE
  2
APPID
  5
9
330
0
100
AcDbSymbolTable
 70
    10
  0
APPID
  5
12
330
9
100
AcDbSymbolTableRecord
100
AcDbRegAppTableRecord
  2
ACAD
 70
     0
  0
APPID
  5
E5E
330
9
100
AcDbSymbolTableRecord
100
AcDbRegAppTableRecord
  2
ACAD_EXEMPT_FROM_CAD_STANDARDS
 70
     0
  0
APPID
  5
F52
330
9
100
AcDbSymbolTableRecord
100
AcDbRegAppTableRecord
  2
ACAD_DSTYLE_DIMTEXT_FILL
 70
     0
  0
APPID
  5
F53
330
9
100
AcDbSymbolTableRecord
100
AcDbRegAppTableRecord
  2
ACAD_DSTYLE_DIMEXT_LENGTH
 70
     0
  0
APPID
  5
F54
330
9
100
AcDbSymbolTableRecord
100
AcDbRegAppTableRecord
  2
ACAD_DSTYLE_DIMEXT_ENABLED
 70
     0
  0
APPID
  5
F55
330
9
100
AcDbSymbolTableRecord
100
AcDbRegAppTableRecord
  2
ACAD_DSTYLE_DIM_LINETYPE
 70
     0
  0
APPID
  5
F56
330
9
100
AcDbSymbolTableRecord
100
AcDbRegAppTableRecord
  2
ACAD_DSTYLE_DIM_EXT1_LINETYPE
 70
     0
  0
APPID
  5
F57
330
9
100
AcDbSymbolTableRecord
100
AcDbRegAppTableRecord
  2
ACAD_DSTYLE_DIM_EXT2_LINETYPE
 70
     0
  0
APPID
  5
1062
330
9
100
AcDbSymbolTableRecord
100
AcDbRegAppTableRecord
  2
ACAD_PSEXT
 70
     0
  0
APPID
  5
1068
330
9
100
AcDbSymbolTableRecord
100
AcDbRegAppTableRecord
  2
DCO15
 70
     0
  0
ENDTAB
  0
TABLE
  2
DIMSTYLE
  5
A
330
0
100
AcDbSymbolTable
 70
     1
100
AcDbDimStyleTable
 71
     1
340
8B8
  0
DIMSTYLE
105
8B8
330
A
100
AcDbSymbolTableRecord
100
AcDbDimStyleTableRecord
  2
Standard
 70
     0
340
11
  0
ENDTAB
  0
TABLE
  2
BLOCK_RECORD
  5
1
330
0
100
AcDbSymbolTable
 70
    29
  0
BLOCK_RECORD
  5
22
102
{ACAD_XDICTIONARY
360
E7B
102
}
330
1
100
AcDbSymbolTableRecord
100
AcDbBlockTableRecord
  2
*Model_Space
340
25
  0
BLOCK_RECORD
  5
1E
330
1
100
AcDbSymbolTableRecord
100
AcDbBlockTableRecord
  2
*Paper_Space
340
21
  0
BLOCK_RECORD
  5
2D
330
1
100
AcDbSymbolTableRecord
100
AcDbBlockTableRecord
  2
MARK1_1
340
0
102
{BLKREFS
331
35
331
37
331
41
331
43
331
4D
331
4F
331
59
331
5B
331
65
331
67
331
71
331
73
331
7D
331
81
331
88
331
8A
331
91
331
93
331
9C
331
9E
331
A7
331
A9
331
B3
331
B5
331
BF
331
C3
331
CC
331
D0
331
D9
331
DD
331
E4
331
E6
331
EF
331
F1
331
FB
331
FD
331
107
331
109
331
112
331
114
331
11E
331
120
331
12A
331
12C
331
136
331
138
331
142
331
144
331
14D
331
14F
331
159
331
15B
331
164
331
168
102
}
  0
BLOCK_RECORD
  5
32
330
1
100
AcDbSymbolTableRecord
100
AcDbBlockTableRecord
  2
COMP1
340
0
  0
BLOCK_RECORD
  5
3E
330
1
100
AcDbSymbolTableRecord
100
AcDbBlockTableRecord
  2
COMP2
340
0
  0
BLOCK_RECORD
  5
4A
330
1
100
AcDbSymbolTableRecord
100
AcDbBlockTableRecord
  2
COMP3
340
0
  0
BLOCK_RECORD
  5
56
330
1
100
AcDbSymbolTableRecord
100
AcDbBlockTableRecord
  2
COMP4
340
0
  0
BLOCK_RECORD
  5
62
330
1
100
AcDbSymbolTableRecord
100
AcDbBlockTableRecord
  2
COMP5
340
0
  0
BLOCK_RECORD
  5
6E
330
1
100
AcDbSymbolTableRecord
100
AcDbBlockTableRecord
  2
COMP6
340
0
  0
BLOCK_RECORD
  5
7A
330
1
100
AcDbSymbolTableRecord
100
AcDbBlockTableRecord
  2
COMP7
340
0
  0
BLOCK_RECORD
  5
85
330
1
100
AcDbSymbolTableRecord
100
AcDbBlockTableRecord
  2
COMP8
340
0
  0
BLOCK_RECORD
  5
8E
330
1
100
AcDbSymbolTableRecord
100
AcDbBlockTableRecord
  2
COMP9
340
0
  0
BLOCK_RECORD
  5
99
330
1
100
AcDbSymbolTableRecord
100
AcDbBlockTableRecord
  2
COMP10
340
0
  0
BLOCK_RECORD
  5
A4
330
1
100
AcDbSymbolTableRecord
100
AcDbBlockTableRecord
  2
COMP11
340
0
  0
BLOCK_RECORD
  5
B0
330
1
100
AcDbSymbolTableRecord
100
AcDbBlockTableRecord
  2
COMP12
340
0
  0
BLOCK_RECORD
  5
BC
330
1
100
AcDbSymbolTableRecord
100
AcDbBlockTableRecord
  2
COMP13
340
0
  0
BLOCK_RECORD
  5
C9
330
1
100
AcDbSymbolTableRecord
100
AcDbBlockTableRecord
  2
COMP14
340
0
  0
BLOCK_RECORD
  5
D6
330
1
100
AcDbSymbolTableRecord
100
AcDbBlockTableRecord
  2
COMP15
340
0
  0
BLOCK_RECORD
  5
E1
330
1
100
AcDbSymbolTableRecord
100
AcDbBlockTableRecord
  2
COMP16
340
0
  0
BLOCK_RECORD
  5
EC
330
1
100
AcDbSymbolTableRecord
100
AcDbBlockTableRecord
  2
COMP17
340
0
  0
BLOCK_RECORD
  5
F8
330
1
100
AcDbSymbolTableRecord
100
AcDbBlockTableRecord
  2
COMP18
340
0
  0
BLOCK_RECORD
  5
104
330
1
100
AcDbSymbolTableRecord
100
AcDbBlockTableRecord
  2
COMP19
340
0
  0
BLOCK_RECORD
  5
10F
330
1
100
AcDbSymbolTableRecord
100
AcDbBlockTableRecord
  2
COMP20
340
0
  0
BLOCK_RECORD
  5
11B
330
1
100
AcDbSymbolTableRecord
100
AcDbBlockTableRecord
  2
COMP21
340
0
  0
BLOCK_RECORD
  5
127
330
1
100
AcDbSymbolTableRecord
100
AcDbBlockTableRecord
  2
COMP22
340
0
  0
BLOCK_RECORD
  5
133
330
1
100
AcDbSymbolTableRecord
100
AcDbBlockTableRecord
  2
COMP23
340
0
  0
BLOCK_RECORD
  5
13F
330
1
100
AcDbSymbolTableRecord
100
AcDbBlockTableRecord
  2
COMP24
340
0
  0
BLOCK_RECORD
  5
14A
330
1
100
AcDbSymbolTableRecord
100
AcDbBlockTableRecord
  2
COMP25
340
0
  0
BLOCK_RECORD
  5
156
330
1
100
AcDbSymbolTableRecord
100
AcDbBlockTableRecord
  2
COMP26
340
0
  0
BLOCK_RECORD
  5
161
330
1
100
AcDbSymbolTableRecord
100
AcDbBlockTableRecord
  2
COMP27
340
0
  0
BLOCK_RECORD
  5
8BD
330
1
100
AcDbSymbolTableRecord
100
AcDbBlockTableRecord
  2
MARK16_2
340
0
  0
ENDTAB
  0
ENDSEC
  0
SECTION
  2
BLOCKS
  0
BLOCK
  5
23
330
22
100
AcDbEntity
  8
0
100
AcDbBlockBegin
  2
*Model_Space
 70
     0
 10
0.0
 20
0.0
 30
0.0
  3
*Model_Space
  1

  0
ENDBLK
  5
24
330
22
100
AcDbEntity
  8
0
100
AcDbBlockEnd
  0
BLOCK
  5
1F
330
1E
100
AcDbEntity
 67
     1
  8
0
100
AcDbBlockBegin
  2
*Paper_Space
 70
     0
 10
0.0
 20
0.0
 30
0.0
  3
*Paper_Space
  1

  0
ENDBLK
  5
20
330
1E
100
AcDbEntity
 67
     1
  8
0
100
AcDbBlockEnd
  0
BLOCK
  5
2E
330
2D
100
AcDbEntity
  8
0
100
AcDbBlockBegin
  2
MARK1_1
 70
     0
 10
0.0
 20
0.0
 30
0.0
  3
MARK1_1
  1

  0
LINE
  5
2F
330
2D
100
AcDbEntity
  8
0
  6
Continuous
 62
     0
100
AcDbLine
 10
1.0
 20
-0.25
 30
0.0
 11
0.0
 21
0.0
 31
0.0
  0
LINE
  5
30
330
2D
100
AcDbEntity
  8
0
  6
Continuous
 62
     0
100
AcDbLine
 10
0.0
 20
0.0
 30
0.0
 11
1.0
 21
0.25
 31
0.0
  0
ENDBLK
  5
31
330
2D
100
AcDbEntity
  8
0
100
AcDbBlockEnd
  0
BLOCK
  5
33
330
32
100
AcDbEntity
  8
PIC06
100
AcDbBlockBegin
  2
COMP1
 70
     0
 10
0.0
 20
0.0
 30
0.0
  3
COMP1
  1

  0
LINE
  5
34
330
32
100
AcDbEntity
  8
PIC06
  6
Continuous
 62
     7
100
AcDbLine
 10
-3.540837098563316
 20
37.22665222562273
 30
0.0
 11
-3.540837098563316
 21
66.81052285899295
 31
0.0
  0
INSERT
  5
35
330
32
100
AcDbEntity
  8
PIC06
  6
Continuous
 62
     7
100
AcDbBlockReference
  2
MARK1_1
 10
-3.540837098563316
 20
37.22665222562273
 30
0.0
 41
2.5
 42
2.5
 50
90.0
  0
LINE
  5
36
330
32
100
AcDbEntity
  8
PIC06
  6
Continuous
 62
     7
100
AcDbLine
 10
-3.540837098563316
 20
96.39440112191003
 30
0.0
 11
-3.540837098563316
 21
66.81052285899295
 31
0.0
  0
INSERT
  5
37
330
32
100
AcDbEntity
  8
PIC06
  6
Continuous
 62
     7
100
AcDbBlockReference
  2
MARK1_1
 10
-3.540837098563316
 20
96.39440112191003
 30
0.0
 41
2.5
 42
2.5
 50
270.0
  0
LINE
  5
38
330
32
100
AcDbEntity
  8
PIC06
  6
Continuous
 62
     7
100
AcDbLine
 10
-62.51107991498519
 20
37.22665222562273
 30
0.0
 11
-3.040827114785316
 21
37.22665222562273
 31
0.0
  0
LINE
  5
39
330
32
100
AcDbEntity
  8
PIC06
  6
Continuous
 62
     7
100
AcDbLine
 10
-62.51107991498519
 20
96.39440112191003
 30
0.0
 11
-3.040827114785316
 21
96.39440112191003
 31
0.0
  0
TEXT
  5
3A
330
32
100
AcDbEntity
  8
PIC06
  6
Continuous
 62
     7
100
AcDbText
 10
-4.140837380458378
 20
65.88860910594394
 30
0.0
 40
2.5
  1
3
 50
90.0
 41
0.6547619344966496
100
AcDbText
  0
TEXT
  5
3B
330
32
100
AcDbEntity
  8
PIC06
  6
Continuous
 62
     7
100
AcDbText
 10
-4.140836818779649
 20
67.60735910594384
 30
0.0
 40
2.5
  1
5
 50
90.0
 41
0.6547619344966496
100
AcDbText
  0
TEXT
  5
3C
330
32
100
AcDbEntity
  8
PIC06
  6
Continuous
 62
     7
100
AcDbText
 10
-4.140836257100922
 20
69.32610910594376
 30
0.0
 40
2.5
  1
5
 50
90.0
 41
0.6547619344966496
100
AcDbText
  0
ENDBLK
  5
3D
330
32
100
AcDbEntity
  8
PIC06
100
AcDbBlockEnd
  0
BLOCK
  5
3F
330
3E
100
AcDbEntity
  8
PIC06
100
AcDbBlockBegin
  2
COMP2
 70
     0
 10
0.0
 20
0.0
 30
0.0
  3
COMP2
  1

  0
LINE
  5
40
330
3E
100
AcDbEntity
  8
PIC06
  6
Continuous
 62
     7
100
AcDbLine
 10
-24.13882325158465
 20
31.34281434415698
 30
0.0
 11
-54.97280276941546
 21
31.34281434415698
 31
0.0
  0
INSERT
  5
41
330
3E
100
AcDbEntity
  8
PIC06
  6
Continuous
 62
     7
100
AcDbBlockReference
  2
MARK1_1
 10
-24.13882325158465
 20
31.34281434415698
 30
0.0
 41
2.5
 42
2.5
 50
180.0
  0
LINE
  5
42
330
3E
100
AcDbEntity
  8
PIC06
  6
Continuous
 62
     7
100
AcDbLine
 10
-85.80678737361086
 20
31.34281434415698
 30
0.0
 11
-54.9727925966863
 21
31.34281434415698
 31
0.0
  0
INSERT
  5
43
330
3E
100
AcDbEntity
  8
PIC06
  6
Continuous
 62
     7
100
AcDbBlockReference
  2
MARK1_1
 10
-85.80678737361086
 20
31.34281434415698
 30
0.0
 41
2.5
 42
2.5
  0
LINE
  5
44
330
3E
100
AcDbEntity
  8
PIC06
  6
Continuous
 62
     7
100
AcDbLine
 10
-24.13882325158465
 20
66.81052285899295
 30
0.0
 11
-24.13882325158465
 21
30.3428147220593
 31
0.0
  0
LINE
  5
45
330
3E
100
AcDbEntity
  8
PIC06
  6
Continuous
 62
     7
100
AcDbLine
 10
-85.80678737361086
 20
66.81052285899295
 30
0.0
 11
-85.80678737361086
 21
30.3428147220593
 31
0.0
  0
TEXT
  5
46
330
3E
100
AcDbEntity
  8
PIC06
  6
Continuous
 62
     7
100
AcDbText
 10
-57.31654870472903
 20
31.94280953968747
 30
0.0
 40
2.5
  1
3
 41
0.6547619344966496
100
AcDbText
  0
TEXT
  5
47
330
3E
100
AcDbEntity
  8
PIC06
  6
Continuous
 62
     7
100
AcDbText
 10
-55.59779870472903
 20
31.94280953968747
 30
0.0
 40
2.5
  1
7
 41
0.6547619344966496
100
AcDbText
  0
TEXT
  5
48
330
3E
100
AcDbEntity
  8
PIC06
  6
Continuous
 62
     7
100
AcDbText
 10
-53.87904870472903
 20
31.94280953968747
 30
0.0
 40
2.5
  1
0
 41
0.6547619344966496
100
AcDbText
  0
ENDBLK
  5
49
330
3E
100
AcDbEntity
  8
PIC06
100
AcDbBlockEnd
  0
BLOCK
  5
4B
330
4A
100
AcDbEntity
  8
PIC06
100
AcDbBlockBegin
  2
COMP3
 70
     0
 10
0.0
 20
0.0
 30
0.0
  3
COMP3
  1

  0
LINE
  5
4C
330
4A
100
AcDbEntity
  8
PIC06
  6
Continuous
 62
     7
100
AcDbLine
 10
-8.540936936343314
 20
43.89344946614709
 30
0.0
 11
-8.540936936343314
 21
66.81052285899295
 31
0.0
  0
INSERT
  5
4D
330
4A
100
AcDbEntity
  8
PIC06
  6
Continuous
 62
     7
100
AcDbBlockReference
  2
MARK1_1
 10
-8.540936936343314
 20
43.89344946614709
 30
0.0
 41
2.5
 42
2.5
 50
90.0
  0
LINE
  5
4E
330
4A
100
AcDbEntity
  8
PIC06
  6
Continuous
 62
     7
100
AcDbLine
 10
-8.540936936343314
 20
89.72760133820338
 30
0.0
 11
-8.540936936343314
 21
66.81052285899295
 31
0.0
  0
INSERT
  5
4F
330
4A
100
AcDbEntity
  8
PIC06
  6
Continuous
 62
     7
100
AcDbBlockReference
  2
MARK1_1
 10
-8.540936936343314
 20
89.72760133820338
 30
0.0
 41
2.5
 42
2.5
 50
270.0
  0
LINE
  5
50
330
4A
100
AcDbEntity
  8
PIC06
  6
Continuous
 62
     7
100
AcDbLine
 10
-62.51107991498519
 20
43.89344946614709
 30
0.0
 11
-7.540937314245638
 21
43.89344946614709
 31
0.0
  0
LINE
  5
51
330
4A
100
AcDbEntity
  8
PIC06
  6
Continuous
 62
     7
100
AcDbLine
 10
-62.51107991498519
 20
89.72760133820338
 30
0.0
 11
-7.540937314245638
 21
89.72760133820338
 31
0.0
  0
TEXT
  5
52
330
4A
100
AcDbEntity
  8
PIC06
  6
Continuous
 62
     7
100
AcDbText
 10
-9.140937218238375
 20
64.46677692367939
 30
0.0
 40
2.5
  1
2
 50
90.0
 41
0.6547619344966496
100
AcDbText
  0
TEXT
  5
53
330
4A
100
AcDbEntity
  8
PIC06
  6
Continuous
 62
     7
100
AcDbText
 10
-9.140936656559649
 20
66.18552692367929
 30
0.0
 40
2.5
  1
7
 50
90.0
 41
0.6547619344966496
100
AcDbText
  0
TEXT
  5
54
330
4A
100
AcDbEntity
  8
PIC06
  6
Continuous
 62
     7
100
AcDbText
 10
-9.140936094880919
 20
67.9042769236792
 30
0.0
 40
2.5
  1
5
 50
90.0
 41
0.6547619344966496
100
AcDbText
  0
ENDBLK
  5
55
330
4A
100
AcDbEntity
  8
PIC06
100
AcDbBlockEnd
  0
BLOCK
  5
57
330
56
100
AcDbEntity
  8
PIC06
100
AcDbBlockBegin
  2
COMP4
 70
     0
 10
0.0
 20
0.0
 30
0.0
  3
COMP4
  1

  0
LINE
  5
58
330
56
100
AcDbEntity
  8
PIC06
  6
Continuous
 62
     7
100
AcDbLine
 10
77.30341832606338
 20
-53.01456257843074
 30
0.0
 11
53.96961908309004
 21
-53.01456257843074
 31
0.0
  0
INSERT
  5
59
330
56
100
AcDbEntity
  8
PIC06
  6
Continuous
 62
     7
100
AcDbBlockReference
  2
MARK1_1
 10
77.30341832606338
 20
-53.01456257843074
 30
0.0
 41
2.5
 42
2.5
 50
180.0
  0
LINE
  5
5A
330
56
100
AcDbEntity
  8
PIC06
  6
Continuous
 62
     7
100
AcDbLine
 10
30.63581729693443
 20
-53.01456257843074
 30
0.0
 11
53.96961908309004
 21
-53.01456257843074
 31
0.0
  0
INSERT
  5
5B
330
56
100
AcDbEntity
  8
PIC06
  6
Continuous
 62
     7
100
AcDbBlockReference
  2
MARK1_1
 10
30.63581729693443
 20
-53.01456257843074
 30
0.0
 41
2.5
 42
2.5
  0
LINE
  5
5C
330
56
100
AcDbEntity
  8
PIC06
  6
Continuous
 62
     7
100
AcDbLine
 10
77.30341832606338
 20
-42.4528943758596
 30
0.0
 11
77.30341832606338
 21
-54.01456220052843
 31
0.0
  0
LINE
  5
5D
330
56
100
AcDbEntity
  8
PIC06
  6
Continuous
 62
     7
100
AcDbLine
 10
30.63581729693443
 20
-42.4528943758596
 30
0.0
 11
30.63581729693443
 21
-54.01456220052843
 31
0.0
  0
TEXT
  5
5E
330
56
100
AcDbEntity
  8
PIC06
  6
Continuous
 62
     7
100
AcDbText
 10
51.62586806141188
 20
-52.41456483971797
 30
0.0
 40
2.5
  1
2
 41
0.6547619344966496
100
AcDbText
  0
TEXT
  5
5F
330
56
100
AcDbEntity
  8
PIC06
  6
Continuous
 62
     7
100
AcDbText
 10
53.34461806141188
 20
-52.41456483971797
 30
0.0
 40
2.5
  1
8
 41
0.6547619344966496
100
AcDbText
  0
TEXT
  5
60
330
56
100
AcDbEntity
  8
PIC06
  6
Continuous
 62
     7
100
AcDbText
 10
55.06336806141188
 20
-52.41456483971797
 30
0.0
 40
2.5
  1
0
 41
0.6547619344966496
100
AcDbText
  0
ENDBLK
  5
61
330
56
100
AcDbEntity
  8
PIC06
100
AcDbBlockEnd
  0
BLOCK
  5
63
330
62
100
AcDbEntity
  8
PIC06
100
AcDbBlockBegin
  2
COMP5
 70
     0
 10
0.0
 20
0.0
 30
0.0
  3
COMP5
  1

  0
LINE
  5
64
330
62
100
AcDbEntity
  8
PIC06
  6
Continuous
 62
     7
100
AcDbLine
 10
18.69775849326606
 20
-42.95290435963761
 30
0.0
 11
18.69775849326606
 21
-7.535530508695956
 31
0.0
  0
INSERT
  5
65
330
62
100
AcDbEntity
  8
PIC06
  6
Continuous
 62
     7
100
AcDbBlockReference
  2
MARK1_1
 10
18.69775849326606
 20
-42.95290435963761
 30
0.0
 41
2.5
 42
2.5
 50
90.0
  0
LINE
  5
66
330
62
100
AcDbEntity
  8
PIC06
  6
Continuous
 62
     7
100
AcDbLine
 10
18.69775849326606
 20
27.8818433422457
 30
0.0
 11
18.69775849326606
 21
-7.535530508695956
 31
0.0
  0
INSERT
  5
67
330
62
100
AcDbEntity
  8
PIC06
  6
Continuous
 62
     7
100
AcDbBlockReference
  2
MARK1_1
 10
18.69775849326606
 20
27.8818433422457
 30
0.0
 41
2.5
 42
2.5
 50
270.0
  0
LINE
  5
68
330
62
100
AcDbEntity
  8
PIC06
  6
Continuous
 62
     7
100
AcDbLine
 10
31.13582728071242
 20
-42.95290435963761
 30
0.0
 11
17.69775887116839
 21
-42.95290435963761
 31
0.0
  0
LINE
  5
69
330
62
100
AcDbEntity
  8
PIC06
  6
Continuous
 62
     7
100
AcDbLine
 10
31.13266864830757
 20
27.8818433422457
 30
0.0
 11
17.69775887116839
 21
27.8818433422457
 31
0.0
  0
TEXT
  5
6A
330
62
100
AcDbEntity
  8
PIC06
  6
Continuous
 62
     7
100
AcDbText
 10
18.097758211371
 20
-9.879281530374099
 30
0.0
 40
2.5
  1
4
 50
90.0
 41
0.6547619344966496
100
AcDbText
  0
TEXT
  5
6B
330
62
100
AcDbEntity
  8
PIC06
  6
Continuous
 62
     7
100
AcDbText
 10
18.09775877304973
 20
-8.160531530374191
 30
0.0
 40
2.5
  1
2
 50
90.0
 41
0.6547619344966496
100
AcDbText
  0
TEXT
  5
6C
330
62
100
AcDbEntity
  8
PIC06
  6
Continuous
 62
     7
100
AcDbText
 10
18.09775933472846
 20
-6.441781530374284
 30
0.0
 40
2.5
  1
5
 50
90.0
 41
0.6547619344966496
100
AcDbText
  0
ENDBLK
  5
6D
330
62
100
AcDbEntity
  8
PIC06
100
AcDbBlockEnd
  0
BLOCK
  5
6F
330
6E
100
AcDbEntity
  8
PIC06
100
AcDbBlockBegin
  2
COMP6
 70
     0
 10
0.0
 20
0.0
 30
0.0
  3
COMP6
  1

  0
LINE
  5
70
330
6E
100
AcDbEntity
  8
PIC06
  6
Continuous
 62
     7
100
AcDbLine
 10
-143.3348830676314
 20
83.97754247476678
 30
0.0
 11
-143.3348830676314
 21
66.81052794535753
 31
0.0
  0
INSERT
  5
71
330
6E
100
AcDbEntity
  8
PIC06
  6
Continuous
 62
     7
100
AcDbBlockReference
  2
MARK1_1
 10
-143.3348830676314
 20
83.97754247476678
 30
0.0
 41
2.5
 42
2.5
 50
270.0
  0
LINE
  5
72
330
6E
100
AcDbEntity
  8
PIC06
  6
Continuous
 62
     7
100
AcDbLine
 10
-143.3348830676314
 20
49.64351850231287
 30
0.0
 11
-143.3348830676314
 21
66.81052794535753
 31
0.0
  0
INSERT
  5
73
330
6E
100
AcDbEntity
  8
PIC06
  6
Continuous
 62
     7
100
AcDbBlockReference
  2
MARK1_1
 10
-143.3348830676314
 20
49.64351850231287
 30
0.0
 41
2.5
 42
2.5
 50
90.0
  0
LINE
  5
74
330
6E
100
AcDbEntity
  8
PIC06
  6
Continuous
 62
     7
100
AcDbLine
 10
-127.9740213418681
 20
83.97754247476678
 30
0.0
 11
-144.6682430243727
 21
83.97754247476678
 31
0.0
  0
LINE
  5
75
330
6E
100
AcDbEntity
  8
PIC06
  6
Continuous
 62
     7
100
AcDbLine
 10
-127.9740213418681
 20
49.64351850231287
 30
0.0
 11
-144.6682430243727
 21
49.64351850231287
 31
0.0
  0
TEXT
  5
76
330
6E
100
AcDbEntity
  8
PIC06
  6
Continuous
 62
     7
100
AcDbText
 10
-143.9348808063441
 20
63.51878537942321
 30
0.0
 40
2.5
  1
2
 50
90.0
 41
0.6547619344966496
100
AcDbText
  0
TEXT
  5
77
330
6E
100
AcDbEntity
  8
PIC06
  6
Continuous
 62
     7
100
AcDbText
 10
-143.9348802446654
 20
65.23753537942311
 30
0.0
 40
2.5
  1
0
 50
90.0
 41
0.6547619344966496
100
AcDbText
  0
TEXT
  5
78
330
6E
100
AcDbEntity
  8
PIC06
  6
Continuous
 62
     7
100
AcDbText
 10
-143.9348796829867
 20
66.95628537942302
 30
0.0
 40
2.5
  1
6
 50
90.0
 41
0.6547619344966496
100
AcDbText
  0
ENDBLK
  5
79
330
6E
100
AcDbEntity
  8
PIC06
100
AcDbBlockEnd
  0
BLOCK
  5
7B
330
7A
100
AcDbEntity
  8
PIC06
100
AcDbBlockBegin
  2
COMP7
 70
     0
 10
0.0
 20
0.0
 30
0.0
  3
COMP7
  1

  0
LINE
  5
7C
330
7A
100
AcDbEntity
  8
PIC06
  6
Continuous
 62
     7
100
AcDbLine
 10
-123.9156924244617
 20
50.45465632115064
 30
0.0
 11
-116.5409927638193
 21
56.10729095740135
 31
0.0
  0
INSERT
  5
7D
330
7A
100
AcDbEntity
  8
PIC06
  6
Continuous
 62
     7
100
AcDbBlockReference
  2
MARK1_1
 10
-123.9156924244617
 20
50.45465632115064
 30
0.0
 41
2.5
 42
2.5
 50
37.0
  0
LINE
  5
7E
330
7A
100
AcDbEntity
  8
PIC06
  6
Continuous
 62
     7
100
AcDbLine
 10
-123.9156924244617
 20
50.45465632115064
 30
0.0
 11
-124.9739410937418
 21
49.64351341594828
 31
0.0
  0
LINE
  5
7F
330
7A
100
AcDbEntity
  8
PIC06
  6
Continuous
 62
     7
100
AcDbLine
 10
-126.0322101084803
 20
48.83237559711052
 30
0.0
 11
-124.9739614392001
 21
49.64351850231287
 31
0.0
  0
LINE
  5
80
330
7A
100
AcDbEntity
  8
PIC06
  6
Continuous
 62
     7
100
AcDbLine
 10
-126.0322101084803
 20
48.83237559711052
 30
0.0
 11
-129.206976461779
 21
46.39895196786802
 31
0.0
  0
INSERT
  5
81
330
7A
100
AcDbEntity
  8
PIC06
  6
Continuous
 62
     7
100
AcDbBlockReference
  2
MARK1_1
 10
-126.0322101084803
 20
48.83237559711052
 30
0.0
 41
2.5
 42
2.5
 50
217.0
  0
TEXT
  5
82
330
7A
100
AcDbEntity
  8
PIC06
  6
Continuous
 62
     7
100
AcDbText
 10
-120.715840121049
 20
53.68543880758078
 30
0.0
 40
2.5
  1
1
 50
37.0
 41
0.6547619344966496
100
AcDbText
  0
TEXT
  5
83
330
7A
100
AcDbEntity
  8
PIC06
  6
Continuous
 62
     7
100
AcDbText
 10
-119.3431851991887
 20
54.71980819420855
 30
0.0
 40
2.5
  1
6
 50
37.0
 41
0.6547619344966496
100
AcDbText
  0
ENDBLK
  5
84
330
7A
100
AcDbEntity
  8
PIC06
100
AcDbBlockEnd
  0
BLOCK
  5
86
330
85
100
AcDbEntity
  8
PIC06
100
AcDbBlockBegin
  2
COMP8
 70
     0
 10
0.0
 20
0.0
 30
0.0
  3
COMP8
  1

  0
LINE
  5
87
330
85
100
AcDbEntity
  8
PIC06
  6
Continuous
 62
     7
100
AcDbLine
 10
-119.9470869782654
 20
71.68213604109041
 30
0.0
 11
-124.7196228646881
 21
67.05700300022726
 31
0.0
  0
INSERT
  5
88
330
85
100
AcDbEntity
  8
PIC06
  6
Continuous
 62
     7
100
AcDbBlockReference
  2
MARK1_1
 10
-119.9470869782654
 20
71.68213604109041
 30
0.0
 41
2.5
 42
2.5
 50
224.0
  0
LINE
  5
89
330
85
100
AcDbEntity
  8
PIC06
  6
Continuous
 62
     7
100
AcDbLine
 10
-130.0008155546766
 20
61.93891476326006
 30
0.0
 11
-124.7196228646881
 21
67.05700300022726
 31
0.0
  0
INSERT
  5
8A
330
85
100
AcDbEntity
  8
PIC06
  6
Continuous
 62
     7
100
AcDbBlockReference
  2
MARK1_1
 10
-130.0008155546766
 20
61.93891476326006
 30
0.0
 41
2.5
 42
2.5
 50
44.0
  0
TEXT
  5
8B
330
85
100
AcDbEntity
  8
PIC06
  6
Continuous
 62
     7
100
AcDbText
 10
-126.6800298469843
 20
65.99794559897873
 30
0.0
 40
2.5
  1
8
 50
44.0
 41
0.6547619344966496
100
AcDbText
  0
TEXT
  5
8C
330
85
100
AcDbEntity
  8
PIC06
  6
Continuous
 62
     7
100
AcDbText
 10
-125.4436643744002
 20
67.19188947567549
 30
0.0
 40
2.5
  1
4
 50
44.0
 41
0.6547619344966496
100
AcDbText
  0
ENDBLK
  5
8D
330
85
100
AcDbEntity
  8
PIC06
100
AcDbBlockEnd
  0
BLOCK
  5
8F
330
8E
100
AcDbEntity
  8
PIC06
100
AcDbBlockBegin
  2
COMP9
 70
     0
 10
0.0
 20
0.0
 30
0.0
  3
COMP9
  1

  0
LINE
  5
90
330
8E
100
AcDbEntity
  8
PIC06
  6
Continuous
 62
     7
100
AcDbLine
 10
-124.9739614392001
 20
101.1862245028242
 30
0.0
 11
-110.3904182941751
 21
101.1862245028242
 31
0.0
  0
INSERT
  5
91
330
8E
100
AcDbEntity
  8
PIC06
  6
Continuous
 62
     7
100
AcDbBlockReference
  2
MARK1_1
 10
-124.9739614392001
 20
101.1862245028242
 30
0.0
 41
2.5
 42
2.5
  0
LINE
  5
92
330
8E
100
AcDbEntity
  8
PIC06
  6
Continuous
 62
     7
100
AcDbLine
 10
-95.80687514915009
 20
101.1862245028242
 30
0.0
 11
-110.3904182941751
 21
101.1862245028242
 31
0.0
  0
INSERT
  5
93
330
8E
100
AcDbEntity
  8
PIC06
  6
Continuous
 62
     7
100
AcDbBlockReference
  2
MARK1_1
 10
-95.80687514915009
 20
101.1862245028242
 30
0.0
 41
2.5
 42
2.5
 50
180.0
  0
LINE
  5
94
330
8E
100
AcDbEntity
  8
PIC06
  6
Continuous
 62
     7
100
AcDbLine
 10
-95.80687514915009
 20
81.64419815502151
 30
0.0
 11
-95.80687514915009
 21
102.5195844595655
 31
0.0
  0
TEXT
  5
95
330
8E
100
AcDbEntity
  8
PIC06
  6
Continuous
 62
     7
100
AcDbText
 10
-113.6821608601094
 20
101.786222241537
 30
0.0
 40
2.5
  1
1
 41
0.6547619344966496
100
AcDbText
  0
TEXT
  5
96
330
8E
100
AcDbEntity
  8
PIC06
  6
Continuous
 62
     7
100
AcDbText
 10
-111.9634108601094
 20
101.786222241537
 30
0.0
 40
2.5
  1
7
 41
0.6547619344966496
100
AcDbText
  0
TEXT
  5
97
330
8E
100
AcDbEntity
  8
PIC06
  6
Continuous
 62
     7
100
AcDbText
 10
-110.2446608601094
 20
101.786222241537
 30
0.0
 40
2.5
  1
5
 41
0.6547619344966496
100
AcDbText
  0
ENDBLK
  5
98
330
8E
100
AcDbEntity
  8
PIC06
100
AcDbBlockEnd
  0
BLOCK
  5
9A
330
99
100
AcDbEntity
  8
PIC06
100
AcDbBlockBegin
  2
COMP10
 70
     0
 10
0.0
 20
0.0
 30
0.0
  3
COMP10
  1

  0
LINE
  5
9B
330
99
100
AcDbEntity
  8
PIC06
  6
Continuous
 62
     7
100
AcDbLine
 10
-95.80687514915009
 20
101.1862245028242
 30
0.0
 11
-56.63944167896715
 21
101.1862245028242
 31
0.0
  0
INSERT
  5
9C
330
99
100
AcDbEntity
  8
PIC06
  6
Continuous
 62
     7
100
AcDbBlockReference
  2
MARK1_1
 10
-95.80687514915009
 20
101.1862245028242
 30
0.0
 41
2.5
 42
2.5
  0
LINE
  5
9D
330
99
100
AcDbEntity
  8
PIC06
  6
Continuous
 62
     7
100
AcDbLine
 10
-17.47202346787799
 20
101.1862245028242
 30
0.0
 11
-56.63944167896715
 21
101.1862245028242
 31
0.0
  0
INSERT
  5
9E
330
99
100
AcDbEntity
  8
PIC06
  6
Continuous
 62
     7
100
AcDbBlockReference
  2
MARK1_1
 10
-17.47202346787799
 20
101.1862245028242
 30
0.0
 41
2.5
 42
2.5
 50
180.0
  0
LINE
  5
9F
330
99
100
AcDbEntity
  8
PIC06
  6
Continuous
 62
     7
100
AcDbLine
 10
-17.47202346787799
 20
66.81052794535753
 30
0.0
 11
-17.47202346787799
 21
102.5195844595655
 31
0.0
  0
TEXT
  5
A0
330
99
100
AcDbEntity
  8
PIC06
  6
Continuous
 62
     7
100
AcDbText
 10
-59.93118424490149
 20
101.786222241537
 30
0.0
 40
2.5
  1
4
 41
0.6547619344966496
100
AcDbText
  0
TEXT
  5
A1
330
99
100
AcDbEntity
  8
PIC06
  6
Continuous
 62
     7
100
AcDbText
 10
-58.21243424490149
 20
101.786222241537
 30
0.0
 40
2.5
  1
7
 41
0.6547619344966496
100
AcDbText
  0
TEXT
  5
A2
330
99
100
AcDbEntity
  8
PIC06
  6
Continuous
 62
     7
100
AcDbText
 10
-56.49368424490149
 20
101.786222241537
 30
0.0
 40
2.5
  1
0
 41
0.6547619344966496
100
AcDbText
  0
ENDBLK
  5
A3
330
99
100
AcDbEntity
  8
PIC06
100
AcDbBlockEnd
  0
BLOCK
  5
A5
330
A4
100
AcDbEntity
  8
PIC06
100
AcDbBlockBegin
  2
COMP11
 70
     0
 10
0.0
 20
0.0
 30
0.0
  3
COMP11
  1

  0
LINE
  5
A6
330
A4
100
AcDbEntity
  8
PIC06
  6
Continuous
 62
     7
100
AcDbLine
 10
-104.1132136919205
 20
55.14362832387087
 30
0.0
 11
-104.1132136919205
 21
66.81052794535753
 31
0.0
  0
INSERT
  5
A7
330
A4
100
AcDbEntity
  8
PIC06
  6
Continuous
 62
     7
100
AcDbBlockReference
  2
MARK1_1
 10
-104.1132136919205
 20
55.14362832387087
 30
0.0
 41
2.5
 42
2.5
 50
90.0
  0
LINE
  5
A8
330
A4
100
AcDbEntity
  8
PIC06
  6
Continuous
 62
     7
100
AcDbLine
 10
-104.1132136919205
 20
78.47742756684422
 30
0.0
 11
-104.1132136919205
 21
66.81052794535753
 31
0.0
  0
INSERT
  5
A9
330
A4
100
AcDbEntity
  8
PIC06
  6
Continuous
 62
     7
100
AcDbBlockReference
  2
MARK1_1
 10
-104.1132136919205
 20
78.47742756684422
 30
0.0
 41
2.5
 42
2.5
 50
270.0
  0
LINE
  5
AA
330
A4
100
AcDbEntity
  8
PIC06
  6
Continuous
 62
     7
100
AcDbLine
 10
-100.0307754063997
 20
55.14362832387087
 30
0.0
 11
-105.4465736486618
 21
55.14362832387087
 31
0.0
  0
LINE
  5
AB
330
A4
100
AcDbEntity
  8
PIC06
  6
Continuous
 62
     7
100
AcDbLine
 10
-100.0307754063997
 20
78.47742756684422
 30
0.0
 11
-105.4465736486618
 21
78.47742756684422
 31
0.0
  0
TEXT
  5
AC
330
A4
100
AcDbEntity
  8
PIC06
  6
Continuous
 62
     7
100
AcDbText
 10
-104.7132114306332
 20
63.51878537942321
 30
0.0
 40
2.5
  1
1
 50
90.0
 41
0.6547619344966496
100
AcDbText
  0
TEXT
  5
AD
330
A4
100
AcDbEntity
  8
PIC06
  6
Continuous
 62
     7
100
AcDbText
 10
-104.7132108689545
 20
65.23753537942311
 30
0.0
 40
2.5
  1
4
 50
90.0
 41
0.6547619344966496
100
AcDbText
  0
TEXT
  5
AE
330
A4
100
AcDbEntity
  8
PIC06
  6
Continuous
 62
     7
100
AcDbText
 10
-104.7132103072758
 20
66.95628537942302
 30
0.0
 40
2.5
  1
0
 50
90.0
 41
0.6547619344966496
100
AcDbText
  0
ENDBLK
  5
AF
330
A4
100
AcDbEntity
  8
PIC06
100
AcDbBlockEnd
  0
BLOCK
  5
B1
330
B0
100
AcDbEntity
  8
PIC06
100
AcDbBlockBegin
  2
COMP12
 70
     0
 10
0.0
 20
0.0
 30
0.0
  3
COMP12
  1

  0
LINE
  5
B2
330
B0
100
AcDbEntity
  8
PIC06
  6
Continuous
 62
     7
100
AcDbLine
 10
-88.97482955293344
 20
79.47744753440021
 30
0.0
 11
-88.97482955293344
 21
66.81052794535753
 31
0.0
  0
INSERT
  5
B3
330
B0
100
AcDbEntity
  8
PIC06
  6
Continuous
 62
     7
100
AcDbBlockReference
  2
MARK1_1
 10
-88.97482955293344
 20
79.47744753440021
 30
0.0
 41
2.5
 42
2.5
 50
270.0
  0
LINE
  5
B4
330
B0
100
AcDbEntity
  8
PIC06
  6
Continuous
 62
     7
100
AcDbLine
 10
-88.97482955293344
 20
54.14360835631487
 30
0.0
 11
-88.97482955293344
 21
66.81052794535753
 31
0.0
  0
INSERT
  5
B5
330
B0
100
AcDbEntity
  8
PIC06
  6
Continuous
 62
     7
100
AcDbBlockReference
  2
MARK1_1
 10
-88.97482955293344
 20
54.14360835631487
 30
0.0
 41
2.5
 42
2.5
 50
90.0
  0
LINE
  5
B6
330
B0
100
AcDbEntity
  8
PIC06
  6
Continuous
 62
     7
100
AcDbLine
 10
-91.31203442339574
 20
79.47744753440021
 30
0.0
 11
-87.64148994165044
 21
79.47744753440021
 31
0.0
  0
LINE
  5
B7
330
B0
100
AcDbEntity
  8
PIC06
  6
Continuous
 62
     7
100
AcDbLine
 10
-91.31203442339574
 20
54.14360835631487
 30
0.0
 11
-87.64148994165044
 21
54.14360835631487
 31
0.0
  0
TEXT
  5
B8
330
B0
100
AcDbEntity
  8
PIC06
  6
Continuous
 62
     7
100
AcDbText
 10
-89.57484763710455
 20
63.51878537942321
 30
0.0
 40
2.5
  1
1
 50
90.0
 41
0.6547619344966496
100
AcDbText
  0
TEXT
  5
B9
330
B0
100
AcDbEntity
  8
PIC06
  6
Continuous
 62
     7
100
AcDbText
 10
-89.57484707542581
 20
65.23753537942311
 30
0.0
 40
2.5
  1
5
 50
90.0
 41
0.6547619344966496
100
AcDbText
  0
TEXT
  5
BA
330
B0
100
AcDbEntity
  8
PIC06
  6
Continuous
 62
     7
100
AcDbText
 10
-89.57484651374711
 20
66.95628537942302
 30
0.0
 40
2.5
  1
2
 50
90.0
 41
0.6547619344966496
100
AcDbText
  0
ENDBLK
  5
BB
330
B0
100
AcDbEntity
  8
PIC06
100
AcDbBlockEnd
  0
BLOCK
  5
BD
330
BC
100
AcDbEntity
  8
PIC06
100
AcDbBlockBegin
  2
COMP13
 70
     0
 10
0.0
 20
0.0
 30
0.0
  3
COMP13
  1

  0
LINE
  5
BE
330
BC
100
AcDbEntity
  8
PIC06
  6
Continuous
 62
     7
100
AcDbLine
 10
-91.72350097254641
 20
85.72592434950093
 30
0.0
 11
-82.43164368764064
 21
85.72592434950093
 31
0.0
  0
INSERT
  5
BF
330
BC
100
AcDbEntity
  8
PIC06
  6
Continuous
 62
     7
100
AcDbBlockReference
  2
MARK1_1
 10
-91.72350097254641
 20
85.72592434950093
 30
0.0
 41
2.5
 42
2.5
  0
LINE
  5
C0
330
BC
100
AcDbEntity
  8
PIC06
  6
Continuous
 62
     7
100
AcDbLine
 10
-91.72350097254641
 20
85.72592434950093
 30
0.0
 11
-92.80685593739873
 21
85.72592434950093
 31
0.0
  0
LINE
  5
C1
330
BC
100
AcDbEntity
  8
PIC06
  6
Continuous
 62
     7
100
AcDbLine
 10
-93.89021090225107
 20
85.72592434950093
 30
0.0
 11
-92.80685593739873
 21
85.72592434950093
 31
0.0
  0
LINE
  5
C2
330
BC
100
AcDbEntity
  8
PIC06
  6
Continuous
 62
     7
100
AcDbLine
 10
-93.89021090225107
 20
85.72592434950093
 30
0.0
 11
-97.89029077247505
 21
85.72592434950093
 31
0.0
  0
INSERT
  5
C3
330
BC
100
AcDbEntity
  8
PIC06
  6
Continuous
 62
     7
100
AcDbBlockReference
  2
MARK1_1
 10
-93.89021090225107
 20
85.72592434950093
 30
0.0
 41
2.5
 42
2.5
 50
180.0
  0
LINE
  5
C4
330
BC
100
AcDbEntity
  8
PIC06
  6
Continuous
 62
     7
100
AcDbLine
 10
-91.72350097254641
 20
80.47746750195621
 30
0.0
 11
-91.72350097254641
 21
87.05928430624226
 31
0.0
  0
LINE
  5
C5
330
BC
100
AcDbEntity
  8
PIC06
  6
Continuous
 62
     7
100
AcDbLine
 10
-93.89021090225107
 20
80.47746750195621
 30
0.0
 11
-93.89021090225107
 21
87.05928430624226
 31
0.0
  0
TEXT
  5
C6
330
BC
100
AcDbEntity
  8
PIC06
  6
Continuous
 62
     7
100
AcDbText
 10
-87.22342129127355
 20
86.32592208821371
 30
0.0
 40
2.5
  1
1
 41
0.6547619344966496
100
AcDbText
  0
TEXT
  5
C7
330
BC
100
AcDbEntity
  8
PIC06
  6
Continuous
 62
     7
100
AcDbText
 10
-85.50467129127355
 20
86.32592208821371
 30
0.0
 40
2.5
  1
3
 41
0.6547619344966496
100
AcDbText
  0
ENDBLK
  5
C8
330
BC
100
AcDbEntity
  8
PIC06
100
AcDbBlockEnd
  0
BLOCK
  5
CA
330
C9
100
AcDbEntity
  8
PIC06
100
AcDbBlockBegin
  2
COMP14
 70
     0
 10
0.0
 20
0.0
 30
0.0
  3
COMP14
  1

  0
LINE
  5
CB
330
C9
100
AcDbEntity
  8
PIC06
  6
Continuous
 62
     7
100
AcDbLine
 10
-77.05702465302692
 20
77.39407260199188
 30
0.0
 11
-77.05702465302692
 21
73.39399273176788
 31
0.0
  0
INSERT
  5
CC
330
C9
100
AcDbEntity
  8
PIC06
  6
Continuous
 62
     7
100
AcDbBlockReference
  2
MARK1_1
 10
-77.05702465302692
 20
77.39407260199188
 30
0.0
 41
2.5
 42
2.5
 50
270.0
  0
LINE
  5
CD
330
C9
100
AcDbEntity
  8
PIC06
  6
Continuous
 62
     7
100
AcDbLine
 10
-77.05702465302692
 20
77.39407260199188
 30
0.0
 11
-77.05702465302692
 21
79.47744753440021
 31
0.0
  0
LINE
  5
CE
330
C9
100
AcDbEntity
  8
PIC06
  6
Continuous
 62
     7
100
AcDbLine
 10
-77.05702465302692
 20
81.56082246680853
 30
0.0
 11
-77.05702465302692
 21
79.47744753440021
 31
0.0
  0
LINE
  5
CF
330
C9
100
AcDbEntity
  8
PIC06
  6
Continuous
 62
     7
100
AcDbLine
 10
-77.05702465302692
 20
81.56082246680853
 30
0.0
 11
-77.05702465302692
 21
90.8526746653497
 31
0.0
  0
INSERT
  5
D0
330
C9
100
AcDbEntity
  8
PIC06
  6
Continuous
 62
     7
100
AcDbBlockReference
  2
MARK1_1
 10
-77.05702465302692
 20
81.56082246680853
 30
0.0
 41
2.5
 42
2.5
 50
90.0
  0
LINE
  5
D1
330
C9
100
AcDbEntity
  8
PIC06
  6
Continuous
 62
     7
100
AcDbLine
 10
-92.80685593739873
 20
77.39407260199188
 30
0.0
 11
-75.72366469628559
 21
77.39407260199188
 31
0.0
  0
LINE
  5
D2
330
C9
100
AcDbEntity
  8
PIC06
  6
Continuous
 62
     7
100
AcDbLine
 10
-92.80685593739873
 20
81.56082246680853
 30
0.0
 11
-75.72366469628559
 21
81.56082246680853
 31
0.0
  0
TEXT
  5
D3
330
C9
100
AcDbEntity
  8
PIC06
  6
Continuous
 62
     7
100
AcDbText
 10
-77.6570223917397
 20
86.06090214808139
 30
0.0
 40
2.5
  1
2
 50
90.0
 41
0.6547619344966496
100
AcDbText
  0
TEXT
  5
D4
330
C9
100
AcDbEntity
  8
PIC06
  6
Continuous
 62
     7
100
AcDbText
 10
-77.65702183006097
 20
87.77965214808128
 30
0.0
 40
2.5
  1
5
 50
90.0
 41
0.6547619344966496
100
AcDbText
  0
ENDBLK
  5
D5
330
C9
100
AcDbEntity
  8
PIC06
100
AcDbBlockEnd
  0
BLOCK
  5
D7
330
D6
100
AcDbEntity
  8
PIC06
100
AcDbBlockBegin
  2
COMP15
 70
     0
 10
0.0
 20
0.0
 30
0.0
  3
COMP15
  1

  0
LINE
  5
D8
330
D6
100
AcDbEntity
  8
PIC06
  6
Continuous
 62
     7
100
AcDbLine
 10
-96.60862862533576
 20
54.2960721346326
 30
0.0
 11
-102.994030374959
 21
47.54588140361921
 31
0.0
  0
INSERT
  5
D9
330
D6
100
AcDbEntity
  8
PIC06
  6
Continuous
 62
     7
100
AcDbBlockReference
  2
MARK1_1
 10
-96.60862862533576
 20
54.2960721346326
 30
0.0
 41
2.5
 42
2.5
 50
227.0
  0
LINE
  5
DA
330
D6
100
AcDbEntity
  8
PIC06
  6
Continuous
 62
     7
100
AcDbLine
 10
-96.60862862533576
 20
54.2960721346326
 30
0.0
 11
-95.80687514915009
 21
55.14362832387087
 31
0.0
  0
LINE
  5
DB
330
D6
100
AcDbEntity
  8
PIC06
  6
Continuous
 62
     7
100
AcDbLine
 10
-95.00512167296438
 20
55.99118959947372
 30
0.0
 11
-95.80687514915009
 21
55.14363341023545
 31
0.0
  0
LINE
  5
DC
330
D6
100
AcDbEntity
  8
PIC06
  6
Continuous
 62
     7
100
AcDbLine
 10
-95.00512167296438
 20
55.99118959947372
 30
0.0
 11
-92.25624679876821
 21
58.89710089374603
 31
0.0
  0
INSERT
  5
DD
330
D6
100
AcDbEntity
  8
PIC06
  6
Continuous
 62
     7
100
AcDbBlockReference
  2
MARK1_1
 10
-95.00512167296438
 20
55.99118959947372
 30
0.0
 41
2.5
 42
2.5
 50
47.0
  0
TEXT
  5
DE
330
D6
100
AcDbEntity
  8
PIC06
  6
Continuous
 62
     7
100
AcDbText
 10
-103.0780876360259
 20
48.30781881786425
 30
0.0
 40
2.5
  1
1
 50
47.0
 41
0.6547619344966496
100
AcDbText
  0
TEXT
  5
DF
330
D6
100
AcDbEntity
  8
PIC06
  6
Continuous
 62
     7
100
AcDbText
 10
-101.905902740147
 20
49.56483279247765
 30
0.0
 40
2.5
  1
4
 50
47.0
 41
0.6547619344966496
100
AcDbText
  0
ENDBLK
  5
E0
330
D6
100
AcDbEntity
  8
PIC06
100
AcDbBlockEnd
  0
BLOCK
  5
E2
330
E1
100
AcDbEntity
  8
PIC06
100
AcDbBlockBegin
  2
COMP16
 70
     0
 10
0.0
 20
0.0
 30
0.0
  3
COMP16
  1

  0
LINE
  5
E3
330
E1
100
AcDbEntity
  8
PIC06
  6
Continuous
 62
     7
100
AcDbLine
 10
-30.4722779597414
 20
-65.79891615292128
 30
0.0
 11
-23.97213799789824
 21
-65.79891615292128
 31
0.0
  0
INSERT
  5
E4
330
E1
100
AcDbEntity
  8
PIC06
  6
Continuous
 62
     7
100
AcDbBlockReference
  2
MARK1_1
 10
-30.4722779597414
 20
-65.79891615292128
 30
0.0
 41
2.5
 42
2.5
  0
LINE
  5
E5
330
E1
100
AcDbEntity
  8
PIC06
  6
Continuous
 62
     7
100
AcDbLine
 10
-17.47199803605508
 20
-65.79891615292128
 30
0.0
 11
-23.97213799789824
 21
-65.79891615292128
 31
0.0
  0
INSERT
  5
E6
330
E1
100
AcDbEntity
  8
PIC06
  6
Continuous
 62
     7
100
AcDbBlockReference
  2
MARK1_1
 10
-17.47199803605508
 20
-65.79891615292128
 30
0.0
 41
2.5
 42
2.5
 50
180.0
  0
LINE
  5
E7
330
E1
100
AcDbEntity
  8
PIC06
  6
Continuous
 62
     7
100
AcDbLine
 10
-30.4722779597414
 20
-42.45297067132833
 30
0.0
 11
-30.4722779597414
 21
-67.13228628239176
 31
0.0
  0
LINE
  5
E8
330
E1
100
AcDbEntity
  8
PIC06
  6
Continuous
 62
     7
100
AcDbLine
 10
-17.47199803605508
 20
24.04836225751023
 30
0.0
 11
-17.47199803605508
 21
-67.13228119602717
 31
0.0
  0
TEXT
  5
E9
330
E1
100
AcDbEntity
  8
PIC06
  6
Continuous
 62
     7
100
AcDbText
 10
-26.11802943737257
 20
-65.19892350057308
 30
0.0
 40
2.5
  1
7
 41
0.6547619344966496
100
AcDbText
  0
TEXT
  5
EA
330
E1
100
AcDbEntity
  8
PIC06
  6
Continuous
 62
     7
100
AcDbText
 10
-24.39927943737257
 20
-65.19892350057308
 30
0.0
 40
2.5
  1
8
 41
0.6547619344966496
100
AcDbText
  0
ENDBLK
  5
EB
330
E1
100
AcDbEntity
  8
PIC06
100
AcDbBlockEnd
  0
BLOCK
  5
ED
330
EC
100
AcDbEntity
  8
PIC06
100
AcDbBlockBegin
  2
COMP17
 70
     0
 10
0.0
 20
0.0
 30
0.0
  3
COMP17
  1

  0
LINE
  5
EE
330
EC
100
AcDbEntity
  8
PIC06
  6
Continuous
 62
     7
100
AcDbLine
 10
-8.014149150432672
 20
-42.9529094460022
 30
0.0
 11
-8.014149150432672
 21
-8.785593615875313
 31
0.0
  0
INSERT
  5
EF
330
EC
100
AcDbEntity
  8
PIC06
  6
Continuous
 62
     7
100
AcDbBlockReference
  2
MARK1_1
 10
-8.014149150432672
 20
-42.9529094460022
 30
0.0
 41
2.5
 42
2.5
 50
90.0
  0
LINE
  5
F0
330
EC
100
AcDbEntity
  8
PIC06
  6
Continuous
 62
     7
100
AcDbLine
 10
-8.014149150432672
 20
25.38172221425157
 30
0.0
 11
-8.014149150432672
 21
-8.785593615875313
 31
0.0
  0
INSERT
  5
F1
330
EC
100
AcDbEntity
  8
PIC06
  6
Continuous
 62
     7
100
AcDbBlockReference
  2
MARK1_1
 10
-8.014149150432672
 20
25.38172221425157
 30
0.0
 41
2.5
 42
2.5
 50
270.0
  0
LINE
  5
F2
330
EC
100
AcDbEntity
  8
PIC06
  6
Continuous
 62
     7
100
AcDbLine
 10
-30.96406329199181
 20
-42.9529094460022
 30
0.0
 11
-6.680789829486912
 21
-42.9529094460022
 31
0.0
  0
LINE
  5
F3
330
EC
100
AcDbEntity
  8
PIC06
  6
Continuous
 62
     7
100
AcDbLine
 10
-18.80535290643184
 20
25.38172221425157
 30
0.0
 11
-6.680789829486912
 21
25.38172221425157
 31
0.0
  0
TEXT
  5
F4
330
EC
100
AcDbEntity
  8
PIC06
  6
Continuous
 62
     7
100
AcDbText
 10
-8.614150068123306
 20
-12.07733618180964
 30
0.0
 40
2.5
  1
4
 50
90.0
 41
0.6547619344966496
100
AcDbText
  0
TEXT
  5
F5
330
EC
100
AcDbEntity
  8
PIC06
  6
Continuous
 62
     7
100
AcDbText
 10
-8.614149506444579
 20
-10.35858618180973
 30
0.0
 40
2.5
  1
1
 50
90.0
 41
0.6547619344966496
100
AcDbText
  0
TEXT
  5
F6
330
EC
100
AcDbEntity
  8
PIC06
  6
Continuous
 62
     7
100
AcDbText
 10
-8.614148944765851
 20
-8.639836181809824
 30
0.0
 40
2.5
  1
0
 50
90.0
 41
0.6547619344966496
100
AcDbText
  0
ENDBLK
  5
F7
330
EC
100
AcDbEntity
  8
PIC06
100
AcDbBlockEnd
  0
BLOCK
  5
F9
330
F8
100
AcDbEntity
  8
PIC06
100
AcDbBlockBegin
  2
COMP18
 70
     0
 10
0.0
 20
0.0
 30
0.0
  3
COMP18
  1

  0
LINE
  5
FA
330
F8
100
AcDbEntity
  8
PIC06
  6
Continuous
 62
     7
100
AcDbLine
 10
-85.30679264892659
 20
-54.7124419392394
 30
0.0
 11
-93.46843937845916
 21
-54.7124419392394
 31
0.0
  0
INSERT
  5
FB
330
F8
100
AcDbEntity
  8
PIC06
  6
Continuous
 62
     7
100
AcDbBlockReference
  2
MARK1_1
 10
-85.30679264892659
 20
-54.7124419392394
 30
0.0
 41
2.5
 42
2.5
 50
180.0
  0
LINE
  5
FC
330
F8
100
AcDbEntity
  8
PIC06
  6
Continuous
 62
     7
100
AcDbLine
 10
-100.3070769031729
 20
-54.7124419392394
 30
0.0
 11
-93.46843937845916
 21
-54.7124419392394
 31
0.0
  0
INSERT
  5
FD
330
F8
100
AcDbEntity
  8
PIC06
  6
Continuous
 62
     7
100
AcDbBlockReference
  2
MARK1_1
 10
-100.3070769031729
 20
-54.7124419392394
 30
0.0
 41
2.5
 42
2.5
  0
LINE
  5
FE
330
F8
100
AcDbEntity
  8
PIC06
  6
Continuous
 62
     7
100
AcDbLine
 10
-85.30679264892659
 20
-40.45286207029448
 30
0.0
 11
-85.30679264892659
 21
-56.04580698234531
 31
0.0
  0
LINE
  5
FF
330
F8
100
AcDbEntity
  8
PIC06
  6
Continuous
 62
     7
100
AcDbLine
 10
-100.3070769031729
 20
-40.45286207029448
 30
0.0
 11
-100.3070769031729
 21
-56.04580698234531
 31
0.0
  0
TEXT
  5
100
330
F8
100
AcDbEntity
  8
PIC06
  6
Continuous
 62
     7
100
AcDbText
 10
-95.81218531377272
 20
-54.11244420052661
 30
0.0
 40
2.5
  1
%%c
 41
0.6547619344966496
100
AcDbText
  0
TEXT
  5
101
330
F8
100
AcDbEntity
  8
PIC06
  6
Continuous
 62
     7
100
AcDbText
 10
-94.0934353137727
 20
-54.11244420052661
 30
0.0
 40
2.5
  1
9
 41
0.6547619344966496
100
AcDbText
  0
TEXT
  5
102
330
F8
100
AcDbEntity
  8
PIC06
  6
Continuous
 62
     7
100
AcDbText
 10
-92.3746853137727
 20
-54.11244420052661
 30
0.0
 40
2.5
  1
0
 41
0.6547619344966496
100
AcDbText
  0
ENDBLK
  5
103
330
F8
100
AcDbEntity
  8
PIC06
100
AcDbBlockEnd
  0
BLOCK
  5
105
330
104
100
AcDbEntity
  8
PIC06
100
AcDbBlockBegin
  2
COMP19
 70
     0
 10
0.0
 20
0.0
 30
0.0
  3
COMP19
  1

  0
LINE
  5
106
330
104
100
AcDbEntity
  8
PIC06
  6
Continuous
 62
     7
100
AcDbLine
 10
-97.47360561326424
 20
-49.44534865186962
 30
0.0
 11
-92.89018076196587
 21
-49.44534865186962
 31
0.0
  0
INSERT
  5
107
330
104
100
AcDbEntity
  8
PIC06
  6
Continuous
 62
     7
100
AcDbBlockReference
  2
MARK1_1
 10
-97.47360561326424
 20
-49.44534865186962
 30
0.0
 41
2.5
 42
2.5
  0
LINE
  5
108
330
104
100
AcDbEntity
  8
PIC06
  6
Continuous
 62
     7
100
AcDbLine
 10
-88.30675591066757
 20
-49.44534865186962
 30
0.0
 11
-92.89018076196587
 21
-49.44534865186962
 31
0.0
  0
INSERT
  5
109
330
104
100
AcDbEntity
  8
PIC06
  6
Continuous
 62
     7
100
AcDbBlockReference
  2
MARK1_1
 10
-88.30675591066757
 20
-49.44534865186962
 30
0.0
 41
2.5
 42
2.5
 50
180.0
  0
LINE
  5
10A
330
104
100
AcDbEntity
  8
PIC06
  6
Continuous
 62
     7
100
AcDbLine
 10
-97.47360561326424
 20
-42.61956945681686
 30
0.0
 11
-97.47360561326424
 21
-50.77871369497552
 31
0.0
  0
LINE
  5
10B
330
104
100
AcDbEntity
  8
PIC06
  6
Continuous
 62
     7
100
AcDbLine
 10
-88.30675591066757
 20
-42.61956945681686
 30
0.0
 11
-88.30675591066757
 21
-50.77871369497552
 31
0.0
  0
TEXT
  5
10C
330
104
100
AcDbEntity
  8
PIC06
  6
Continuous
 62
     7
100
AcDbText
 10
-95.0360772878048
 20
-48.84535599952141
 30
0.0
 40
2.5
  1
5
 41
0.6547619344966496
100
AcDbText
  0
TEXT
  5
10D
330
104
100
AcDbEntity
  8
PIC06
  6
Continuous
 62
     7
100
AcDbText
 10
-93.3173272878048
 20
-48.84535599952141
 30
0.0
 40
2.5
  1
5
 41
0.6547619344966496
100
AcDbText
  0
ENDBLK
  5
10E
330
104
100
AcDbEntity
  8
PIC06
100
AcDbBlockEnd
  0
BLOCK
  5
110
330
10F
100
AcDbEntity
  8
PIC06
100
AcDbBlockBegin
  2
COMP20
 70
     0
 10
0.0
 20
0.0
 30
0.0
  3
COMP20
  1

  0
LINE
  5
111
330
10F
100
AcDbEntity
  8
PIC06
  6
Continuous
 62
     7
100
AcDbLine
 10
-92.8068355919404
 20
-60.12913538166777
 30
0.0
 11
-115.3906605501634
 21
-60.12913538166777
 31
0.0
  0
INSERT
  5
112
330
10F
100
AcDbEntity
  8
PIC06
  6
Continuous
 62
     7
100
AcDbBlockReference
  2
MARK1_1
 10
-92.8068355919404
 20
-60.12913538166777
 30
0.0
 41
2.5
 42
2.5
 50
180.0
  0
LINE
  5
113
330
10F
100
AcDbEntity
  8
PIC06
  6
Continuous
 62
     7
100
AcDbLine
 10
-137.974465162928
 20
-60.12913538166777
 30
0.0
 11
-115.3906605501634
 21
-60.12913538166777
 31
0.0
  0
INSERT
  5
114
330
10F
100
AcDbEntity
  8
PIC06
  6
Continuous
 62
     7
100
AcDbBlockReference
  2
MARK1_1
 10
-137.974465162928
 20
-60.12913538166777
 30
0.0
 41
2.5
 42
2.5
  0
LINE
  5
115
330
10F
100
AcDbEntity
  8
PIC06
  6
Continuous
 62
     7
100
AcDbLine
 10
-92.8068355919404
 20
-45.21588899813287
 30
0.0
 11
-92.8068355919404
 21
-61.46250042477369
 31
0.0
  0
LINE
  5
116
330
10F
100
AcDbEntity
  8
PIC06
  6
Continuous
 62
     7
100
AcDbLine
 10
-137.974465162928
 20
-42.4528994622242
 30
0.0
 11
-137.974465162928
 21
-61.46250042477369
 31
0.0
  0
TEXT
  5
117
330
10F
100
AcDbEntity
  8
PIC06
  6
Continuous
 62
     7
100
AcDbText
 10
-118.6824031160977
 20
-59.52914272931957
 30
0.0
 40
2.5
  1
2
 41
0.6547619344966496
100
AcDbText
  0
TEXT
  5
118
330
10F
100
AcDbEntity
  8
PIC06
  6
Continuous
 62
     7
100
AcDbText
 10
-116.9636531160977
 20
-59.52914272931957
 30
0.0
 40
2.5
  1
7
 41
0.6547619344966496
100
AcDbText
  0
TEXT
  5
119
330
10F
100
AcDbEntity
  8
PIC06
  6
Continuous
 62
     7
100
AcDbText
 10
-115.2449031160977
 20
-59.52914272931957
 30
0.0
 40
2.5
  1
1
 41
0.6547619344966496
100
AcDbText
  0
ENDBLK
  5
11A
330
10F
100
AcDbEntity
  8
PIC06
100
AcDbBlockEnd
  0
BLOCK
  5
11C
330
11B
100
AcDbEntity
  8
PIC06
100
AcDbBlockBegin
  2
COMP21
 70
     0
 10
0.0
 20
0.0
 30
0.0
  3
COMP21
  1

  0
LINE
  5
11D
330
11B
100
AcDbEntity
  8
PIC06
  6
Continuous
 62
     7
100
AcDbLine
 10
-92.8068355919404
 20
1.969586598773958
 30
0.0
 11
-108.8903883428411
 21
1.969586598773958
 31
0.0
  0
INSERT
  5
11E
330
11B
100
AcDbEntity
  8
PIC06
  6
Continuous
 62
     7
100
AcDbBlockReference
  2
MARK1_1
 10
-92.8068355919404
 20
1.969586598773958
 30
0.0
 41
2.5
 42
2.5
 50
180.0
  0
LINE
  5
11F
330
11B
100
AcDbEntity
  8
PIC06
  6
Continuous
 62
     7
100
AcDbLine
 10
-124.9739410937418
 20
1.969586598773958
 30
0.0
 11
-108.8903883428411
 21
1.969586598773958
 31
0.0
  0
INSERT
  5
120
330
11B
100
AcDbEntity
  8
PIC06
  6
Continuous
 62
     7
100
AcDbBlockReference
  2
MARK1_1
 10
-124.9739410937418
 20
1.969586598773958
 30
0.0
 41
2.5
 42
2.5
  0
LINE
  5
121
330
11B
100
AcDbEntity
  8
PIC06
  6
Continuous
 62
     7
100
AcDbLine
 10
-92.8068355919404
 20
-37.22995836260043
 30
0.0
 11
-92.8068355919404
 21
3.302946555515291
 31
0.0
  0
LINE
  5
122
330
11B
100
AcDbEntity
  8
PIC06
  6
Continuous
 62
     7
100
AcDbLine
 10
-124.9739410937418
 20
22.44265799563982
 30
0.0
 11
-124.9739410937418
 21
0.6362266022954018
 31
0.0
  0
TEXT
  5
123
330
11B
100
AcDbEntity
  8
PIC06
  6
Continuous
 62
     7
100
AcDbText
 10
-112.1821309087754
 20
2.56958688066902
 30
0.0
 40
2.5
  1
1
 41
0.6547619344966496
100
AcDbText
  0
TEXT
  5
124
330
11B
100
AcDbEntity
  8
PIC06
  6
Continuous
 62
     7
100
AcDbText
 10
-110.4633809087754
 20
2.56958688066902
 30
0.0
 40
2.5
  1
9
 41
0.6547619344966496
100
AcDbText
  0
TEXT
  5
125
330
11B
100
AcDbEntity
  8
PIC06
  6
Continuous
 62
     7
100
AcDbText
 10
-108.7446309087754
 20
2.56958688066902
 30
0.0
 40
2.5
  1
3
 41
0.6547619344966496
100
AcDbText
  0
ENDBLK
  5
126
330
11B
100
AcDbEntity
  8
PIC06
100
AcDbBlockEnd
  0
BLOCK
  5
128
330
127
100
AcDbEntity
  8
PIC06
100
AcDbBlockBegin
  2
COMP22
 70
     0
 10
0.0
 20
0.0
 30
0.0
  3
COMP22
  1

  0
LINE
  5
129
330
127
100
AcDbEntity
  8
PIC06
  6
Continuous
 62
     7
100
AcDbLine
 10
-30.47228304610599
 20
-65.79891615292128
 30
0.0
 11
-84.22336647497012
 21
-65.79891615292128
 31
0.0
  0
INSERT
  5
12A
330
127
100
AcDbEntity
  8
PIC06
  6
Continuous
 62
     7
100
AcDbBlockReference
  2
MARK1_1
 10
-30.47228304610599
 20
-65.79891615292128
 30
0.0
 41
2.5
 42
2.5
 50
180.0
  0
LINE
  5
12B
330
127
100
AcDbEntity
  8
PIC06
  6
Continuous
 62
     7
100
AcDbLine
 10
-137.9744549901989
 20
-65.79891615292128
 30
0.0
 11
-84.22335630224097
 21
-65.79891615292128
 31
0.0
  0
INSERT
  5
12C
330
127
100
AcDbEntity
  8
PIC06
  6
Continuous
 62
     7
100
AcDbBlockReference
  2
MARK1_1
 10
-137.9744549901989
 20
-65.79891615292128
 30
0.0
 41
2.5
 42
2.5
  0
LINE
  5
12D
330
127
100
AcDbEntity
  8
PIC06
  6
Continuous
 62
     7
100
AcDbLine
 10
-30.47228304610599
 20
-42.45297067132833
 30
0.0
 11
-30.47228304610599
 21
-67.1322761096626
 31
0.0
  0
LINE
  5
12E
330
127
100
AcDbEntity
  8
PIC06
  6
Continuous
 62
     7
100
AcDbLine
 10
-137.9744549901989
 20
-42.4528994622242
 30
0.0
 11
-137.9744549901989
 21
-67.1322761096626
 31
0.0
  0
TEXT
  5
12F
330
127
100
AcDbEntity
  8
PIC06
  6
Continuous
 62
     7
100
AcDbText
 10
-87.51511412726904
 20
-65.19891841420849
 30
0.0
 40
2.5
  1
6
 41
0.6547619344966496
100
AcDbText
  0
TEXT
  5
130
330
127
100
AcDbEntity
  8
PIC06
  6
Continuous
 62
     7
100
AcDbText
 10
-85.79636412726904
 20
-65.19891841420849
 30
0.0
 40
2.5
  1
4
 41
0.6547619344966496
100
AcDbText
  0
TEXT
  5
131
330
127
100
AcDbEntity
  8
PIC06
  6
Continuous
 62
     7
100
AcDbText
 10
-84.07761412726904
 20
-65.19891841420849
 30
0.0
 40
2.5
  1
5
 41
0.6547619344966496
100
AcDbText
  0
ENDBLK
  5
132
330
127
100
AcDbEntity
  8
PIC06
100
AcDbBlockEnd
  0
BLOCK
  5
134
330
133
100
AcDbEntity
  8
PIC06
100
AcDbBlockBegin
  2
COMP23
 70
     0
 10
0.0
 20
0.0
 30
0.0
  3
COMP23
  1

  0
LINE
  5
135
330
133
100
AcDbEntity
  8
PIC06
  6
Continuous
 62
     7
100
AcDbLine
 10
-69.89534194103999
 20
25.38170949834011
 30
0.0
 11
-69.89534194103999
 21
12.88146626184584
 31
0.0
  0
INSERT
  5
136
330
133
100
AcDbEntity
  8
PIC06
  6
Continuous
 62
     7
100
AcDbBlockReference
  2
MARK1_1
 10
-69.89534194103999
 20
25.38170949834011
 30
0.0
 41
2.5
 42
2.5
 50
270.0
  0
LINE
  5
137
330
133
100
AcDbEntity
  8
PIC06
  6
Continuous
 62
     7
100
AcDbLine
 10
-69.89534194103999
 20
0.3812242572054956
 30
0.0
 11
-69.89534194103999
 21
12.88146753343699
 31
0.0
  0
INSERT
  5
138
330
133
100
AcDbEntity
  8
PIC06
  6
Continuous
 62
     7
100
AcDbBlockReference
  2
MARK1_1
 10
-69.89534194103999
 20
0.3812242572054956
 30
0.0
 41
2.5
 42
2.5
 50
90.0
  0
LINE
  5
139
330
133
100
AcDbEntity
  8
PIC06
  6
Continuous
 62
     7
100
AcDbLine
 10
-18.78126388377586
 20
25.38170949834011
 30
0.0
 11
-71.22870189778132
 21
25.38170949834011
 31
0.0
  0
LINE
  5
13A
330
133
100
AcDbEntity
  8
PIC06
  6
Continuous
 62
     7
100
AcDbLine
 10
-80.63992090031115
 20
0.3812242572054956
 30
0.0
 11
-68.56198198429865
 21
0.3812242572054956
 31
0.0
  0
TEXT
  5
13B
330
133
100
AcDbEntity
  8
PIC06
  6
Continuous
 62
     7
100
AcDbText
 10
-70.49533967975277
 20
9.589724331707087
 30
0.0
 40
2.5
  1
1
 50
90.0
 41
0.6547619344966496
100
AcDbText
  0
TEXT
  5
13C
330
133
100
AcDbEntity
  8
PIC06
  6
Continuous
 62
     7
100
AcDbText
 10
-70.49533911807404
 20
11.308474331707
 30
0.0
 40
2.5
  1
5
 50
90.0
 41
0.6547619344966496
100
AcDbText
  0
TEXT
  5
13D
330
133
100
AcDbEntity
  8
PIC06
  6
Continuous
 62
     7
100
AcDbText
 10
-70.49533855639531
 20
13.02722433170691
 30
0.0
 40
2.5
  1
0
 50
90.0
 41
0.6547619344966496
100
AcDbText
  0
ENDBLK
  5
13E
330
133
100
AcDbEntity
  8
PIC06
100
AcDbBlockEnd
  0
BLOCK
  5
140
330
13F
100
AcDbEntity
  8
PIC06
100
AcDbBlockBegin
  2
COMP24
 70
     0
 10
0.0
 20
0.0
 30
0.0
  3
COMP24
  1

  0
LINE
  5
141
330
13F
100
AcDbEntity
  8
PIC06
  6
Continuous
 62
     7
100
AcDbLine
 10
-69.89534194103999
 20
0.3812242572054956
 30
0.0
 11
-69.89534194103999
 21
-4.618876812428425
 31
0.0
  0
INSERT
  5
142
330
13F
100
AcDbEntity
  8
PIC06
  6
Continuous
 62
     7
100
AcDbBlockReference
  2
MARK1_1
 10
-69.89534194103999
 20
0.3812242572054956
 30
0.0
 41
2.5
 42
2.5
 50
270.0
  0
LINE
  5
143
330
13F
100
AcDbEntity
  8
PIC06
  6
Continuous
 62
     7
100
AcDbLine
 10
-69.89534194103999
 20
-9.618979193390712
 30
0.0
 11
-69.89534194103999
 21
-4.61887808401957
 31
0.0
  0
INSERT
  5
144
330
13F
100
AcDbEntity
  8
PIC06
  6
Continuous
 62
     7
100
AcDbBlockReference
  2
MARK1_1
 10
-69.89534194103999
 20
-9.618979193390712
 30
0.0
 41
2.5
 42
2.5
 50
90.0
  0
LINE
  5
145
330
13F
100
AcDbEntity
  8
PIC06
  6
Continuous
 62
     7
100
AcDbLine
 10
-80.63992090031115
 20
0.3812242572054956
 30
0.0
 11
-68.56198198429865
 21
0.3812242572054956
 31
0.0
  0
LINE
  5
146
330
13F
100
AcDbEntity
  8
PIC06
  6
Continuous
 62
     7
100
AcDbLine
 10
-79.47331231999578
 20
-9.618979193390712
 30
0.0
 11
-68.56198198429865
 21
-9.618979193390712
 31
0.0
  0
TEXT
  5
147
330
13F
100
AcDbEntity
  8
PIC06
  6
Continuous
 62
     7
100
AcDbText
 10
-70.49533967975277
 20
-6.764764437129315
 30
0.0
 40
2.5
  1
6
 50
90.0
 41
0.6547619344966496
100
AcDbText
  0
TEXT
  5
148
330
13F
100
AcDbEntity
  8
PIC06
  6
Continuous
 62
     7
100
AcDbText
 10
-70.49533911807404
 20
-5.046014437129406
 30
0.0
 40
2.5
  1
0
 50
90.0
 41
0.6547619344966496
100
AcDbText
  0
ENDBLK
  5
149
330
13F
100
AcDbEntity
  8
PIC06
100
AcDbBlockEnd
  0
BLOCK
  5
14B
330
14A
100
AcDbEntity
  8
PIC06
100
AcDbBlockBegin
  2
COMP25
 70
     0
 10
0.0
 20
0.0
 30
0.0
  3
COMP25
  1

  0
LINE
  5
14C
330
14A
100
AcDbEntity
  8
PIC06
  6
Continuous
 62
     7
100
AcDbLine
 10
-17.47202346787799
 20
106.6041081545645
 30
0.0
 11
-77.72321634039781
 21
106.6041081545645
 31
0.0
  0
INSERT
  5
14D
330
14A
100
AcDbEntity
  8
PIC06
  6
Continuous
 62
     7
100
AcDbBlockReference
  2
MARK1_1
 10
-17.47202346787799
 20
106.6041081545645
 30
0.0
 41
2.5
 42
2.5
 50
180.0
  0
LINE
  5
14E
330
14A
100
AcDbEntity
  8
PIC06
  6
Continuous
 62
     7
100
AcDbLine
 10
-137.9744142992822
 20
106.6041081545645
 30
0.0
 11
-77.72320616766866
 21
106.6041081545645
 31
0.0
  0
INSERT
  5
14F
330
14A
100
AcDbEntity
  8
PIC06
  6
Continuous
 62
     7
100
AcDbBlockReference
  2
MARK1_1
 10
-137.9744142992822
 20
106.6041081545645
 30
0.0
 41
2.5
 42
2.5
  0
LINE
  5
150
330
14A
100
AcDbEntity
  8
PIC06
  6
Continuous
 62
     7
100
AcDbLine
 10
-17.47202346787799
 20
66.81052794535753
 30
0.0
 11
-17.47202346787799
 21
107.9374681113059
 31
0.0
  0
LINE
  5
151
330
14A
100
AcDbEntity
  8
PIC06
  6
Continuous
 62
     7
100
AcDbLine
 10
-137.9744142992822
 20
66.81052794535753
 30
0.0
 11
-137.9744142992822
 21
107.9374681113059
 31
0.0
  0
TEXT
  5
152
330
14A
100
AcDbEntity
  8
PIC06
  6
Continuous
 62
     7
100
AcDbText
 10
-81.01495890633215
 20
107.2041058932773
 30
0.0
 40
2.5
  1
7
 41
0.6547619344966496
100
AcDbText
  0
TEXT
  5
153
330
14A
100
AcDbEntity
  8
PIC06
  6
Continuous
 62
     7
100
AcDbText
 10
-79.29620890633214
 20
107.2041058932773
 30
0.0
 40
2.5
  1
2
 41
0.6547619344966496
100
AcDbText
  0
TEXT
  5
154
330
14A
100
AcDbEntity
  8
PIC06
  6
Continuous
 62
     7
100
AcDbText
 10
-77.57745890633214
 20
107.2041058932773
 30
0.0
 40
2.5
  1
3
 41
0.6547619344966496
100
AcDbText
  0
ENDBLK
  5
155
330
14A
100
AcDbEntity
  8
PIC06
100
AcDbBlockEnd
  0
BLOCK
  5
157
330
156
100
AcDbEntity
  8
PIC06
100
AcDbBlockBegin
  2
COMP26
 70
     0
 10
0.0
 20
0.0
 30
0.0
  3
COMP26
  1

  0
LINE
  5
158
330
156
100
AcDbEntity
  8
PIC06
  6
Continuous
 62
     7
100
AcDbLine
 10
-124.9739614392001
 20
101.1862245028242
 30
0.0
 11
-130.6408022917258
 21
101.1862245028242
 31
0.0
  0
INSERT
  5
159
330
156
100
AcDbEntity
  8
PIC06
  6
Continuous
 62
     7
100
AcDbBlockReference
  2
MARK1_1
 10
-124.9739614392001
 20
101.1862245028242
 30
0.0
 41
2.5
 42
2.5
 50
180.0
  0
LINE
  5
15A
330
156
100
AcDbEntity
  8
PIC06
  6
Continuous
 62
     7
100
AcDbLine
 10
-136.3076431442514
 20
101.1862245028242
 30
0.0
 11
-130.6408022917258
 21
101.1862245028242
 31
0.0
  0
INSERT
  5
15B
330
156
100
AcDbEntity
  8
PIC06
  6
Continuous
 62
     7
100
AcDbBlockReference
  2
MARK1_1
 10
-136.3076431442514
 20
101.1862245028242
 30
0.0
 41
2.5
 42
2.5
  0
LINE
  5
15C
330
156
100
AcDbEntity
  8
PIC06
  6
Continuous
 62
     7
100
AcDbLine
 10
-124.9739614392001
 20
86.97760746379936
 30
0.0
 11
-124.9739614392001
 21
102.5195844595655
 31
0.0
  0
LINE
  5
15D
330
156
100
AcDbEntity
  8
PIC06
  6
Continuous
 62
     7
100
AcDbLine
 10
-136.3076431442514
 20
66.81052794535753
 30
0.0
 11
-136.3076431442514
 21
102.5195844595655
 31
0.0
  0
TEXT
  5
15E
330
156
100
AcDbEntity
  8
PIC06
  6
Continuous
 62
     7
100
AcDbText
 10
-132.7866886448355
 20
101.786222241537
 30
0.0
 40
2.5
  1
6
 41
0.6547619344966496
100
AcDbText
  0
TEXT
  5
15F
330
156
100
AcDbEntity
  8
PIC06
  6
Continuous
 62
     7
100
AcDbText
 10
-131.0679386448355
 20
101.786222241537
 30
0.0
 40
2.5
  1
8
 41
0.6547619344966496
100
AcDbText
  0
ENDBLK
  5
160
330
156
100
AcDbEntity
  8
PIC06
100
AcDbBlockEnd
  0
BLOCK
  5
162
330
161
100
AcDbEntity
  8
PIC06
100
AcDbBlockBegin
  2
COMP27
 70
     0
 10
0.0
 20
0.0
 30
0.0
  3
COMP27
  1

  0
LINE
  5
163
330
161
100
AcDbEntity
  8
PIC06
  6
Continuous
 62
     7
100
AcDbLine
 10
-108.3109089988484
 20
-40.45286207029448
 30
0.0
 11
-108.3109089988484
 21
-36.45278220007049
 31
0.0
  0
INSERT
  5
164
330
161
100
AcDbEntity
  8
PIC06
  6
Continuous
 62
     7
100
AcDbBlockReference
  2
MARK1_1
 10
-108.3109089988484
 20
-40.45286207029448
 30
0.0
 41
2.5
 42
2.5
 50
90.0
  0
LINE
  5
165
330
161
100
AcDbEntity
  8
PIC06
  6
Continuous
 62
     7
100
AcDbLine
 10
-108.3109089988484
 20
-40.45286207029448
 30
0.0
 11
-108.3109089988484
 21
-41.7028819433749
 31
0.0
  0
LINE
  5
166
330
161
100
AcDbEntity
  8
PIC06
  6
Continuous
 62
     7
100
AcDbLine
 10
-108.3109089988484
 20
-42.9529094460022
 30
0.0
 11
-108.3109089988484
 21
-41.7028819433749
 31
0.0
  0
LINE
  5
167
330
161
100
AcDbEntity
  8
PIC06
  6
Continuous
 62
     7
100
AcDbLine
 10
-108.3109089988484
 20
-42.9529094460022
 30
0.0
 11
-108.3109089988484
 21
-52.24476164454336
 31
0.0
  0
INSERT
  5
168
330
161
100
AcDbEntity
  8
PIC06
  6
Continuous
 62
     7
100
AcDbBlockReference
  2
MARK1_1
 10
-108.3109089988484
 20
-42.9529094460022
 30
0.0
 41
2.5
 42
2.5
 50
270.0
  0
LINE
  5
169
330
161
100
AcDbEntity
  8
PIC06
  6
Continuous
 62
     7
100
AcDbLine
 10
-100.5989223301058
 20
-40.45286207029448
 30
0.0
 11
-109.6442689555897
 21
-40.45286207029448
 31
0.0
  0
LINE
  5
16A
330
161
100
AcDbEntity
  8
PIC06
  6
Continuous
 62
     7
100
AcDbLine
 10
-137.47445517915
 20
-42.9529094460022
 30
0.0
 11
-106.9775490421071
 21
-42.9529094460022
 31
0.0
  0
TEXT
  5
16B
330
161
100
AcDbEntity
  8
PIC06
  6
Continuous
 62
     7
100
AcDbText
 10
-108.9109067375612
 20
-51.74476183349452
 30
0.0
 40
2.5
  1
1
 50
90.0
 41
0.6547619344966496
100
AcDbText
  0
TEXT
  5
16C
330
161
100
AcDbEntity
  8
PIC06
  6
Continuous
 62
     7
100
AcDbText
 10
-108.9109061758824
 20
-50.02601183349461
 30
0.0
 40
2.5
  1
5
 50
90.0
 41
0.6547619344966496
100
AcDbText
  0
ENDBLK
  5
16D
330
161
100
AcDbEntity
  8
PIC06
100
AcDbBlockEnd
  0
BLOCK
  5
8BE
330
8BD
100
AcDbEntity
  8
0
100
AcDbBlockBegin
  2
MARK16_2
 70
     0
 10
0.0
 20
0.0
 30
0.0
  3
MARK16_2
  1

  0
CIRCLE
  5
8BF
330
8BD
100
AcDbEntity
  8
0
  6
Continuous
 62
     0
100
AcDbCircle
 10
0.0
 20
0.0
 30
0.0
 40
0.5
  0
CIRCLE
  5
8C0
330
8BD
100
AcDbEntity
  8
0
  6
Continuous
 62
     0
100
AcDbCircle
 10
0.0
 20
0.0
 30
0.0
 40
0.15625
  0
CIRCLE
  5
8C1
330
8BD
100
AcDbEntity
  8
0
  6
Continuous
 62
     0
100
AcDbCircle
 10
0.0
 20
0.0
 30
0.0
 40
0.3125
  0
ENDBLK
  5
8C2
330
8BD
100
AcDbEntity
  8
0
100
AcDbBlockEnd
  0
ENDSEC
  0
SECTION
  2
ENTITIES
  0
LINE
  5
16E
330
22
100
AcDbEntity
  8
PIC06
  6
Continuous
 62
     7
100
AcDbLine
 10
45.22291766561894
 20
16.14202332652573
 30
0.0
 11
38.54938413702697
 21
16.14202332652573
 31
0.0
  0
LINE
  5
16F
330
22
100
AcDbEntity
  8
PIC06
  6
Continuous
 62
     7
100
AcDbLine
 10
39.82911996681182
 20
0.0000010162270492
 30
0.0
 11
45.22291766561894
 21
0.0000010162270492
 31
0.0
  0
LINE
  5
170
330
22
100
AcDbEntity
  8
PIC06
  6
Continuous
 62
     7
100
AcDbLine
 10
39.98660311130251
 20
0.98426891155896
 30
0.0
 11
45.22291766561894
 21
0.9842689115589351
 31
0.0
  0
LINE
  5
171
330
22
100
AcDbEntity
  8
PIC06
  6
Continuous
 62
     7
100
AcDbLine
 10
41.07520534759461
 20
2.007929130999343
 30
0.0
 11
45.22291766561894
 21
2.007929130999343
 31
0.0
  0
LINE
  5
172
330
22
100
AcDbEntity
  8
PIC06
  6
Continuous
 62
     7
100
AcDbLine
 10
40.7933683888041
 20
1.692943061767195
 30
0.0
 11
45.22291766561894
 21
1.692943061767195
 31
0.0
  0
ARC
  5
173
330
22
100
AcDbEntity
  8
PIC06
  6
Continuous
 62
     7
100
AcDbCircle
 10
40.94873187779697
 20
0.9086790050219661
 30
0.0
 40
0.7874157224535953
100
AcDbArc
 50
105.5933349240831
 51
163.9477146155107
  0
ARC
  5
174
330
22
100
AcDbEntity
  8
PIC06
  6
Continuous
 62
     7
100
AcDbCircle
 10
41.07520534759461
 20
1.811075200385936
 30
0.0
 40
0.1968539306133968
100
AcDbArc
 50
95.24943842902775
 51
173.3421857411921
  0
ARC
  5
175
330
22
100
AcDbEntity
  8
PIC06
  6
Continuous
 62
     7
100
AcDbCircle
 10
40.68415254089555
 20
1.856721474763389
 30
0.0
 40
0.1968539306133987
100
AcDbArc
 50
285.5933349240797
 51
353.3421857411921
  0
ARC
  5
176
330
22
100
AcDbEntity
  8
PIC06
  6
Continuous
 62
     7
100
AcDbCircle
 10
40.00283913248696
 20
1.180843779227892
 30
0.0
 40
0.1968539306133988
100
AcDbArc
 50
268.0306068202436
 51
343.9477146155108
  0
LINE
  5
177
330
22
100
AcDbEntity
  8
PIC06
  6
Continuous
 62
     7
100
AcDbLine
 10
41.23516989621225
 20
2.184662627128702
 30
0.0
 11
41.68279379332346
 21
6.934627947514954
 31
0.0
  0
ARC
  5
178
330
22
100
AcDbEntity
  8
PIC06
  6
Continuous
 62
     7
100
AcDbCircle
 10
41.03918428365946
 20
2.203131781691183
 30
0.0
 40
0.1968539306133985
100
AcDbArc
 50
275.2494384290277
 51
354.6164993508431
  0
ARC
  5
179
330
22
100
AcDbEntity
  8
PIC06
  6
Continuous
 62
     7
100
AcDbCircle
 10
38.54938413702697
 20
15.8270570375443
 30
0.0
 40
0.3149662889814377
100
AcDbArc
 50
90.0
 51
181.458786879808
  0
LINE
  5
17A
330
22
100
AcDbEntity
  8
PIC06
  6
Continuous
 62
     7
100
AcDbLine
 10
45.22291766561901
 20
16.73258511836592
 30
0.0
 11
44.96018282710659
 21
16.73258511836592
 31
0.0
  0
ARC
  5
17B
330
22
100
AcDbEntity
  8
PIC06
  6
Continuous
 62
     7
100
AcDbCircle
 10
43.47448981336419
 20
22.48071989227717
 30
0.0
 40
5.905617918401955
100
AcDbArc
 50
270.0
 51
282.1014920318355
  0
ARC
  5
17C
330
22
100
AcDbEntity
  8
PIC06
  6
Continuous
 62
     7
100
AcDbCircle
 10
44.96018282710659
 20
15.55146153468554
 30
0.0
 40
1.181123583680391
100
AcDbArc
 50
90.0
 51
102.1014920318355
  0
ARC
  5
17D
330
22
100
AcDbEntity
  8
PIC06
  6
Continuous
 62
     7
100
AcDbCircle
 10
39.82911996681182
 20
0.1181133745950902
 30
0.0
 40
0.1181123583680391
100
AcDbArc
 50
180.0
 51
270.0
  0
LINE
  5
17E
330
22
100
AcDbEntity
  8
PIC06
  6
Continuous
 62
     7
100
AcDbLine
 10
39.73838462991583
 20
0.7212265060232177
 30
0.0
 11
39.7111301965451
 21
0.1234932734478136
 31
0.0
  0
ARC
  5
17F
330
22
100
AcDbEntity
  8
PIC06
  6
Continuous
 62
     7
100
AcDbCircle
 10
40.01369409387154
 20
0.7086734087002036
 30
0.0
 40
0.2755955028587635
100
AcDbArc
 50
90.0
 51
177.3893317425319
  0
ARC
  5
180
330
22
100
AcDbEntity
  8
PIC06
  6
Continuous
 62
     7
100
AcDbCircle
 10
39.28824774073581
 20
16.41761882938455
 30
0.0
 40
0.1574831444907185
100
AcDbArc
 50
90.0
 51
177.8781792658648
  0
LINE
  5
181
330
22
100
AcDbEntity
  8
PIC06
  6
Continuous
 62
     7
100
AcDbLine
 10
39.82837379096171
 20
16.73258511836592
 30
0.0
 11
40.01607984203952
 21
16.73258511836592
 31
0.0
  0
ARC
  5
182
330
22
100
AcDbEntity
  8
PIC06
  6
Continuous
 62
     7
100
AcDbCircle
 10
41.45943670265629
 20
22.48071989227721
 30
0.0
 40
5.905617918401988
100
AcDbArc
 50
257.5462994057211
 51
270.0
  0
ARC
  5
183
330
22
100
AcDbEntity
  8
PIC06
  6
Continuous
 62
     7
100
AcDbCircle
 10
39.23668687847774
 20
17.3611098713324
 30
0.0
 40
0.787415722453247
100
AcDbArc
 50
273.1280467771332
 51
300.0630425551431
  0
ARC
  5
184
330
22
100
AcDbEntity
  8
PIC06
  6
Continuous
 62
     7
100
AcDbCircle
 10
40.01607984203952
 20
15.94516939591233
 30
0.0
 40
0.7874157224535944
100
AcDbArc
 50
77.54629940572108
 51
90.0
  0
ARC
  5
185
330
22
100
AcDbEntity
  8
PIC06
  6
Continuous
 62
     7
100
AcDbCircle
 10
39.82837379096171
 20
16.33887725713914
 30
0.0
 40
0.3937078612267971
100
AcDbArc
 50
90.0
 51
120.063042555143
  0
LINE
  5
186
330
22
100
AcDbEntity
  8
PIC06
  6
Continuous
 62
     7
100
AcDbLine
 10
45.22291766561894
 20
16.57510197387523
 30
0.0
 11
41.45943670265629
 21
16.57510197387525
 31
0.0
  0
LINE
  5
187
330
22
100
AcDbEntity
  8
PIC06
  6
Continuous
 62
     7
100
AcDbLine
 10
39.38638319748179
 20
16.57510197387525
 30
0.0
 11
39.28824774073581
 21
16.57510197387525
 31
0.0
  0
ARC
  5
188
330
22
100
AcDbEntity
  8
PIC06
  6
Continuous
 62
     7
100
AcDbCircle
 10
39.72293766779561
 20
7.119319493139713
 30
0.0
 40
1.968539306133982
100
AcDbArc
 50
354.6164993508431
 51
49.8974248943057
  0
LINE
  5
189
330
22
100
AcDbEntity
  8
PIC06
  6
Continuous
 62
     7
100
AcDbLine
 10
39.11750801340958
 20
16.14202332652573
 30
0.0
 11
39.13094164714351
 21
16.42508433120395
 31
0.0
  0
LINE
  5
18A
330
22
100
AcDbEntity
  8
PIC06
  6
Continuous
 62
     7
100
AcDbLine
 10
38.23460312884333
 20
14.26566903311519
 30
0.0
 11
38.23460312884333
 21
15.83785889301593
 31
0.0
  0
LINE
  5
18B
330
22
100
AcDbEntity
  8
PIC06
  6
Continuous
 62
     7
100
AcDbLine
 10
38.43145705945671
 20
14.0688151025018
 30
0.0
 11
38.51636083585209
 21
14.0688151025018
 31
0.0
  0
LINE
  5
18C
330
22
100
AcDbEntity
  8
PIC06
  6
Continuous
 62
     7
100
AcDbLine
 10
38.63447319422014
 20
13.9134670593694
 30
0.0
 11
38.63447319422014
 21
13.95070274413376
 31
0.0
  0
ARC
  5
18D
330
22
100
AcDbEntity
  8
PIC06
  6
Continuous
 62
     7
100
AcDbCircle
 10
39.02818105544694
 20
13.9134670593694
 30
0.0
 40
0.3937078612267916
100
AcDbArc
 50
180.0
 51
192.0000000000034
  0
ARC
  5
18E
330
22
100
AcDbEntity
  8
PIC06
  6
Continuous
 62
     7
100
AcDbCircle
 10
58.51614763065137
 20
16.69488433765806
 30
0.0
 40
20.07910092256667
100
AcDbArc
 50
188.1253186689191
 51
194.5163880244914
  0
ARC
  5
18F
330
22
100
AcDbEntity
  8
PIC06
  6
Continuous
 62
     7
100
AcDbCircle
 10
38.43145705945671
 20
14.26566903311519
 30
0.0
 40
0.1968539306133985
100
AcDbArc
 50
180.0
 51
270.0
  0
ARC
  5
190
330
22
100
AcDbEntity
  8
PIC06
  6
Continuous
 62
     7
100
AcDbCircle
 10
44.79513909861004
 20
13.14220290907555
 30
0.0
 40
5.905617918401953
100
AcDbArc
 50
194.5163880244914
 51
229.8974248943055
  0
ARC
  5
191
330
22
100
AcDbEntity
  8
PIC06
  6
Continuous
 62
     7
100
AcDbCircle
 10
38.51636083585209
 20
13.95070274413376
 30
0.0
 40
0.1181123583680391
100
AcDbArc
 50
0.0
 51
90.0
  0
LINE
  5
192
330
22
100
AcDbEntity
  8
PIC06
  6
Continuous
 62
     7
100
AcDbLine
 10
45.22291766561894
 20
16.14202332652573
 30
0.0
 11
51.89645119421098
 21
16.14202332652573
 31
0.0
  0
ARC
  5
193
330
22
100
AcDbEntity
  8
PIC06
  6
Continuous
 62
     7
100
AcDbCircle
 10
49.49710345344098
 20
0.9086790050219661
 30
0.0
 40
0.7874157224535953
100
AcDbArc
 50
16.05228538448924
 51
74.40666507591689
  0
ARC
  5
194
330
22
100
AcDbEntity
  8
PIC06
  6
Continuous
 62
     7
100
AcDbCircle
 10
49.37062998364334
 20
1.811075200385936
 30
0.0
 40
0.1968539306133968
100
AcDbArc
 50
6.657814258807892
 51
84.75056157097226
  0
ARC
  5
195
330
22
100
AcDbEntity
  8
PIC06
  6
Continuous
 62
     7
100
AcDbCircle
 10
49.7616827903424
 20
1.856721474763389
 30
0.0
 40
0.1968539306133987
100
AcDbArc
 50
186.6578142588079
 51
254.4066650759203
  0
ARC
  5
196
330
22
100
AcDbEntity
  8
PIC06
  6
Continuous
 62
     7
100
AcDbCircle
 10
50.44299619875096
 20
1.180843779227892
 30
0.0
 40
0.1968539306133988
100
AcDbArc
 50
196.0522853844892
 51
271.9693931797564
  0
LINE
  5
197
330
22
100
AcDbEntity
  8
PIC06
  6
Continuous
 62
     7
100
AcDbLine
 10
49.2106654350257
 20
2.184662627128702
 30
0.0
 11
48.76304153791446
 21
6.934627947514954
 31
0.0
  0
ARC
  5
198
330
22
100
AcDbEntity
  8
PIC06
  6
Continuous
 62
     7
100
AcDbCircle
 10
49.40665104757849
 20
2.203131781691183
 30
0.0
 40
0.1968539306133985
100
AcDbArc
 50
185.3835006491566
 51
264.7505615709722
  0
ARC
  5
199
330
22
100
AcDbEntity
  8
PIC06
  6
Continuous
 62
     7
100
AcDbCircle
 10
51.89645119421098
 20
15.8270570375443
 30
0.0
 40
0.3149662889814377
100
AcDbArc
 50
358.541213120192
 51
90.0
  0
ARC
  5
19A
330
22
100
AcDbEntity
  8
PIC06
  6
Continuous
 62
     7
100
AcDbCircle
 10
50.61671536442614
 20
0.1181133745950902
 30
0.0
 40
0.1181123583680391
100
AcDbArc
 50
270.0
 51
0.0
  0
LINE
  5
19B
330
22
100
AcDbEntity
  8
PIC06
  6
Continuous
 62
     7
100
AcDbLine
 10
50.70745070132213
 20
0.7212265060232177
 30
0.0
 11
50.73470513469286
 21
0.1234932734478136
 31
0.0
  0
ARC
  5
19C
330
22
100
AcDbEntity
  8
PIC06
  6
Continuous
 62
     7
100
AcDbCircle
 10
50.43214123736641
 20
0.7086734087002036
 30
0.0
 40
0.2755955028587635
100
AcDbArc
 50
2.610668257468029
 51
90.0
  0
ARC
  5
19D
330
22
100
AcDbEntity
  8
PIC06
  6
Continuous
 62
     7
100
AcDbCircle
 10
51.15758759050215
 20
16.41761882938455
 30
0.0
 40
0.1574831444907185
100
AcDbArc
 50
2.121820734135146
 51
90.0
  0
LINE
  5
19E
330
22
100
AcDbEntity
  8
PIC06
  6
Continuous
 62
     7
100
AcDbLine
 10
50.61746154027625
 20
16.73258511836592
 30
0.0
 11
50.42975548919841
 21
16.73258511836592
 31
0.0
  0
ARC
  5
19F
330
22
100
AcDbEntity
  8
PIC06
  6
Continuous
 62
     7
100
AcDbCircle
 10
48.98639862858161
 20
22.48071989227721
 30
0.0
 40
5.905617918401988
100
AcDbArc
 50
270.0
 51
282.4537005942789
  0
ARC
  5
1A0
330
22
100
AcDbEntity
  8
PIC06
  6
Continuous
 62
     7
100
AcDbCircle
 10
51.20914845276022
 20
17.3611098713324
 30
0.0
 40
0.787415722453247
100
AcDbArc
 50
239.936957444857
 51
266.8719532228668
  0
ARC
  5
1A1
330
22
100
AcDbEntity
  8
PIC06
  6
Continuous
 62
     7
100
AcDbCircle
 10
50.42975548919841
 20
15.94516939591233
 30
0.0
 40
0.7874157224535944
100
AcDbArc
 50
90.0
 51
102.4537005942789
  0
ARC
  5
1A2
330
22
100
AcDbEntity
  8
PIC06
  6
Continuous
 62
     7
100
AcDbCircle
 10
50.61746154027625
 20
16.33887725713914
 30
0.0
 40
0.3937078612267971
100
AcDbArc
 50
59.93695744485695
 51
90.0
  0
LINE
  5
1A3
330
22
100
AcDbEntity
  8
PIC06
  6
Continuous
 62
     7
100
AcDbLine
 10
45.22291766561894
 20
16.57510197387523
 30
0.0
 11
48.98639862858167
 21
16.57510197387525
 31
0.0
  0
LINE
  5
1A4
330
22
100
AcDbEntity
  8
PIC06
  6
Continuous
 62
     7
100
AcDbLine
 10
51.05945213375614
 20
16.57510197387525
 30
0.0
 11
51.15758759050215
 21
16.57510197387525
 31
0.0
  0
ARC
  5
1A5
330
22
100
AcDbEntity
  8
PIC06
  6
Continuous
 62
     7
100
AcDbCircle
 10
50.72289766344235
 20
7.119319493139713
 30
0.0
 40
1.968539306133982
100
AcDbArc
 50
130.1025751056944
 51
185.3835006491566
  0
LINE
  5
1A6
330
22
100
AcDbEntity
  8
PIC06
  6
Continuous
 62
     7
100
AcDbLine
 10
51.32832731782838
 20
16.14202332652573
 30
0.0
 11
51.31489368409444
 21
16.42508433120395
 31
0.0
  0
LINE
  5
1A7
330
22
100
AcDbEntity
  8
PIC06
  6
Continuous
 62
     7
100
AcDbLine
 10
52.21123220239462
 20
14.26566903311519
 30
0.0
 11
52.21123220239462
 21
15.83785889301593
 31
0.0
  0
LINE
  5
1A8
330
22
100
AcDbEntity
  8
PIC06
  6
Continuous
 62
     7
100
AcDbLine
 10
52.01437827178122
 20
14.0688151025018
 30
0.0
 11
51.92947449538585
 21
14.0688151025018
 31
0.0
  0
LINE
  5
1A9
330
22
100
AcDbEntity
  8
PIC06
  6
Continuous
 62
     7
100
AcDbLine
 10
51.8113621370178
 20
13.9134670593694
 30
0.0
 11
51.8113621370178
 21
13.95070274413376
 31
0.0
  0
ARC
  5
1AA
330
22
100
AcDbEntity
  8
PIC06
  6
Continuous
 62
     7
100
AcDbCircle
 10
51.41765427579099
 20
13.9134670593694
 30
0.0
 40
0.3937078612267916
100
AcDbArc
 50
347.9999999999967
 51
0.0
  0
ARC
  5
1AB
330
22
100
AcDbEntity
  8
PIC06
  6
Continuous
 62
     7
100
AcDbCircle
 10
31.92968770058655
 20
16.69488433765806
 30
0.0
 40
20.07910092256667
100
AcDbArc
 50
345.4836119755084
 51
351.8746813310809
  0
ARC
  5
1AC
330
22
100
AcDbEntity
  8
PIC06
  6
Continuous
 62
     7
100
AcDbCircle
 10
52.01437827178122
 20
14.26566903311519
 30
0.0
 40
0.1968539306133985
100
AcDbArc
 50
270.0
 51
0.0
  0
ARC
  5
1AD
330
22
100
AcDbEntity
  8
PIC06
  6
Continuous
 62
     7
100
AcDbCircle
 10
45.65069623262789
 20
13.14220290907555
 30
0.0
 40
5.905617918401953
100
AcDbArc
 50
310.1025751056943
 51
345.4836119755084
  0
ARC
  5
1AE
330
22
100
AcDbEntity
  8
PIC06
  6
Continuous
 62
     7
100
AcDbCircle
 10
51.92947449538585
 20
13.95070274413376
 30
0.0
 40
0.1181123583680391
100
AcDbArc
 50
90.0
 51
180.0
  0
LINE
  5
1AF
330
22
100
AcDbEntity
  8
PIC06
  6
Continuous
 62
     7
100
AcDbLine
 10
50.45923221993539
 20
0.98426891155896
 30
0.0
 11
45.22291766561894
 21
0.9842689115589351
 31
0.0
  0
LINE
  5
1B0
330
22
100
AcDbEntity
  8
PIC06
  6
Continuous
 62
     7
100
AcDbLine
 10
49.65246694243385
 20
1.692943061767195
 30
0.0
 11
45.22291766561894
 21
1.692943061767195
 31
0.0
  0
LINE
  5
1B1
330
22
100
AcDbEntity
  8
PIC06
  6
Continuous
 62
     7
100
AcDbLine
 10
49.37062998364334
 20
2.007929130999343
 30
0.0
 11
45.22291766561894
 21
2.007929130999343
 31
0.0
  0
LINE
  5
1B2
330
22
100
AcDbEntity
  8
PIC06
  6
Continuous
 62
     7
100
AcDbLine
 10
45.22291766561894
 20
16.73258511836592
 30
0.0
 11
45.48565250413139
 21
16.73258511836592
 31
0.0
  0
ARC
  5
1B3
330
22
100
AcDbEntity
  8
PIC06
  6
Continuous
 62
     7
100
AcDbCircle
 10
46.97134551787377
 20
22.48071989227717
 30
0.0
 40
5.905617918401955
100
AcDbArc
 50
257.8985079681645
 51
270.0
  0
ARC
  5
1B4
330
22
100
AcDbEntity
  8
PIC06
  6
Continuous
 62
     7
100
AcDbCircle
 10
45.48565250413139
 20
15.55146153468554
 30
0.0
 40
1.181123583680391
100
AcDbArc
 50
77.89850796816446
 51
90.0
  0
LINE
  5
1B5
330
22
100
AcDbEntity
  8
PIC06
  6
Continuous
 62
     7
100
AcDbLine
 10
50.61671536442614
 20
0.0000010162270492
 30
0.0
 11
45.22291766561894
 21
0.0000010162270492
 31
0.0
  0
ARC
  5
1B6
330
22
100
AcDbEntity
  8
PIC06
  6
Continuous
 62
     7
100
AcDbCircle
 10
45.22291766561894
 20
-60.36916379984623
 30
0.0
 40
74.73948492983679
100
AcDbArc
 50
84.85178487625026
 51
95.14821512374975
  0
LINE
  5
1BB
330
22
100
AcDbEntity
  8
PIC06
  6
CENTER
 62
     7
100
AcDbLine
 10
45.22291766561894
 20
-0.3915335864077534
 30
0.0
 11
45.22291766561894
 21
17.30402951516699
 31
0.0
  0
ARC
  5
1BD
330
22
100
AcDbEntity
  8
PIC06
  6
Continuous
 62
     7
100
AcDbCircle
 10
17.70784964131519
 20
41.8878243402792
 30
0.0
 40
13.58290876482106
100
AcDbArc
 50
48.11137871686667
 51
97.94332444657833
  0
ARC
  5
1BE
330
22
100
AcDbEntity
  8
PIC06
  6
Continuous
 62
     7
100
AcDbCircle
 10
23.62248346973922
 20
48.48243101582804
 30
0.0
 40
4.72449030479179
100
AcDbArc
 50
311.8886573278136
 51
48.11134267218641
  0
LINE
  5
1BF
330
22
100
AcDbEntity
  8
PIC06
  6
Continuous
 62
     7
100
AcDbLine
 10
14.84044816024502
 20
1.692928878511498
 30
0.0
 11
24.21304257209025
 21
1.692928878511498
 31
0.0
  0
LINE
  5
1C0
330
22
100
AcDbEntity
  8
PIC06
  6
Continuous
 62
     7
100
AcDbLine
 10
15.11366648651264
 20
2.007895167492932
 30
0.0
 11
24.01618864147684
 21
2.007895167492932
 31
0.0
  0
ARC
  5
1C1
330
22
100
AcDbEntity
  8
PIC06
  6
Continuous
 62
     7
100
AcDbCircle
 10
25.04539419768534
 20
1.181108658916663
 30
0.0
 40
0.1968539306134103
100
AcDbArc
 50
195.7491954783835
 51
257.5677158954662
  0
ARC
  5
1C2
330
22
100
AcDbEntity
  8
PIC06
  6
Continuous
 62
     7
100
AcDbCircle
 10
24.09807496461241
 20
0.9139513633045872
 30
0.0
 40
0.7874157224535944
100
AcDbArc
 50
14.54498567726471
 51
72.36448812066983
  0
ARC
  5
1C3
330
22
100
AcDbEntity
  8
PIC06
  6
Continuous
 62
     7
100
AcDbCircle
 10
24.40814810586994
 20
1.84810413294096
 30
0.0
 40
0.196853930613397
100
AcDbArc
 50
195.0683266916391
 51
251.6374565490208
  0
LINE
  5
1C5
330
22
100
AcDbEntity
  8
PIC06
  6
Continuous
 62
     7
100
AcDbLine
 10
5.835407104082435
 20
16.14202841979035
 30
0.0
 11
28.03770581580634
 21
16.14200343611282
 31
0.0
  0
ARC
  5
1C6
330
22
100
AcDbEntity
  8
PIC06
  6
Continuous
 62
     7
100
AcDbCircle
 10
24.0779334842945
 20
2.199877261930211
 30
0.0
 40
0.1968539306134072
100
AcDbArc
 50
185.3105570386948
 51
251.310493030589
  0
LINE
  5
1C7
330
22
100
AcDbEntity
  8
PIC06
  6
Continuous
 62
     7
100
AcDbLine
 10
23.88272145105202
 20
2.173084124250138
 30
0.0
 11
23.35753488539751
 21
7.823104506775592
 31
0.0
  0
LINE
  5
1D0
330
22
100
AcDbEntity
  8
PIC06
  6
CENTER
 62
     7
100
AcDbLine
 10
7.716733992207764
 20
48.48243101582804
 30
0.0
 11
28.98892017598769
 21
48.48243101582804
 31
0.0
  0
ARC
  5
1D1
330
22
100
AcDbEntity
  8
PIC06
  6
Continuous
 62
     7
100
AcDbCircle
 10
24.09807496461241
 20
0.9139513633045872
 30
0.0
 40
0.7874157224535944
100
AcDbArc
 50
5.122398463348341
 51
14.54498567726471
  0
ARC
  5
1D2
330
22
100
AcDbEntity
  8
PIC06
  6
Continuous
 62
     7
100
AcDbCircle
 10
24.09807496461241
 20
0.9139513633045872
 30
0.0
 40
0.7874157224535933
100
AcDbArc
 50
72.36448812066983
 51
81.60444745340337
  0
LINE
  5
1D3
330
22
100
AcDbEntity
  8
PIC06
  6
CENTER
 62
     7
100
AcDbLine
 10
9.842710426819451
 20
14.39104221694954
 30
0.0
 11
9.842710426819451
 21
17.66005501120453
 31
0.0
  0
ARC
  5
1D4
330
22
100
AcDbEntity
  8
PIC06
  6
Continuous
 62
     7
100
AcDbCircle
 10
3.813094756883202
 20
4.882055007268483
 30
0.0
 40
2.559101097974181
100
AcDbArc
 50
204.5561253067184
 51
270.0
  0
LINE
  5
1D5
330
22
100
AcDbEntity
  8
PIC06
  6
Continuous
 62
     7
100
AcDbLine
 10
3.773735081498159
 20
2.322953909294298
 30
0.0
 11
4.80681393463027
 21
2.322953222739485
 31
0.0
  0
LINE
  5
1DB
330
22
100
AcDbEntity
  8
PIC06
  6
Continuous
 62
     7
100
AcDbLine
 10
0.4724517628274612
 20
4.033243043659965
 30
0.0
 11
0.4724517628274612
 21
8.267859141007789
 31
0.0
  0
ARC
  5
1DC
330
22
100
AcDbEntity
  8
PIC06
  6
Continuous
 62
     7
100
AcDbCircle
 10
1.055733987307206
 20
3.622189851342739
 30
0.0
 40
0.4724494334721567
100
AcDbArc
 50
24.55612530671845
 51
90.0
  0
LINE
  5
1DD
330
22
100
AcDbEntity
  8
PIC06
  6
Continuous
 62
     7
100
AcDbLine
 10
0.7053546187008522
 20
4.094639284814888
 30
0.0
 11
1.788809094714991
 21
4.094639284814888
 31
0.0
  0
ARC
  5
1E2
330
22
100
AcDbEntity
  8
PIC06
  6
Continuous
 62
     7
100
AcDbCircle
 10
6.929274200686649
 20
1.948919459066488
 30
0.0
 40
1.141752797557698
100
AcDbArc
 50
90.0
 51
118.0000000000087
  0
LINE
  5
1E4
330
22
100
AcDbEntity
  8
PIC06
  6
DASHED
 62
     7
100
AcDbLine
 10
10.29551411891077
 20
0.5905605783241512
 30
0.0
 11
10.29551411891077
 21
0.9842696530669918
 31
0.0
  0
LINE
  5
1E5
330
22
100
AcDbEntity
  8
PIC06
  6
DASHED
 62
     7
100
AcDbLine
 10
10.80733433850562
 20
0.5905605783241512
 30
0.0
 11
10.80733433850562
 21
0.9842684395509486
 31
0.0
  0
LINE
  5
1E8
330
22
100
AcDbEntity
  8
PIC06
  6
Continuous
 62
     7
100
AcDbLine
 10
0.0000000000000284
 20
0.0
 30
0.0
 11
25.15988507529377
 21
0.0
 31
0.0
  0
LINE
  5
1EE
330
22
100
AcDbEntity
  8
PIC06
  6
Continuous
 62
     7
100
AcDbLine
 10
0.4788394529272182
 20
0.5906392578354805
 30
0.0
 11
4.537481043420598
 21
0.5906387033666114
 31
0.0
  0
LINE
  5
1F2
330
22
100
AcDbEntity
  8
PIC06
  6
Continuous
 62
     7
100
AcDbLine
 10
14.39599661177019
 20
0.5905618292548312
 30
0.0
 11
12.39198708320421
 21
0.590560578311834
 31
0.0
  0
LINE
  5
1F3
330
22
100
AcDbEntity
  8
PIC06
  6
Continuous
 62
     7
100
AcDbLine
 10
3.363815422461129
 20
0.5905605783241512
 30
0.0
 11
8.710739930784825
 21
0.5905605783241512
 31
0.0
  0
ARC
  5
1F4
330
22
100
AcDbEntity
  8
PIC06
  6
Continuous
 62
     7
100
AcDbCircle
 10
0.0000000000000284
 20
0.1181123583680375
 30
0.0
 40
0.1181123583680391
100
AcDbArc
 50
176.5270488177993
 51
270.0
  0
LINE
  5
1F5
330
22
100
AcDbEntity
  8
PIC06
  6
DASHED
 62
     7
100
AcDbLine
 10
8.710759595420938
 20
0.5905605783241512
 30
0.0
 11
12.3920068394637
 21
0.5905605783241512
 31
0.0
  0
LINE
  5
1F6
330
22
100
AcDbEntity
  8
PIC06
  6
DASHED
 62
     7
100
AcDbLine
 10
8.281617175708561
 20
0.9842684395509486
 30
0.0
 11
8.257317874964059
 21
0.9842684395509486
 31
0.0
  0
ARC
  5
1F8
330
22
100
AcDbEntity
  8
PIC06
  6
Continuous
 62
     7
100
AcDbCircle
 10
4.927013528729133
 20
16.26014335729266
 30
0.0
 40
0.1181123583680401
100
AcDbArc
 50
270.0
 51
354.3982837005434
  0
LINE
  5
1F9
330
22
100
AcDbEntity
  8
PIC06
  6
Continuous
 62
     7
100
AcDbLine
 10
5.044561838746119
 20
16.24861408969191
 30
0.0
 11
5.074068176751694
 21
16.58871929387933
 31
0.0
  0
ARC
  5
1FA
330
22
100
AcDbEntity
  8
PIC06
  6
Continuous
 62
     7
100
AcDbCircle
 10
5.230961982529322
 20
16.57510773602235
 30
0.0
 40
0.1574831444907148
100
AcDbArc
 50
24.4618233107147
 51
174.3982837005434
  0
ARC
  5
1FB
330
22
100
AcDbEntity
  8
PIC06
  6
Continuous
 62
     7
100
AcDbCircle
 10
5.481819311726638
 20
16.6892282056321
 30
0.0
 40
0.1181123583680385
100
AcDbArc
 50
204.4618233107147
 51
260.603808442237
  0
ARC
  5
1FC
330
22
100
AcDbEntity
  8
PIC06
  6
Continuous
 62
     7
100
AcDbCircle
 10
0.8903421605074015
 20
16.3782557156607
 30
0.0
 40
0.2362247167360786
100
AcDbArc
 50
183.8140748342952
 51
270.0
  0
LINE
  5
1FD
330
22
100
AcDbEntity
  8
PIC06
  6
Continuous
 62
     7
100
AcDbLine
 10
0.6546406442292608
 20
16.36254228124214
 30
0.0
 11
0.6404462332067738
 21
16.57545844657939
 31
0.0
  0
ARC
  5
1FE
330
22
100
AcDbEntity
  8
PIC06
  6
Continuous
 62
     7
100
AcDbCircle
 10
0.4724874657703709
 20
16.56426119541695
 30
0.0
 40
0.1683315953478573
100
AcDbArc
 50
3.814074834284829
 51
176.1859251657151
  0
LINE
  5
200
330
22
100
AcDbEntity
  8
PIC06
  6
Continuous
 62
     7
100
AcDbLine
 10
12.38950519720498
 20
7.874142782339383
 30
0.0
 11
13.70102847999678
 21
7.874140652553599
 31
0.0
  0
LINE
  5
201
330
22
100
AcDbEntity
  8
PIC06
  6
Continuous
 62
     7
100
AcDbLine
 10
10.12752709749065
 20
8.928922728790652
 30
0.0
 11
8.491328770129854
 21
10.87886796361949
 31
0.0
  0
LINE
  5
202
330
22
100
AcDbEntity
  8
PIC06
  6
Continuous
 62
     7
100
AcDbLine
 10
10.21800641328207
 20
9.004843889300495
 30
0.0
 11
8.972155020949401
 21
10.48959176195151
 31
0.0
  0
LINE
  5
203
330
22
100
AcDbEntity
  8
PIC06
  6
Continuous
 62
     7
100
AcDbLine
 10
12.38950538900792
 20
7.992255140707271
 30
0.0
 11
13.43692123038977
 21
7.992253439806177
 31
0.0
  0
ARC
  5
204
330
22
100
AcDbEntity
  8
PIC06
  6
Continuous
 62
     7
100
AcDbCircle
 10
13.46480874041609
 20
8.30950821339519
 30
0.0
 40
0.4724494334721567
100
AcDbArc
 50
0.0
 51
4.976397286802568
  0
LINE
  5
205
330
22
100
AcDbEntity
  8
PIC06
  6
Continuous
 62
     7
100
AcDbLine
 10
7.012699692207036
 20
16.14200650551115
 30
0.0
 11
28.03201364829468
 21
16.14200650551115
 31
0.0
  0
LINE
  5
206
330
22
100
AcDbEntity
  8
PIC06
  6
Continuous
 62
     7
100
AcDbLine
 10
20.21127940891267
 20
5.745502984631784
 30
0.0
 11
20.30148285622784
 21
8.468631292040996
 31
0.0
  0
ARC
  5
207
330
22
100
AcDbEntity
  8
PIC06
  6
Continuous
 62
     7
100
AcDbCircle
 10
20.13258100118836
 20
5.748109864247275
 30
0.0
 40
0.07874157224536
100
AcDbArc
 50
270.0
 51
358.1027747603956
  0
LINE
  5
212
330
22
100
AcDbEntity
  8
PIC06
  6
Continuous
 62
     7
100
AcDbLine
 10
5.601953030244033
 20
16.34601500900557
 30
0.0
 11
5.589126775825377
 21
16.43912195340036
 31
0.0
  0
ARC
  5
213
330
22
100
AcDbEntity
  8
PIC06
  6
Continuous
 62
     7
100
AcDbCircle
 10
5.835967693926704
 20
16.37825247135169
 30
0.0
 40
0.2362247167360636
100
AcDbArc
 50
187.8436009166821
 51
269.9999355265231
  0
ARC
  5
214
330
22
100
AcDbEntity
  8
PIC06
  6
Continuous
 62
     7
100
AcDbCircle
 10
5.030476336946918
 20
16.37825247135169
 30
0.0
 40
0.2362247167360636
100
AcDbArc
 50
270.0000644734769
 51
352.1563990833179
  0
LINE
  5
215
330
22
100
AcDbEntity
  8
PIC06
  6
Continuous
 62
     7
100
AcDbLine
 10
5.26449100062959
 20
16.34601500900557
 30
0.0
 11
5.277317255048217
 21
16.43912195340036
 31
0.0
  0
LINE
  5
216
330
22
100
AcDbEntity
  8
PIC06
  6
Continuous
 62
     7
100
AcDbLine
 10
5.030476602764622
 20
16.14202790887526
 30
0.0
 11
0.8900720127810473
 21
16.14203115339577
 31
0.0
  0
ARC
  5
21B
330
22
100
AcDbEntity
  8
PIC06
  6
Continuous
 62
     7
100
AcDbCircle
 10
12.3895099922785
 20
10.82695174153648
 30
0.0
 40
2.952808959200979
100
AcDbArc
 50
219.9999999999849
 51
269.9999069572368
  0
LINE
  5
21C
330
22
100
AcDbEntity
  8
PIC06
  6
DASHED
 62
     7
100
AcDbLine
 10
12.38950711523435
 20
9.055266366018216
 30
0.0
 11
13.3122749429759
 21
9.055264867533331
 31
0.0
  0
ARC
  5
21D
330
22
100
AcDbEntity
  8
PIC06
  6
DASHED
 62
     7
100
AcDbCircle
 10
12.3895099922785
 20
10.82695174153648
 30
0.0
 40
1.771685375520586
100
AcDbArc
 50
219.9999999999849
 51
269.9999069572368
  0
LINE
  5
21E
330
22
100
AcDbEntity
  8
PIC06
  6
Continuous
 62
     7
100
AcDbLine
 10
0.2756270231151632
 20
16.14203148063018
 30
0.0
 11
0.2756270231151632
 21
14.93608073494452
 31
0.0
  0
LINE
  5
21F
330
22
100
AcDbEntity
  8
PIC06
  6
Continuous
 62
     7
100
AcDbLine
 10
0.2756270231151632
 20
16.14203148063018
 30
0.0
 11
0.3045288666673969
 21
16.57546097129535
 31
0.0
  0
ARC
  5
220
330
22
100
AcDbEntity
  8
PIC06
  6
DASHED
 62
     7
100
AcDbCircle
 10
9.842716256192375
 20
45.72647598724048
 30
0.0
 40
0.6299303264420187
100
AcDbArc
 50
122.6362539503811
 51
55.15912082626482
  0
LINE
  5
221
330
22
100
AcDbEntity
  8
PIC06
  6
DASHED
 62
     7
100
AcDbLine
 10
9.59369561227794
 20
46.2776679908046
 30
0.0
 11
10.09173805614136
 21
46.2776679908046
 31
0.0
  0
LINE
  5
222
330
22
100
AcDbEntity
  8
PIC06
  6
DASHED
 62
     7
100
AcDbLine
 10
9.59369561227794
 20
50.68719603654473
 30
0.0
 11
10.09173805614136
 21
50.68719603654473
 31
0.0
  0
ARC
  5
223
330
22
100
AcDbEntity
  8
PIC06
  6
DASHED
 62
     7
100
AcDbCircle
 10
9.842716256192375
 20
51.23838604441563
 30
0.0
 40
0.6299432190582852
100
AcDbArc
 50
305.0988996667713
 51
234.9011863595927
  0
CIRCLE
  5
224
330
22
100
AcDbEntity
  8
PIC06
  6
Continuous
 62
     7
100
AcDbCircle
 10
9.842716256192375
 20
51.23838604441563
 30
0.0
 40
0.275595502858758
  0
CIRCLE
  5
225
330
22
100
AcDbEntity
  8
PIC06
  6
Continuous
 62
     7
100
AcDbCircle
 10
9.842716834209682
 20
45.7264769850871
 30
0.0
 40
0.275595502858758
  0
ARC
  5
226
330
22
100
AcDbEntity
  8
PIC06
  6
DASHED
 62
     7
100
AcDbCircle
 10
10.09173805614136
 20
50.88404996715812
 30
0.0
 40
0.1968539306133985
100
AcDbArc
 50
270.0
 51
305.0988044687672
  0
ARC
  5
227
330
22
100
AcDbEntity
  8
PIC06
  6
DASHED
 62
     7
100
AcDbCircle
 10
9.59369561227794
 20
50.88404996715812
 30
0.0
 40
0.1968539306133985
100
AcDbArc
 50
234.9011955312327
 51
270.0
  0
ARC
  5
228
330
22
100
AcDbEntity
  8
PIC06
  6
DASHED
 62
     7
100
AcDbCircle
 10
10.09173805614136
 20
46.08081406019121
 30
0.0
 40
0.1968539306133985
100
AcDbArc
 50
54.90119553123271
 51
90.0
  0
ARC
  5
229
330
22
100
AcDbEntity
  8
PIC06
  6
DASHED
 62
     7
100
AcDbCircle
 10
9.59369561227794
 20
46.08081406019121
 30
0.0
 40
0.1968539306133985
100
AcDbArc
 50
90.0
 51
125.0988044687673
  0
ARC
  5
22E
330
22
100
AcDbEntity
  8
PIC06
  6
Continuous
 62
     7
100
AcDbCircle
 10
25.15794143903455
 20
0.1180963652165836
 30
0.0
 40
0.1181123583680397
100
AcDbArc
 50
269.9999354273769
 51
2.610344221645761
  0
LINE
  5
22F
330
22
100
AcDbEntity
  8
PIC06
  6
Continuous
 62
     7
100
AcDbLine
 10
25.24984613665694
 20
0.6956346637973248
 30
0.0
 11
25.27593123972537
 21
0.1234755967790271
 31
0.0
  0
ARC
  5
232
330
22
100
AcDbEntity
  8
PIC06
  6
Continuous
 62
     7
100
AcDbCircle
 10
24.94140690486711
 20
0.0590561791840187
 30
0.0
 40
0.0590561791840196
100
AcDbArc
 50
180.0
 51
270.0
  0
ARC
  5
237
330
22
100
AcDbEntity
  8
PIC06
  6
Continuous
 62
     7
100
AcDbCircle
 10
4.803238236322215
 20
7.784192556953044
 30
0.0
 40
4.814460266549878
100
AcDbArc
 50
39.99999999998492
 51
90.0
  0
LINE
  5
239
330
22
100
AcDbEntity
  8
PIC06
  6
DASHED
 62
     7
100
AcDbLine
 10
3.183784314201716
 20
13.8401640412987
 30
0.0
 11
0.6334906379420886
 21
14.47773746036358
 31
0.0
  0
LINE
  5
23B
330
22
100
AcDbEntity
  8
PIC06
  6
DASHED
 62
     7
100
AcDbLine
 10
3.592879199400329
 20
12.94518635656488
 30
0.0
 11
3.474298832974426
 21
13.53572127848682
 31
0.0
  0
ARC
  5
23F
330
22
100
AcDbEntity
  8
PIC06
  6
Continuous
 62
     7
100
AcDbCircle
 10
17.70784964131519
 20
55.07703769137691
 30
0.0
 40
12.00807731991387
100
AcDbArc
 50
269.2176032814707
 51
312.3232835078578
  0
ARC
  5
240
330
22
100
AcDbEntity
  8
PIC06
  6
Continuous
 62
     7
100
AcDbCircle
 10
17.70784964131519
 20
41.8878243402792
 30
0.0
 40
12.00807731991386
100
AcDbArc
 50
48.11137871686667
 51
90.78239498850289
  0
ARC
  5
241
330
22
100
AcDbEntity
  8
PIC06
  6
Continuous
 62
     7
100
AcDbCircle
 10
17.6177921761824
 20
48.48243101582804
 30
0.0
 40
5.412855750306098
100
AcDbArc
 50
90.78239570509321
 51
269.2176042949068
  0
ARC
  5
242
330
22
100
AcDbEntity
  8
PIC06
  6
Continuous
 62
     7
100
AcDbCircle
 10
21.69141192780933
 20
48.48243201367468
 30
0.0
 40
1.968539306133985
100
AcDbArc
 50
0.0
 51
0.8722731101567699
  0
ARC
  5
243
330
22
100
AcDbEntity
  8
PIC06
  6
Continuous
 62
     7
100
AcDbCircle
 10
16.45510100955488
 20
48.48243201367468
 30
0.0
 40
3.031550531446326
100
AcDbArc
 50
143.9690489839454
 51
216.0086640003359
  0
LINE
  5
246
330
22
100
AcDbEntity
  8
PIC06
  6
Continuous
 62
     7
100
AcDbLine
 10
18.07118947165824
 20
47.89187022183448
 30
0.0
 11
18.07118947165824
 21
49.07299380551489
 31
0.0
  0
ARC
  5
247
330
22
100
AcDbEntity
  8
PIC06
  6
Continuous
 62
     7
100
AcDbCircle
 10
17.87433554104481
 20
49.07299380551489
 30
0.0
 40
0.1968539306133985
100
AcDbArc
 50
0.0
 51
90.0
  0
ARC
  5
248
330
22
100
AcDbEntity
  8
PIC06
  6
Continuous
 62
     7
100
AcDbCircle
 10
17.64715809049519
 20
53.18402522149689
 30
0.0
 40
3.93707861226797
100
AcDbArc
 50
276.1828648696597
 51
287.9207989320097
  0
LINE
  5
249
330
22
100
AcDbEntity
  8
PIC06
  6
Continuous
 62
     7
100
AcDbLine
 10
17.28377374920464
 20
47.78626124058862
 30
0.0
 11
17.28377374920464
 21
49.17860278676072
 31
0.0
  0
ARC
  5
24A
330
22
100
AcDbEntity
  8
PIC06
  6
Continuous
 62
     7
100
AcDbCircle
 10
14.25492111320594
 20
59.30939819741159
 30
0.0
 40
11.81123583680391
100
AcDbArc
 50
270.0
 51
283.6187108980798
  0
ARC
  5
24B
330
22
100
AcDbEntity
  8
PIC06
  6
Continuous
 62
     7
100
AcDbCircle
 10
17.16566139083659
 20
47.78626124058862
 30
0.0
 40
0.1181123583680391
100
AcDbArc
 50
284.4553000888769
 51
0.0
  0
ARC
  5
24C
330
22
100
AcDbEntity
  8
PIC06
  6
Continuous
 62
     7
100
AcDbCircle
 10
17.00817824634586
 20
47.94503671773476
 30
0.0
 40
0.1181123583680391
100
AcDbArc
 50
283.6187108980798
 51
0.0
  0
LINE
  5
24D
330
22
100
AcDbEntity
  8
PIC06
  6
Continuous
 62
     7
100
AcDbLine
 10
17.28377374920464
 20
47.69501629122106
 30
0.0
 11
17.87433554104481
 21
47.69501629122106
 31
0.0
  0
ARC
  5
24E
330
22
100
AcDbEntity
  8
PIC06
  6
Continuous
 62
     7
100
AcDbCircle
 10
17.87433554104481
 20
47.89187022183448
 30
0.0
 40
0.1968539306133985
100
AcDbArc
 50
270.0
 51
0.0
  0
ARC
  5
24F
330
22
100
AcDbEntity
  8
PIC06
  6
Continuous
 62
     7
100
AcDbCircle
 10
17.64715809049519
 20
43.78083880585241
 30
0.0
 40
3.93707861226797
100
AcDbArc
 50
72.07920106799027
 51
83.81713513034027
  0
ARC
  5
250
330
22
100
AcDbEntity
  8
PIC06
  6
Continuous
 62
     7
100
AcDbCircle
 10
14.25492111320594
 20
37.65546582993774
 30
0.0
 40
11.81123583680391
100
AcDbArc
 50
76.3812891019202
 51
90.0
  0
ARC
  5
251
330
22
100
AcDbEntity
  8
PIC06
  6
Continuous
 62
     7
100
AcDbCircle
 10
17.16566139083659
 20
49.17860278676072
 30
0.0
 40
0.1181123583680391
100
AcDbArc
 50
0.0
 51
75.54469991112316
  0
ARC
  5
252
330
22
100
AcDbEntity
  8
PIC06
  6
Continuous
 62
     7
100
AcDbCircle
 10
17.00817824634586
 20
49.01982730961456
 30
0.0
 40
0.1181123583680391
100
AcDbArc
 50
0.0
 51
76.3812891019202
  0
LINE
  5
253
330
22
100
AcDbEntity
  8
PIC06
  6
Continuous
 62
     7
100
AcDbLine
 10
17.28377374920464
 20
49.26984773612827
 30
0.0
 11
17.87433554104481
 21
49.26984773612827
 31
0.0
  0
ARC
  5
254
330
22
100
AcDbEntity
  8
PIC06
  6
Continuous
 62
     7
100
AcDbCircle
 10
14.49568023590262
 20
49.42733088061899
 30
0.0
 40
0.3149662889814377
100
AcDbArc
 50
90.0
 51
165.000000000002
  0
LINE
  5
255
330
22
100
AcDbEntity
  8
PIC06
  6
Continuous
 62
     7
100
AcDbLine
 10
14.19144616296503
 20
49.50885015477265
 30
0.0
 11
13.95737392035565
 21
48.63528065271281
 31
0.0
  0
LINE
  5
256
330
22
100
AcDbEntity
  8
PIC06
  6
Continuous
 62
     7
100
AcDbLine
 10
14.19144616296503
 20
47.45601387257669
 30
0.0
 11
13.95737392035565
 21
48.32958337463655
 31
0.0
  0
ARC
  5
257
330
22
100
AcDbEntity
  8
PIC06
  6
Continuous
 62
     7
100
AcDbCircle
 10
14.5278128071136
 20
48.48243201367468
 30
0.0
 40
0.5905617918401838
100
AcDbArc
 50
165.000000000002
 51
194.999999999998
  0
ARC
  5
258
330
22
100
AcDbEntity
  8
PIC06
  6
Continuous
 62
     7
100
AcDbCircle
 10
14.49568023590262
 20
47.53753314673036
 30
0.0
 40
0.3149662889814377
100
AcDbArc
 50
194.999999999998
 51
270.0
  0
LINE
  5
259
330
22
100
AcDbEntity
  8
PIC06
  6
DASHED
 62
     7
100
AcDbLine
 10
12.31209954742309
 20
48.67928594428811
 30
0.0
 11
14.10317428748658
 21
48.67928594428805
 31
0.0
  0
LINE
  5
25A
330
22
100
AcDbEntity
  8
PIC06
  6
Continuous
 62
     7
100
AcDbLine
 10
17.12629060471391
 20
47.94503671773476
 30
0.0
 11
17.12629060471391
 21
49.01982730961456
 31
0.0
  0
LINE
  5
25B
330
22
100
AcDbEntity
  8
PIC06
  6
Continuous
 62
     7
100
AcDbLine
 10
17.28377374920464
 20
47.97061079623323
 30
0.0
 11
17.12629060471391
 21
48.00998158235588
 31
0.0
  0
LINE
  5
25C
330
22
100
AcDbEntity
  8
PIC06
  6
Continuous
 62
     7
100
AcDbLine
 10
17.28377374920464
 20
48.99425123542288
 30
0.0
 11
17.12629060471391
 21
48.95488044930019
 31
0.0
  0
LINE
  5
25D
330
22
100
AcDbEntity
  8
PIC06
  6
Continuous
 62
     7
100
AcDbLine
 10
17.12629060471391
 20
48.00998158235588
 30
0.0
 11
17.28377374920464
 21
48.00998158235588
 31
0.0
  0
LINE
  5
25E
330
22
100
AcDbEntity
  8
PIC06
  6
Continuous
 62
     7
100
AcDbLine
 10
17.12629060471391
 20
48.95488044930019
 30
0.0
 11
17.28377374920464
 21
48.95488044930019
 31
0.0
  0
LINE
  5
25F
330
22
100
AcDbEntity
  8
PIC06
  6
DASHED
 62
     7
100
AcDbLine
 10
15.24897513984049
 20
2.186252653829036
 30
0.0
 11
15.58788106711088
 21
7.03283321214419
 31
0.0
  0
ARC
  5
260
330
22
100
AcDbEntity
  8
PIC06
  6
DASHED
 62
     7
100
AcDbCircle
 10
15.05260073550823
 20
2.199984489871297
 30
0.0
 40
0.1968539306133992
100
AcDbArc
 50
288.5600548116407
 51
355.9999999999966
  0
ARC
  5
26A
330
22
100
AcDbEntity
  8
PIC06
  6
Continuous
 62
     7
100
AcDbCircle
 10
12.3895099922785
 20
10.82695174153648
 30
0.0
 40
2.834696600832939
100
AcDbArc
 50
219.9999999999849
 51
269.9999069572368
  0
LINE
  5
275
330
22
100
AcDbEntity
  8
PIC06
  6
CENTER
 62
     7
100
AcDbLine
 10
8.844947119937785
 20
51.23838604441563
 30
0.0
 11
10.35454711688263
 21
51.23838604441563
 31
0.0
  0
LINE
  5
276
330
22
100
AcDbEntity
  8
PIC06
  6
CENTER
 62
     7
100
AcDbLine
 10
8.844947119937785
 20
45.72647598724048
 30
0.0
 11
10.5907589410024
 21
45.72647598724048
 31
0.0
  0
LINE
  5
277
330
22
100
AcDbEntity
  8
PIC06
  6
CENTER
 62
     7
100
AcDbLine
 10
9.842716256192375
 20
44.97843330243038
 30
0.0
 11
9.842716256192375
 21
46.64266968710812
 31
0.0
  0
ARC
  5
278
330
22
100
AcDbEntity
  8
PIC06
  6
Continuous
 62
     7
100
AcDbCircle
 10
4.803245445328485
 20
8.267859141007789
 30
0.0
 40
4.33079368250102
100
AcDbArc
 50
90.00009537412179
 51
99.80110103682367
  0
ARC
  5
279
330
22
100
AcDbEntity
  8
PIC06
  6
Continuous
 62
     7
100
AcDbCircle
 10
4.803245445328485
 20
8.267859141007789
 30
0.0
 40
4.33079368250102
100
AcDbArc
 50
107.7460834419223
 51
180.0
  0
LINE
  5
283
330
22
100
AcDbEntity
  8
PIC06
  6
Continuous
 62
     7
100
AcDbLine
 10
14.53064331975557
 20
0.2283680009359408
 30
0.0
 11
14.51384744373132
 21
0.4803061866869207
 31
0.0
  0
ARC
  5
284
330
22
100
AcDbEntity
  8
PIC06
  6
Continuous
 62
     7
100
AcDbCircle
 10
14.39599668549829
 20
0.4724494708867902
 30
0.0
 40
0.1181123583680566
100
AcDbArc
 50
3.814074149201585
 51
90.0000357651719
  0
LINE
  5
285
330
22
100
AcDbEntity
  8
PIC06
  6
DASHED
 62
     7
100
AcDbLine
 10
14.94163773142219
 20
0.5905621698549695
 30
0.0
 11
14.39599661177016
 21
0.5905618292548312
 31
0.0
  0
LINE
  5
286
330
22
100
AcDbEntity
  8
PIC06
  6
DASHED
 62
     7
100
AcDbLine
 10
15.05945000504667
 20
0.4808649618030892
 30
0.0
 11
15.07752537578358
 21
0.2278095664199533
 31
0.0
  0
ARC
  5
287
330
22
100
AcDbEntity
  8
PIC06
  6
DASHED
 62
     7
100
AcDbCircle
 10
14.94163780515032
 20
0.4724498114869462
 30
0.0
 40
0.1181123583680483
100
AcDbArc
 50
4.085613480359111
 51
90.0000357651719
  0
ARC
  5
28D
330
22
100
AcDbEntity
  8
PIC06
  6
DASHED
 62
     7
100
AcDbCircle
 10
12.3895099922785
 20
10.82695174153648
 30
0.0
 40
1.614202231029866
100
AcDbArc
 50
231.8442518236262
 51
269.9999069572368
  0
LINE
  5
28E
330
22
100
AcDbEntity
  8
PIC06
  6
DASHED
 62
     7
100
AcDbLine
 10
12.38950737097158
 20
9.212749510508743
 30
0.0
 11
13.69205300149502
 21
9.212747395301768
 31
0.0
  0
ARC
  5
291
330
22
100
AcDbEntity
  8
PIC06
  6
Continuous
 62
     7
100
AcDbCircle
 10
23.62248346973922
 20
48.48243101582804
 30
0.0
 40
3.149658859884596
100
AcDbArc
 50
311.8886573278136
 51
48.11134267218641
  0
LINE
  5
2A2
330
22
100
AcDbEntity
  8
PIC06
  6
CENTER
 62
     7
100
AcDbLine
 10
10.55138457702767
 20
-0.5345612150782984
 30
0.0
 11
10.55138457702767
 21
1.351874718896656
 31
0.0
  0
ARC
  5
2A3
330
22
100
AcDbEntity
  8
PIC06
  6
Continuous
 62
     7
100
AcDbCircle
 10
5.433117000036929
 20
16.41763031183628
 30
0.0
 40
0.1574831444907072
100
AcDbArc
 50
7.843600916671831
 51
175.1019652242037
  0
LINE
  5
2A4
330
22
100
AcDbEntity
  8
PIC06
  6
Continuous
 62
     7
100
AcDbLine
 10
4.427938230228704
 20
16.57510197387523
 30
0.0
 11
0.9980723725519737
 21
16.57510197387523
 31
0.0
  0
ARC
  5
2A5
330
22
100
AcDbEntity
  8
PIC06
  6
Continuous
 62
     7
100
AcDbCircle
 10
4.427938230228704
 20
18.5436412800092
 30
0.0
 40
1.968539306133985
100
AcDbArc
 50
270.0
 51
292.1920176993558
  0
ARC
  5
2A6
330
22
100
AcDbEntity
  8
PIC06
  6
Continuous
 62
     7
100
AcDbCircle
 10
0.9980723725519737
 20
17.36251769632881
 30
0.0
 40
0.7874157224535944
100
AcDbArc
 50
236.638450660058
 51
270.0
  0
LINE
  5
2AB
330
22
100
AcDbEntity
  8
PIC06
  6
Continuous
 62
     7
100
AcDbLine
 10
1.279612343733077
 20
15.7483229869157
 30
0.0
 11
1.279612343733077
 21
16.14203084814262
 31
0.0
  0
ARC
  5
2AD
330
22
100
AcDbEntity
  8
PIC06
  6
DASHED
 62
     7
100
AcDbCircle
 10
0.7480764565873131
 20
14.93608073494452
 30
0.0
 40
0.4724494334721494
100
AcDbArc
 50
229.9947991151423
 51
255.9637565320782
  0
ARC
  5
2AE
330
22
100
AcDbEntity
  8
PIC06
  6
Continuous
 62
     7
100
AcDbCircle
 10
0.7480764565873131
 20
14.93608073494452
 30
0.0
 40
0.4724494334721391
100
AcDbArc
 50
180.0
 51
234.0970409351547
  0
LINE
  5
2CC
330
22
100
AcDbEntity
  8
PIC06
 62
     7
100
AcDbLine
 10
0.478837379347084
 20
0.9842696530669918
 30
0.0
 11
5.656713463198485
 21
0.9842696530669918
 31
0.0
  0
LINE
  5
2CD
330
22
100
AcDbEntity
  8
PIC06
  6
Continuous
 62
     7
100
AcDbLine
 10
5.656713463198485
 20
0.9842696530669918
 30
0.0
 11
15.20439122615667
 21
0.9842696530669918
 31
0.0
  0
ARC
  5
2CE
330
22
100
AcDbEntity
  8
PIC06
  6
Continuous
 62
     7
100
AcDbCircle
 10
28.03201361549748
 20
15.82704021652971
 30
0.0
 40
0.3149662889814393
100
AcDbArc
 50
356.8875195288609
 51
90.0
  0
ARC
  5
2D0
330
22
100
AcDbEntity
  8
PIC06
  6
Continuous
 62
     7
100
AcDbCircle
 10
9.218670062272906
 20
8.086078667525946
 30
0.0
 40
4.724494334721571
100
AcDbArc
 50
3.007713387949667
 51
39.52938432484663
  0
LINE
  5
2D2
330
22
100
AcDbEntity
  8
PIC06
  6
DASHED
 62
     7
100
AcDbLine
 10
12.38950577261377
 20
8.228479857443034
 30
0.0
 11
13.46496037352918
 21
8.228478111009735
 31
0.0
  0
ARC
  5
2D3
330
22
100
AcDbEntity
  8
PIC06
  6
DASHED
 62
     7
100
AcDbCircle
 10
12.3895099922785
 20
10.82695174153648
 30
0.0
 40
2.598471884096861
100
AcDbArc
 50
219.9999999999849
 51
269.9999069572368
  0
LINE
  5
2D4
330
22
100
AcDbEntity
  8
PIC06
  6
DASHED
 62
     7
100
AcDbLine
 10
10.39896504486518
 20
9.15668621032016
 30
0.0
 11
9.325440511699696
 21
10.43606292945813
 31
0.0
  0
ARC
  5
2D5
330
22
100
AcDbEntity
  8
PIC06
  6
DASHED
 62
     7
100
AcDbCircle
 10
9.218670062272906
 20
8.086078667525946
 30
0.0
 40
4.330786473494768
100
AcDbArc
 50
2.981192832168502
 51
11.21545429927067
  0
ARC
  5
2D6
330
22
100
AcDbEntity
  8
PIC06
  6
DASHED
 62
     7
100
AcDbCircle
 10
13.4649605013978
 20
8.307219683254999
 30
0.0
 40
0.0787415722453603
100
AcDbArc
 50
269.9999069572368
 51
2.981192832168502
  0
ARC
  5
2D7
330
22
100
AcDbEntity
  8
PIC06
  6
DASHED
 62
     7
100
AcDbCircle
 10
13.31227468723864
 20
8.897781723042825
 30
0.0
 40
0.1574831444907184
100
AcDbArc
 50
11.21545429927067
 51
89.99990695723681
  0
ARC
  5
2D8
330
22
100
AcDbEntity
  8
PIC06
  6
Continuous
 62
     7
100
AcDbCircle
 10
12.3895099922785
 20
10.82695174153648
 30
0.0
 40
1.417348300416469
100
AcDbArc
 50
219.9999999999849
 51
269.9999069572368
  0
LINE
  5
2D9
330
22
100
AcDbEntity
  8
PIC06
  6
Continuous
 62
     7
100
AcDbLine
 10
12.38950769064317
 20
9.409603441121873
 30
0.0
 11
13.38359034009053
 21
9.409601826828676
 31
0.0
  0
LINE
  5
2DA
330
22
100
AcDbEntity
  8
PIC06
  6
DASHED
 62
     7
100
AcDbLine
 10
11.0323202554058
 20
9.688134333888974
 30
0.0
 11
10.47793764966863
 21
10.34882179594794
 31
0.0
  0
LINE
  5
2DB
330
22
100
AcDbEntity
  8
PIC06
  6
Continuous
 62
     7
100
AcDbLine
 10
11.30375820278033
 20
9.915897815418475
 30
0.0
 11
10.74937559704321
 21
10.57658527747743
 31
0.0
  0
LINE
  5
2DC
330
22
100
AcDbEntity
  8
PIC06
  6
DASHED
 62
     7
100
AcDbLine
 10
9.874742211058588
 20
10.63009644833597
 30
0.0
 11
9.415919827491222
 21
10.63009644833599
 31
0.0
  0
ARC
  5
2DD
330
22
100
AcDbEntity
  8
PIC06
  6
DASHED
 62
     7
100
AcDbCircle
 10
9.87474221105856
 20
9.842680725882388
 30
0.0
 40
0.7874157224535945
100
AcDbArc
 50
39.99999999998492
 51
90.0
  0
ARC
  5
2DE
330
22
100
AcDbEntity
  8
PIC06
  6
DASHED
 62
     7
100
AcDbCircle
 10
9.415919827491222
 20
10.51198408996796
 30
0.0
 40
0.1181123583680391
100
AcDbArc
 50
90.0
 51
219.9999999999849
  0
LINE
  5
2DF
330
22
100
AcDbEntity
  8
PIC06
  6
Continuous
 62
     7
100
AcDbLine
 10
9.874742211058588
 20
11.02380430956277
 30
0.0
 11
9.415919827491222
 21
11.02380430956279
 31
0.0
  0
ARC
  5
2E0
330
22
100
AcDbEntity
  8
PIC06
  6
Continuous
 62
     7
100
AcDbCircle
 10
9.415919827491222
 20
10.51198408996796
 30
0.0
 40
0.5118202195948363
100
AcDbArc
 50
90.0
 51
130.5185517328885
  0
ARC
  5
2E1
330
22
100
AcDbEntity
  8
PIC06
  6
Continuous
 62
     7
100
AcDbCircle
 10
9.87474221105856
 20
9.842680725882388
 30
0.0
 40
1.141752797557726
100
AcDbArc
 50
39.99999999998492
 51
51.32559489311496
  0
ARC
  5
2E2
330
22
100
AcDbEntity
  8
PIC06
  6
Continuous
 62
     7
100
AcDbCircle
 10
9.87474221105856
 20
9.842680725882388
 30
0.0
 40
1.181123583680391
100
AcDbArc
 50
62.66072064814942
 51
90.0
  0
ARC
  5
2E6
330
22
100
AcDbEntity
  8
PIC06
  6
Continuous
 62
     7
100
AcDbCircle
 10
9.006656269302595
 20
10.99085609031641
 30
0.0
 40
0.1181123583680375
100
AcDbArc
 50
217.3389409189686
 51
310.5185517328885
  0
ARC
  5
2E7
330
22
100
AcDbEntity
  8
PIC06
  6
Continuous
 62
     7
100
AcDbCircle
 10
9.006656269302595
 20
10.99085609031641
 30
0.0
 40
0.4724494334721584
100
AcDbArc
 50
217.3389409189686
 51
257.7821112360161
  0
ARC
  5
2E8
330
22
100
AcDbEntity
  8
PIC06
  6
Continuous
 62
     7
100
AcDbCircle
 10
8.881675705157874
 20
10.41367060144168
 30
0.0
 40
0.1181123583680369
100
AcDbArc
 50
39.99999999998492
 51
77.78211123601612
  0
LINE
  5
2EA
330
22
100
AcDbEntity
  8
PIC06
  6
Continuous
 62
     7
100
AcDbLine
 10
0.6199736559658789
 20
3.740302209710776
 30
0.0
 11
1.055733987307206
 21
3.740302209710776
 31
0.0
  0
ARC
  5
2EB
330
22
100
AcDbEntity
  8
PIC06
  6
Continuous
 62
     7
100
AcDbCircle
 10
3.813094756883202
 20
4.882055007268483
 30
0.0
 40
2.913438173078298
100
AcDbArc
 50
204.5561253067184
 51
270.0
  0
LINE
  5
2EC
330
22
100
AcDbEntity
  8
PIC06
  6
Continuous
 62
     7
100
AcDbLine
 10
3.773734846015798
 20
1.968616834190271
 30
0.0
 11
4.806813699147937
 21
1.968616147635444
 31
0.0
  0
ARC
  5
2ED
330
22
100
AcDbEntity
  8
PIC06
  6
Continuous
 62
     7
100
AcDbCircle
 10
1.055733987307206
 20
3.622189851342739
 30
0.0
 40
0.1181123583680391
100
AcDbArc
 50
24.55612530670864
 51
90.0
  0
ARC
  5
2EE
330
22
100
AcDbEntity
  8
PIC06
  6
Continuous
 62
     7
100
AcDbCircle
 10
0.7053546187008522
 20
3.622189851342739
 30
0.0
 40
0.4724494334721567
100
AcDbArc
 50
90.0
 51
119.5359032407566
  0
ARC
  5
2F0
330
22
100
AcDbEntity
  8
PIC06
  6
Continuous
 62
     7
100
AcDbCircle
 10
6.929274656743217
 20
0.9249519621324893
 30
0.0
 40
2.165393236747316
100
AcDbArc
 50
18.64048697690694
 51
90.0
  0
LINE
  5
2F1
330
22
100
AcDbEntity
  8
PIC06
  6
DASHED
 62
     7
100
AcDbLine
 10
14.39599636600982
 20
0.9842696904815539
 30
0.0
 11
8.272273061023753
 21
0.9842658679304605
 31
0.0
  0
ARC
  5
2F2
330
22
100
AcDbEntity
  8
PIC06
  6
Continuous
 62
     7
100
AcDbCircle
 10
8.272272815261032
 20
1.377977514293789
 30
0.0
 40
0.7480449363309224
100
AcDbArc
 50
325.685345887711
 51
18.64048697690694
  0
LINE
  5
2F3
330
22
100
AcDbEntity
  8
PIC06
  6
Continuous
 62
     7
100
AcDbLine
 10
9.140017590378676
 20
0.5690711306129935
 30
0.0
 11
9.161118362818655
 21
0.4108570855909655
 31
0.0
  0
ARC
  5
2F4
330
22
100
AcDbEntity
  8
PIC06
  6
Continuous
 62
     7
100
AcDbCircle
 10
8.710739930784825
 20
0.5118190060787918
 30
0.0
 40
0.4330786473493758
100
AcDbArc
 50
7.596623983000558
 51
71.81080529806711
  0
ARC
  5
2F5
330
22
100
AcDbEntity
  8
PIC06
  6
Continuous
 62
     7
100
AcDbCircle
 10
8.922642090053471
 20
0.9340818887543207
 30
0.0
 40
0.039370786122678
100
AcDbArc
 50
145.6853458877025
 51
243.3513485085425
  0
ARC
  5
2F7
330
22
100
AcDbEntity
  8
PIC06
  6
DASHED
 62
     7
100
AcDbCircle
 10
6.929274656743217
 20
0.9249519621324893
 30
0.0
 40
4.685123548598815
100
AcDbArc
 50
18.64048697690694
 51
90.0
  0
LINE
  5
2F8
330
22
100
AcDbEntity
  8
PIC06
  6
DASHED
 62
     7
100
AcDbLine
 10
11.36862968073276
 20
2.422453092887941
 30
0.0
 11
11.7995491298858
 21
1.144988667490668
 31
0.0
  0
ARC
  5
2F9
330
22
100
AcDbEntity
  8
PIC06
  6
DASHED
 62
     7
100
AcDbCircle
 10
12.02338215630544
 20
1.220492926184224
 30
0.0
 40
0.2362247167360794
100
AcDbArc
 50
198.6404869769069
 51
270.0000357651719
  0
ARC
  5
2FB
330
22
100
AcDbEntity
  8
PIC06
  6
DASHED
 62
     7
100
AcDbCircle
 10
6.929274200686649
 20
1.948919459066488
 30
0.0
 40
3.661483109409199
100
AcDbArc
 50
90.0
 51
118.0000000000087
  0
LINE
  5
2FC
330
22
100
AcDbEntity
  8
PIC06
  6
DASHED
 62
     7
100
AcDbLine
 10
4.076692319122116
 20
4.842762962718047
 30
0.0
 11
4.415583975587907
 21
4.842762962718047
 31
0.0
  0
LINE
  5
2FD
330
22
100
AcDbEntity
  8
PIC06
  6
DASHED
 62
     7
100
AcDbLine
 10
4.711319407413895
 20
4.916498087305186
 30
0.0
 11
5.210312003198197
 21
5.181817156812925
 31
0.0
  0
LINE
  5
2FE
330
22
100
AcDbEntity
  8
PIC06
  6
DASHED
 62
     7
100
AcDbLine
 10
3.740997462192837
 20
5.059297821007397
 30
0.0
 11
3.050206189714089
 21
6.255750505015853
 31
0.0
  0
LINE
  5
2FF
330
22
100
AcDbEntity
  8
PIC06
  6
DASHED
 62
     7
100
AcDbLine
 10
2.992182074678964
 20
8.110383205498564
 30
0.0
 11
2.992182074678964
 21
6.472294294075986
 31
0.0
  0
ARC
  5
300
330
22
100
AcDbEntity
  8
PIC06
  6
DASHED
 62
     7
100
AcDbCircle
 10
4.803238236322215
 20
8.110383205498564
 30
0.0
 40
1.811056161643266
100
AcDbArc
 50
90.0
 51
180.0
  0
ARC
  5
301
330
22
100
AcDbEntity
  8
PIC06
  6
DASHED
 62
     7
100
AcDbCircle
 10
4.803238236322272
 20
7.343297054686068
 30
0.0
 40
2.578142312455681
100
AcDbArc
 50
39.99999999998492
 51
90.0
  0
LINE
  5
302
330
22
100
AcDbEntity
  8
PIC06
  6
DASHED
 62
     7
100
AcDbLine
 10
6.778209828348849
 20
9.000494989141174
 30
0.0
 11
8.230359793661136
 21
7.269890050994725
 31
0.0
  0
LINE
  5
303
330
22
100
AcDbEntity
  8
PIC06
  6
DASHED
 62
     7
100
AcDbLine
 10
12.42256809200126
 20
5.3150312168978
 30
0.0
 11
15.29888065352494
 21
5.3150312168978
 31
0.0
  0
ARC
  5
304
330
22
100
AcDbEntity
  8
PIC06
  6
DASHED
 62
     7
100
AcDbCircle
 10
12.42256809200126
 20
10.78757048795028
 30
0.0
 40
5.47253927105248
100
AcDbArc
 50
219.9999999999849
 51
270.0
  0
ARC
  5
305
330
22
100
AcDbEntity
  8
PIC06
  6
DASHED
 62
     7
100
AcDbCircle
 10
15.29888065352494
 20
5.157548072407081
 30
0.0
 40
0.1574831444907188
100
AcDbArc
 50
355.9999999999966
 51
90.0
  0
ARC
  5
306
330
22
100
AcDbEntity
  8
PIC06
  6
DASHED
 62
     7
100
AcDbCircle
 10
4.415583975587907
 20
5.472695540680923
 30
0.0
 40
0.6299325779628774
100
AcDbArc
 50
270.0
 51
298.0000000000087
  0
ARC
  5
307
330
22
100
AcDbEntity
  8
PIC06
  6
DASHED
 62
     7
100
AcDbCircle
 10
4.116051994507188
 20
5.275841610067523
 30
0.0
 40
0.4330786473494769
100
AcDbArc
 50
210.0006821590955
 51
270.0
  0
ARC
  5
308
330
22
100
AcDbEntity
  8
PIC06
  6
DASHED
 62
     7
100
AcDbCircle
 10
3.42526072202844
 20
6.472294294075986
 30
0.0
 40
0.4330786473494769
100
AcDbArc
 50
180.0
 51
210.0006821590955
  0
ARC
  5
309
330
22
100
AcDbEntity
  8
PIC06
  6
Continuous
 62
     7
100
AcDbCircle
 10
5.656713463198485
 20
1.22049436980307
 30
0.0
 40
0.6299325779628754
100
AcDbArc
 50
188.4539259315899
 51
270.0
  0
ARC
  5
30A
330
22
100
AcDbEntity
  8
PIC06
  6
Continuous
 62
     7
100
AcDbCircle
 10
6.120239390241636
 20
1.518748019810367
 30
0.0
 40
1.141752797557714
100
AcDbArc
 50
118.0000000000087
 51
145.0264628549898
  0
LINE
  5
30B
330
22
100
AcDbEntity
  8
PIC06
  6
Continuous
 62
     7
100
AcDbLine
 10
6.393253730502067
 20
2.957027343309974
 30
0.0
 11
5.584218920057054
 21
2.526855904053903
 31
0.0
  0
ARC
  5
313
330
22
100
AcDbEntity
  8
PIC06
  6
Continuous
 62
     7
100
AcDbCircle
 10
12.3895099922785
 20
10.82695174153648
 30
0.0
 40
1.259865155925749
100
AcDbArc
 50
231.8442518236262
 51
269.9999069572368
  0
LINE
  5
314
330
22
100
AcDbEntity
  8
PIC06
  6
Continuous
 62
     7
100
AcDbLine
 10
12.3895079463804
 20
9.567086585612386
 30
0.0
 11
13.3302262816658
 21
9.567085057977621
 31
0.0
  0
LINE
  5
315
330
22
100
AcDbEntity
  8
PIC06
  6
DASHED
 62
     7
100
AcDbLine
 10
13.3302262816658
 20
9.567085057977621
 30
0.0
 11
13.69205357690381
 21
9.567084470405426
 31
0.0
  0
ARC
  5
31F
330
22
100
AcDbEntity
  8
PIC06
  6
Continuous
 62
     7
100
AcDbCircle
 10
6.929274656743217
 20
0.9249519621324893
 30
0.0
 40
2.047280878379276
100
AcDbArc
 50
18.64048697690694
 51
90.0
  0
ARC
  5
320
330
22
100
AcDbEntity
  8
PIC06
  6
Continuous
 62
     7
100
AcDbCircle
 10
6.929274200686649
 20
1.948919459066488
 30
0.0
 40
1.023640439189659
100
AcDbArc
 50
90.0
 51
118.0000000000087
  0
LINE
  5
321
330
22
100
AcDbEntity
  8
PIC06
  6
Continuous
 62
     7
100
AcDbLine
 10
6.448704123969463
 20
2.852740320802027
 30
0.0
 11
5.639669313524422
 21
2.422568881545956
 31
0.0
  0
ARC
  5
322
330
22
100
AcDbEntity
  8
PIC06
  6
Continuous
 62
     7
100
AcDbCircle
 10
6.120239390241636
 20
1.518748019810367
 30
0.0
 40
1.023640439189678
100
AcDbArc
 50
118.0000000000087
 51
142.6907400128416
  0
ARC
  5
323
330
22
100
AcDbEntity
  8
PIC06
  6
Continuous
 62
     7
100
AcDbCircle
 10
8.272272815261032
 20
1.377977514293789
 30
0.0
 40
0.6299325779628835
100
AcDbArc
 50
327.5821046645509
 51
18.64048697690694
  0
ARC
  5
324
330
22
100
AcDbEntity
  8
PIC06
  6
Continuous
 62
     7
100
AcDbCircle
 10
8.870507560212928
 20
0.9980640490076986
 30
0.0
 40
0.0787415722453561
100
AcDbArc
 50
147.5821046645509
 51
251.8108052980277
  0
ARC
  5
331
330
22
100
AcDbEntity
  8
PIC06
  6
Continuous
 62
     7
100
AcDbCircle
 10
17.5987453131498
 20
5.354402003020467
 30
0.0
 40
0.3937078612267971
100
AcDbArc
 50
90.0
 51
122.2042275039513
  0
LINE
  5
332
330
22
100
AcDbEntity
  8
PIC06
  6
Continuous
 62
     7
100
AcDbLine
 10
17.5987453131498
 20
5.748109864247261
 30
0.0
 11
18.85861046907556
 21
5.748109864247261
 31
0.0
  0
LINE
  5
334
330
22
100
AcDbEntity
  8
PIC06
  6
Continuous
 62
     7
100
AcDbLine
 10
19.10761318391357
 20
5.669368292001919
 30
0.0
 11
20.13258100118836
 21
5.669368292001919
 31
0.0
  0
LINE
  5
345
330
22
100
AcDbEntity
  8
PIC06
  6
Continuous
 62
     7
100
AcDbLine
 10
8.031654265176172
 20
15.63018628591631
 30
0.0
 11
8.031654265176172
 21
15.36696595917174
 31
0.0
  0
ARC
  5
346
330
22
100
AcDbEntity
  8
PIC06
  6
Continuous
 62
     7
100
AcDbCircle
 10
7.559204831704022
 20
15.63018628591631
 30
0.0
 40
0.4724494334721567
100
AcDbArc
 50
0.0
 51
19.47122063449085
  0
ARC
  5
347
330
22
100
AcDbEntity
  8
PIC06
  6
DASHED
 62
     7
100
AcDbCircle
 10
3.088296131997338
 20
13.45821131248126
 30
0.0
 40
0.3937078612267968
100
AcDbArc
 50
11.3540883450205
 51
75.96375653207821
  0
LINE
  5
348
330
22
100
AcDbEntity
  8
PIC06
  6
Continuous
 62
     7
100
AcDbLine
 10
0.1181146877233345
 20
3.740302209710762
 30
0.0
 11
0.1181146877233345
 21
8.267859141007789
 31
0.0
  0
ARC
  5
349
330
22
100
AcDbEntity
  8
PIC06
  6
Continuous
 62
     7
100
AcDbCircle
 10
39.24553472980108
 20
-0.6304872805991728
 30
0.0
 40
39.37078612267971
100
AcDbArc
 50
173.6261098156471
 51
178.9072285727262
  0
ARC
  5
34A
330
22
100
AcDbEntity
  8
PIC06
  6
Continuous
 62
     7
100
AcDbCircle
 10
39.24553472980108
 20
-0.6304872805991728
 30
0.0
 40
38.97707826145293
100
AcDbArc
 50
173.7170363047907
 51
177.6660774906074
  0
ARC
  5
34B
330
22
100
AcDbEntity
  8
PIC06
  6
Continuous
 62
     7
100
AcDbCircle
 10
0.6199736559658789
 20
3.622189851342739
 30
0.0
 40
0.1181123583680391
100
AcDbArc
 50
90.0
 51
173.7170363047907
  0
ARC
  5
34F
330
22
100
AcDbEntity
  8
PIC06
  6
Continuous
 62
     7
100
AcDbCircle
 10
3.985596824401852
 20
13.00099712376728
 30
0.0
 40
0.4724494334721557
100
AcDbArc
 50
234.6473740529537
 51
279.8011017662273
  0
ARC
  5
350
330
22
100
AcDbEntity
  8
PIC06
  6
Continuous
 62
     7
100
AcDbCircle
 10
3.327220565728794
 20
12.8800451693001
 30
0.0
 40
0.511820219594834
100
AcDbArc
 50
287.7460841607163
 51
318.9892807024883
  0
ARC
  5
351
330
22
100
AcDbEntity
  8
PIC06
  6
Continuous
 62
     7
100
AcDbCircle
 10
3.772850714308248
 20
12.49251839518178
 30
0.0
 40
0.0787415722453605
100
AcDbArc
 50
67.29569898445072
 51
138.9892807024893
  0
ARC
  5
352
330
22
100
AcDbEntity
  8
PIC06
  6
DASHED
 62
     7
100
AcDbCircle
 10
3.438478119009488
 20
12.91418237016267
 30
0.0
 40
0.1574831444907197
100
AcDbArc
 50
286.3691278377853
 51
11.3540883450205
  0
ARC
  5
359
330
22
100
AcDbEntity
  8
PIC06
  6
Continuous
 62
     7
100
AcDbCircle
 10
24.3008097833027
 20
11.2302106429411
 30
0.0
 40
1.181123583680401
100
AcDbArc
 50
278.1929895746876
 51
305.3344176099555
  0
LINE
  5
35E
330
22
100
AcDbEntity
  8
PIC06
  6
Continuous
 62
     7
100
AcDbLine
 10
17.26019017718931
 20
6.916943534663595
 30
0.0
 11
17.08691584937585
 21
5.669368292001919
 31
0.0
  0
LINE
  5
373
330
22
100
AcDbEntity
  8
PIC06
  6
DASHED
 62
     7
100
AcDbLine
 10
11.20941687958802
 20
12.71835659632563
 30
0.0
 11
12.14546731309872
 21
12.71835659632563
 31
0.0
  0
ARC
  5
377
330
22
100
AcDbEntity
  8
PIC06
  6
DASHED
 62
     7
100
AcDbCircle
 10
0.478837379347084
 20
0.3937078612267974
 30
0.0
 40
0.5905617918401955
100
AcDbArc
 50
90.0
 51
178.4866285851227
  0
ARC
  5
378
330
22
100
AcDbEntity
  8
PIC06
  6
Continuous
 62
     7
100
AcDbCircle
 10
0.478839426034142
 20
0.3937853272220799
 30
0.0
 40
0.1968539306134004
100
AcDbArc
 50
89.9999921725908
 51
178.4865140931693
  0
LINE
  5
37B
330
22
100
AcDbEntity
  8
PIC06
  6
Continuous
 62
     7
100
AcDbLine
 10
9.291517018099852
 20
0.4330786473494755
 30
0.0
 11
11.81124853145238
 21
0.4330786473494755
 31
0.0
  0
ARC
  5
37C
330
22
100
AcDbEntity
  8
PIC06
  6
Continuous
 62
     7
100
AcDbCircle
 10
9.291517018099852
 20
0.039370786122678
 30
0.0
 40
0.3937078612267958
100
AcDbArc
 50
90.0
 51
109.3420295946563
  0
ARC
  5
383
330
22
100
AcDbEntity
  8
PIC06
  6
Continuous
 62
     7
100
AcDbCircle
 10
17.32597650555618
 20
5.787480650369957
 30
0.0
 40
0.1181123583680391
100
AcDbArc
 50
270.0
 51
302.2042275039513
  0
ARC
  5
386
330
22
100
AcDbEntity
  8
PIC06
  6
Continuous
 62
     7
100
AcDbCircle
 10
24.93520666814811
 20
0.6812900462974625
 30
0.0
 40
0.314966288981438
100
AcDbArc
 50
2.610344221656206
 51
77.56771589546628
  0
ARC
  5
387
330
22
100
AcDbEntity
  8
PIC06
  6
Continuous
 62
     7
100
AcDbCircle
 10
23.91392606132007
 20
1.715045845461151
 30
0.0
 40
0.3149662889814372
100
AcDbArc
 50
15.06832669164877
 51
71.31049303058897
  0
LINE
  5
38E
330
22
100
AcDbEntity
  8
PIC06
  6
Continuous
 62
     7
100
AcDbLine
 10
14.64849407798857
 20
0.1181123583680375
 30
0.0
 11
16.64810105162803
 21
0.1181123583680375
 31
0.0
  0
ARC
  5
390
330
22
100
AcDbEntity
  8
PIC06
  6
Continuous
 62
     7
100
AcDbCircle
 10
14.64849407798857
 20
0.2362247167360785
 30
0.0
 40
0.1181123583680391
100
AcDbArc
 50
183.8140741492118
 51
270.0
  0
ARC
  5
395
330
22
100
AcDbEntity
  8
PIC06
  6
DASHED
 62
     7
100
AcDbCircle
 10
15.19533757567993
 20
0.2362247167360785
 30
0.0
 40
0.1181123583680393
100
AcDbArc
 50
184.0856134803591
 51
270.0
  0
LINE
  5
396
330
22
100
AcDbEntity
  8
PIC06
  6
Continuous
 62
     7
100
AcDbLine
 10
14.86844611897047
 20
0.472449433472157
 30
0.0
 11
15.16860126991218
 21
0.472449433472157
 31
0.0
  0
LINE
  5
397
330
22
100
AcDbEntity
  8
PIC06
  6
Continuous
 62
     7
100
AcDbLine
 10
14.86949484476059
 20
0.472449433472157
 30
0.0
 11
14.86739971843036
 21
0.5038763340873232
 31
0.0
  0
LINE
  5
398
330
22
100
AcDbEntity
  8
PIC06
  6
Continuous
 62
     7
100
AcDbLine
 10
15.16860126991218
 20
0.472449433472157
 30
0.0
 11
15.25519276457103
 21
1.710765499258389
 31
0.0
  0
ARC
  5
3A0
330
22
100
AcDbEntity
  8
PIC06
  6
DASHED
 62
     7
100
AcDbCircle
 10
15.21551232900646
 20
1.714783758328181
 30
0.0
 40
0.3149662889814341
100
AcDbArc
 50
108.5600548116407
 51
164.6716403953656
  0
ARC
  5
3A1
330
22
100
AcDbEntity
  8
PIC06
  6
Continuous
 62
     7
100
AcDbCircle
 10
-10.80615605115784
 20
12.61355701381598
 30
0.0
 40
11.81123583680391
100
AcDbArc
 50
352.446193862587
 51
5.306501624408809
  0
ARC
  5
3A2
330
22
100
AcDbEntity
  8
PIC06
  6
Continuous
 62
     7
100
AcDbCircle
 10
-0.2682935298796849
 20
11.21615227765416
 30
0.0
 40
1.181123583680391
100
AcDbArc
 50
329.8288107138622
 51
352.446193862587
  0
ARC
  5
3A3
330
22
100
AcDbEntity
  8
PIC06
  6
Continuous
 62
     7
100
AcDbCircle
 10
-0.2216022263566231
 20
13.59666781321389
 30
0.0
 40
1.181123583680391
100
AcDbArc
 50
5.306501624408809
 51
54.09704093515475
  0
ARC
  5
3A4
330
22
100
AcDbEntity
  8
PIC06
  6
Continuous
 62
     7
100
AcDbCircle
 10
4.803245445328485
 20
8.267859141007789
 30
0.0
 40
4.448906040869059
100
AcDbArc
 50
107.7460834419223
 51
142.0148849994351
  0
ARC
  5
3A5
330
22
100
AcDbEntity
  8
PIC06
  6
Continuous
 62
     7
100
AcDbCircle
 10
3.327220565728794
 20
12.8800451693001
 30
0.0
 40
0.3937078612267977
100
AcDbArc
 50
287.7460841607163
 51
315.9304913293809
  0
ARC
  5
3A6
330
22
100
AcDbEntity
  8
PIC06
  6
Continuous
 62
     7
100
AcDbCircle
 10
3.666673850333808
 20
12.55144216450704
 30
0.0
 40
0.0787415722453574
100
AcDbArc
 50
54.64737405295966
 51
135.930491329381
  0
ARC
  5
3A7
330
22
100
AcDbEntity
  8
PIC06
  6
Continuous
 62
     7
100
AcDbCircle
 10
-0.2682935298796849
 20
11.21615227765416
 30
0.0
 40
1.53546065878451
100
AcDbArc
 50
329.8288107138622
 51
346.4346686735189
  0
LINE
  5
3A8
330
22
100
AcDbEntity
  8
PIC06
  6
Continuous
 62
     7
100
AcDbLine
 10
14.00348804576131
 20
50.26565732206154
 30
0.0
 11
14.64362262670295
 21
51.14572683982133
 31
0.0
  0
LINE
  5
3A9
330
22
100
AcDbEntity
  8
PIC06
  6
Continuous
 62
     7
100
AcDbLine
 10
14.00348804576131
 20
46.69920470959453
 30
0.0
 11
14.52570157859677
 21
45.98125535067366
 31
0.0
  0
ARC
  5
3AA
330
22
100
AcDbEntity
  8
PIC06
  6
Continuous
 62
     7
100
AcDbCircle
 10
18.3051225076934
 20
48.48246826236034
 30
0.0
 40
4.527640404108128
100
AcDbArc
 50
84.95012183542478
 51
143.9690489839454
  0
ARC
  5
3AB
330
22
100
AcDbEntity
  8
PIC06
  6
Continuous
 62
     7
100
AcDbCircle
 10
18.3051225076934
 20
48.48239376929576
 30
0.0
 40
4.527640404108159
100
AcDbArc
 50
216.0309510160545
 51
275.0498920109974
  0
LINE
  5
3B7
330
22
100
AcDbEntity
  8
PIC06
  6
Continuous
 62
     7
100
AcDbLine
 10
27.95326758868137
 20
14.09472562713179
 30
0.0
 11
27.95326758868137
 21
14.25220877162253
 31
0.0
  0
LINE
  5
3B8
330
22
100
AcDbEntity
  8
PIC06
  6
Continuous
 62
     7
100
AcDbLine
 10
28.27835691101319
 20
14.55648661693598
 30
0.0
 11
28.34651528728151
 21
15.80993870666096
 31
0.0
  0
ARC
  5
3B9
330
22
100
AcDbEntity
  8
PIC06
  6
Continuous
 62
     7
100
AcDbCircle
 10
28.08179336614816
 20
14.56717506060396
 30
0.0
 40
0.1968539306133996
100
AcDbArc
 50
270.0
 51
356.8875195288609
  0
ARC
  5
3BA
330
22
100
AcDbEntity
  8
PIC06
  6
Continuous
 62
     7
100
AcDbCircle
 10
28.0713799470494
 20
14.25220877162253
 30
0.0
 40
0.1181123583680391
100
AcDbArc
 50
90.0
 51
180.0
  0
ARC
  5
3BE
330
22
100
AcDbEntity
  8
PIC06
  6
Continuous
 62
     7
100
AcDbCircle
 10
21.79610961495709
 20
14.76322473089696
 30
0.0
 40
5.905617918401979
100
AcDbArc
 50
294.7308876879132
 51
331.8226622809326
  0
ARC
  5
3C5
330
22
100
AcDbEntity
  8
PIC06
  6
Continuous
 62
     7
100
AcDbCircle
 10
12.24432392573215
 20
14.45438948001227
 30
0.0
 40
0.2362247167360807
100
AcDbArc
 50
278.880690051662
 51
9.380422916872191
  0
LINE
  5
3C6
330
22
100
AcDbEntity
  8
PIC06
  6
Continuous
 62
     7
100
AcDbLine
 10
12.24851065914029
 20
15.87837621172521
 30
0.0
 11
12.47738982428987
 21
14.49289147640889
 31
0.0
  0
ARC
  5
3C7
330
22
100
AcDbEntity
  8
PIC06
  6
Continuous
 62
     7
100
AcDbCircle
 10
11.29942951357415
 20
13.98796127154104
 30
0.0
 40
0.0787415722453615
100
AcDbArc
 50
98.88069005166203
 51
179.9999999736002
  0
LINE
  5
3C8
330
22
100
AcDbEntity
  8
PIC06
  6
Continuous
 62
     7
100
AcDbLine
 10
28.27455012674617
 20
14.60712879937406
 30
0.0
 11
12.48054864246822
 21
14.25220877162253
 31
0.0
  0
ARC
  5
3C9
330
22
100
AcDbEntity
  8
PIC06
  6
Continuous
 62
     7
100
AcDbCircle
 10
24.92560662071287
 20
7.968861540133787
 30
0.0
 40
1.574831444907184
100
AcDbArc
 50
114.7308818454103
 51
185.3105570386948
  0
ARC
  5
3CA
330
22
100
AcDbEntity
  8
PIC06
  6
Continuous
 62
     7
100
AcDbCircle
 10
17.6639982982056
 20
55.73771748193571
 30
0.0
 40
11.81123583680392
100
AcDbArc
 50
275.0498810623508
 51
295.752616883549
  0
ARC
  5
3CB
330
22
100
AcDbEntity
  8
PIC06
  6
Continuous
 62
     7
100
AcDbCircle
 10
17.6639982982056
 20
41.22714454972038
 30
0.0
 40
11.81123583680392
100
AcDbArc
 50
64.24737953453295
 51
84.95011582527965
  0
ARC
  5
3CC
330
22
100
AcDbEntity
  8
PIC06
  6
Continuous
 62
     7
100
AcDbCircle
 10
21.16394179802356
 20
48.48243101582804
 30
0.0
 40
3.755878227907671
100
AcDbArc
 50
295.7526225409451
 51
64.24738142737216
  0
ARC
  5
3CD
330
22
100
AcDbEntity
  8
PIC06
  6
Continuous
 62
     7
100
AcDbCircle
 10
23.62248346973922
 20
48.48243101582804
 30
0.0
 40
2.874063357025838
100
AcDbArc
 50
311.8886573278136
 51
48.11134267218641
  0
ARC
  5
3CE
330
22
100
AcDbEntity
  8
PIC06
  6
Continuous
 62
     7
100
AcDbCircle
 10
17.70784964131519
 20
41.8878243402792
 30
0.0
 40
11.7324818170551
100
AcDbArc
 50
48.11137871686667
 51
90.78239498850289
  0
ARC
  5
3CF
330
22
100
AcDbEntity
  8
PIC06
  6
Continuous
 62
     7
100
AcDbCircle
 10
17.6177921761824
 20
48.48243101582804
 30
0.0
 40
5.137260247447339
100
AcDbArc
 50
90.78239570509321
 51
269.2176042949068
  0
ARC
  5
3D0
330
22
100
AcDbEntity
  8
PIC06
  6
Continuous
 62
     7
100
AcDbCircle
 10
17.70784964131519
 20
55.07703769137691
 30
0.0
 40
11.73248181705511
100
AcDbArc
 50
269.2176032814707
 51
312.3232835078578
  0
ARC
  5
3DA
330
22
100
AcDbEntity
  8
PIC06
  6
Continuous
 62
     7
100
AcDbCircle
 10
18.85861046907556
 20
5.315031216897786
 30
0.0
 40
0.4330786473494812
100
AcDbArc
 50
54.90319877241315
 51
90.0
  0
LINE
  5
3DD
330
22
100
AcDbEntity
  8
PIC06
  6
Continuous
 62
     7
100
AcDbLine
 10
11.22068794120511
 20
13.71951365159486
 30
0.0
 11
11.22068794138388
 21
14.10750674703213
 31
0.0
  0
LINE
  5
3E1
330
22
100
AcDbEntity
  8
PIC06
  6
Continuous
 62
     7
100
AcDbLine
 10
10.07112858883053
 20
14.42273425334544
 30
0.0
 11
8.183325648940041
 21
15.14639204711429
 31
0.0
  0
LINE
  5
3E6
330
22
100
AcDbEntity
  8
PIC06
  6
Continuous
 62
     7
100
AcDbLine
 10
10.14158969964069
 20
14.40969191611324
 30
0.0
 11
10.74823850763377
 21
14.40969191611324
 31
0.0
  0
ARC
  5
3EA
330
22
100
AcDbEntity
  8
PIC06
  6
Continuous
 62
     7
100
AcDbCircle
 10
8.267878981912247
 20
15.36696595917174
 30
0.0
 40
0.2362247167360771
100
AcDbArc
 50
180.0
 51
249.0265065748627
  0
LINE
  5
3EB
330
22
100
AcDbEntity
  8
PIC06
  6
Continuous
 62
     7
100
AcDbLine
 10
8.004634429271902
 20
15.78766943040704
 30
0.0
 11
11.90435570758165
 21
15.78766943040704
 31
0.0
  0
LINE
  5
3FA
330
22
100
AcDbEntity
  8
PIC06
  6
Continuous
 62
     7
100
AcDbLine
 10
28.02315374675095
 20
14.37925788460641
 30
0.0
 11
11.26361286553194
 21
14.05618230965251
 31
0.0
  0
LINE
  5
3FB
330
22
100
AcDbEntity
  8
PIC06
  6
Continuous
 62
     7
100
AcDbLine
 10
28.08179336614816
 20
14.37032112999057
 30
0.0
 11
28.0713799470494
 21
14.37032112999057
 31
0.0
  0
LINE
  5
3FC
330
22
100
AcDbEntity
  8
PIC06
  6
Continuous
 62
     7
100
AcDbLine
 10
11.28727359339982
 20
14.18530436137475
 30
0.0
 11
12.03531407488936
 21
14.30218609989521
 31
0.0
  0
ARC
  5
3FD
330
22
100
AcDbEntity
  8
PIC06
  6
Continuous
 62
     7
100
AcDbCircle
 10
11.29942951362923
 20
14.10750674699585
 30
0.0
 40
0.0787415722453595
100
AcDbArc
 50
98.88069005166203
 51
179.9999999736106
  0
ARC
  5
3FE
330
22
100
AcDbEntity
  8
PIC06
  6
Continuous
 62
     7
100
AcDbCircle
 10
12.04746999511874
 20
14.22438848551631
 30
0.0
 40
0.0787415722453615
100
AcDbArc
 50
23.3582022375856
 51
98.88069005166203
  0
ARC
  5
3FF
330
22
100
AcDbEntity
  8
PIC06
  6
Continuous
 62
     7
100
AcDbCircle
 10
12.19204646743611
 20
14.28682713100892
 30
0.0
 40
0.0787415722453604
100
AcDbArc
 50
203.3582022375763
 51
278.880690051662
  0
LINE
  5
402
330
22
100
AcDbEntity
  8
PIC06
  6
Continuous
 62
     7
100
AcDbLine
 10
11.90435570758165
 20
15.78766943040704
 30
0.0
 11
12.08911960437521
 21
14.66922966994325
 31
0.0
  0
LINE
  5
404
330
22
100
AcDbEntity
  8
PIC06
  6
Continuous
 62
     7
100
AcDbLine
 10
11.21433807196834
 20
14.53254457219331
 30
0.0
 11
12.09013745449326
 21
14.66938870958654
 31
0.0
  0
ARC
  5
406
330
22
100
AcDbEntity
  8
PIC06
  6
DASHED
 62
     7
100
AcDbCircle
 10
12.14546731309872
 20
8.781277984057666
 30
0.0
 40
3.937078612267961
100
AcDbArc
 50
48.26551991193909
 51
90.0
  0
ARC
  5
407
330
22
100
AcDbEntity
  8
PIC06
  6
DASHED
 62
     7
100
AcDbCircle
 10
16.42988494327991
 20
6.548358642603638
 30
0.0
 40
3.937078612267966
100
AcDbArc
 50
34.96787613708278
 51
76.67993420104321
  0
ARC
  5
408
330
22
100
AcDbEntity
  8
PIC06
  6
DASHED
 62
     7
100
AcDbCircle
 10
18.69754915329014
 20
16.12626937644848
 30
0.0
 40
5.905617918401953
100
AcDbArc
 50
228.2655199119391
 51
256.6799342010432
  0
ARC
  5
409
330
22
100
AcDbEntity
  8
PIC06
  6
DASHED
 62
     7
100
AcDbCircle
 10
20.30148285622784
 20
9.256047014494583
 30
0.0
 40
0.7874157224536049
100
AcDbArc
 50
214.9678722733369
 51
270.0
  0
LINE
  5
415
330
22
100
AcDbEntity
  8
PIC06
  6
DASHED
 62
     7
100
AcDbLine
 10
11.09130452121997
 20
10.17682116735629
 30
0.0
 11
11.09130452121997
 21
12.76772118636486
 31
0.0
  0
LINE
  5
416
330
22
100
AcDbEntity
  8
PIC06
  6
Continuous
 62
     7
100
AcDbLine
 10
11.44564159632409
 20
10.17682116735629
 30
0.0
 11
11.44564159632409
 21
12.25356788099572
 31
0.0
  0
LINE
  5
417
330
22
100
AcDbEntity
  8
PIC06
  6
DASHED
 62
     7
100
AcDbLine
 10
11.44564159632409
 20
12.25356788099572
 30
0.0
 11
11.44564159632409
 21
12.71835659632563
 31
0.0
  0
ARC
  5
41A
330
22
100
AcDbEntity
  8
PIC06
  6
Continuous
 62
     7
100
AcDbCircle
 10
1.607057174668028
 20
10.76365817431688
 30
0.0
 40
0.3937078612267952
100
AcDbArc
 50
142.0148849994351
 51
166.4346686735188
  0
LINE
  5
420
330
22
100
AcDbEntity
  8
PIC06
  6
Continuous
 62
     7
100
AcDbLine
 10
4.923642617812646
 20
1.867867965669624
 30
0.0
 11
5.033625478351467
 21
1.127885428991447
 31
0.0
  0
ARC
  5
421
330
22
100
AcDbEntity
  8
PIC06
  6
Continuous
 62
     7
100
AcDbCircle
 10
4.806813620653798
 20
1.850503789267435
 30
0.0
 40
0.1181123583680388
100
AcDbArc
 50
8.453925931589942
 51
89.99996192286753
  0
ARC
  5
422
330
22
100
AcDbEntity
  8
PIC06
  6
Continuous
 62
     7
100
AcDbCircle
 10
4.806813620653798
 20
1.850503789267435
 30
0.0
 40
0.4724494334721509
100
AcDbArc
 50
37.6144507584101
 51
89.99996192286753
  0
ARC
  5
423
330
22
100
AcDbEntity
  8
PIC06
  6
Continuous
 62
     7
100
AcDbCircle
 10
5.24343171112207
 20
2.18692044738615
 30
0.0
 40
0.0787415722453609
100
AcDbArc
 50
217.6144507584101
 51
322.6907400128417
  0
ARC
  5
426
330
22
100
AcDbEntity
  8
PIC06
  6
Continuous
 62
     7
100
AcDbCircle
 10
3.813094756931405
 20
4.882055007289508
 30
0.0
 40
2.913438173130876
100
AcDbArc
 50
203.0722697662605
 51
204.5561253066995
  0
ARC
  5
427
330
22
100
AcDbEntity
  8
PIC06
  6
Continuous
 62
     7
100
AcDbCircle
 10
39.24553474065033
 20
-0.6304872818143999
 30
0.0
 40
38.97707827237003
100
AcDbArc
 50
173.5614560864144
 51
173.71703630476
  0
ARC
  5
428
330
22
100
AcDbEntity
  8
PIC06
  6
Continuous
 62
     7
100
AcDbCircle
 10
13.70102847999678
 20
8.110365597916207
 30
0.0
 40
0.2362247167360783
100
AcDbArc
 50
221.8102714515248
 51
0.0
  0
LINE
  5
429
330
22
100
AcDbEntity
  8
PIC06
  6
Continuous
 62
     7
100
AcDbLine
 10
13.93725319673288
 20
8.110365597916207
 30
0.0
 11
13.93665631169355
 21
8.333974752799242
 31
0.0
  0
ARC
  5
42A
330
22
100
AcDbEntity
  8
PIC06
  6
Continuous
 62
     7
100
AcDbCircle
 10
13.43692103858683
 20
7.874141081438295
 30
0.0
 40
0.1181123583680393
100
AcDbArc
 50
41.81027145152484
 51
89.99990695723681
  0
ARC
  5
42B
330
22
100
AcDbEntity
  8
PIC06
  6
Continuous
 62
     7
100
AcDbCircle
 10
12.99236660630822
 20
13.71951358493003
 30
0.0
 40
1.771685375520595
100
AcDbArc
 50
179.8423044965017
 51
219.5293843248465
  0
LINE
  5
42C
330
22
100
AcDbEntity
  8
PIC06
  6
Continuous
 62
     7
100
AcDbLine
 10
12.86266435587313
 20
11.09309584523297
 30
0.0
 11
11.62586874620814
 21
12.59188214328988
 31
0.0
  0
ARC
  5
430
330
22
100
AcDbEntity
  8
PIC06
  6
Continuous
 62
     7
100
AcDbCircle
 10
9.302322626662999
 20
21.45597507440142
 30
0.0
 40
20.07910092256667
100
AcDbArc
 50
331.8226554248576
 51
338.0408928556742
  0
ARC
  5
431
330
22
100
AcDbEntity
  8
PIC06
  6
Continuous
 62
     7
100
AcDbCircle
 10
27.55955972745457
 20
14.09472562713179
 30
0.0
 40
0.3937078612267971
100
AcDbArc
 50
338.0408928556837
 51
0.0
  0
LINE
  5
436
330
22
100
AcDbEntity
  8
PIC06
  6
Continuous
 62
     7
100
AcDbLine
 10
10.58821664248484
 20
10.73405813553096
 30
0.0
 11
10.59731390931097
 21
10.78330944187959
 31
0.0
  0
LINE
  5
437
330
22
100
AcDbEntity
  8
PIC06
  6
Continuous
 62
     7
100
AcDbLine
 10
10.42469076148697
 20
10.93251952625366
 30
0.0
 11
10.59731390931097
 21
10.78330944187959
 31
0.0
  0
LINE
  5
438
330
22
100
AcDbEntity
  8
PIC06
  6
Continuous
 62
     7
100
AcDbLine
 10
10.41718342386386
 20
10.89187587006496
 30
0.0
 11
10.42469076148697
 21
10.93251952625366
 31
0.0
  0
LINE
  5
43E
330
22
100
AcDbEntity
  8
PIC06
  6
CENTER
 62
     7
100
AcDbLine
 10
9.842716256192375
 20
50.68719603654473
 30
0.0
 11
9.842716256192375
 21
51.98644080055529
 31
0.0
  0
ARC
  5
440
330
22
100
AcDbEntity
  8
PIC06
  6
DASHED
 62
     7
100
AcDbCircle
 10
11.87872024367354
 20
10.17682116735629
 30
0.0
 40
0.7874157224535944
100
AcDbArc
 50
180.0
 51
231.8442518236262
  0
ARC
  5
441
330
22
100
AcDbEntity
  8
PIC06
  6
Continuous
 62
     7
100
AcDbCircle
 10
11.87872024367354
 20
10.17682116735629
 30
0.0
 40
0.4330786473494769
100
AcDbArc
 50
180.0
 51
231.8442518236262
  0
ARC
  5
445
330
22
100
AcDbEntity
  8
PIC06
  6
Continuous
 62
     7
100
AcDbCircle
 10
14.06497045765303
 20
134.1404081797166
 30
0.0
 40
78.74157224535941
100
AcDbArc
 50
271.9442015772114
 51
272.2613265447718
  0
ARC
  5
446
330
22
100
AcDbEntity
  8
PIC06
  6
Continuous
 62
     7
100
AcDbCircle
 10
17.40422409290579
 20
35.77010328720525
 30
0.0
 40
19.68539306133986
100
AcDbArc
 50
91.9442015772114
 51
97.27558936902099
  0
ARC
  5
447
330
22
100
AcDbEntity
  8
PIC06
  6
Continuous
 62
     7
100
AcDbCircle
 10
17.70784964131519
 20
55.07703769137691
 30
0.0
 40
13.58290876482106
100
AcDbArc
 50
262.0566755534217
 51
311.8886212831333
  0
ARC
  5
448
330
22
100
AcDbEntity
  8
PIC06
  6
Continuous
 62
     7
100
AcDbCircle
 10
17.40422409290579
 20
61.19475874445086
 30
0.0
 40
19.68539306133986
100
AcDbArc
 50
262.724410630979
 51
268.0557984227886
  0
ARC
  5
449
330
22
100
AcDbEntity
  8
PIC06
  6
Continuous
 62
     7
100
AcDbCircle
 10
4.949207896398945
 20
-36.36161307854674
 30
0.0
 40
78.74157224535945
100
AcDbArc
 50
82.05667555342166
 51
88.52289937410784
  0
ARC
  5
44A
330
22
100
AcDbEntity
  8
PIC06
  6
Continuous
 62
     7
100
AcDbCircle
 10
4.949207896398945
 20
-36.36161307854674
 30
0.0
 40
78.66283067311404
100
AcDbArc
 50
82.72441063097902
 51
88.52723702700385
  0
ARC
  5
44F
330
22
100
AcDbEntity
  8
PIC06
  6
Continuous
 62
     7
100
AcDbCircle
 10
0.1575119071937081
 20
0.1181123583680375
 30
0.0
 40
0.1181123583680391
100
AcDbArc
 50
270.0
 51
358.9028261366772
  0
LINE
  5
450
330
22
100
AcDbEntity
  8
PIC06
  6
Continuous
 62
     7
100
AcDbLine
 10
6.929274656743217
 20
2.972232840511765
 30
0.0
 11
6.929274200686649
 21
2.97255989825615
 31
0.0
  0
LINE
  5
671
330
22
100
AcDbEntity
  8
PIC06
  6
Continuous
 62
     7
100
AcDbLine
 10
13.37732040352878
 20
9.428803612244848
 30
0.0
 11
13.65610454298823
 21
9.707587751704281
 31
0.0
  0
LINE
  5
675
330
22
100
AcDbEntity
  8
PIC06
  6
Continuous
 62
     7
100
AcDbLine
 10
13.28985417460825
 20
9.675402917532309
 30
0.0
 11
13.56131688724514
 21
9.946865630169185
 31
0.0
  0
LINE
  5
67A
330
22
100
AcDbEntity
  8
PIC06
  6
Continuous
 62
     7
100
AcDbLine
 10
4.885108140965968
 20
1.938787952306036
 30
0.0
 11
5.135818890339578
 21
2.189498701679639
 31
0.0
  0
LINE
  5
6BA
330
22
100
AcDbEntity
  8
PIC06
  6
Continuous
 62
     7
100
AcDbLine
 10
8.82435879814389
 20
10.55495608839589
 30
0.0
 11
9.272620885751166
 21
11.00321817600319
 31
0.0
  0
LINE
  5
72A
330
22
100
AcDbEntity
  8
PIC06
  6
Continuous
 62
     7
100
AcDbLine
 10
5.26495564315212
 20
16.34938789122809
 30
0.0
 11
5.482872227906199
 21
16.56730447598215
 31
0.0
  0
LINE
  5
72C
330
22
100
AcDbEntity
  8
PIC06
  6
Continuous
 62
     7
100
AcDbLine
 10
4.626129164160857
 20
16.04462694644478
 30
0.0
 11
4.723530367121753
 21
16.14202814940571
 31
0.0
  0
ARC
  5
756
330
22
100
AcDbEntity
  8
PIC06
  6
DASHED
 62
     7
100
AcDbCircle
 10
14.10317428748658
 20
48.83676908877878
 30
0.0
 40
0.1574831444907173
100
AcDbArc
 50
270.0
 51
350.734054428618
  0
ARC
  5
759
330
22
100
AcDbEntity
  8
PIC06
  6
DASHED
 62
     7
100
AcDbCircle
 10
14.10317428748658
 20
48.12809294287733
 30
0.0
 40
0.1574831444907173
100
AcDbArc
 50
9.265945571381983
 51
90.0
  0
LINE
  5
75A
330
22
100
AcDbEntity
  8
PIC06
  6
DASHED
 62
     7
100
AcDbLine
 10
12.31209954742309
 20
48.285576087368
 30
0.0
 11
14.10317428748658
 21
48.28557608736805
 31
0.0
  0
LINE
  5
75C
330
22
100
AcDbEntity
  8
PIC06
  6
Continuous
 62
     7
100
AcDbLine
 10
2.10932632827837
 20
2.97255989825615
 30
0.0
 11
6.929274200686649
 21
2.97255989825615
 31
0.0
  0
LINE
  5
75D
330
22
100
AcDbEntity
  8
PIC06
  6
Continuous
 62
     7
100
AcDbLine
 10
13.42545196398331
 20
10.2363885871092
 30
0.0
 11
24.93906572042204
 21
10.2363885871092
 31
0.0
  0
LINE
  5
75E
330
22
100
AcDbEntity
  8
PIC06
  6
Continuous
 62
     7
100
AcDbLine
 10
11.03483451445893
 20
10.2363885871092
 30
0.0
 11
13.02319916894683
 21
10.2363885871092
 31
0.0
  0
TEXT
  5
7C2
330
22
100
AcDbEntity
  8
PIC07
  6
Continuous
 62
     7
100
AcDbText
 10
254.8296654977952
 20
112.0534492781043
 30
0.0
 40
3.0
  1

 50
90.0
 41
0.6547619344966496
100
AcDbText
  0
TEXT
  5
8AE
330
22
100
AcDbEntity
  8
PIC07
  6
Continuous
 62
     7
100
AcDbText
 10
285.8590851171222
 20
143.3357368757605
 30
0.0
 40
6.0
  1

 50
90.0
 41
0.6547619344966496
100
AcDbText
  0
TEXT
  5
8B0
330
22
100
AcDbEntity
  8
PIC07
  6
Continuous
 62
     7
100
AcDbText
 10
285.8590878131801
 20
151.58573687576
 30
0.0
 40
6.0
  1

 50
90.0
 41
0.6547619344966496
100
AcDbText
  0
TEXT
  5
8B2
330
22
100
AcDbEntity
  8
PIC07
  6
Continuous
 62
     7
100
AcDbText
 10
285.859090509238
 20
159.8357368757596
 30
0.0
 40
6.0
  1

 50
90.0
 41
0.6547619344966496
100
AcDbText
  0
TEXT
  5
8B4
330
22
100
AcDbEntity
  8
PIC07
  6
Continuous
 62
     7
100
AcDbText
 10
285.8590932052959
 20
168.0857368757591
 30
0.0
 40
6.0
  1

 50
90.0
 41
0.6547619344966496
100
AcDbText
  0
TEXT
  5
8B6
330
22
100
AcDbEntity
  8
PIC07
  6
Continuous
 62
     7
100
AcDbText
 10
285.8590959013538
 20
176.3357368757586
 30
0.0
 40
6.0
  1

 50
90.0
 41
0.6547619344966496
100
AcDbText
  0
LINE
  5
B15
330
22
100
AcDbEntity
  8
PIC06
  6
Continuous
 62
     7
100
AcDbLine
 10
45.22291766561894
 20
29.32497873554904
 30
0.0
 11
35.95110984911352
 21
29.32497873554904
 31
0.0
  0
LINE
  5
B16
330
22
100
AcDbEntity
  8
PIC06
  6
Continuous
 62
     7
100
AcDbLine
 10
37.57785396526029
 20
29.32498123446401
 30
0.0
 11
35.29193618919683
 21
29.32497865822311
 31
0.0
  0
LINE
  5
B17
330
22
100
AcDbEntity
  8
PIC06
  6
Continuous
 62
     7
100
AcDbLine
 10
45.22291766561894
 20
31.56912470385473
 30
0.0
 11
35.69517985995458
 21
31.56911396604604
 31
0.0
  0
LINE
  5
B18
330
22
100
AcDbEntity
  8
PIC06
  6
Continuous
 62
     7
100
AcDbLine
 10
45.22291766561894
 20
29.95492247282385
 30
0.0
 11
35.03062755441994
 21
29.95491098606132
 31
0.0
  0
LINE
  5
B21
330
22
100
AcDbEntity
  8
PIC06
  6
Continuous
 62
     7
100
AcDbLine
 10
37.43075539158684
 20
17.10287819423551
 30
0.0
 11
37.39089234113249
 21
18.01676935190275
 31
0.0
  0
ARC
  5
B22
330
22
100
AcDbEntity
  8
PIC06
  6
Continuous
 62
     7
100
AcDbCircle
 10
37.82408924815192
 20
17.12003503751834
 30
0.0
 40
0.3937078612267971
100
AcDbArc
 50
182.4976034217512
 51
270.0
  0
ARC
  5
B2E
330
22
100
AcDbEntity
  8
PIC06
  6
Continuous
 62
     7
100
AcDbCircle
 10
-13.74250901232597
 20
15.78637972513344
 30
0.0
 40
51.18202195948359
100
AcDbArc
 50
2.497603421751271
 51
15.22101574715165
  0
ARC
  5
B2F
330
22
100
AcDbEntity
  8
PIC06
  6
Continuous
 62
     7
100
AcDbCircle
 10
36.40385431536166
 20
29.43059820712433
 30
0.0
 40
0.7874157224535803
100
AcDbArc
 50
187.708542967445
 51
195.2210157471514
  0
ARC
  5
B43
330
22
100
AcDbEntity
  8
PIC06
  6
Continuous
 62
     7
100
AcDbCircle
 10
35.29193618919257
 20
29.48246558045579
 30
0.0
 40
0.1574831444907188
100
AcDbArc
 50
183.5765220183406
 51
270.0
  0
ARC
  5
B44
330
22
100
AcDbEntity
  8
PIC06
  6
Continuous
 62
     7
100
AcDbCircle
 10
34.9193008164014
 20
29.76416012111468
 30
0.0
 40
0.1968539306133881
100
AcDbArc
 50
3.576522018350975
 51
80.36967003068957
  0
LINE
  5
B45
330
22
100
AcDbEntity
  8
PIC06
  6
Continuous
 62
     7
100
AcDbLine
 10
45.22291766561894
 20
31.21478762875021
 30
0.0
 11
34.94713492362464
 21
31.21477604789127
 31
0.0
  0
ARC
  5
B46
330
22
100
AcDbEntity
  8
PIC06
  6
Continuous
 62
     7
100
AcDbCircle
 10
57.89476569534861
 20
37.14032060802348
 30
0.0
 40
51.18202195948359
100
AcDbArc
 50
169.882859715078
 51
178.7278239929753
  0
LINE
  5
B47
330
22
100
AcDbEntity
  8
PIC06
  6
Continuous
 62
     7
100
AcDbLine
 10
6.331748834636584
 20
37.89168862237833
 30
0.0
 11
0.1124793801802184
 21
37.89168862237833
 31
0.0
  0
LINE
  5
B48
330
22
100
AcDbEntity
  8
PIC06
  6
Continuous
 62
     7
100
AcDbLine
 10
5.684488338424898
 20
38.63973355870925
 30
0.0
 11
0.1021544742847595
 21
38.63973355870925
 31
0.0
  0
LINE
  5
B49
330
22
100
AcDbEntity
  8
PIC06
  6
Continuous
 62
     7
100
AcDbLine
 10
4.857438168757369
 20
39.50589085340821
 30
0.0
 11
0.9574021253632736
 21
39.50589085340821
 31
0.0
  0
ARC
  5
B4A
330
22
100
AcDbEntity
  8
PIC06
  6
Continuous
 62
     7
100
AcDbCircle
 10
-6.338636653588935
 20
48.48243101582804
 30
0.0
 40
13.38606728171115
100
AcDbArc
 50
349.8692696658006
 51
0.0
  0
ARC
  5
B4B
330
22
100
AcDbEntity
  8
PIC06
  6
Continuous
 62
     7
100
AcDbCircle
 10
57.22546233126308
 20
37.14032060802348
 30
0.0
 40
51.18202195948359
100
AcDbArc
 50
169.882859715078
 51
177.8964484976068
  0
ARC
  5
B4C
330
22
100
AcDbEntity
  8
PIC06
  6
Continuous
 62
     7
100
AcDbCircle
 10
-7.204793948287885
 20
48.48243101582804
 30
0.0
 40
13.38606728171115
100
AcDbArc
 50
349.8692696658006
 51
0.0
  0
ARC
  5
B4D
330
22
100
AcDbEntity
  8
PIC06
  6
Continuous
 62
     7
100
AcDbCircle
 10
56.35930503656408
 20
37.14032060802348
 30
0.0
 40
51.18202195948359
100
AcDbArc
 50
169.882859715078
 51
176.9332376976715
  0
ARC
  5
B4E
330
22
100
AcDbEntity
  8
PIC06
  6
Continuous
 62
     7
100
AcDbCircle
 10
4.857438168757369
 20
39.89959871463501
 30
0.0
 40
0.3937078612267971
100
AcDbArc
 50
270.0
 51
356.9332376976715
  0
ARC
  5
B4F
330
22
100
AcDbEntity
  8
PIC06
  6
Continuous
 62
     7
100
AcDbCircle
 10
5.684488338424898
 20
39.03344141993605
 30
0.0
 40
0.3937078612267971
100
AcDbArc
 50
270.0
 51
357.8964484976069
  0
ARC
  5
B50
330
22
100
AcDbEntity
  8
PIC06
  6
Continuous
 62
     7
100
AcDbCircle
 10
6.331748834636584
 20
38.28539648360513
 30
0.0
 40
0.3937078612267971
100
AcDbArc
 50
270.0
 51
358.7278239929753
  0
LINE
  5
B58
330
22
100
AcDbEntity
  8
PIC06
  6
Continuous
 62
     7
100
AcDbLine
 10
0.291996228470623
 20
58.08891008853888
 30
0.0
 11
5.072084806528494
 21
58.08891008853888
 31
0.0
  0
ARC
  5
B59
330
22
100
AcDbEntity
  8
PIC06
  6
Continuous
 62
     7
100
AcDbCircle
 10
56.79238308316303
 20
59.82454142363256
 30
0.0
 40
51.18202195948362
100
AcDbArc
 50
182.5752227166216
 51
190.117140284922
  0
ARC
  5
B5A
330
22
100
AcDbEntity
  8
PIC06
  6
Continuous
 62
     7
100
AcDbCircle
 10
-6.771715901688992
 20
48.48243101582804
 30
0.0
 40
13.38606728171114
100
AcDbArc
 50
0.0
 51
10.13073033419939
  0
ARC
  5
B5B
330
22
100
AcDbEntity
  8
PIC06
  6
Continuous
 62
     7
100
AcDbCircle
 10
-6.771715901688992
 20
48.48243101582804
 30
0.0
 40
12.95298863436166
100
AcDbArc
 50
0.0
 51
10.13073033419939
  0
ARC
  5
B5C
330
22
100
AcDbEntity
  8
PIC06
  6
Continuous
 62
     7
100
AcDbCircle
 10
56.79238308316303
 20
59.82454142363256
 30
0.0
 40
51.61510060683311
100
AcDbArc
 50
182.5752227166216
 51
190.117140284922
  0
LINE
  5
B8F
330
22
100
AcDbEntity
  8
PIC06
  6
Continuous
 62
     7
100
AcDbLine
 10
35.13475976293884
 20
29.47264153705221
 30
0.0
 11
35.11577134921854
 21
29.7764401753692
 31
0.0
  0
ARC
  5
B90
330
22
100
AcDbEntity
  8
PIC06
  6
Continuous
 62
     7
100
AcDbCircle
 10
-5.669333289503413
 20
48.48243101582804
 30
0.0
 40
13.38606728171119
100
AcDbArc
 50
349.882856078604
 51
0.0
  0
ARC
  5
BA7
330
22
100
AcDbEntity
  8
PIC06
  6
Continuous
 62
     7
100
AcDbCircle
 10
-13.69872491830782
 20
14.80408256765824
 30
0.0
 40
51.18202195948362
100
AcDbArc
 50
2.15236536795623
 51
2.497603421751271
  0
LINE
  5
BA8
330
22
100
AcDbEntity
  8
PIC06
  6
Continuous
 62
     7
100
AcDbLine
 10
45.22291766561894
 20
16.72632717629154
 30
0.0
 11
37.82498099165429
 21
16.72632717629154
 31
0.0
  0
LINE
  5
BB4
330
22
100
AcDbEntity
  8
PIC06
  6
CENTER
 62
     7
100
AcDbLine
 10
8.270840358206271
 20
48.48243101582804
 30
0.0
 11
7.716733992207764
 21
48.48243101582804
 31
0.0
  0
LINE
  5
BB6
330
22
100
AcDbEntity
  8
PIC06
  6
PHANTOM
 62
     7
100
AcDbLine
 10
6.331748834636584
 20
59.0731734092777
 30
0.0
 11
-0.0056450995809314
 21
59.0731734092777
 31
0.0
  0
ARC
  5
BB7
330
22
100
AcDbEntity
  8
PIC06
  6
PHANTOM
 62
     7
100
AcDbCircle
 10
57.89476569534861
 20
59.82454142363256
 30
0.0
 40
51.18202195948359
100
AcDbArc
 50
181.2721760070246
 51
190.117140284922
  0
ARC
  5
BB8
330
22
100
AcDbEntity
  8
PIC06
  6
PHANTOM
 62
     7
100
AcDbCircle
 10
6.331748834636584
 20
58.6794655480509
 30
0.0
 40
0.3937078612267971
100
AcDbArc
 50
1.272176007024614
 51
90.0
  0
ARC
  5
BCD
330
22
100
AcDbEntity
  8
PIC06
  6
PHANTOM
 62
     7
100
AcDbCircle
 10
-5.669333289503413
 20
48.48243101582804
 30
0.0
 40
13.38606728171115
100
AcDbArc
 50
349.8692696658006
 51
349.882856078604
  0
ARC
  5
BCE
330
22
100
AcDbEntity
  8
PIC06
  6
PHANTOM
 62
     7
100
AcDbCircle
 10
-5.669333289503413
 20
48.48243101582804
 30
0.0
 40
13.38606728171115
100
AcDbArc
 50
0.0
 51
10.13073033419939
  0
LINE
  5
BEF
330
22
100
AcDbEntity
  8
PIC06
  6
CENTER
 62
     7
100
AcDbLine
 10
38.72673795537676
 20
27.69383158514551
 30
0.0
 11
38.72673795537676
 21
28.54649857633991
 31
0.0
  0
LINE
  5
BF0
330
22
100
AcDbEntity
  8
PIC06
  6
CENTER
 62
     7
100
AcDbLine
 10
38.25723433962961
 20
28.14385515186866
 30
0.0
 11
39.18894072513999
 21
28.14385515186866
 31
0.0
  0
ARC
  5
C15
330
22
100
AcDbEntity
  8
PIC06
  6
Continuous
 62
     7
100
AcDbCircle
 10
234.0243039324354
 20
48.48243101582804
 30
0.0
 40
234.4966934537449
100
AcDbArc
 50
177.7909856209666
 51
180.0
  0
ARC
  5
C16
330
22
100
AcDbEntity
  8
PIC06
  6
Continuous
 62
     7
100
AcDbCircle
 10
0.291996228470623
 20
57.49834829669871
 30
0.0
 40
0.5905617918401955
100
AcDbArc
 50
90.0
 51
177.7909856209666
  0
ARC
  5
C17
330
22
100
AcDbEntity
  8
PIC06
  6
Continuous
 62
     7
100
AcDbCircle
 10
234.0243039324354
 20
48.48243101582804
 30
0.0
 40
234.3785810953769
100
AcDbArc
 50
179.0910878849247
 51
180.0
  0
ARC
  5
C18
330
22
100
AcDbEntity
  8
PIC06
  6
Continuous
 62
     7
100
AcDbCircle
 10
-1.112103637077666
 20
52.21283241886246
 30
0.0
 40
0.7874157224535976
100
AcDbArc
 50
359.0910878956803
 51
23.27365485492626
  0
ARC
  5
C1D
330
22
100
AcDbEntity
  8
PIC06
  6
Continuous
 62
     7
100
AcDbCircle
 10
0.1175781983642992
 20
52.74174692640511
 30
0.0
 40
0.5511910057175187
100
AcDbArc
 50
178.956789906326
 51
203.2736548549263
  0
ARC
  5
C22
330
22
100
AcDbEntity
  8
PIC06
  6
Continuous
 62
     7
100
AcDbCircle
 10
0.7263970327837797
 20
57.49834829669869
 30
0.0
 40
0.1574831444907188
100
AcDbArc
 50
90.0
 51
177.7909856209666
  0
ARC
  5
C23
330
22
100
AcDbEntity
  8
PIC06
  6
Continuous
 62
     7
100
AcDbCircle
 10
5.072084806528494
 20
57.49834829669871
 30
0.0
 40
0.5905617918401955
100
AcDbArc
 50
2.575222716621584
 51
90.0
  0
ARC
  5
C24
330
22
100
AcDbEntity
  8
PIC06
  6
Continuous
 62
     7
100
AcDbCircle
 10
5.072084806528494
 20
57.49834829669871
 30
0.0
 40
0.1574831444907188
100
AcDbArc
 50
2.575222716621584
 51
90.0
  0
ARC
  5
C28
330
22
100
AcDbEntity
  8
PIC06
  6
PHANTOM
 62
     7
100
AcDbCircle
 10
-0.0056450995809314
 20
58.6794655480509
 30
0.0
 40
0.3937078612267971
100
AcDbArc
 50
90.0
 51
179.1792486148426
  0
ARC
  5
C29
330
22
100
AcDbEntity
  8
PIC06
  6
PHANTOM
 62
     7
100
AcDbCircle
 10
711.7897776158867
 20
48.48243101582799
 30
0.0
 40
712.2621671371968
100
AcDbArc
 50
179.1792486148426
 51
180.0
  0
ARC
  5
C2A
330
22
100
AcDbEntity
  8
PIC06
  6
Continuous
 62
     7
100
AcDbCircle
 10
711.7897776158867
 20
48.48243101582799
 30
0.0
 40
712.2621671371968
100
AcDbArc
 50
180.0
 51
180.8049057125803
  0
ARC
  5
C2B
330
22
100
AcDbEntity
  8
PIC06
  6
Continuous
 62
     7
100
AcDbCircle
 10
711.7897776158867
 20
48.48243101582799
 30
0.0
 40
712.1440547788287
100
AcDbArc
 50
180.0
 51
180.8208875951686
  0
ARC
  5
C2C
330
22
100
AcDbEntity
  8
PIC06
  6
Continuous
 62
     7
100
AcDbCircle
 10
712.245626737444
 20
48.48511422832769
 30
0.0
 40
711.7337457815154
100
AcDbArc
 50
179.2739112015514
 51
180.6915480795557
  0
ARC
  5
C2D
330
22
100
AcDbEntity
  8
PIC06
  6
Continuous
 62
     7
100
AcDbCircle
 10
0.9574021253632736
 20
39.89959871463501
 30
0.0
 40
0.3937078612267971
100
AcDbArc
 50
180.6917751474534
 51
270.0
  0
ARC
  5
C2E
330
22
100
AcDbEntity
  8
PIC06
  6
Continuous
 62
     7
100
AcDbCircle
 10
0.1021544742847595
 20
39.03344141993605
 30
0.0
 40
0.3937078612267971
100
AcDbArc
 50
180.7606643689736
 51
270.0
  0
ARC
  5
C2F
330
22
100
AcDbEntity
  8
PIC06
  6
Continuous
 62
     7
100
AcDbCircle
 10
0.1124793801802184
 20
38.28539648360513
 30
0.0
 40
0.3937078612267971
100
AcDbArc
 50
180.8208875951686
 51
270.0
  0
ARC
  5
C30
330
22
100
AcDbEntity
  8
PIC06
  6
Continuous
 62
     7
100
AcDbCircle
 10
-0.0084379620099639
 20
38.48225041421853
 30
0.0
 40
0.3937078612267971
100
AcDbArc
 50
180.8049057125803
 51
211.5602871224949
  0
LINE
  5
C31
330
22
100
AcDbEntity
  8
PIC06
  6
Continuous
 62
     7
100
AcDbLine
 10
-0.343912459969772
 20
38.2761855185901
 30
0.0
 11
-0.2229951177796465
 21
38.07933158797673
 31
0.0
  0
LINE
  5
C45
330
22
100
AcDbEntity
  8
PIC06
  6
Continuous
 62
     7
100
AcDbLine
 10
34.75589559018462
 20
30.15170139463986
 30
0.0
 11
34.63670300307561
 21
30.84655973063155
 31
0.0
  0
ARC
  5
C46
330
22
100
AcDbEntity
  8
PIC06
  6
Continuous
 62
     7
100
AcDbCircle
 10
34.94713527859327
 20
30.89980975891003
 30
0.0
 40
0.3149662889814408
100
AcDbArc
 50
90.00006457262305
 51
189.7335072683877
  0
LINE
  5
C47
330
22
100
AcDbEntity
  8
PIC06
  6
Continuous
 62
     7
100
AcDbLine
 10
35.20819081702831
 20
31.21477634210258
 30
0.0
 11
34.94713492362464
 21
31.21477604789127
 31
0.0
  0
ARC
  5
C48
330
22
100
AcDbEntity
  8
PIC06
  6
Continuous
 62
     7
100
AcDbCircle
 10
35.20819059517297
 20
31.41163027271585
 30
0.0
 40
0.1968539306133983
100
AcDbArc
 50
270.000064572623
 51
342.0797470254446
  0
ARC
  5
C49
330
22
100
AcDbEntity
  8
PIC06
  6
Continuous
 62
     7
100
AcDbCircle
 10
35.69518021492417
 20
31.25414678964329
 30
0.0
 40
0.3149662889814424
100
AcDbArc
 50
90.00006457262305
 51
162.0797470254446
  0
ARC
  5
C4A
330
22
100
AcDbEntity
  8
PIC06
  6
DASHED
 62
     7
100
AcDbCircle
 10
35.93140493166024
 20
31.25414705586972
 30
0.0
 40
0.3149662889814365
100
AcDbArc
 50
17.95847999325408
 51
90.00006457262305
  0
ARC
  5
C4B
330
22
100
AcDbEntity
  8
PIC06
  6
DASHED
 62
     7
100
AcDbCircle
 10
36.41828937204417
 20
31.41195541717598
 30
0.0
 40
0.1968539306133992
100
AcDbArc
 50
197.9584799932541
 51
271.0204900443931
  0
ARC
  5
C4C
330
22
100
AcDbEntity
  8
PIC06
  6
Continuous
 62
     7
100
AcDbCircle
 10
34.98871979682287
 20
30.19163891584872
 30
0.0
 40
0.2362247167360771
100
AcDbArc
 50
189.7335072683877
 51
260.7761629803384
  0
LINE
  5
CF4
330
22
100
AcDbEntity
  8
PIC06
  6
CENTER
 62
     7
100
AcDbLine
 10
45.22291766561894
 20
31.29352831357425
 30
0.0
 11
45.22291766561894
 21
31.87590112206754
 31
0.0
  0
LINE
  5
CF5
330
22
100
AcDbEntity
  8
PIC06
  6
CENTER
 62
     7
100
AcDbLine
 10
45.22291766561894
 20
16.53855638008451
 30
0.0
 11
45.22291766561894
 21
30.89982045234502
 31
0.0
  0
LINE
  5
CF6
330
22
100
AcDbEntity
  8
PIC06
  6
Continuous
 62
     7
100
AcDbLine
 10
45.22291766561894
 20
30.89982045234502
 30
0.0
 11
45.22291766561894
 21
31.29352831357425
 31
0.0
  0
LINE
  5
D5A
330
22
100
AcDbEntity
  8
PIC06
  6
Continuous
 62
     7
100
AcDbLine
 10
38.45114245251799
 20
28.49819222697277
 30
0.0
 11
39.00233345823554
 21
28.49819222697277
 31
0.0
  0
LINE
  5
D5B
330
22
100
AcDbEntity
  8
PIC06
  6
Continuous
 62
     7
100
AcDbLine
 10
39.08107503048089
 20
27.8682596490099
 30
0.0
 11
39.08107503048089
 21
28.41945065472741
 31
0.0
  0
LINE
  5
D5C
330
22
100
AcDbEntity
  8
PIC06
  6
Continuous
 62
     7
100
AcDbLine
 10
38.37240088027264
 20
27.8682596490099
 30
0.0
 11
38.37240088027264
 21
28.41945065472741
 31
0.0
  0
LINE
  5
D5D
330
22
100
AcDbEntity
  8
PIC06
  6
Continuous
 62
     7
100
AcDbLine
 10
38.45114245251799
 20
27.78951807676453
 30
0.0
 11
39.00233345823554
 21
27.78951807676453
 31
0.0
  0
ARC
  5
D5E
330
22
100
AcDbEntity
  8
PIC06
  6
Continuous
 62
     7
100
AcDbCircle
 10
38.45114245251799
 20
28.41945065472741
 30
0.0
 40
0.0787415722453595
100
AcDbArc
 50
90.0
 51
180.0
  0
ARC
  5
D5F
330
22
100
AcDbEntity
  8
PIC06
  6
Continuous
 62
     7
100
AcDbCircle
 10
38.45114245251799
 20
27.8682596490099
 30
0.0
 40
0.0787415722453595
100
AcDbArc
 50
180.0
 51
270.0
  0
ARC
  5
D60
330
22
100
AcDbEntity
  8
PIC06
  6
Continuous
 62
     7
100
AcDbCircle
 10
39.00233345823554
 20
27.8682596490099
 30
0.0
 40
0.0787415722453595
100
AcDbArc
 50
270.0
 51
0.0
  0
ARC
  5
D61
330
22
100
AcDbEntity
  8
PIC06
  6
Continuous
 62
     7
100
AcDbCircle
 10
39.00233345823554
 20
28.41945065472741
 30
0.0
 40
0.0787415722453595
100
AcDbArc
 50
0.0
 51
90.0
  0
LINE
  5
D67
330
22
100
AcDbEntity
  8
PIC06
  6
Continuous
 62
     7
100
AcDbLine
 10
5.634393153980113
 20
16.73259279076482
 30
0.0
 11
0.1454548284642669
 21
16.73259279076482
 31
0.0
  0
LINE
  5
D6A
330
22
100
AcDbEntity
  8
PIC06
  6
Continuous
 62
     7
100
AcDbLine
 10
-0.3359882670515049
 20
18.39707792624098
 30
0.0
 11
-0.4724019816448504
 21
29.17376250294552
 31
0.0
  0
ARC
  5
D6B
330
22
100
AcDbEntity
  8
PIC06
  6
Continuous
 62
     7
100
AcDbCircle
 10
11.4743014221662
 20
18.54657524848905
 30
0.0
 40
11.81123583680392
100
AcDbArc
 50
180.7252242234416
 51
187.1457746610853
  0
ARC
  5
D6D
330
22
100
AcDbEntity
  8
PIC06
  6
Continuous
 62
     7
100
AcDbCircle
 10
0.1454548284642669
 20
17.12630065199161
 30
0.0
 40
0.3937078612267971
100
AcDbArc
 50
187.1457746610853
 51
270.0
  0
LINE
  5
D6E
330
22
100
AcDbEntity
  8
PIC06
  6
Continuous
 62
     7
100
AcDbLine
 10
7.09601625585401
 20
29.47890474852341
 30
0.0
 11
7.114801725179006
 21
29.77945644731973
 31
0.0
  0
ARC
  5
D6F
330
22
100
AcDbEntity
  8
PIC06
  6
Continuous
 62
     7
100
AcDbCircle
 10
6.938839829600226
 20
29.48872879192697
 30
0.0
 40
0.1574831444907188
100
AcDbArc
 50
270.0
 51
356.4234779816696
  0
LINE
  5
D70
330
22
100
AcDbEntity
  8
PIC06
  6
Continuous
 62
     7
100
AcDbLine
 10
-0.4724019816448504
 20
29.17376250294552
 30
0.0
 11
-0.4724019816448504
 21
29.48872879192697
 31
0.0
  0
ARC
  5
D71
330
22
100
AcDbEntity
  8
PIC06
  6
Continuous
 62
     7
100
AcDbCircle
 10
-0.3542896232768271
 20
29.48872879192697
 30
0.0
 40
0.1181123583680391
100
AcDbArc
 50
90.0
 51
180.0
  0
ARC
  5
D76
330
22
100
AcDbEntity
  8
PIC06
  6
Continuous
 62
     7
100
AcDbCircle
 10
7.311272257996108
 20
29.76717639306523
 30
0.0
 40
0.1968539306133884
100
AcDbArc
 50
95.90355473980631
 51
176.423477981649
  0
LINE
  5
D77
330
22
100
AcDbEntity
  8
PIC06
  6
Continuous
 62
     7
100
AcDbLine
 10
6.49623915175681
 20
31.57537815717119
 30
0.0
 11
6.732463868492914
 21
31.57537815717119
 31
0.0
  0
ARC
  5
D78
330
22
100
AcDbEntity
  8
PIC06
  6
Continuous
 62
     7
100
AcDbCircle
 10
3.363388297636333
 20
-15.07349584748418
 30
0.0
 40
46.37327770138893
100
AcDbArc
 50
86.74161907053459
 51
93.29906176237425
  0
LINE
  5
D79
330
22
100
AcDbEntity
  8
PIC06
  6
Continuous
 62
     7
100
AcDbLine
 10
6.811188619723679
 20
29.48872879192697
 30
0.0
 11
6.811188619723679
 21
29.44935800580429
 31
0.0
  0
ARC
  5
D7A
330
22
100
AcDbEntity
  8
PIC06
  6
Continuous
 62
     7
100
AcDbCircle
 10
6.693076261355656
 20
29.48872879192697
 30
0.0
 40
0.1181123583680391
100
AcDbArc
 50
0.0
 51
90.0
  0
ARC
  5
D7B
330
22
100
AcDbEntity
  8
PIC06
  6
Continuous
 62
     7
100
AcDbCircle
 10
6.929300978091703
 20
29.44935800580429
 30
0.0
 40
0.1181123583680391
100
AcDbArc
 50
180.0
 51
270.0
  0
LINE
  5
D91
330
22
100
AcDbEntity
  8
PIC06
  6
Continuous
 62
     7
100
AcDbLine
 10
6.938839829600226
 20
29.33124564743625
 30
0.0
 11
6.614334689110251
 21
29.33124564743625
 31
0.0
  0
LINE
  5
D92
330
22
100
AcDbEntity
  8
PIC06
  6
Continuous
 62
     7
100
AcDbLine
 10
-0.3542896232768271
 20
29.606841150295
 30
0.0
 11
-0.2941622406560782
 21
29.606841150295
 31
0.0
  0
LINE
  5
D93
330
22
100
AcDbEntity
  8
PIC06
  6
Continuous
 62
     7
100
AcDbLine
 10
7.219453856570908
 20
31.22104028165941
 30
0.0
 11
7.401767232578436
 21
31.22104028165941
 31
0.0
  0
LINE
  5
D9B
330
22
100
AcDbEntity
  8
PIC06
  6
Continuous
 62
     7
100
AcDbLine
 10
6.693076261355656
 20
29.606841150295
 30
0.0
 11
5.637513987757017
 21
29.606841150295
 31
0.0
  0
LINE
  5
D9C
330
22
100
AcDbEntity
  8
PIC06
  6
Continuous
 62
     7
100
AcDbLine
 10
5.603241331869355
 20
29.606841150295
 30
0.0
 11
-0.3542872455977886
 21
29.606841150295
 31
0.0
  0
LINE
  5
DAC
330
22
100
AcDbEntity
  8
PIC06
  6
Continuous
 62
     7
100
AcDbLine
 10
6.146167799390752
 20
18.65366090051073
 30
0.0
 11
6.614227487742311
 21
29.48362886230905
 31
0.0
  0
ARC
  5
DAD
330
22
100
AcDbEntity
  8
PIC06
  6
Continuous
 62
     7
100
AcDbCircle
 10
-17.45427280425258
 20
19.67364682409488
 30
0.0
 40
23.62247167360783
100
AcDbArc
 50
353.7040852062978
 51
357.5252774511815
  0
ARC
  5
DB1
330
22
100
AcDbEntity
  8
PIC06
  6
Continuous
 62
     7
100
AcDbCircle
 10
-0.3542872455977886
 20
29.72495350866305
 30
0.0
 40
0.1181123583680391
100
AcDbArc
 50
180.0
 51
270.0
  0
LINE
  5
DB2
330
22
100
AcDbEntity
  8
PIC06
  6
Continuous
 62
     7
100
AcDbLine
 10
-0.3731467081125857
 20
31.28051612438196
 30
0.0
 11
-0.4721587486410499
 21
29.73249260473514
 31
0.0
  0
ARC
  5
DB3
330
22
100
AcDbEntity
  8
PIC06
  6
Continuous
 62
     7
100
AcDbCircle
 10
-0.058822699997279
 20
31.26041186818975
 30
0.0
 40
0.3149662889814334
100
AcDbArc
 50
90.0
 51
176.3403300958147
  0
ARC
  5
DB5
330
22
100
AcDbEntity
  8
PIC06
  6
Continuous
 62
     7
100
AcDbCircle
 10
7.401767232578436
 20
30.90607399267795
 30
0.0
 40
0.3149662889814377
100
AcDbArc
 50
342.9322838846434
 51
90.0
  0
LINE
  5
DB6
330
22
100
AcDbEntity
  8
PIC06
  6
Continuous
 62
     7
100
AcDbLine
 10
7.492549314637642
 20
30.12862581844217
 30
0.0
 11
7.702861947302835
 21
30.81363084279765
 31
0.0
  0
ARC
  5
DB7
330
22
100
AcDbEntity
  8
PIC06
  6
Continuous
 62
     7
100
AcDbCircle
 10
7.266728278594371
 20
30.19795818085238
 30
0.0
 40
0.2362247167360743
100
AcDbArc
 50
275.9035547398063
 51
342.9322838846326
  0
LINE
  5
DB9
330
22
100
AcDbEntity
  8
PIC06
  6
Continuous
 62
     7
100
AcDbLine
 10
7.376895210531415
 20
31.22104028165941
 30
0.0
 11
7.401767232578436
 21
31.22104028165941
 31
0.0
  0
LINE
  5
DBA
330
22
100
AcDbEntity
  8
PIC06
  6
Continuous
 62
     7
100
AcDbLine
 10
7.376895210531415
 20
31.22104028165941
 30
0.0
 11
7.401767232578436
 21
31.22104028165941
 31
0.0
  0
ARC
  5
DBB
330
22
100
AcDbEntity
  8
PIC06
  6
Continuous
 62
     7
100
AcDbCircle
 10
6.732463868492914
 20
31.26041186818975
 30
0.0
 40
0.3149662889814377
100
AcDbArc
 50
17.92011896908961
 51
90.0
  0
ARC
  5
DBC
330
22
100
AcDbEntity
  8
PIC06
  6
Continuous
 62
     7
100
AcDbCircle
 10
6.49623915175681
 20
31.26041186818975
 30
0.0
 40
0.3149662889814377
100
AcDbArc
 50
90.0
 51
161.6729469070365
  0
LINE
  5
DBE
330
22
100
AcDbEntity
  8
PIC06
  6
Continuous
 62
     7
100
AcDbLine
 10
-0.058822699997279
 20
31.57537815717119
 30
0.0
 11
0.1969037601197101
 21
31.57537815717119
 31
0.0
  0
ARC
  5
DBF
330
22
100
AcDbEntity
  8
PIC06
  6
Continuous
 62
     7
100
AcDbCircle
 10
0.1969037601197101
 20
31.26041186818975
 30
0.0
 40
0.3149662889814377
100
AcDbArc
 50
18.10418234942389
 51
90.0
  0
ARC
  5
DCB
330
22
100
AcDbEntity
  8
PIC06
  6
Continuous
 62
     7
100
AcDbCircle
 10
5.634393153980113
 20
17.12630065199161
 30
0.0
 40
0.3937078612267971
100
AcDbArc
 50
270.0
 51
353.7040852062978
  0
ARC
  5
DD0
330
22
100
AcDbEntity
  8
PIC06
  6
Continuous
 62
     7
100
AcDbCircle
 10
6.496225284724118
 20
29.48872879192697
 30
0.0
 40
0.1181123583680414
100
AcDbArc
 50
357.5252774511815
 51
90.0
  0
LINE
  5
E16
330
22
100
AcDbEntity
  8
PIC06
  6
Continuous
 62
     7
100
AcDbLine
 10
4.636706039204455
 20
16.73259279076483
 30
0.0
 11
4.606443771099463
 21
16.76285505886975
 31
0.0
  0
LINE
  5
E64
330
22
100
AcDbEntity
  8
PIC06
  6
Continuous
 62
     7
100
AcDbLine
 10
45.22291766561894
 20
29.32497873554904
 30
0.0
 11
54.49472548212438
 21
29.32497873554904
 31
0.0
  0
LINE
  5
E65
330
22
100
AcDbEntity
  8
PIC06
  6
Continuous
 62
     7
100
AcDbLine
 10
52.86798136597761
 20
29.32498123446401
 30
0.0
 11
55.15389914204106
 21
29.32497865822311
 31
0.0
  0
LINE
  5
E66
330
22
100
AcDbEntity
  8
PIC06
  6
Continuous
 62
     7
100
AcDbLine
 10
45.22291766561894
 20
31.56912470385473
 30
0.0
 11
54.75065547128332
 21
31.56911396604604
 31
0.0
  0
LINE
  5
E67
330
22
100
AcDbEntity
  8
PIC06
  6
Continuous
 62
     7
100
AcDbLine
 10
45.22291766561894
 20
29.95492247282385
 30
0.0
 11
55.41520777681796
 21
29.95491098606132
 31
0.0
  0
LINE
  5
E68
330
22
100
AcDbEntity
  8
PIC06
  6
Continuous
 62
     7
100
AcDbLine
 10
53.01507993965106
 20
17.10287819423551
 30
0.0
 11
53.05494299010542
 21
18.01676935190275
 31
0.0
  0
ARC
  5
E69
330
22
100
AcDbEntity
  8
PIC06
  6
Continuous
 62
     7
100
AcDbCircle
 10
52.62174608308598
 20
17.12003503751834
 30
0.0
 40
0.3937078612267971
100
AcDbArc
 50
270.0
 51
357.5023965782487
  0
ARC
  5
E6A
330
22
100
AcDbEntity
  8
PIC06
  6
Continuous
 62
     7
100
AcDbCircle
 10
104.1883443435638
 20
15.78637972513344
 30
0.0
 40
51.18202195948359
100
AcDbArc
 50
164.7789842528485
 51
177.5023965782487
  0
ARC
  5
E6B
330
22
100
AcDbEntity
  8
PIC06
  6
Continuous
 62
     7
100
AcDbCircle
 10
54.04198101587624
 20
29.43059820712433
 30
0.0
 40
0.7874157224535803
100
AcDbArc
 50
344.7789842528485
 51
352.2914570325549
  0
ARC
  5
E6C
330
22
100
AcDbEntity
  8
PIC06
  6
Continuous
 62
     7
100
AcDbCircle
 10
55.15389914204533
 20
29.48246558045579
 30
0.0
 40
0.1574831444907188
100
AcDbArc
 50
270.0
 51
356.4234779816592
  0
ARC
  5
E6D
330
22
100
AcDbEntity
  8
PIC06
  6
Continuous
 62
     7
100
AcDbCircle
 10
55.52653451483649
 20
29.76416012111468
 30
0.0
 40
0.1968539306133881
100
AcDbArc
 50
99.63032996930881
 51
176.423477981649
  0
LINE
  5
E6E
330
22
100
AcDbEntity
  8
PIC06
  6
Continuous
 62
     7
100
AcDbLine
 10
45.22291766561894
 20
31.21478762875021
 30
0.0
 11
55.49870040761326
 21
31.21477604789127
 31
0.0
  0
LINE
  5
E6F
330
22
100
AcDbEntity
  8
PIC06
  6
Continuous
 62
     7
100
AcDbLine
 10
55.31107556829906
 20
29.47264153705221
 30
0.0
 11
55.33006398201937
 21
29.7764401753692
 31
0.0
  0
ARC
  5
E70
330
22
100
AcDbEntity
  8
PIC06
  6
Continuous
 62
     7
100
AcDbCircle
 10
104.1445602495457
 20
14.80408256765824
 30
0.0
 40
51.18202195948362
100
AcDbArc
 50
177.5023965782487
 51
177.8476346320437
  0
LINE
  5
E71
330
22
100
AcDbEntity
  8
PIC06
  6
Continuous
 62
     7
100
AcDbLine
 10
45.22291766561894
 20
16.72632717629154
 30
0.0
 11
52.62085433958361
 21
16.72632717629154
 31
0.0
  0
LINE
  5
E72
330
22
100
AcDbEntity
  8
PIC06
  6
Continuous
 62
     7
100
AcDbLine
 10
55.68993974105328
 20
30.15170139463986
 30
0.0
 11
55.80913232816229
 21
30.84655973063155
 31
0.0
  0
ARC
  5
E73
330
22
100
AcDbEntity
  8
PIC06
  6
Continuous
 62
     7
100
AcDbCircle
 10
55.49870005264463
 20
30.89980975891003
 30
0.0
 40
0.3149662889814408
100
AcDbArc
 50
350.2664927316124
 51
89.99993542737533
  0
LINE
  5
E74
330
22
100
AcDbEntity
  8
PIC06
  6
Continuous
 62
     7
100
AcDbLine
 10
55.23764451420959
 20
31.21477634210258
 30
0.0
 11
55.49870040761326
 21
31.21477604789127
 31
0.0
  0
ARC
  5
E75
330
22
100
AcDbEntity
  8
PIC06
  6
Continuous
 62
     7
100
AcDbCircle
 10
55.23764473606494
 20
31.41163027271585
 30
0.0
 40
0.1968539306133983
100
AcDbArc
 50
197.9202529745552
 51
269.9999354273753
  0
ARC
  5
E76
330
22
100
AcDbEntity
  8
PIC06
  6
Continuous
 62
     7
100
AcDbCircle
 10
54.75065511631374
 20
31.25414678964329
 30
0.0
 40
0.3149662889814424
100
AcDbArc
 50
17.9202529745552
 51
89.99993542737533
  0
ARC
  5
E77
330
22
100
AcDbEntity
  8
PIC06
  6
DASHED
 62
     7
100
AcDbCircle
 10
54.51443039957766
 20
31.25414705586972
 30
0.0
 40
0.3149662889814365
100
AcDbArc
 50
89.99993542737533
 51
162.0415200067457
  0
ARC
  5
E78
330
22
100
AcDbEntity
  8
PIC06
  6
DASHED
 62
     7
100
AcDbCircle
 10
54.02754595919373
 20
31.41195541717598
 30
0.0
 40
0.1968539306133992
100
AcDbArc
 50
268.979509955607
 51
342.0415200067457
  0
ARC
  5
E79
330
22
100
AcDbEntity
  8
PIC06
  6
Continuous
 62
     7
100
AcDbCircle
 10
55.45711553441504
 20
30.19163891584872
 30
0.0
 40
0.2362247167360771
100
AcDbArc
 50
279.2238370196615
 51
350.2664927316124
  0
ARC
  5
E7A
330
22
100
AcDbEntity
  8
PIC06
  6
Continuous
 62
     7
100
AcDbCircle
 10
4.949207896398945
 20
133.3264751102028
 30
0.0
 40
78.66283067311404
100
AcDbArc
 50
271.4727629729961
 51
277.2755893690209
  0
ARC
  5
E7D
330
22
100
AcDbEntity
  8
PIC06
  6
Continuous
 62
     7
100
AcDbCircle
 10
4.949207896398945
 20
133.3264751102028
 30
0.0
 40
78.74157224535945
100
AcDbArc
 50
271.4771006258922
 51
277.9433244465783
  0
LINE
  5
E83
330
22
100
AcDbEntity
  8
PIC06
  6
Continuous
 62
     7
100
AcDbLine
 10
0.7263970327837797
 20
57.65583144118942
 30
0.0
 11
5.072084806528494
 21
57.65583144118942
 31
0.0
  0
ARC
  5
E85
330
22
100
AcDbEntity
  8
PIC06
  6
Continuous
 62
     7
100
AcDbCircle
 10
0.683385322221767
 20
31.41945785814512
 30
0.0
 40
0.1968539306133748
100
AcDbArc
 50
198.1041823494113
 51
273.2990617623808
  0
LINE
  5
E87
330
22
100
AcDbEntity
  8
PIC06
  6
Continuous
 62
     7
100
AcDbLine
 10
0.1969037601197101
 20
31.57537815717119
 30
0.0
 11
-0.058822699997279
 21
31.57537815717119
 31
0.0
  0
LINE
  5
E95
330
22
100
AcDbEntity
  8
PIC06
  6
Continuous
 62
     7
100
AcDbLine
 10
6.063143683392752
 20
29.606841150295
 30
0.0
 11
6.261481615099398
 21
29.606841150295
 31
0.0
  0
LINE
  5
E96
330
22
100
AcDbEntity
  8
PIC06
  6
Continuous
 62
     7
100
AcDbLine
 10
6.261481615099398
 20
29.606841150295
 30
0.0
 11
6.496225284724118
 21
29.606841150295
 31
0.0
  0
LINE
  5
E97
330
22
100
AcDbEntity
  8
PIC06
  6
Continuous
 62
     7
100
AcDbLine
 10
6.496225284724118
 20
29.606841150295
 30
0.0
 11
6.693076261355656
 21
29.606841150295
 31
0.0
  0
ARC
  5
E98
330
22
100
AcDbEntity
  8
PIC06
  6
Continuous
 62
     7
100
AcDbCircle
 10
6.693076261355685
 20
29.488728791927
 30
0.0
 40
0.1181123583679948
100
AcDbArc
 50
359.9999999999861
 51
90.00000000001303
  0
LINE
  5
E99
330
22
100
AcDbEntity
  8
PIC06
  6
Continuous
 62
     7
100
AcDbLine
 10
6.811188619723679
 20
29.48872879192697
 30
0.0
 11
6.811188619723679
 21
29.44935800580429
 31
0.0
  0
ARC
  5
E9A
330
22
100
AcDbEntity
  8
PIC06
  6
Continuous
 62
     7
100
AcDbCircle
 10
6.92930097809176
 20
29.44935800580431
 30
0.0
 40
0.1181123583680801
100
AcDbArc
 50
180.0000000000138
 51
269.9999999999723
  0
LINE
  5
E9B
330
22
100
AcDbEntity
  8
PIC06
  6
Continuous
 62
     7
100
AcDbLine
 10
6.929300978091703
 20
29.33124564743625
 30
0.0
 11
6.938839829600226
 21
29.33124564743625
 31
0.0
  0
ARC
  5
E9C
330
22
100
AcDbEntity
  8
PIC06
  6
Continuous
 62
     7
100
AcDbCircle
 10
6.93883982960034
 20
29.48872879192693
 30
0.0
 40
0.1574831444906835
100
AcDbArc
 50
269.9999999999593
 51
356.4234779816816
  0
LINE
  5
E9D
330
22
100
AcDbEntity
  8
PIC06
  6
Continuous
 62
     7
100
AcDbLine
 10
7.09601625585401
 20
29.47890474852341
 30
0.0
 11
7.114801725179006
 21
29.77945644731973
 31
0.0
  0
ARC
  5
E9E
330
22
100
AcDbEntity
  8
PIC06
  6
Continuous
 62
     7
100
AcDbCircle
 10
7.311272257996108
 20
29.76717639306526
 30
0.0
 40
0.1968539306133582
100
AcDbArc
 50
95.90355473981615
 51
176.4234779816623
  0
ARC
  5
E9F
330
22
100
AcDbEntity
  8
PIC06
  6
Continuous
 62
     7
100
AcDbCircle
 10
7.266728278594371
 20
30.19795818085238
 30
0.0
 40
0.2362247167360753
100
AcDbArc
 50
275.9035547398227
 51
342.9322838846463
  0
LINE
  5
EA0
330
22
100
AcDbEntity
  8
PIC06
  6
Continuous
 62
     7
100
AcDbLine
 10
7.492549314637642
 20
30.12862581844217
 30
0.0
 11
7.702861947302835
 21
30.81363084279765
 31
0.0
  0
LINE
  5
EA2
330
22
100
AcDbEntity
  8
PIC06
  6
Continuous
 62
     7
100
AcDbLine
 10
7.401767232578436
 20
31.22104028165941
 30
0.0
 11
7.219453856570908
 21
31.22104028165941
 31
0.0
  0
ARC
  5
EA3
330
22
100
AcDbEntity
  8
PIC06
  6
Continuous
 62
     7
100
AcDbCircle
 10
7.219453856570908
 20
31.41789421227278
 30
0.0
 40
0.1968539306133721
100
AcDbArc
 50
197.920118969089
 51
270.0
  0
LINE
  5
EA5
330
22
100
AcDbEntity
  8
PIC06
  6
Continuous
 62
     7
100
AcDbLine
 10
6.732463868492914
 20
31.57537815717119
 30
0.0
 11
6.49623915175681
 21
31.57537815717119
 31
0.0
  0
ARC
  5
EA7
330
22
100
AcDbEntity
  8
PIC06
  6
Continuous
 62
     7
100
AcDbCircle
 10
6.010379930098252
 20
31.4213489798701
 30
0.0
 40
0.1968539306139448
100
AcDbArc
 50
266.7416190705852
 51
341.6729469068984
  0
LINE
  5
EA8
330
22
100
AcDbEntity
  8
PIC06
  6
Continuous
 62
     7
100
AcDbLine
 10
0.4724517628274612
 20
8.267859141007789
 30
0.0
 11
0.4724517628274612
 21
4.033243043659965
 31
0.0
  0
ARC
  5
EA9
330
22
100
AcDbEntity
  8
PIC06
  6
Continuous
 62
     7
100
AcDbCircle
 10
0.7053546187007953
 20
3.622189851342909
 30
0.0
 40
0.4724494334719826
100
AcDbArc
 50
89.99999999999349
 51
119.5359032407638
  0
LINE
  5
EAA
330
22
100
AcDbEntity
  8
PIC06
  6
Continuous
 62
     7
100
AcDbLine
 10
0.7053546187008522
 20
4.094639284814888
 30
0.0
 11
1.055733987307206
 21
4.094639284814888
 31
0.0
  0
ARC
  5
EAB
330
22
100
AcDbEntity
  8
PIC06
  6
Continuous
 62
     7
100
AcDbCircle
 10
1.055733987307206
 20
3.622189851342739
 30
0.0
 40
0.4724494334721499
100
AcDbArc
 50
24.55612530671351
 51
90.0
  0
ARC
  5
EAC
330
22
100
AcDbEntity
  8
PIC06
  6
Continuous
 62
     7
100
AcDbCircle
 10
3.813094756883259
 20
4.882055007268526
 30
0.0
 40
2.55910109797424
100
AcDbArc
 50
204.5561253067133
 51
269.9999999999984
  0
LINE
  5
EAD
330
22
100
AcDbEntity
  8
PIC06
  6
Continuous
 62
     7
100
AcDbLine
 10
3.813094756883202
 20
2.322953909294298
 30
0.0
 11
4.80681393463027
 21
2.322953222739485
 31
0.0
  0
ARC
  5
EAE
330
22
100
AcDbEntity
  8
PIC06
  6
Continuous
 62
     7
100
AcDbCircle
 10
4.806813620653827
 20
1.850503789267492
 30
0.0
 40
0.4724494334720978
100
AcDbArc
 50
37.61445075841514
 51
89.99996192285612
  0
ARC
  5
EAF
330
22
100
AcDbEntity
  8
PIC06
  6
Continuous
 62
     7
100
AcDbCircle
 10
5.24343171112207
 20
2.186920447386142
 30
0.0
 40
0.0787415722453831
100
AcDbArc
 50
217.6144507583998
 51
322.6907400128275
  0
ARC
  5
EB0
330
22
100
AcDbEntity
  8
PIC06
  6
Continuous
 62
     7
100
AcDbCircle
 10
6.12023939024138
 20
1.518748019810686
 30
0.0
 40
1.023640439189282
100
AcDbArc
 50
117.9999999999958
 51
142.6907400128402
  0
LINE
  5
EB1
330
22
100
AcDbEntity
  8
PIC06
  6
Continuous
 62
     7
100
AcDbLine
 10
5.639669313524422
 20
2.422568881545956
 30
0.0
 11
6.448704123969463
 21
2.852740320802027
 31
0.0
  0
ARC
  5
EB2
330
22
100
AcDbEntity
  8
PIC06
  6
Continuous
 62
     7
100
AcDbCircle
 10
6.929274200686649
 20
1.94891945906675
 30
0.0
 40
1.023640439189396
100
AcDbArc
 50
90.0
 51
118.0000000000068
  0
LINE
  5
EB3
330
22
100
AcDbEntity
  8
PIC06
  6
Continuous
 62
     7
100
AcDbLine
 10
6.929274200686649
 20
2.97255989825615
 30
0.0
 11
6.929274656743217
 21
2.972232840511765
 31
0.0
  0
ARC
  5
EB4
330
22
100
AcDbEntity
  8
PIC06
  6
Continuous
 62
     7
100
AcDbCircle
 10
6.929274656743189
 20
0.9249519621324537
 30
0.0
 40
2.047280878379311
100
AcDbArc
 50
18.6404869769121
 51
90.0
  0
ARC
  5
EB5
330
22
100
AcDbEntity
  8
PIC06
  6
Continuous
 62
     7
100
AcDbCircle
 10
8.272272815261032
 20
1.377977514293803
 30
0.0
 40
0.6299325779628802
100
AcDbArc
 50
327.5821046645531
 51
18.64048697691055
  0
ARC
  5
EB6
330
22
100
AcDbEntity
  8
PIC06
  6
Continuous
 62
     7
100
AcDbCircle
 10
8.870507560212928
 20
0.9980640490077021
 30
0.0
 40
0.0787415722453443
100
AcDbArc
 50
147.5821046645516
 51
251.8108052980604
  0
ARC
  5
EB7
330
22
100
AcDbEntity
  8
PIC06
  6
Continuous
 62
     7
100
AcDbCircle
 10
8.710739930785223
 20
0.5118190060798149
 30
0.0
 40
0.4330786473482963
100
AcDbArc
 50
63.35135965067524
 51
71.81080529805507
  0
ARC
  5
EB8
330
22
100
AcDbEntity
  8
PIC06
  6
Continuous
 62
     7
100
AcDbCircle
 10
8.710739930784797
 20
0.511819006078774
 30
0.0
 40
0.4330786473494206
100
AcDbArc
 50
7.59662398300096
 51
63.35135965068772
  0
LINE
  5
EB9
330
22
100
AcDbEntity
  8
PIC06
  6
Continuous
 62
     7
100
AcDbLine
 10
9.14001759037859
 20
0.5690711306129686
 30
0.0
 11
9.161118362818655
 21
0.4108570855909655
 31
0.0
  0
ARC
  5
EBA
330
22
100
AcDbEntity
  8
PIC06
  6
Continuous
 62
     7
100
AcDbCircle
 10
9.291517018099966
 20
0.0393707861218324
 30
0.0
 40
0.3937078612276426
100
AcDbArc
 50
90.00000000001628
 51
109.3420295946426
  0
LINE
  5
EBB
330
22
100
AcDbEntity
  8
PIC06
  6
Continuous
 62
     7
100
AcDbLine
 10
9.291517018099852
 20
0.4330786473494755
 30
0.0
 11
9.44900016259055
 21
0.4330786473494755
 31
0.0
  0
LINE
  5
EC0
330
22
100
AcDbEntity
  8
PIC06
  6
Continuous
 62
     7
100
AcDbLine
 10
9.094663087486452
 20
0.0
 30
0.0
 11
8.927386760356029
 21
0.0
 31
0.0
  0
LINE
  5
EC1
330
22
100
AcDbEntity
  8
PIC06
  6
Continuous
 62
     7
100
AcDbLine
 10
8.927386760356029
 20
0.0
 30
0.0
 11
8.926939389908824
 21
0.0
 31
0.0
  0
LINE
  5
EC5
330
22
100
AcDbEntity
  8
PIC06
  6
Continuous
 62
     7
100
AcDbLine
 10
8.710739930784825
 20
0.5905605783241512
 30
0.0
 11
5.656713463198485
 21
0.5905605783241512
 31
0.0
  0
ARC
  5
EC6
330
22
100
AcDbEntity
  8
PIC06
  6
Continuous
 62
     7
100
AcDbCircle
 10
5.656715799509157
 20
1.220495656348973
 30
0.0
 40
0.6299350780291543
100
AcDbArc
 50
188.4540104375929
 51
269.9997875007342
  0
LINE
  5
EC7
330
22
100
AcDbEntity
  8
PIC06
  6
Continuous
 62
     7
100
AcDbLine
 10
5.033625478351467
 20
1.127885428991447
 30
0.0
 11
4.923642617812646
 21
1.867867965669624
 31
0.0
  0
ARC
  5
EC8
330
22
100
AcDbEntity
  8
PIC06
  6
Continuous
 62
     7
100
AcDbCircle
 10
4.806813620653827
 20
1.85050378926742
 30
0.0
 40
0.1181123583680484
100
AcDbArc
 50
8.453925931598435
 51
89.99996192285612
  0
LINE
  5
EC9
330
22
100
AcDbEntity
  8
PIC06
  6
Continuous
 62
     7
100
AcDbLine
 10
4.806813699147937
 20
1.968616147635444
 30
0.0
 11
3.813092820695061
 21
1.968616808034084
 31
0.0
  0
ARC
  5
ECA
330
22
100
AcDbEntity
  8
PIC06
  6
Continuous
 62
     7
100
AcDbCircle
 10
3.813094821783494
 20
4.882055063518805
 30
0.0
 40
2.913438255485407
100
AcDbArc
 50
204.5561257824572
 51
269.9999606465241
  0
ARC
  5
ECB
330
22
100
AcDbEntity
  8
PIC06
  6
Continuous
 62
     7
100
AcDbCircle
 10
1.055733987307206
 20
3.622189851342731
 30
0.0
 40
0.1181123583680386
100
AcDbArc
 50
24.55612530671993
 51
90.0
  0
LINE
  5
ECC
330
22
100
AcDbEntity
  8
PIC06
  6
Continuous
 62
     7
100
AcDbLine
 10
1.055733987307206
 20
3.740302209710776
 30
0.0
 11
0.6199736559658789
 21
3.740302209710776
 31
0.0
  0
ARC
  5
ECD
330
22
100
AcDbEntity
  8
PIC06
  6
Continuous
 62
     7
100
AcDbCircle
 10
0.6199736559658505
 20
3.622189851342753
 30
0.0
 40
0.1181123583680232
100
AcDbArc
 50
89.99999999998697
 51
173.7170363047956
  0
ARC
  5
ECF
330
22
100
AcDbEntity
  8
PIC06
  6
Continuous
 62
     7
100
AcDbCircle
 10
39.24553472952474
 20
-0.6304872805942665
 30
0.0
 40
38.97707826117655
100
AcDbArc
 50
178.4865139735213
 51
178.9028261366737
  0
ARC
  5
ED0
330
22
100
AcDbEntity
  8
PIC06
  6
Continuous
 62
     7
100
AcDbCircle
 10
0.1575119071937081
 20
0.1181123583680304
 30
0.0
 40
0.1181123583680204
100
AcDbArc
 50
270.0
 51
358.90282613668
  0
LINE
  5
ED1
330
22
100
AcDbEntity
  8
PIC06
  6
Continuous
 62
     7
100
AcDbLine
 10
0.1575119071937081
 20
0.0
 30
0.0
 11
0.0000000000000284
 21
0.0
 31
0.0
  0
ARC
  5
ED2
330
22
100
AcDbEntity
  8
PIC06
  6
Continuous
 62
     7
100
AcDbCircle
 10
0.0
 20
0.1181123583680375
 30
0.0
 40
0.1181123583680375
100
AcDbArc
 50
178.9072059481748
 51
270.000000000013
  0
ARC
  5
ED3
330
22
100
AcDbEntity
  8
PIC06
  6
Continuous
 62
     7
100
AcDbCircle
 10
39.24553472979182
 20
-0.6304872805984126
 30
0.0
 40
39.37078612267044
100
AcDbArc
 50
173.6261098156465
 51
178.9072285048549
  0
LINE
  5
ED4
330
22
100
AcDbEntity
  8
PIC06
  6
Continuous
 62
     7
100
AcDbLine
 10
0.1181146877233345
 20
3.740302209710776
 30
0.0
 11
0.1181146877233345
 21
8.267859141007789
 31
0.0
  0
ARC
  5
ED5
330
22
100
AcDbEntity
  8
PIC06
  6
Continuous
 62
     7
100
AcDbCircle
 10
4.8032454453284
 20
8.267859141007782
 30
0.0
 40
4.685130757605065
100
AcDbArc
 50
149.8288107138587
 51
180.0
  0
ARC
  5
ED6
330
22
100
AcDbEntity
  8
PIC06
  6
Continuous
 62
     7
100
AcDbCircle
 10
-0.2682935298802533
 20
11.21615227765433
 30
0.0
 40
1.181123583680999
100
AcDbArc
 50
329.8288107138665
 51
352.4461938625838
  0
ARC
  5
ED7
330
22
100
AcDbEntity
  8
PIC06
  6
Continuous
 62
     7
100
AcDbCircle
 10
-10.80615605115756
 20
12.61355701381591
 30
0.0
 40
11.81123583680362
100
AcDbArc
 50
352.4461938625882
 51
5.306501624407997
  0
ARC
  5
ED8
330
22
100
AcDbEntity
  8
PIC06
  6
Continuous
 62
     7
100
AcDbCircle
 10
-0.2216022263565947
 20
13.59666781321392
 30
0.0
 40
1.181123583680343
100
AcDbArc
 50
5.306501624405415
 51
54.09704093516925
  0
ARC
  5
ED9
330
22
100
AcDbEntity
  8
PIC06
  6
Continuous
 62
     7
100
AcDbCircle
 10
0.7480764565872846
 20
14.93608073494452
 30
0.0
 40
0.4724494334721143
100
AcDbArc
 50
180.0000000000008
 51
234.0970409351729
  0
LINE
  5
EDA
330
22
100
AcDbEntity
  8
PIC06
  6
Continuous
 62
     7
100
AcDbLine
 10
0.2756270231151632
 20
14.93608073494452
 30
0.0
 11
0.2756270231151632
 21
16.14203148063018
 31
0.0
  0
LINE
  5
EDB
330
22
100
AcDbEntity
  8
PIC06
  6
Continuous
 62
     7
100
AcDbLine
 10
0.2756270231151632
 20
16.14203148063018
 30
0.0
 11
0.3045288666673969
 21
16.57546097129535
 31
0.0
  0
ARC
  5
EDC
330
22
100
AcDbEntity
  8
PIC06
  6
Continuous
 62
     7
100
AcDbCircle
 10
0.4724874657660508
 20
16.56426119542565
 30
0.0
 40
0.1683315953429831
100
AcDbArc
 50
56.63845065719598
 51
176.1850639116982
  0
ARC
  5
EDD
330
22
100
AcDbEntity
  8
PIC06
  6
Continuous
 62
     7
100
AcDbCircle
 10
0.4724874657703709
 20
16.56426119541697
 30
0.0
 40
0.1683315953478401
100
AcDbArc
 50
3.814074834286251
 51
56.63845066004831
  0
LINE
  5
EDE
330
22
100
AcDbEntity
  8
PIC06
  6
Continuous
 62
     7
100
AcDbLine
 10
0.6404462332067738
 20
16.57545844657939
 30
0.0
 11
0.6546406442292608
 21
16.36254228124214
 31
0.0
  0
ARC
  5
EDF
330
22
100
AcDbEntity
  8
PIC06
  6
Continuous
 62
     7
100
AcDbCircle
 10
0.8903421605074015
 20
16.37825571566068
 30
0.0
 40
0.2362247167360786
100
AcDbArc
 50
183.8140748342905
 51
269.9344762594888
  0
LINE
  5
EE0
330
22
100
AcDbEntity
  8
PIC06
  6
Continuous
 62
     7
100
AcDbLine
 10
0.8900720127967076
 20
16.14203115339577
 30
0.0
 11
1.279612343733077
 21
16.14203084814262
 31
0.0
  0
LINE
  5
EE1
330
22
100
AcDbEntity
  8
PIC06
  6
Continuous
 62
     7
100
AcDbLine
 10
1.279612343733077
 20
16.14203084814262
 30
0.0
 11
1.279612343733077
 21
15.7483229869157
 31
0.0
  0
ARC
  5
EED
330
22
100
AcDbEntity
  8
PIC06
  6
Continuous
 62
     7
100
AcDbCircle
 10
9.006656269302595
 20
10.99085609031641
 30
0.0
 40
0.1181123583680258
100
AcDbArc
 50
217.3389409189709
 51
310.518551732889
  0
ARC
  5
EEE
330
22
100
AcDbEntity
  8
PIC06
  6
Continuous
 62
     7
100
AcDbCircle
 10
9.415919827491222
 20
10.51198408996788
 30
0.0
 40
0.5118202195949071
100
AcDbArc
 50
90.0
 51
130.5185517328802
  0
LINE
  5
EEF
330
22
100
AcDbEntity
  8
PIC06
  6
Continuous
 62
     7
100
AcDbLine
 10
9.415919827491222
 20
11.02380430956279
 30
0.0
 11
9.874742211058588
 21
11.02380430956277
 31
0.0
  0
ARC
  5
EF0
330
22
100
AcDbEntity
  8
PIC06
  6
Continuous
 62
     7
100
AcDbCircle
 10
9.874742211058531
 20
9.842680725881677
 30
0.0
 40
1.181123583681099
100
AcDbArc
 50
81.9785894887914
 51
89.99999999999674
  0
ARC
  5
EF1
330
22
100
AcDbEntity
  8
PIC06
  6
Continuous
 62
     7
100
AcDbCircle
 10
9.874742211058531
 20
9.84268072588236
 30
0.0
 40
1.181123583680425
100
AcDbArc
 50
62.66072064816562
 51
81.9785894887881
  0
LINE
  5
EF2
330
22
100
AcDbEntity
  8
PIC06
  6
Continuous
 62
     7
100
AcDbLine
 10
10.41718342386386
 20
10.89187587006496
 30
0.0
 11
10.42469076148697
 21
10.93251952625366
 31
0.0
  0
LINE
  5
EF3
330
22
100
AcDbEntity
  8
PIC06
  6
Continuous
 62
     7
100
AcDbLine
 10
10.42469076148697
 20
10.93251952625366
 30
0.0
 11
10.59731390931097
 21
10.78330944187959
 31
0.0
  0
LINE
  5
EF4
330
22
100
AcDbEntity
  8
PIC06
  6
Continuous
 62
     7
100
AcDbLine
 10
10.59731390931097
 20
10.78330944187959
 30
0.0
 11
10.58821664248484
 21
10.73405813553096
 31
0.0
  0
ARC
  5
EF5
330
22
100
AcDbEntity
  8
PIC06
  6
Continuous
 62
     7
100
AcDbCircle
 10
9.874742211058986
 20
9.842680725882644
 30
0.0
 40
1.141752797557238
100
AcDbArc
 50
40.00000000000333
 51
51.32559489312767
  0
LINE
  5
EF6
330
22
100
AcDbEntity
  8
PIC06
  6
Continuous
 62
     7
100
AcDbLine
 10
10.74937559704321
 20
10.57658527747743
 30
0.0
 11
11.30375820278033
 21
9.915897815418475
 31
0.0
  0
ARC
  5
EF7
330
22
100
AcDbEntity
  8
PIC06
  6
Continuous
 62
     7
100
AcDbCircle
 10
12.38950999227853
 20
10.82695174153656
 30
0.0
 40
1.417348300416566
100
AcDbArc
 50
220.0000000000025
 51
269.9999069572434
  0
LINE
  5
EF8
330
22
100
AcDbEntity
  8
PIC06
  6
Continuous
 62
     7
100
AcDbLine
 10
12.38950769064317
 20
9.409603441121873
 30
0.0
 11
13.38359034009053
 21
9.409601826828676
 31
0.0
  0
ARC
  5
EF9
330
22
100
AcDbEntity
  8
PIC06
  6
Continuous
 62
     7
100
AcDbCircle
 10
9.218670062287856
 20
8.086078667530827
 30
0.0
 40
4.37015725960173
100
AcDbArc
 50
17.62915076514958
 51
19.80931421149231
  0
LINE
  5
F0B
330
22
100
AcDbEntity
  8
PIC06
  6
Continuous
 62
     7
100
AcDbLine
 10
10.14158969964069
 20
14.40969191611324
 30
0.0
 11
10.74823850763377
 21
14.40969191611324
 31
0.0
  0
ARC
  5
F0C
330
22
100
AcDbEntity
  8
PIC06
  6
Continuous
 62
     7
100
AcDbCircle
 10
10.74823850763377
 20
13.97661326876371
 30
0.0
 40
0.4330786473495252
100
AcDbArc
 50
62.51031074281193
 51
90.0
  0
ARC
  5
F0D
330
22
100
AcDbEntity
  8
PIC06
  6
Continuous
 62
     7
100
AcDbCircle
 10
11.29942951362935
 20
14.10750674699572
 30
0.0
 40
0.4330786473496502
100
AcDbArc
 50
98.88069005167849
 51
144.2072950621339
  0
LINE
  5
F0E
330
22
100
AcDbEntity
  8
PIC06
  6
Continuous
 62
     7
100
AcDbLine
 10
11.23257195236746
 20
14.53539362607979
 30
0.0
 11
12.08911960437521
 21
14.66922966994325
 31
0.0
  0
LINE
  5
F0F
330
22
100
AcDbEntity
  8
PIC06
  6
Continuous
 62
     7
100
AcDbLine
 10
12.08911960437521
 20
14.66922966994325
 30
0.0
 11
11.90435570758165
 21
15.78766943040704
 31
0.0
  0
LINE
  5
F10
330
22
100
AcDbEntity
  8
PIC06
  6
Continuous
 62
     7
100
AcDbLine
 10
11.90435570758165
 20
15.78766943040704
 30
0.0
 11
10.93517618694505
 21
15.78766943040704
 31
0.0
  0
LINE
  5
F11
330
22
100
AcDbEntity
  8
PIC06
  6
Continuous
 62
     7
100
AcDbLine
 10
10.93517618694505
 20
15.78766943040704
 30
0.0
 11
8.004634429271902
 21
15.78766943040704
 31
0.0
  0
ARC
  5
F12
330
22
100
AcDbEntity
  8
PIC06
  6
Continuous
 62
     7
100
AcDbCircle
 10
7.559204831704022
 20
15.63018628591636
 30
0.0
 40
0.4724494334721496
100
AcDbArc
 50
359.9999999999939
 51
19.47122063448569
  0
LINE
  5
F13
330
22
100
AcDbEntity
  8
PIC06
  6
Continuous
 62
     7
100
AcDbLine
 10
8.031654265176172
 20
15.63018628591631
 30
0.0
 11
8.031654265176172
 21
15.36696595917174
 31
0.0
  0
ARC
  5
F14
330
22
100
AcDbEntity
  8
PIC06
  6
Continuous
 62
     7
100
AcDbCircle
 10
8.26787898191219
 20
15.36696595917172
 30
0.0
 40
0.2362247167360181
100
AcDbArc
 50
179.9999999999949
 51
228.1896851042243
  0
LINE
  5
F20
330
22
100
AcDbEntity
  8
PIC06
  6
Continuous
 62
     7
100
AcDbLine
 10
4.626129164160857
 20
16.14202822573163
 30
0.0
 11
4.927013528726774
 21
16.14202798995142
 31
0.0
  0
LINE
  5
F21
330
22
100
AcDbEntity
  8
PIC06
  6
Continuous
 62
     7
100
AcDbLine
 10
4.927013528726774
 20
16.14202798995142
 30
0.0
 11
5.030476602764622
 21
16.14202790887526
 31
0.0
  0
ARC
  5
F22
330
22
100
AcDbEntity
  8
PIC06
  6
Continuous
 62
     7
100
AcDbCircle
 10
5.030476631294988
 20
16.37825231231322
 30
0.0
 40
0.2362244034379674
100
AcDbArc
 50
269.9999930800136
 51
352.1564275538665
  0
LINE
  5
F23
330
22
100
AcDbEntity
  8
PIC06
  6
Continuous
 62
     7
100
AcDbLine
 10
5.26449100062959
 20
16.34601500900557
 30
0.0
 11
5.276208948497327
 21
16.43107665560424
 31
0.0
  0
ARC
  5
F24
330
22
100
AcDbEntity
  8
PIC06
  6
Continuous
 62
     7
100
AcDbCircle
 10
5.433117000036929
 20
16.41763031183628
 30
0.0
 40
0.1574831444907063
100
AcDbArc
 50
7.84360091666941
 51
175.1019652241228
  0
LINE
  5
F25
330
22
100
AcDbEntity
  8
PIC06
  6
Continuous
 62
     7
100
AcDbLine
 10
5.589126775825377
 20
16.43912195340034
 30
0.0
 11
5.601953030244033
 21
16.34601500900557
 31
0.0
  0
ARC
  5
F26
330
22
100
AcDbEntity
  8
PIC06
  6
Continuous
 62
     7
100
AcDbCircle
 10
5.835967693926704
 20
16.37825247135168
 30
0.0
 40
0.2362247167360579
100
AcDbArc
 50
187.8436009166763
 51
269.8640300527973
  0
LINE
  5
F27
330
22
100
AcDbEntity
  8
PIC06
  6
Continuous
 62
     7
100
AcDbLine
 10
5.835407104082435
 20
16.14202841979035
 30
0.0
 11
25.31001695741443
 21
16.14200650551115
 31
0.0
  0
LINE
  5
F28
330
22
100
AcDbEntity
  8
PIC06
  6
Continuous
 62
     7
100
AcDbLine
 10
25.31001695741443
 20
16.14200650551115
 30
0.0
 11
11.93775612772998
 21
16.14200650551115
 31
0.0
  0
ARC
  5
F29
330
22
100
AcDbEntity
  8
PIC06
  6
Continuous
 62
     7
100
AcDbCircle
 10
11.93775612772998
 20
15.8270402165297
 30
0.0
 40
0.3149662889814522
100
AcDbArc
 50
9.380422916882297
 51
90.0
  0
LINE
  5
F2A
330
22
100
AcDbEntity
  8
PIC06
  6
Continuous
 62
     7
100
AcDbLine
 10
12.24851065914029
 20
15.87837621172521
 30
0.0
 11
12.47738982428987
 21
14.49289147640889
 31
0.0
  0
ARC
  5
F2B
330
22
100
AcDbEntity
  8
PIC06
  6
Continuous
 62
     7
100
AcDbCircle
 10
12.24432392573215
 20
14.45438948001227
 30
0.0
 40
0.2362247167360888
100
AcDbArc
 50
278.880690051662
 51
9.38042291687848
  0
LINE
  5
F2C
330
22
100
AcDbEntity
  8
PIC06
  6
Continuous
 62
     7
100
AcDbLine
 10
12.28079168642037
 20
14.22099663687557
 30
0.0
 11
12.20420238766553
 21
14.20902951663002
 31
0.0
  0
ARC
  5
F2D
330
22
100
AcDbEntity
  8
PIC06
  6
Continuous
 62
     7
100
AcDbCircle
 10
12.19204646743611
 20
14.2868271310089
 30
0.0
 40
0.0787415722453456
100
AcDbArc
 50
203.3582022375707
 51
278.8806900516719
  0
ARC
  5
F2E
330
22
100
AcDbEntity
  8
PIC06
  6
Continuous
 62
     7
100
AcDbCircle
 10
12.04746999511877
 20
14.22438848551633
 30
0.0
 40
0.0787415722453457
100
AcDbArc
 50
23.35820223758924
 51
98.8806900516719
  0
LINE
  5
F2F
330
22
100
AcDbEntity
  8
PIC06
  6
Continuous
 62
     7
100
AcDbLine
 10
12.03531407488936
 20
14.30218609989521
 30
0.0
 11
11.28727359339982
 21
14.18530436137475
 31
0.0
  0
ARC
  5
F30
330
22
100
AcDbEntity
  8
PIC06
  6
Continuous
 62
     7
100
AcDbCircle
 10
11.29942951362923
 20
14.10750674699588
 30
0.0
 40
0.0787415722453385
100
AcDbArc
 50
98.88069005167194
 51
179.9999999736214
  0
LINE
  5
F31
330
22
100
AcDbEntity
  8
PIC06
  6
Continuous
 62
     7
100
AcDbLine
 10
11.22068794138388
 20
14.10750674703213
 30
0.0
 11
11.2206879413288
 21
13.98796127157732
 31
0.0
  0
LINE
  5
F32
330
22
100
AcDbEntity
  8
PIC06
  6
Continuous
 62
     7
100
AcDbLine
 10
11.2206879413288
 20
13.98796127157732
 30
0.0
 11
11.22068794120736
 21
13.72438979862594
 31
0.0
  0
ARC
  5
F33
330
22
100
AcDbEntity
  8
PIC06
  6
Continuous
 62
     7
100
AcDbCircle
 10
12.99236660630831
 20
13.71951358493008
 30
0.0
 40
1.77168537552069
100
AcDbArc
 50
179.8423044964013
 51
219.529384324848
  0
LINE
  5
F34
330
22
100
AcDbEntity
  8
PIC06
  6
Continuous
 62
     7
100
AcDbLine
 10
11.62586874620814
 20
12.59188214328988
 30
0.0
 11
12.86266435587313
 21
11.09309584523297
 31
0.0
  0
ARC
  5
F35
330
22
100
AcDbEntity
  8
PIC06
  6
Continuous
 62
     7
100
AcDbCircle
 10
9.218670062272991
 20
8.086078667525988
 30
0.0
 40
4.724494334721472
100
AcDbArc
 50
3.007713387943162
 51
39.52938432484798
  0
LINE
  5
F36
330
22
100
AcDbEntity
  8
PIC06
  6
Continuous
 62
     7
100
AcDbLine
 10
13.93665631169355
 20
8.333974752799242
 30
0.0
 11
13.93665807801736
 21
8.333313040498318
 31
0.0
  0
LINE
  5
F37
330
22
100
AcDbEntity
  8
PIC06
  6
Continuous
 62
     7
100
AcDbLine
 10
13.93665807801736
 20
8.333313040498318
 30
0.0
 11
13.93725319673288
 21
8.110365597916207
 31
0.0
  0
ARC
  5
F38
330
22
100
AcDbEntity
  8
PIC06
  6
Continuous
 62
     7
100
AcDbCircle
 10
13.70102847999681
 20
8.110365597916214
 30
0.0
 40
0.2362247167360749
100
AcDbArc
 50
221.8102714515196
 51
359.9999999999982
  0
ARC
  5
F39
330
22
100
AcDbEntity
  8
PIC06
  6
Continuous
 62
     7
100
AcDbCircle
 10
13.43692103858686
 20
7.874141081438352
 30
0.0
 40
0.1181123583679758
100
AcDbArc
 50
41.81027145151182
 51
89.99990695726124
  0
LINE
  5
F3A
330
22
100
AcDbEntity
  8
PIC06
  6
Continuous
 62
     7
100
AcDbLine
 10
13.43692123038977
 20
7.992253439806177
 30
0.0
 11
12.38950538900792
 21
7.992255140707271
 31
0.0
  0
ARC
  5
F3B
330
22
100
AcDbEntity
  8
PIC06
  6
Continuous
 62
     7
100
AcDbCircle
 10
12.38950999227848
 20
10.82695174153642
 30
0.0
 40
2.834696600832884
100
AcDbArc
 50
220.0000000000001
 51
269.9999069572466
  0
LINE
  5
F3C
330
22
100
AcDbEntity
  8
PIC06
  6
Continuous
 62
     7
100
AcDbLine
 10
10.21800641328218
 20
9.004843889300495
 30
0.0
 11
8.972155020949401
 21
10.48959176195151
 31
0.0
  0
ARC
  5
F3D
330
22
100
AcDbEntity
  8
PIC06
  6
Continuous
 62
     7
100
AcDbCircle
 10
8.881675705157874
 20
10.41367060144166
 30
0.0
 40
0.1181123583680606
100
AcDbArc
 50
40.00000000000285
 51
77.78211123602446
  0
ARC
  5
F3E
330
22
100
AcDbEntity
  8
PIC06
  6
Continuous
 62
     7
100
AcDbCircle
 10
9.006656269302567
 20
10.99085609031637
 30
0.0
 40
0.4724494334721009
100
AcDbArc
 50
228.9099743645619
 51
257.7821112360244
  0
LINE
  5
F3F
330
22
100
AcDbEntity
  8
PIC06
  6
Continuous
 62
     7
100
AcDbLine
 10
8.696141689579008
 20
10.63478143105625
 30
0.0
 11
8.491328770129854
 21
10.87886796361949
 31
0.0
  0
ARC
  5
F40
330
22
100
AcDbEntity
  8
PIC06
  6
Continuous
 62
     7
100
AcDbCircle
 10
4.803238236322215
 20
7.784192556953037
 30
0.0
 40
4.814460266549896
100
AcDbArc
 50
40.0000000000004
 51
90.0
  0
ARC
  5
F41
330
22
100
AcDbEntity
  8
PIC06
  6
Continuous
 62
     7
100
AcDbCircle
 10
4.803245445330304
 20
8.267859140992577
 30
0.0
 40
4.330793682516339
100
AcDbArc
 50
90.00009537414294
 51
99.80110103680717
  0
ARC
  5
F42
330
22
100
AcDbEntity
  8
PIC06
  6
Continuous
 62
     7
100
AcDbCircle
 10
3.985596824401767
 20
13.0009971237667
 30
0.0
 40
0.4724494334715982
100
AcDbArc
 50
247.2956989844279
 51
279.8011084526393
  0
ARC
  5
F43
330
22
100
AcDbEntity
  8
PIC06
  6
Continuous
 62
     7
100
AcDbCircle
 10
3.985596824401881
 20
13.00099712376742
 30
0.0
 40
0.4724494334723001
100
AcDbArc
 50
234.647374052966
 51
247.2956989844491
  0
ARC
  5
F44
330
22
100
AcDbEntity
  8
PIC06
  6
Continuous
 62
     7
100
AcDbCircle
 10
3.666673850333779
 20
12.55144216450706
 30
0.0
 40
0.0787415722453357
100
AcDbArc
 50
54.64737405294995
 51
135.930491329406
  0
ARC
  5
F45
330
22
100
AcDbEntity
  8
PIC06
  6
Continuous
 62
     7
100
AcDbCircle
 10
3.32722056572868
 20
12.88004516930026
 30
0.0
 40
0.3937078612269765
100
AcDbArc
 50
287.7460841607095
 51
315.930491329383
  0
ARC
  5
F46
330
22
100
AcDbEntity
  8
PIC06
  6
Continuous
 62
     7
100
AcDbCircle
 10
4.803245445328428
 20
8.267859141007875
 30
0.0
 40
4.448906040868972
100
AcDbArc
 50
107.7460841607026
 51
142.0148849994349
  0
ARC
  5
F47
330
22
100
AcDbEntity
  8
PIC06
  6
Continuous
 62
     7
100
AcDbCircle
 10
1.607057174667858
 20
10.76365817431699
 30
0.0
 40
0.39370786122659
100
AcDbArc
 50
142.0148849994299
 51
166.4346686735277
  0
ARC
  5
F48
330
22
100
AcDbEntity
  8
PIC06
  6
Continuous
 62
     7
100
AcDbCircle
 10
-0.2682935298799975
 20
11.21615227765428
 30
0.0
 40
1.535460658784858
100
AcDbArc
 50
329.828810713862
 51
346.4346686735179
  0
ARC
  5
F49
330
22
100
AcDbEntity
  8
PIC06
  6
Continuous
 62
     7
100
AcDbCircle
 10
4.803245445327632
 20
8.267859141007974
 30
0.0
 40
4.330793682500201
100
AcDbArc
 50
149.8288107138556
 51
180.0000000000024
  0
ARC
  5
F4B
330
22
100
AcDbEntity
  8
PIC06
  6
Continuous
 62
     7
100
AcDbCircle
 10
39.24553472980108
 20
-0.6304872805991728
 30
0.0
 40
38.97707826145293
100
AcDbArc
 50
178.4267041581603
 51
178.9028261366774
  0
LINE
  5
F4C
330
22
100
AcDbEntity
  8
0
100
AcDbLine
 10
24.91028431546624
 20
1.037941659490513
 30
0.0
 11
15.20814433845649
 21
1.037941659490513
 31
0.0
  0
LINE
  5
F4D
330
22
100
AcDbEntity
  8
PIC06
  6
Continuous
 62
     7
100
AcDbLine
 10
24.28940696774453
 20
1.692928878511498
 30
0.0
 11
14.9168125558993
 21
1.692928878511498
 31
0.0
  0
ARC
  5
F4E
330
22
100
AcDbEntity
  8
PIC06
  6
Continuous
 62
     7
100
AcDbCircle
 10
15.03178016337713
 20
0.9139513633045872
 30
0.0
 40
0.7874157224535948
100
AcDbArc
 50
107.6355118793284
 51
174.8765111906647
  0
ARC
  5
F4F
330
22
100
AcDbEntity
  8
PIC06
  6
Continuous
 62
     7
100
AcDbCircle
 10
14.7217070221196
 20
1.84810413294096
 30
0.0
 40
0.1968539306133971
100
AcDbArc
 50
288.3625434509776
 51
344.9316733083609
  0
ARC
  5
F50
330
22
100
AcDbEntity
  8
PIC06
  6
Continuous
 62
     7
100
AcDbCircle
 10
15.03178016337713
 20
0.9139513633045872
 30
0.0
 40
0.7874157224535936
100
AcDbArc
 50
98.39555254659664
 51
107.6355118793284
  0
ARC
  5
F51
330
22
100
AcDbEntity
  8
PIC06
  6
Continuous
 62
     7
100
AcDbCircle
 10
15.21592906666947
 20
1.715045845461151
 30
0.0
 40
0.3149662889814373
100
AcDbArc
 50
108.6895069694126
 51
164.9316733083508
  0
VIEWPORT
  5
1061
102
{ACAD_XDICTIONARY
360
107A
102
}
330
1E
100
AcDbEntity
 67
     1
  8
0
100
AcDbViewport
 10
5.250183132535525
 20
4.000122090685323
 30
0.0
 40
10.63098306903433
 41
6.454849668730496
 68
     1
 69
     1
 12
5.250183132535525
 22
4.000122090685323
 13
0.0
 23
0.0
 14
0.5
 24
0.5
 15
0.5
 25
0.5
 16
0.0
 26
0.0
 36
1.0
 17
0.0
 27
0.0
 37
0.0
 42
50.0
 43
0.0
 44
0.0
 45
6.454849668730496
 50
0.0
 51
0.0
 72
   100
 90
   819232
  1

281
     0
 71
     1
 74
     0
110
0.0
120
0.0
130
0.0
111
1.0
121
0.0
131
0.0
112
0.0
122
1.0
132
0.0
 79
     0
146
0.0
  0
VIEWPORT
  5
1064
102
{ACAD_XDICTIONARY
360
107C
102
}
330
1E
100
AcDbEntity
 67
     1
  8
0
100
AcDbViewport
 10
5.249999761581421
 20
3.999999761581421
 30
0.0
 40
8.399999618530275
 41
6.399999618530274
 68
     2
 69
     2
 12
27.67063217999061
 22
29.2693060970997
 13
0.0
 23
0.0
 14
0.0
 24
0.0
 15
0.0
 25
0.0
 16
0.0
 26
0.0
 36
1.0
 17
0.0
 27
0.0
 37
0.0
 42
50.0
 43
0.0
 44
0.0
 45
60.31735051274118
 50
0.0
 51
0.0
 72
   100
 90
   819232
  1

281
     0
 71
     1
 74
     0
110
0.0
120
0.0
130
0.0
111
1.0
121
0.0
131
0.0
112
0.0
122
1.0
132
0.0
 79
     0
146
0.0
  0
ENDSEC
  0
SECTION
  2
OBJECTS
  0
DICTIONARY
  5
C
330
0
100
AcDbDictionary
281
     1
  3
ACAD_COLOR
350
1B
  3
ACAD_GROUP
350
D
  3
ACAD_LAYOUT
350
19
  3
ACAD_MATERIAL
350
1A
  3
ACAD_MLINESTYLE
350
16
  3
ACAD_PLOTSETTINGS
350
18
  3
ACAD_PLOTSTYLENAME
350
E
  3
ACAD_TABLESTYLE
350
1C
  3
ACAD_VISUALSTYLE
350
104A
  3
AcDbVariableDictionary
350
8BB
  3
ASE_INDEX_DICTIONARY
350
1067
  3
DWGPROPS
350
106D
  0
DICTIONARY
  5
E7B
330
22
100
AcDbDictionary
280
     1
281
     1
  3
ACAD_SORTENTS
360
E7C
  0
DICTIONARY
  5
107A
330
1061
100
AcDbDictionary
280
     1
281
     1
  3
ACAD_XREC_ROUNDTRIP
360
107B
  0
DICTIONARY
  5
107C
330
1064
100
AcDbDictionary
280
     1
281
     1
  3
ACAD_XREC_ROUNDTRIP
360
107D
  0
DICTIONARY
  5
1B
102
{ACAD_REACTORS
330
C
102
}
330
C
100
AcDbDictionary
281
     1
  0
DICTIONARY
  5
D
102
{ACAD_REACTORS
330
C
102
}
330
C
100
AcDbDictionary
281
     1
  0
DICTIONARY
  5
19
102
{ACAD_REACTORS
330
C
102
}
330
C
100
AcDbDictionary
281
     1
  3
Layout1
350
21
  3
Model
350
25
  0
DICTIONARY
  5
1A
102
{ACAD_REACTORS
330
C
102
}
330
C
100
AcDbDictionary
281
     1
  3
ByBlock
350
1048
  3
ByLayer
350
1047
  3
Global
350
1049
  0
DICTIONARY
  5
16
102
{ACAD_REACTORS
330
C
102
}
330
C
100
AcDbDictionary
281
     1
  3
Standard
350
17
  0
DICTIONARY
  5
18
102
{ACAD_REACTORS
330
C
102
}
330
C
100
AcDbDictionary
281
     1
  0
ACDBDICTIONARYWDFLT
  5
E
102
{ACAD_REACTORS
330
C
102
}
330
C
100
AcDbDictionary
281
     1
  3
Normal
350
F
100
AcDbDictionaryWithDefault
340
F
  0
DICTIONARY
  5
1C
102
{ACAD_REACTORS
330
C
102
}
330
C
100
AcDbDictionary
281
     1
  3
Standard
350
1D
  0
DICTIONARY
  5
104A
102
{ACAD_REACTORS
330
C
102
}
330
C
100
AcDbDictionary
281
     1
  3
2dWireframe
350
1050
  3
3D Hidden
350
1052
  3
3dWireframe
350
1051
  3
Basic
350
104F
  3
Brighten
350
1056
  3
ColorChange
350
105A
  3
Conceptual
350
1053
  3
Dim
350
1055
  3
Facepattern
350
1059
  3
Flat
350
104B
  3
FlatWithEdges
350
104C
  3
Gouraud
350
104D
  3
GouraudWithEdges
350
104E
  3
Linepattern
350
1058
  3
Realistic
350
1054
  3
Thicken
350
1057
  0
DICTIONARY
  5
8BB
102
{ACAD_REACTORS
330
C
102
}
330
C
100
AcDbDictionary
281
     1
  3
CTABLESTYLE
350
8BC
  3
DIMASSOC
350
106C
  3
INDEXCTL
350
106B
  3
SORTENTS
350
106A
  0
DICTIONARY
  5
1067
102
{ACAD_REACTORS
330
C
102
}
330
C
100
AcDbDictionary
281
     1
  3
ASEBlockHierarchyIndexRecord
350
1069
1001
DCO15
1040
1651920381.07
  0
XRECORD
  5
106D
102
{ACAD_REACTORS
330
C
102
}
330
C
100
AcDbXrecord
280
     1
  1
DWGPROPS COOKIE
  2

  3

  4

  6

  7

  8
nnguyen
  9

300
=
301
=
302
=
303
=
304
=
305
=
306
=
307
=
308
=
309
=
 40
0.0590842361111111
 41
2453074.617708333
 42
2454922.660706829
  1

 90
        0
  0
SORTENTSTABLE
  5
E7C
102
{ACAD_REACTORS
330
E7B
102
}
330
E7B
100
AcDbSortentsTable
330
22
331
25B
  5
25B
331
1DD
  5
1DD
331
196
  5
196
331
21C
  5
21C
331
224
  5
224
331
19E
  5
19E
331
1E5
  5
1E5
331
1A6
  5
1A6
331
759
  5
EA6
331
2F7
  5
2F7
331
F24
  5
64A
331
346
  5
346
331
395
  5
396
331
2FF
  5
2FF
331
3CC
  5
3CD
331
44A
  5
451
331
F2C
  5
657
331
F34
  5
662
331
F3C
  5
66D
331
E98
  5
F27
331
C4B
  5
EF2
331
B16
  5
EB3
331
D92
  5
F0E
331
EA0
  5
F2F
331
EDF
  5
5FC
331
E69
  5
F3A
331
EA8
  5
5C5
331
D5B
  5
EF8
331
EEF
  5
60C
331
EB0
  5
5CD
331
B2E
  5
EB8
331
DB2
  5
F15
331
16F
  5
16F
331
1AE
  5
1AE
331
1F5
  5
1F5
331
177
  5
177
331
1B6
  5
1B6
331
1FD
  5
1FD
331
17F
  5
17F
331
1BE
  5
1BE
331
24C
  5
24C
331
2D0
  5
2D0
331
307
  5
307
331
1C6
  5
1C6
331
205
  5
205
331
187
  5
187
331
423
  5
426
331
3A5
  5
3A6
331
67A
  5
B59
331
279
  5
279
331
2D8
  5
2D8
331
35E
  5
361
331
EF5
  5
612
331
F44
  5
678
331
6BA
  5
C1A
331
2E0
  5
2E0
331
42B
  5
42C
331
72A
  5
E29
331
31F
  5
31F
331
3FC
  5
3FD
331
F0D
  5
62A
331
EB8
  5
5D5
331
DBA
  5
F1B
331
E71
  5
F42
331
B46
  5
EBD
331
C24
  5
EE1
331
EC0
  5
5DD
331
D6B
  5
F01
331
E79
  5
F4B
331
B4E
  5
EC5
331
C2C
  5
EE6
331
EC8
  5
5E5
331
BCD
  5
ED6
331
D7B
  5
F0C
331
ED0
  5
5ED
331
18F
  5
18F
331
215
  5
215
331
254
  5
254
331
197
  5
197
331
21D
  5
21D
331
25C
  5
25C
331
2E8
  5
2E8
331
19F
  5
19F
331
225
  5
225
331
404
  5
406
331
386
  5
387
331
2F0
  5
2F0
331
1A7
  5
1A7
331
291
  5
291
331
75A
  5
EA7
331
38E
  5
390
331
2F8
  5
2F8
331
3C5
  5
3C6
331
F25
  5
64C
331
7C2
  5
EAC
331
347
  5
347
331
396
  5
397
331
3CD
  5
3CE
331
34F
  5
350
331
F2D
  5
658
331
F35
  5
664
331
F3D
  5
66E
331
ED8
  5
5F5
331
D93
  5
F0F
331
E99
  5
F28
331
B17
  5
EB4
331
C4C
  5
EF3
331
EE0
  5
5FD
331
D9B
  5
F10
331
CF4
  5
EF4
331
EA9
  5
5C6
331
D5C
  5
EF9
331
C15
  5
EDA
331
E6A
  5
F3B
331
EB1
  5
5CE
331
DB3
  5
F16
331
C1D
  5
EDE
331
B2F
  5
EB9
331
1AF
  5
1AF
331
1EE
  5
1EE
331
170
  5
170
331
1F6
  5
1F6
331
178
  5
178
331
1FE
  5
1FE
331
26A
  5
26A
331
180
  5
180
331
1BF
  5
1BF
331
300
  5
300
331
308
  5
308
331
3DD
  5
3E1
331
206
  5
206
331
1C7
  5
1C7
331
24D
  5
24D
331
3A6
  5
3A7
331
2D9
  5
2D9
331
377
  5
378
331
42C
  5
430
331
2E1
  5
2E1
331
EF6
  5
613
331
F45
  5
679
331
3FD
  5
3FE
331
F0E
  5
62B
331
EB9
  5
5D6
331
DBB
  5
F1C
331
8B0
  5
EAE
331
B47
  5
EBE
331
E72
  5
F43
331
E7A
  5
447
331
C2D
  5
EE7
331
DCB
  5
F20
331
BB6
  5
ED3
331
EC1
  5
5E1
331
B4F
  5
EC6
331
EC9
  5
5E6
331
C45
  5
EEC
331
ED1
  5
5EE
331
BCE
  5
ED7
331
188
  5
188
331
255
  5
255
331
190
  5
190
331
216
  5
216
331
21E
  5
21E
331
25D
  5
25D
331
198
  5
198
331
1A0
  5
1A0
331
226
  5
226
331
320
  5
320
331
2F1
  5
2F1
331
22E
  5
22E
331
387
  5
388
331
3BE
  5
3C5
331
2F9
  5
2F9
331
3C6
  5
3C7
331
2A2
  5
2A2
331
415
  5
416
331
397
  5
398
331
348
  5
348
331
3CE
  5
3CF
331
F26
  5
64E
331
F2E
  5
65A
331
F36
  5
665
331
F3E
  5
670
331
E9A
  5
F29
331
ED9
  5
5F6
331
B18
  5
EB5
331
B8F
  5
ECE
331
D9C
  5
F11
331
EA2
  5
F30
331
CF5
  5
EF5
331
EE1
  5
609
331
E6B
  5
F3C
331
EAA
  5
5C7
331
DAC
  5
F12
331
D5D
  5
EFA
331
BA7
  5
ED0
331
C16
  5
EDB
331
EB2
  5
5CF
331
1A8
  5
1A8
331
171
  5
171
331
1B0
  5
1B0
331
179
  5
179
331
1C0
  5
1C0
331
246
  5
246
331
301
  5
301
331
350
  5
351
331
181
  5
181
331
24E
  5
24E
331
2D2
  5
2D2
331
309
  5
309
331
207
  5
207
331
3E6
  5
3EA
331
3A7
  5
3A8
331
2DA
  5
2DA
331
EF7
  5
614
331
F46
  5
67A
331
2E2
  5
2E2
331
283
  5
283
331
378
  5
37B
331
72C
  5
EA2
331
3B7
  5
3B8
331
3FE
  5
3FF
331
F0F
  5
62C
331
EBA
  5
5D7
331
DBC
  5
F1D
331
B48
  5
EBF
331
E73
  5
F44
331
D6D
  5
F02
331
BB7
  5
ED4
331
B50
  5
EC7
331
C2E
  5
EE8
331
ECA
  5
5E7
331
B58
  5
EC8
331
E83
  5
ECD
331
C46
  5
EED
331
ED2
  5
5EF
331
1D0
  5
1D0
331
189
  5
189
331
191
  5
191
331
256
  5
256
331
199
  5
199
331
21F
  5
21F
331
25E
  5
25E
331
2EA
  5
2EA
331
321
  5
321
331
1A1
  5
1A1
331
227
  5
227
331
406
  5
407
331
22F
  5
22F
331
2F2
  5
2F2
331
331
  5
331
331
75C
  5
EA9
331
390
  5
391
331
2A3
  5
2A3
331
3C7
  5
3C8
331
445
  5
448
331
F27
  5
64F
331
3CF
  5
3D0
331
416
  5
417
331
2AB
  5
2AB
331
349
  5
349
331
F2F
  5
65B
331
F37
  5
666
331
F3F
  5
671
331
EDA
  5
5F7
331
BEF
  5
ED8
331
B90
  5
ECF
331
E9B
  5
F2A
331
CF6
  5
EF6
331
B21
  5
EB6
331
E64
  5
F35
331
EA3
  5
F31
331
EAB
  5
5C8
331
DAD
  5
F13
331
D5E
  5
EFB
331
C17
  5
EDC
331
E6C
  5
F3D
331
EB3
  5
5D0
331
DB5
  5
F17
331
1E8
  5
1E8
331
1A9
  5
1A9
331
1B1
  5
1B1
331
237
  5
237
331
172
  5
172
331
23F
  5
23F
331
1F8
  5
1F8
331
17A
  5
17A
331
302
  5
302
331
351
  5
352
331
398
  5
399
331
200
  5
200
331
182
  5
182
331
1C1
  5
1C1
331
247
  5
247
331
675
  5
8B6
331
2D3
  5
2D3
331
30A
  5
30A
331
359
  5
35B
331
3A0
  5
3A1
331
24F
  5
24F
331
426
  5
427
331
3A8
  5
3A9
331
2DB
  5
2DB
331
EF0
  5
60D
331
F47
  5
67C
331
284
  5
284
331
EF8
  5
615
331
3FF
  5
402
331
436
  5
437
331
F10
  5
62D
331
BA8
  5
ED1
331
EBB
  5
5DC
331
8B2
  5
EAF
331
B49
  5
EC0
331
E74
  5
F45
331
C2F
  5
EE9
331
BB8
  5
ED5
331
D6E
  5
F03
331
D76
  5
F07
331
ECB
  5
5E8
331
B59
  5
EC9
331
C47
  5
EEE
331
ED3
  5
5F0
331
1D1
  5
1D1
331
18A
  5
18A
331
257
  5
257
331
192
  5
192
331
220
  5
220
331
25F
  5
25F
331
19A
  5
19A
331
3B8
  5
3B9
331
1A2
  5
1A2
331
228
  5
228
331
2EB
  5
2EB
331
322
  5
322
331
43E
  5
440
331
2F3
  5
2F3
331
332
  5
332
331
407
  5
408
331
75D
  5
EAA
331
F20
  5
642
331
2A4
  5
2A4
331
2FB
  5
2FB
331
3C8
  5
3C9
331
446
  5
449
331
417
  5
41A
331
34A
  5
34A
331
3D0
  5
3D2
331
F28
  5
651
331
F30
  5
65D
331
F38
  5
668
331
E9C
  5
F2B
331
EDB
  5
5F8
331
BF0
  5
ED9
331
B22
  5
EB7
331
E65
  5
F36
331
E6D
  5
F3E
331
EAC
  5
5C9
331
C18
  5
EDD
331
D5F
  5
EFC
331
DB6
  5
F18
331
EB4
  5
5D1
331
1AA
  5
1AA
331
173
  5
173
331
1B2
  5
1B2
331
240
  5
240
331
1F9
  5
1F9
331
17B
  5
17B
331
2CC
  5
2CC
331
248
  5
248
331
303
  5
303
331
352
  5
359
331
1C2
  5
1C2
331
201
  5
201
331
183
  5
183
331
3A1
  5
3A2
331
275
  5
275
331
2D4
  5
2D4
331
30B
  5
30B
331
EF1
  5
60E
331
F40
  5
672
331
427
  5
428
331
313
  5
313
331
3A9
  5
3AA
331
2DC
  5
2DC
331
EF9
  5
627
331
F48
  5
67D
331
285
  5
285
331
437
  5
438
331
F11
  5
62E
331
D67
  5
EFF
331
DBE
  5
F1E
331
E75
  5
F46
331
B4A
  5
EC1
331
C28
  5
EE2
331
D6F
  5
F04
331
E7D
  5
445
331
C30
  5
EEA
331
ECC
  5
5E9
331
D77
  5
F08
331
B5A
  5
ECA
331
E85
  5
F22
331
E16
  5
F34
331
E95
  5
F24
331
ED4
  5
5F1
331
250
  5
250
331
1D2
  5
1D2
331
18B
  5
18B
331
193
  5
193
331
258
  5
258
331
260
  5
260
331
1E2
  5
1E2
331
19B
  5
19B
331
221
  5
221
331
3B9
  5
3BA
331
2EC
  5
2EC
331
323
  5
323
331
28D
  5
28D
331
1A3
  5
1A3
331
229
  5
229
331
408
  5
409
331
756
  5
EA5
331
2F4
  5
2F4
331
447
  5
44A
331
75E
  5
EAB
331
2A5
  5
2A5
331
2FC
  5
2FC
331
3C9
  5
3CA
331
F21
  5
644
331
F29
  5
652
331
44F
  5
454
331
2AD
  5
2AD
331
34B
  5
34F
331
F31
  5
65E
331
F39
  5
669
331
C48
  5
EEF
331
EDC
  5
5F9
331
E9D
  5
F2C
331
EA5
  5
F32
331
E66
  5
F37
331
EAD
  5
5CA
331
E6E
  5
F3F
331
EB5
  5
5D2
331
DB7
  5
F19
331
1AB
  5
1AB
331
239
  5
239
331
1B3
  5
1B3
331
1F2
  5
1F2
331
174
  5
174
331
241
  5
241
331
17C
  5
17C
331
1BB
  5
1BB
331
1FA
  5
1FA
331
304
  5
304
331
2CD
  5
2CD
331
202
  5
202
331
184
  5
184
331
1C3
  5
1C3
331
249
  5
249
331
3E1
  5
3E6
331
420
  5
421
331
2D5
  5
2D5
331
276
  5
276
331
3A2
  5
3A3
331
428
  5
429
331
373
  5
377
331
3AA
  5
3AB
331
2DD
  5
2DD
331
314
  5
314
331
EF2
  5
60F
331
F41
  5
674
331
F49
  5
6C5
331
286
  5
286
331
37B
  5
37C
331
430
  5
431
331
F12
  5
62F
331
D60
  5
EFD
331
B43
  5
EBA
331
C29
  5
EE3
331
DBF
  5
F1F
331
8B4
  5
EB0
331
B4B
  5
EC2
331
E76
  5
F47
331
C31
  5
EEB
331
D70
  5
F05
331
EC5
  5
5E2
331
D78
  5
F09
331
ECD
  5
5EB
331
B5B
  5
ECB
331
E96
  5
F25
331
ED5
  5
5F2
331
251
  5
251
331
1D3
  5
1D3
331
18C
  5
18C
331
212
  5
212
331
1DB
  5
1DB
331
259
  5
259
331
194
  5
194
331
222
  5
222
331
19C
  5
19C
331
438
  5
43E
331
324
  5
324
331
383
  5
384
331
3BA
  5
3BE
331
1A4
  5
1A4
331
28E
  5
28E
331
2ED
  5
2ED
331
440
  5
441
331
2F5
  5
2F5
331
334
  5
334
331
409
  5
415
331
F22
  5
646
331
2A6
  5
2A6
331
2FD
  5
2FD
331
3CA
  5
3CB
331
448
  5
44B
331
F2A
  5
654
331
2AE
  5
2AE
331
450
  5
456
331
F32
  5
660
331
F3A
  5
66A
331
C49
  5
EF0
331
E9E
  5
F2D
331
EDD
  5
5FA
331
E67
  5
F38
331
EED
  5
60A
331
E6F
  5
F40
331
EAE
  5
5CB
331
EB6
  5
5D3
331
1AC
  5
1AC
331
232
  5
232
331
1F3
  5
1F3
331
175
  5
175
331
1B4
  5
1B4
331
242
  5
242
331
1FB
  5
1FB
331
17D
  5
17D
331
2CE
  5
2CE
331
24A
  5
24A
331
305
  5
305
331
203
  5
203
331
185
  5
185
331
3DA
  5
3DB
331
421
  5
422
331
3A3
  5
3A4
331
277
  5
277
331
2D6
  5
2D6
331
EF3
  5
610
331
F42
  5
675
331
3EA
  5
3EB
331
429
  5
42A
331
315
  5
315
331
3AB
  5
3AE
331
2DE
  5
2DE
331
3FA
  5
3FB
331
2E6
  5
2E6
331
287
  5
287
331
37C
  5
383
331
431
  5
436
331
F0B
  5
628
331
F13
  5
630
331
B44
  5
EBB
331
C22
  5
EDF
331
D61
  5
EFE
331
E77
  5
F48
331
B4C
  5
EC3
331
C2A
  5
EE4
331
EC6
  5
5E3
331
D71
  5
F06
331
DD0
  5
F21
331
D79
  5
F0A
331
B5C
  5
ECC
331
E87
  5
F23
331
E97
  5
F26
331
ED6
  5
5F3
331
213
  5
213
331
252
  5
252
331
18D
  5
18D
331
1D4
  5
1D4
331
21B
  5
21B
331
195
  5
195
331
1DC
  5
1DC
331
25A
  5
25A
331
1E4
  5
1E4
331
19D
  5
19D
331
223
  5
223
331
402
  5
404
331
2EE
  5
2EE
331
1A5
  5
1A5
331
441
  5
443
331
449
  5
44D
331
345
  5
345
331
2FE
  5
2FE
331
3CB
  5
3CC
331
F23
  5
648
331
F2B
  5
655
331
F33
  5
661
331
F3B
  5
66C
331
D91
  5
F0D
331
B15
  5
EB2
331
C4A
  5
EF1
331
EDE
  5
5FB
331
E9F
  5
F2E
331
EA7
  5
F33
331
D5A
  5
EF7
331
E68
  5
F39
331
EAF
  5
5CC
331
DB1
  5
F14
331
EEE
  5
60B
331
EB7
  5
5D4
331
16E
  5
16E
331
1AD
  5
1AD
331
23B
  5
23B
331
1B5
  5
1B5
331
1F4
  5
1F4
331
176
  5
176
331
1FC
  5
1FC
331
17E
  5
17E
331
1BD
  5
1BD
331
243
  5
243
331
306
  5
306
331
41A
  5
420
331
671
  5
8AE
331
204
  5
204
331
186
  5
186
331
1C5
  5
1C5
331
24B
  5
24B
331
3A4
  5
3A5
331
2D7
  5
2D7
331
278
  5
278
331
422
  5
423
331
42A
  5
42B
331
EF4
  5
611
331
2DF
  5
2DF
331
3EB
  5
3EC
331
F43
  5
676
331
F4B
  5
34B
331
3FB
  5
3FC
331
2E7
  5
2E7
331
F0C
  5
629
331
F14
  5
63F
331
DB9
  5
F1A
331
E70
  5
F41
331
8AE
  5
EAD
331
B45
  5
EBC
331
C23
  5
EE0
331
C2B
  5
EE5
331
BB4
  5
ED2
331
D6A
  5
F00
331
8B6
  5
EB1
331
B4D
  5
EC4
331
E78
  5
F49
331
EC7
  5
5E4
331
D7A
  5
F0B
331
ECF
  5
5EC
331
ED7
  5
5F4
331
253
  5
253
331
1D5
  5
1D5
331
18E
  5
18E
331
214
  5
214
  0
XRECORD
  5
107B
102
{ACAD_REACTORS
330
107A
102
}
330
107A
100
AcDbXrecord
280
     1
102
SHADEPLOT
 70
     0
  0
XRECORD
  5
107D
102
{ACAD_REACTORS
330
107C
102
}
330
107C
100
AcDbXrecord
280
     1
102
SHADEPLOT
 70
     0
  0
LAYOUT
  5
21
102
{ACAD_XDICTIONARY
360
1070
102
}
102
{ACAD_REACTORS
330
19
102
}
330
19
100
AcDbPlotSettings
  1

  2
none_device
  4
Letter_(8.50_x_11.00_Inches)
  6

 40
6.349999904632568
 41
6.349999904632568
 42
6.350006103515625
 43
6.350006103515625
 44
215.8999938964844
 45
279.3999938964844
 46
0.0
 47
0.0
 48
0.0
 49
0.0
140
0.0
141
0.0
142
1.0
143
1.0
 70
   688
 72
     0
 73
     1
 74
     5
  7

 75
    16
147
1.0
148
0.0
149
0.0
100
AcDbLayout
  1
Layout1
 70
     1
 71
     1
 10
-0.2500002402958907
 20
-0.2499999962453767
 11
10.74999951940822
 21
8.249999763458733
 12
0.0
 22
0.0
 32
0.0
 14
1.049743681505489
 24
0.7996673802841308
 34
-0.0015258207003583
 15
9.450622583565561
 25
7.200576801086516
 35
0.0000000349246037
146
0.0
 13
0.0
 23
0.0
 33
0.0
 16
1.0
 26
0.0
 36
0.0
 17
0.0
 27
1.0
 37
0.0
 76
     0
330
1E
331
1061
1001
ACAD_PSEXT
1000
None
1000
None
1000
Not applicable
1000
The layout will not be plotted unless a new plotter configuration name is selected.
1070
     0
  0
LAYOUT
  5
25
102
{ACAD_XDICTIONARY
360
1072
102
}
102
{ACAD_REACTORS
330
19
102
}
330
19
100
AcDbPlotSettings
  1

  2
Symantec Fax Starter Edition
  4

  6

 40
0.0
 41
0.0
 42
0.0
 43
0.0
 44
0.0
 45
0.0
 46
0.0
 47
0.0
 48
0.0
 49
0.0
140
0.0
141
0.0
142
1.0
143
1.0
 70
  1712
 72
     0
 73
     0
 74
     0
  7

 75
     0
147
1.0
148
0.0
149
0.0
100
AcDbLayout
  1
Model
 70
     1
 71
     0
 10
0.0
 20
0.0
 11
12.0
 21
9.0
 12
0.0
 22
0.0
 32
0.0
 14
0.0
 24
0.0
 34
0.0
 15
0.0
 25
0.0
 35
0.0
146
0.0
 13
0.0
 23
0.0
 33
0.0
 16
1.0
 26
0.0
 36
0.0
 17
0.0
 27
1.0
 37
0.0
 76
     0
330
22
  0
MATERIAL
  5
1048
102
{ACAD_XDICTIONARY
360
1076
102
}
102
{ACAD_REACTORS
330
1A
102
}
330
1A
100
AcDbMaterial
  1
ByBlock
  0
MATERIAL
  5
1047
102
{ACAD_XDICTIONARY
360
1074
102
}
102
{ACAD_REACTORS
330
1A
102
}
330
1A
100
AcDbMaterial
  1
ByLayer
  0
MATERIAL
  5
1049
102
{ACAD_XDICTIONARY
360
1078
102
}
102
{ACAD_REACTORS
330
1A
102
}
330
1A
100
AcDbMaterial
  1
Global
  0
MLINESTYLE
  5
17
102
{ACAD_REACTORS
330
16
102
}
330
16
100
AcDbMlineStyle
  2
STANDARD
 70
     0
  3

 62
   256
 51
90.0
 52
90.0
 71
     2
 49
0.5
 62
   256
  6
BYLAYER
 49
-0.5
 62
   256
  6
BYLAYER
  0
ACDBPLACEHOLDER
  5
F
102
{ACAD_REACTORS
330
E
102
}
330
E
  0
TABLESTYLE
  5
1D
102
{ACAD_XDICTIONARY
360
106E
102
}
102
{ACAD_REACTORS
330
1C
102
}
330
1C
100
AcDbTableStyle
  3
Standard
 70
     0
 71
     0
 40
0.06
 41
0.06
280
     0
281
     0
  7
STANDARD
140
0.18
170
     2
 62
     0
 63
     7
283
     0
274
    -2
284
     1
 64
     0
275
    -2
285
     1
 65
     0
276
    -2
286
     1
 66
     0
277
    -2
287
     1
 67
     0
278
    -2
288
     1
 68
     0
279
    -2
289
     1
 69
     0
  7
STANDARD
140
0.25
170
     5
 62
     0
 63
     7
283
     0
274
    -2
284
     1
 64
     0
275
    -2
285
     1
 65
     0
276
    -2
286
     1
 66
     0
277
    -2
287
     1
 67
     0
278
    -2
288
     1
 68
     0
279
    -2
289
     1
 69
     0
  7
STANDARD
140
0.18
170
     5
 62
     0
 63
     7
283
     0
274
    -2
284
     1
 64
     0
275
    -2
285
     1
 65
     0
276
    -2
286
     1
 66
     0
277
    -2
287
     1
 67
     0
278
    -2
288
     1
 68
     0
279
    -2
289
     1
 69
     0
  0
VISUALSTYLE
  5
1050
102
{ACAD_REACTORS
330
104A
102
}
330
104A
100
AcDbVisualStyle
  2
2dWireframe
 70
     4
 71
     0
 72
     2
 73
     0
 90
        0
 40
-0.6
 41
-30.0
 62
     5
 63
     7
 74
     1
 91
        4
 64
     7
 65
   257
 75
     1
175
     1
 42
1.0
 92
        0
 66
   257
 43
1.0
 76
     1
 77
     6
 78
     2
 67
     7
 79
     5
170
     0
171
     0
290
     0
174
     0
 93
        1
 44
0.0
173
     0
291
     0
 45
0.0
1001
ACAD
1000
AcDbSavedByObjectVersion
1070
     0
  0
VISUALSTYLE
  5
1052
102
{ACAD_REACTORS
330
104A
102
}
330
104A
100
AcDbVisualStyle
  2
3D Hidden
 70
     6
 71
     1
 72
     2
 73
     2
 90
        0
 40
-0.6
 41
-30.0
 62
     5
 63
     7
 74
     2
 91
        2
 64
     7
 65
   257
 75
     2
175
     1
 42
40.0
 92
        0
 66
   257
 43
1.0
 76
     1
 77
     6
 78
     2
 67
     7
 79
     3
170
     0
171
     0
290
     0
174
     0
 93
        1
 44
0.0
173
     0
291
     0
 45
0.0
1001
ACAD
1000
AcDbSavedByObjectVersion
1070
     0
  0
VISUALSTYLE
  5
1051
102
{ACAD_REACTORS
330
104A
102
}
330
104A
100
AcDbVisualStyle
  2
3dWireframe
 70
     5
 71
     0
 72
     2
 73
     0
 90
        0
 40
-0.6
 41
-30.0
 62
     5
 63
     7
 74
     1
 91
        4
 64
     7
 65
   257
 75
     1
175
     1
 42
1.0
 92
        0
 66
   257
 43
1.0
 76
     1
 77
     6
 78
     2
 67
     7
 79
     5
170
     0
171
     0
290
     0
174
     0
 93
        1
 44
0.0
173
     0
291
     0
 45
0.0
1001
ACAD
1000
AcDbSavedByObjectVersion
1070
     0
  0
VISUALSTYLE
  5
104F
102
{ACAD_REACTORS
330
104A
102
}
330
104A
100
AcDbVisualStyle
  2
Basic
 70
     7
 71
     1
 72
     0
 73
     1
 90
        0
 40
-0.6
 41
-30.0
 62
     5
 63
     7
 74
     0
 91
        4
 64
     7
 65
   257
 75
     1
175
     1
 42
1.0
 92
        8
 66
     7
 43
1.0
 76
     1
 77
     6
 78
     2
 67
     7
 79
     5
170
     0
171
     0
290
     0
174
     0
 93
        1
 44
0.0
173
     0
291
     1
 45
0.0
1001
ACAD
1000
AcDbSavedByObjectVersion
1070
     0
  0
VISUALSTYLE
  5
1056
102
{ACAD_REACTORS
330
104A
102
}
330
104A
100
AcDbVisualStyle
  2
Brighten
 70
    12
 71
     2
 72
     2
 73
     0
 90
        0
 40
-0.6
 41
-30.0
 62
     5
 63
     7
 74
     1
 91
        4
 64
     7
 65
   257
 75
     1
175
     1
 42
1.0
 92
        8
 66
     7
 43
1.0
 76
     1
 77
     6
 78
     2
 67
     7
 79
     5
170
     0
171
     0
290
     0
174
     0
 93
        1
 44
50.0
173
     0
291
     1
 45
0.0
1001
ACAD
1000
AcDbSavedByObjectVersion
1070
     0
  0
VISUALSTYLE
  5
105A
102
{ACAD_REACTORS
330
104A
102
}
330
104A
100
AcDbVisualStyle
  2
ColorChange
 70
    16
 71
     2
 72
     2
 73
     3
 90
        0
 40
-0.6
 41
-30.0
 62
     5
 63
     8
 74
     1
 91
        4
 64
     7
 65
   257
 75
     1
175
     1
 42
1.0
 92
        8
 66
     8
 43
1.0
 76
     1
 77
     6
 78
     2
 67
     7
 79
     5
170
     0
171
     0
290
     0
174
     0
 93
        1
 44
0.0
173
     0
291
     1
 45
0.0
1001
ACAD
1000
AcDbSavedByObjectVersion
1070
     0
  0
VISUALSTYLE
  5
1053
102
{ACAD_REACTORS
330
104A
102
}
330
104A
100
AcDbVisualStyle
  2
Conceptual
 70
     9
 71
     3
 72
     2
 73
     0
 90
        0
 40
-0.6
 41
-30.0
 62
     5
 63
     7
 74
     2
 91
        2
 64
     7
 65
   257
 75
     1
175
     1
 42
40.0
 92
        8
 66
     7
 43
1.0
 76
     1
 77
     6
 78
     2
 67
     7
 79
     3
170
     0
171
     0
290
     0
174
     0
 93
        1
 44
0.0
173
     0
291
     0
 45
0.0
1001
ACAD
1000
AcDbSavedByObjectVersion
1070
     0
  0
VISUALSTYLE
  5
1055
102
{ACAD_REACTORS
330
104A
102
}
330
104A
100
AcDbVisualStyle
  2
Dim
 70
    11
 71
     2
 72
     2
 73
     0
 90
        0
 40
-0.6
 41
-30.0
 62
     5
 63
     7
 74
     1
 91
        4
 64
     7
 65
   257
 75
     1
175
     1
 42
1.0
 92
        8
 66
     7
 43
1.0
 76
     1
 77
     6
 78
     2
 67
     7
 79
     5
170
     0
171
     0
290
     0
174
     0
 93
        1
 44
-50.0
173
     0
291
     1
 45
0.0
1001
ACAD
1000
AcDbSavedByObjectVersion
1070
     0
  0
VISUALSTYLE
  5
1059
102
{ACAD_REACTORS
330
104A
102
}
330
104A
100
AcDbVisualStyle
  2
Facepattern
 70
    15
 71
     2
 72
     2
 73
     0
 90
        0
 40
-0.6
 41
-30.0
 62
     5
 63
     7
 74
     1
 91
        4
 64
     7
 65
   257
 75
     1
175
     1
 42
1.0
 92
        8
 66
     7
 43
1.0
 76
     1
 77
     6
 78
     2
 67
     7
 79
     5
170
     0
171
     0
290
     0
174
     0
 93
        1
 44
0.0
173
     0
291
     1
 45
0.0
1001
ACAD
1000
AcDbSavedByObjectVersion
1070
     0
  0
VISUALSTYLE
  5
104B
102
{ACAD_REACTORS
330
104A
102
}
330
104A
100
AcDbVisualStyle
  2
Flat
 70
     0
 71
     2
 72
     1
 73
     1
 90
        2
 40
-0.6
 41
30.0
 62
     5
 63
     7
 74
     0
 91
        4
 64
     7
 65
   257
 75
     1
175
     1
 42
1.0
 92
        8
 66
     7
 43
1.0
 76
     1
 77
     6
 78
     2
 67
     7
 79
     5
170
     0
171
     0
290
     0
174
     0
 93
       13
 44
0.0
173
     0
291
     1
 45
0.0
1001
ACAD
1000
AcDbSavedByObjectVersion
1070
     0
  0
VISUALSTYLE
  5
104C
102
{ACAD_REACTORS
330
104A
102
}
330
104A
100
AcDbVisualStyle
  2
FlatWithEdges
 70
     1
 71
     2
 72
     1
 73
     1
 90
        2
 40
-0.6
 41
30.0
 62
     5
 63
     7
 74
     1
 91
        4
 64
     7
 65
   257
 75
     1
175
     1
 42
1.0
 92
        0
 66
   257
 43
1.0
 76
     1
 77
     6
 78
     2
 67
     7
 79
     5
170
     0
171
     0
290
     0
174
     0
 93
       13
 44
0.0
173
     0
291
     1
 45
0.0
1001
ACAD
1000
AcDbSavedByObjectVersion
1070
     0
  0
VISUALSTYLE
  5
104D
102
{ACAD_REACTORS
330
104A
102
}
330
104A
100
AcDbVisualStyle
  2
Gouraud
 70
     2
 71
     2
 72
     2
 73
     1
 90
        2
 40
-0.6
 41
30.0
 62
     5
 63
     7
 74
     0
 91
        4
 64
     7
 65
   257
 75
     1
175
     1
 42
1.0
 92
        0
 66
     7
 43
1.0
 76
     1
 77
     6
 78
     2
 67
     7
 79
     5
170
     0
171
     0
290
     0
174
     0
 93
       13
 44
0.0
173
     0
291
     1
 45
0.0
1001
ACAD
1000
AcDbSavedByObjectVersion
1070
     0
  0
VISUALSTYLE
  5
104E
102
{ACAD_REACTORS
330
104A
102
}
330
104A
100
AcDbVisualStyle
  2
GouraudWithEdges
 70
     3
 71
     2
 72
     2
 73
     1
 90
        2
 40
-0.6
 41
30.0
 62
     5
 63
     7
 74
     1
 91
        4
 64
     7
 65
   257
 75
     1
175
     1
 42
1.0
 92
        0
 66
   257
 43
1.0
 76
     1
 77
     6
 78
     2
 67
     7
 79
     5
170
     0
171
     0
290
     0
174
     0
 93
       13
 44
0.0
173
     0
291
     1
 45
0.0
1001
ACAD
1000
AcDbSavedByObjectVersion
1070
     0
  0
VISUALSTYLE
  5
1058
102
{ACAD_REACTORS
330
104A
102
}
330
104A
100
AcDbVisualStyle
  2
Linepattern
 70
    14
 71
     2
 72
     2
 73
     0
 90
        0
 40
-0.6
 41
-30.0
 62
     5
 63
     7
 74
     1
 91
        4
 64
     7
 65
   257
 75
     7
175
     7
 42
1.0
 92
        8
 66
     7
 43
1.0
 76
     1
 77
     6
 78
     2
 67
     7
 79
     5
170
     0
171
     0
290
     0
174
     0
 93
        1
 44
0.0
173
     0
291
     1
 45
0.0
1001
ACAD
1000
AcDbSavedByObjectVersion
1070
     0
  0
VISUALSTYLE
  5
1054
102
{ACAD_REACTORS
330
104A
102
}
330
104A
100
AcDbVisualStyle
  2
Realistic
 70
     8
 71
     2
 72
     2
 73
     0
 90
        0
 40
-0.6
 41
-30.0
 62
     5
 63
     7
 74
     1
 91
        0
 64
     7
 65
   257
 75
     1
175
     1
 42
1.0
 92
        8
 66
     8
 43
1.0
 76
     1
 77
     6
 78
     2
 67
     7
 79
     5
170
     0
171
     0
290
     0
174
     0
 93
       13
 44
0.0
173
     0
291
     0
 45
0.0
1001
ACAD
1000
AcDbSavedByObjectVersion
1070
     0
  0
VISUALSTYLE
  5
1057
102
{ACAD_REACTORS
330
104A
102
}
330
104A
100
AcDbVisualStyle
  2
Thicken
 70
    13
 71
     2
 72
     2
 73
     0
 90
        0
 40
-0.6
 41
-30.0
 62
     5
 63
     7
 74
     1
 91
        4
 64
     7
 65
   257
 75
     1
175
     1
 42
1.0
 92
       12
 66
     7
 43
1.0
 76
     1
 77
     6
 78
     2
 67
     7
 79
     5
170
     0
171
     0
290
     0
174
     0
 93
        1
 44
0.0
173
     0
291
     1
 45
0.0
1001
ACAD
1000
AcDbSavedByObjectVersion
1070
     0
  0
DICTIONARYVAR
  5
8BC
102
{ACAD_REACTORS
330
8BB
102
}
330
8BB
100
DictionaryVariables
280
     0
  1
STANDARD
  0
DICTIONARYVAR
  5
106C
102
{ACAD_REACTORS
330
8BB
102
}
330
8BB
100
DictionaryVariables
280
     0
  1
1
  0
DICTIONARYVAR
  5
106B
102
{ACAD_REACTORS
330
8BB
102
}
330
8BB
100
DictionaryVariables
280
     0
  1
0
  0
DICTIONARYVAR
  5
106A
102
{ACAD_REACTORS
330
8BB
102
}
330
8BB
100
DictionaryVariables
280
     0
  1
127
  0
XRECORD
  5
1069
102
{ACAD_REACTORS
330
1067
102
}
330
1067
100
AcDbXrecord
280
     1
330
35
330
37
330
41
330
43
330
4D
330
4F
330
59
330
5B
330
65
330
67
330
71
330
73
330
7D
330
81
330
88
330
8A
330
91
330
93
330
9C
330
9E
330
A7
330
A9
330
B3
330
B5
330
BF
330
C3
330
CC
330
D0
330
D9
330
DD
330
E4
330
E6
330
EF
330
F1
330
FB
330
FD
330
107
330
109
330
112
330
114
330
11E
330
120
330
12A
330
12C
330
136
330
138
330
142
330
144
330
14D
330
14F
330
159
330
15B
330
164
330
168
  0
DICTIONARY
  5
1070
330
21
100
AcDbDictionary
280
     1
281
     1
  3
ACAD_XREC_ROUNDTRIP
360
1071
  0
DICTIONARY
  5
1072
330
25
100
AcDbDictionary
280
     1
281
     1
  3
ACAD_XREC_ROUNDTRIP
360
1073
  0
DICTIONARY
  5
1076
330
1048
100
AcDbDictionary
280
     1
281
     1
  3
ACAD_XREC_ROUNDTRIP
360
1077
  0
DICTIONARY
  5
1074
330
1047
100
AcDbDictionary
280
     1
281
     1
  3
ACAD_XREC_ROUNDTRIP
360
1075
  0
DICTIONARY
  5
1078
330
1049
100
AcDbDictionary
280
     1
281
     1
  3
ACAD_XREC_ROUNDTRIP
360
1079
  0
DICTIONARY
  5
106E
330
1D
100
AcDbDictionary
280
     1
281
     1
  3
ACAD_XREC_ROUNDTRIP
360
106F
  0
XRECORD
  5
1071
102
{ACAD_REACTORS
330
1070
102
}
330
1070
100
AcDbXrecord
280
     1
102
SHADEPLOT
 70
     0
102
SHADEPLOTRESLEVEL
 70
     2
102
SHADEPLOTCUSTOMDPI
 70
   300
  0
XRECORD
  5
1073
102
{ACAD_REACTORS
330
1072
102
}
330
1072
100
AcDbXrecord
280
     1
102
SHADEPLOT
 70
     0
102
SHADEPLOTRESLEVEL
 70
     2
102
SHADEPLOTCUSTOMDPI
 70
   300
  0
XRECORD
  5
1077
102
{ACAD_REACTORS
330
1076
102
}
330
1076
100
AcDbXrecord
280
     1
102
MATERIAL
148
0.0
149
0.0
149
0.0
 93
        0
 94
       63
282
     0
 72
     1
 77
     1
171
     1
175
     1
179
     1
273
     0
  0
XRECORD
  5
1075
102
{ACAD_REACTORS
330
1074
102
}
330
1074
100
AcDbXrecord
280
     1
102
MATERIAL
148
0.0
149
0.0
149
0.0
 93
        0
 94
       63
282
     0
 72
     1
 77
     1
171
     1
175
     1
179
     1
273
     0
  0
XRECORD
  5
1079
102
{ACAD_REACTORS
330
1078
102
}
330
1078
100
AcDbXrecord
280
     1
102
MATERIAL
148
0.0
149
0.0
149
0.0
 93
        0
 94
       63
282
     0
 72
     1
 77
     1
171
     1
175
     1
179
     1
273
     0
  0
XRECORD
  5
106F
102
{ACAD_REACTORS
330
106E
102
}
330
106E
100
AcDbXrecord
280
     1
102
ACAD_ROUNDTRIP_PRE2007_TABLESTYLE
 90
        4
 91
        0
  1

 92
        4
 93
        0
  2

 94
        4
 95
        0
  3

  0
ENDSEC
  0
EOF
