  0
SECTION
  2
HEADER
  9
$ACADVER
  1
AC1015
  9
$ACADMAINTVER
 70
    20
  9
$DWGCODEPAGE
  3
ANSI_1252
  9
$INSBASE
 10
0.0
 20
0.0
 30
0.0
  9
$EXTMIN
 10
-4.878415987219796
 20
-1.301542784671255
 30
-0.0015258207003583
  9
$EXTMAX
 10
39.39419661065813
 20
21.35775830801322
 30
0.0000000349246037
  9
$LIMMIN
 10
-25.0
 20
-20.0
  9
$LIMMAX
 10
816.0
 20
574.0
  9
$ORTHOMODE
 70
     1
  9
$REGENMODE
 70
     1
  9
$FILLMODE
 70
     1
  9
$QTEXTMODE
 70
     0
  9
$MIRRTEXT
 70
     1
  9
$LTSCALE
 40
1.0
  9
$ATTMODE
 70
     1
  9
$TEXTSIZE
 40
3.0
  9
$TRACEWID
 40
0.5
  9
$TEXTSTYLE
  7
STANDARD
  9
$CLAYER
  8
0
  9
$CELTYPE
  6
ByLayer
  9
$CECOLOR
 62
   256
  9
$CELTSCALE
 40
1.0
  9
$DISPSILH
 70
     0
  9
$DIMSCALE
 40
1.0
  9
$DIMASZ
 40
2.5
  9
$DIMEXO
 40
1.0
  9
$DIMDLI
 40
5.0
  9
$DIMRND
 40
0.0
  9
$DIMDLE
 40
3.0
  9
$DIMEXE
 40
1.0
  9
$DIMTP
 40
0.0
  9
$DIMTM
 40
0.0
  9
$DIMTXT
 40
2.5
  9
$DIMCEN
 40
2.0
  9
$DIMTSZ
 40
0.0
  9
$DIMTOL
 70
     0
  9
$DIMLIM
 70
     0
  9
$DIMTIH
 70
     0
  9
$DIMTOH
 70
     0
  9
$DIMSE1
 70
     0
  9
$DIMSE2
 70
     0
  9
$DIMTAD
 70
     1
  9
$DIMZIN
 70
     8
  9
$DIMBLK
  1

  9
$DIMASO
 70
     1
  9
$DIMSHO
 70
     0
  9
$DIMPOST
  1

  9
$DIMAPOST
  1

  9
$DIMALT
 70
     0
  9
$DIMALTD
 70
     4
  9
$DIMALTF
 40
25.4
  9
$DIMLFAC
 40
1.0
  9
$DIMTOFL
 70
     1
  9
$DIMTVP
 40
1.0
  9
$DIMTIX
 70
     0
  9
$DIMSOXD
 70
     0
  9
$DIMSAH
 70
     0
  9
$DIMBLK1
  1

  9
$DIMBLK2
  1

  9
$DIMSTYLE
  2
Standard
  9
$DIMCLRD
 70
     0
  9
$DIMCLRE
 70
     0
  9
$DIMCLRT
 70
     0
  9
$DIMTFAC
 40
1.0
  9
$DIMGAP
 40
0.09
  9
$DIMJUST
 70
     0
  9
$DIMSD1
 70
     0
  9
$DIMSD2
 70
     0
  9
$DIMTOLJ
 70
     1
  9
$DIMTZIN
 70
     0
  9
$DIMALTZ
 70
     0
  9
$DIMALTTZ
 70
     0
  9
$DIMUPT
 70
     0
  9
$DIMDEC
 70
     4
  9
$DIMTDEC
 70
     4
  9
$DIMALTU
 70
     2
  9
$DIMALTTD
 70
     2
  9
$DIMTXSTY
  7
STANDARD
  9
$DIMAUNIT
 70
     0
  9
$DIMADEC
 70
     0
  9
$DIMALTRND
 40
0.0
  9
$DIMAZIN
 70
     0
  9
$DIMDSEP
 70
    46
  9
$DIMATFIT
 70
     3
  9
$DIMFRAC
 70
     0
  9
$DIMLDRBLK
  1

  9
$DIMLUNIT
 70
     2
  9
$DIMLWD
 70
    -2
  9
$DIMLWE
 70
    -2
  9
$DIMTMOVE
 70
     0
  9
$LUNITS
 70
     2
  9
$LUPREC
 70
     4
  9
$SKETCHINC
 40
1.0
  9
$FILLETRAD
 40
0.0
  9
$AUNITS
 70
     0
  9
$AUPREC
 70
     0
  9
$MENU
  1
acad
  9
$ELEVATION
 40
0.0
  9
$PELEVATION
 40
0.0
  9
$THICKNESS
 40
0.0
  9
$LIMCHECK
 70
     0
  9
$CHAMFERA
 40
0.0
  9
$CHAMFERB
 40
0.0
  9
$CHAMFERC
 40
0.0
  9
$CHAMFERD
 40
0.0
  9
$SKPOLY
 70
     0
  9
$TDCREATE
 40
2453558.313101852
  9
$TDUCREATE
 40
2453558.604768518
  9
$TDUPDATE
 40
2454923.366822639
  9
$TDUUPDATE
 40
2454923.658489306
  9
$TDINDWG
 40
0.1191346181
  9
$TDUSRTIMER
 40
0.1191344444
  9
$USRTIMER
 70
     1
  9
$ANGBASE
 50
0.0
  9
$ANGDIR
 70
     0
  9
$PDMODE
 70
     0
  9
$PDSIZE
 40
0.0
  9
$PLINEWID
 40
0.0
  9
$SPLFRAME
 70
     0
  9
$SPLINETYPE
 70
     6
  9
$SPLINESEGS
 70
     8
  9
$HANDSEED
  5
191D
  9
$SURFTAB1
 70
     6
  9
$SURFTAB2
 70
     6
  9
$SURFTYPE
 70
     6
  9
$SURFU
 70
     6
  9
$SURFV
 70
     6
  9
$UCSBASE
  2

  9
$UCSNAME
  2

  9
$UCSORG
 10
0.0
 20
0.0
 30
0.0
  9
$UCSXDIR
 10
1.0
 20
0.0
 30
0.0
  9
$UCSYDIR
 10
0.0
 20
1.0
 30
0.0
  9
$UCSORTHOREF
  2

  9
$UCSORTHOVIEW
 70
     0
  9
$UCSORGTOP
 10
0.0
 20
0.0
 30
0.0
  9
$UCSORGBOTTOM
 10
0.0
 20
0.0
 30
0.0
  9
$UCSORGLEFT
 10
0.0
 20
0.0
 30
0.0
  9
$UCSORGRIGHT
 10
0.0
 20
0.0
 30
0.0
  9
$UCSORGFRONT
 10
0.0
 20
0.0
 30
0.0
  9
$UCSORGBACK
 10
0.0
 20
0.0
 30
0.0
  9
$PUCSBASE
  2

  9
$PUCSNAME
  2

  9
$PUCSORG
 10
0.0
 20
0.0
 30
0.0
  9
$PUCSXDIR
 10
1.0
 20
0.0
 30
0.0
  9
$PUCSYDIR
 10
0.0
 20
1.0
 30
0.0
  9
$PUCSORTHOREF
  2

  9
$PUCSORTHOVIEW
 70
     0
  9
$PUCSORGTOP
 10
0.0
 20
0.0
 30
0.0
  9
$PUCSORGBOTTOM
 10
0.0
 20
0.0
 30
0.0
  9
$PUCSORGLEFT
 10
0.0
 20
0.0
 30
0.0
  9
$PUCSORGRIGHT
 10
0.0
 20
0.0
 30
0.0
  9
$PUCSORGFRONT
 10
0.0
 20
0.0
 30
0.0
  9
$PUCSORGBACK
 10
0.0
 20
0.0
 30
0.0
  9
$USERI1
 70
     0
  9
$USERI2
 70
     0
  9
$USERI3
 70
     0
  9
$USERI4
 70
     0
  9
$USERI5
 70
     0
  9
$USERR1
 40
0.0
  9
$USERR2
 40
0.0
  9
$USERR3
 40
0.0
  9
$USERR4
 40
0.0
  9
$USERR5
 40
0.0
  9
$WORLDVIEW
 70
     1
  9
$SHADEDGE
 70
     3
  9
$SHADEDIF
 70
    70
  9
$TILEMODE
 70
     0
  9
$MAXACTVP
 70
    64
  9
$PINSBASE
 10
0.0
 20
0.0
 30
0.0
  9
$PLIMCHECK
 70
     0
  9
$PEXTMIN
 10
1.049743681505489
 20
0.7996673802841308
 30
-0.0015258207003583
  9
$PEXTMAX
 10
9.450622583565561
 20
7.200576801086516
 30
0.0000000349246037
  9
$PLIMMIN
 10
-0.2500002402958907
 20
-0.2499999962453767
  9
$PLIMMAX
 10
10.74999951940822
 20
8.249999763458733
  9
$UNITMODE
 70
     0
  9
$VISRETAIN
 70
     1
  9
$PLINEGEN
 70
     0
  9
$PSLTSCALE
 70
     1
  9
$TREEDEPTH
 70
  3020
  9
$CMLSTYLE
  2
Standard
  9
$CMLJUST
 70
     0
  9
$CMLSCALE
 40
1.0
  9
$PROXYGRAPHICS
 70
     1
  9
$MEASUREMENT
 70
     0
  9
$CELWEIGHT
370
    -1
  9
$ENDCAPS
280
     0
  9
$JOINSTYLE
280
     0
  9
$LWDISPLAY
290
     0
  9
$INSUNITS
 70
     0
  9
$HYPERLINKBASE
  1

  9
$STYLESHEET
  1

  9
$XEDIT
290
     1
  9
$CEPSNTYPE
380
     0
  9
$PSTYLEMODE
290
     1
  9
$FINGERPRINTGUID
  2
{09266B8B-A0CE-4F3B-9043-505E2018E6F2}
  9
$VERSIONGUID
  2
{1DE9E987-56F3-4EF9-B559-54A9C794838E}
  9
$EXTNAMES
290
     1
  9
$PSVPSCALE
 40
0.0
  9
$OLESTARTUP
290
     0
  0
ENDSEC
  0
SECTION
  2
CLASSES
  0
CLASS
  1
ACDBDICTIONARYWDFLT
  2
AcDbDictionaryWithDefault
  3
ObjectDBX Classes
 90
        0
280
     0
281
     0
  0
CLASS
  1
TABLESTYLE
  2
AcDbTableStyle
  3
ObjectDBX Classes
 90
     4095
280
     0
281
     0
  0
CLASS
  1
SORTENTSTABLE
  2
AcDbSortentsTable
  3
ObjectDBX Classes
 90
        0
280
     0
281
     0
  0
CLASS
  1
DICTIONARYVAR
  2
AcDbDictionaryVar
  3
ObjectDBX Classes
 90
        0
280
     0
281
     0
  0
CLASS
  1
MATERIAL
  2
AcDbMaterial
  3
ObjectDBX Classes
 90
     1024
280
     0
281
     0
  0
CLASS
  1
VISUALSTYLE
  2
AcDbVisualStyle
  3
ObjectDBX Classes
 90
     4095
280
     0
281
     0
  0
CLASS
  1
ACDBPLACEHOLDER
  2
AcDbPlaceHolder
  3
ObjectDBX Classes
 90
        0
280
     0
281
     0
  0
CLASS
  1
LAYOUT
  2
AcDbLayout
  3
ObjectDBX Classes
 90
        0
280
     0
281
     0
  0
ENDSEC
  0
SECTION
  2
TABLES
  0
TABLE
  2
VPORT
  5
8
330
0
100
AcDbSymbolTable
 70
     1
  0
VPORT
  5
18E6
330
8
100
AcDbSymbolTableRecord
100
AcDbViewportTableRecord
  2
*Active
 70
     0
 10
0.0
 20
0.0
 11
1.0
 21
1.0
 12
17.25789031171916
 22
10.02810776167098
 13
0.0
 23
0.0
 14
0.0
 24
0.0
 15
0.0
 25
0.0
 16
0.0
 26
0.0
 36
1.0
 17
0.0
 27
0.0
 37
0.0
 40
27.01869166113365
 41
1.646976090014064
 42
50.0
 43
0.0
 44
0.0
 50
0.0
 51
0.0
 71
     0
 72
   100
 73
     1
 74
     1
 75
     0
 76
     0
 77
     0
 78
     0
281
     0
 65
     0
110
0.0
120
0.0
130
0.0
111
1.0
121
0.0
131
0.0
112
0.0
122
1.0
132
0.0
 79
     0
146
0.0
  0
ENDTAB
  0
TABLE
  2
LTYPE
  5
5
330
0
100
AcDbSymbolTable
 70
     4
  0
LTYPE
  5
13
330
5
100
AcDbSymbolTableRecord
100
AcDbLinetypeTableRecord
  2
ByBlock
 70
     0
  3

 72
    65
 73
     0
 40
0.0
  0
LTYPE
  5
14
330
5
100
AcDbSymbolTableRecord
100
AcDbLinetypeTableRecord
  2
ByLayer
 70
     0
  3

 72
    65
 73
     0
 40
0.0
  0
LTYPE
  5
15
330
5
100
AcDbSymbolTableRecord
100
AcDbLinetypeTableRecord
  2
CONTINUOUS
 70
     0
  3
solid line
 72
    65
 73
     0
 40
0.0
  0
LTYPE
  5
27
330
5
100
AcDbSymbolTableRecord
100
AcDbLinetypeTableRecord
  2
DASHED
 70
     0
  3
-- -- -- -- -- -- -- -- -- --
 72
    65
 73
     2
 40
3.0
 49
2.0
 74
     0
 49
-1.0
 74
     0
  0
LTYPE
  5
28
330
5
100
AcDbSymbolTableRecord
100
AcDbLinetypeTableRecord
  2
CENTER
 70
     0
  3
--- - --- - --- - --- - --- -
 72
    65
 73
     4
 40
6.0
 49
3.0
 74
     0
 49
-1.0
 74
     0
 49
1.0
 74
     0
 49
-1.0
 74
     0
  0
LTYPE
  5
10D0
330
5
100
AcDbSymbolTableRecord
100
AcDbLinetypeTableRecord
  2
PHANTOM
 70
     0
  3
----- - - ----- - - ----- - -
 72
    65
 73
     6
 40
12.0
 49
7.0
 74
     0
 49
-1.0
 74
     0
 49
1.0
 74
     0
 49
-1.0
 74
     0
 49
1.0
 74
     0
 49
-1.0
 74
     0
  0
ENDTAB
  0
TABLE
  2
LAYER
  5
2
102
{ACAD_XDICTIONARY
360
B38
102
}
330
0
100
AcDbSymbolTable
 70
     1
  0
LAYER
  5
10
330
2
100
AcDbSymbolTableRecord
100
AcDbLayerTableRecord
  2
0
 70
     0
 62
     7
  6
CONTINUOUS
370
    -3
390
F
  0
ENDTAB
  0
TABLE
  2
STYLE
  5
3
330
0
100
AcDbSymbolTable
 70
     1
  0
STYLE
  5
11
330
3
100
AcDbSymbolTableRecord
100
AcDbTextStyleTableRecord
  2
STANDARD
 70
     0
 40
0.0
 41
1.0
 50
0.0
 71
     0
 42
3.0
  3
monotxt
  4
extfont
  0
ENDTAB
  0
TABLE
  2
VIEW
  5
6
330
0
100
AcDbSymbolTable
 70
     2
  0
ENDTAB
  0
TABLE
  2
UCS
  5
7
330
0
100
AcDbSymbolTable
 70
     0
  0
ENDTAB
  0
TABLE
  2
APPID
  5
9
330
0
100
AcDbSymbolTable
 70
     4
  0
APPID
  5
12
330
9
100
AcDbSymbolTableRecord
100
AcDbRegAppTableRecord
  2
ACAD
 70
     0
  0
APPID
  5
B36
330
9
100
AcDbSymbolTableRecord
100
AcDbRegAppTableRecord
  2
ACAD_PSEXT
 70
     0
  0
APPID
  5
B37
330
9
100
AcDbSymbolTableRecord
100
AcDbRegAppTableRecord
  2
DCO15
 70
     0
  0
APPID
  5
1877
330
9
100
AcDbSymbolTableRecord
100
AcDbRegAppTableRecord
  2
ACAD_EXEMPT_FROM_CAD_STANDARDS
 70
     0
  0
ENDTAB
  0
TABLE
  2
DIMSTYLE
  5
A
330
0
100
AcDbSymbolTable
 70
     1
100
AcDbDimStyleTable
 71
     1
340
B2E
  0
DIMSTYLE
105
B2E
330
A
100
AcDbSymbolTableRecord
100
AcDbDimStyleTableRecord
  2
Standard
 70
     0
340
11
  0
ENDTAB
  0
TABLE
  2
BLOCK_RECORD
  5
1
330
0
100
AcDbSymbolTable
 70
     0
  0
BLOCK_RECORD
  5
22
102
{ACAD_XDICTIONARY
360
18CE
102
}
330
1
100
AcDbSymbolTableRecord
100
AcDbBlockTableRecord
  2
*Model_Space
340
25
  0
BLOCK_RECORD
  5
1E
330
1
100
AcDbSymbolTableRecord
100
AcDbBlockTableRecord
  2
*Paper_Space
340
21
  0
ENDTAB
  0
ENDSEC
  0
SECTION
  2
BLOCKS
  0
BLOCK
  5
23
330
22
100
AcDbEntity
  8
0
100
AcDbBlockBegin
  2
*Model_Space
 70
     0
 10
0.0
 20
0.0
 30
0.0
  3
*Model_Space
  1

  0
ENDBLK
  5
24
330
22
100
AcDbEntity
  8
0
100
AcDbBlockEnd
  0
BLOCK
  5
1F
330
1E
100
AcDbEntity
 67
     1
  8
0
100
AcDbBlockBegin
  2
*Paper_Space
 70
     0
 10
0.0
 20
0.0
 30
0.0
  3
*Paper_Space
  1

  0
ENDBLK
  5
20
330
1E
100
AcDbEntity
 67
     1
  8
0
100
AcDbBlockEnd
  0
ENDSEC
  0
SECTION
  2
ENTITIES
  0
ARC
  5
444
330
22
100
AcDbEntity
  8
0
  6
Continuous
100
AcDbCircle
 10
-0.6337440064088469
 20
18.37131100227698
 30
0.0
 40
0.03937
100
AcDbArc
 50
90.0
 51
180.0
  0
LINE
  5
445
330
22
100
AcDbEntity
  8
0
  6
Continuous
100
AcDbLine
 10
-0.6731140064088095
 20
18.37131100227698
 30
0.0
 11
-0.6731140064088095
 21
17.74139100227701
 31
0.0
  0
LINE
  5
446
330
22
100
AcDbEntity
  8
0
  6
Continuous
100
AcDbLine
 10
-0.6337440064088469
 20
18.410681002277
 30
0.0
 11
-0.1277011303302515
 21
18.410681002277
 31
0.0
  0
LINE
  5
447
330
22
100
AcDbEntity
  8
0
  6
Continuous
100
AcDbLine
 10
-0.6337440064088469
 20
17.70202100227699
 30
0.0
 11
-0.0991026744477495
 21
17.70202100227699
 31
0.0
  0
ARC
  5
449
330
22
100
AcDbEntity
  8
0
  6
Continuous
100
AcDbCircle
 10
-0.6337440064088469
 20
17.74139100227701
 30
0.0
 40
0.0393699999999995
100
AcDbArc
 50
180.0
 51
270.0
  0
ARC
  5
44B
330
22
100
AcDbEntity
  8
0
  6
Continuous
100
AcDbCircle
 10
-0.6337440064088469
 20
10.06424100227697
 30
0.0
 40
0.0393699999999995
100
AcDbArc
 50
180.0
 51
270.0
  0
LINE
  5
44C
330
22
100
AcDbEntity
  8
0
  6
Continuous
100
AcDbLine
 10
-0.6731140064088095
 20
10.06424100227697
 30
0.0
 11
-0.6731140064088095
 21
10.694161002277
 31
0.0
  0
LINE
  5
44D
330
22
100
AcDbEntity
  8
0
  6
Continuous
100
AcDbLine
 10
-0.6337440064088469
 20
10.73353100227702
 30
0.0
 11
0.0158609935911045
 21
10.73353100227702
 31
0.0
  0
ARC
  5
44E
330
22
100
AcDbEntity
  8
0
  6
Continuous
100
AcDbCircle
 10
-0.6337440064088469
 20
10.694161002277
 30
0.0
 40
0.03937
100
AcDbArc
 50
90.0
 51
180.0
  0
ARC
  5
44F
330
22
100
AcDbEntity
  8
0
  6
Continuous
100
AcDbCircle
 10
0.0158609935911045
 20
10.77290100227698
 30
0.0
 40
0.0393699999999995
100
AcDbArc
 50
270.0
 51
0.0
  0
ARC
  5
452
330
22
100
AcDbEntity
  8
0
  6
Continuous
100
AcDbCircle
 10
8.874080118056554
 20
14.217776002277
 30
0.0
 40
6.614159999999997
100
AcDbArc
 50
297.4103289848108
 51
62.58967101518919
  0
ARC
  5
453
330
22
100
AcDbEntity
  8
0
  6
Continuous
100
AcDbCircle
 10
6.880399685064958
 20
10.37327332688365
 30
0.0
 40
10.94486
100
AcDbArc
 50
62.58966914185482
 51
86.26227644235344
  0
ARC
  5
454
330
22
100
AcDbEntity
  8
0
  6
Continuous
100
AcDbCircle
 10
6.695809557296797
 20
7.62330073476177
 30
0.0
 40
13.7007599999989
100
AcDbArc
 50
86.24148593044061
 51
93.33010929811981
  0
ARC
  5
455
330
22
100
AcDbEntity
  8
0
  6
Continuous
100
AcDbCircle
 10
6.205378308435683
 20
5.41483051297105
 30
0.0
 40
15.86610999999958
100
AcDbArc
 50
95.81487735229563
 51
109.0601921789858
  0
ARC
  5
456
330
22
100
AcDbEntity
  8
0
  6
Continuous
100
AcDbCircle
 10
8.874080118056554
 20
14.217776002277
 30
0.0
 40
6.496443700000004
100
AcDbArc
 50
297.6918376124662
 51
62.30816238753382
  0
ARC
  5
457
330
22
100
AcDbEntity
  8
0
  6
Continuous
100
AcDbCircle
 10
7.081268279991263
 20
10.80179033164417
 30
0.0
 40
10.35430999999998
100
AcDbArc
 50
62.30816238753382
 51
87.47129117304213
  0
ARC
  5
459
330
22
100
AcDbEntity
  8
0
  6
Continuous
100
AcDbCircle
 10
7.118194925030252
 20
4.627150049050513
 30
0.0
 40
16.53540000000026
100
AcDbArc
 50
92.20537672692076
 51
108.8789963488084
  0
LINE
  5
45B
330
22
100
AcDbEntity
  8
0
  6
Continuous
100
AcDbLine
 10
1.633709797523692
 20
19.92056007800637
 30
0.0
 11
1.681433461649476
 21
20.04597603652429
 31
0.0
  0
ARC
  5
45E
330
22
100
AcDbEntity
  8
0
  6
Continuous
100
AcDbCircle
 10
1.049834383376264
 20
20.33667417766846
 30
0.0
 40
0.0787399999999998
100
AcDbArc
 50
109.0601921789858
 51
169.8803241841296
  0
LINE
  5
45F
330
22
100
AcDbEntity
  8
0
  6
Continuous
100
AcDbLine
 10
0.9954215183693122
 20
20.39358839137419
 30
0.0
 11
1.527814820226922
 21
20.31047920767328
 31
0.0
  0
ARC
  5
460
330
22
100
AcDbEntity
  8
0
  6
Continuous
100
AcDbCircle
 10
1.497453287160169
 20
20.11598473523294
 30
0.0
 40
0.1968499999999989
100
AcDbArc
 50
339.1670259735786
 51
81.12745855769118
  0
LINE
  5
465
330
22
100
AcDbEntity
  8
0
  6
Continuous
100
AcDbLine
 10
-0.6337440064088469
 20
10.02487100227701
 30
0.0
 11
0.0293444536988545
 21
10.02487100227701
 31
0.0
  0
ARC
  5
467
330
22
100
AcDbEntity
  8
0
  6
Continuous
100
AcDbCircle
 10
1.049834383376264
 20
8.098877826885498
 30
0.0
 40
0.0787399999999998
100
AcDbArc
 50
190.1196758158704
 51
250.9398078210142
  0
ARC
  5
468
330
22
100
AcDbEntity
  8
0
  6
Continuous
100
AcDbCircle
 10
7.118194925030252
 20
23.8084019555035
 30
0.0
 40
16.53540000000026
100
AcDbArc
 50
251.1210036511916
 51
267.7946232730793
  0
ARC
  5
46B
330
22
100
AcDbEntity
  8
0
  6
Continuous
100
AcDbCircle
 10
6.954683070523742
 20
20.38693116037451
 30
0.0
 40
13.11020999999856
100
AcDbArc
 50
267.3297024747399
 51
272.5507246439672
  0
ARC
  5
46C
330
22
100
AcDbEntity
  8
0
  6
Continuous
100
AcDbCircle
 10
6.880399685064958
 20
18.06227867767036
 30
0.0
 40
10.94486
100
AcDbArc
 50
273.7377235576401
 51
297.4103308581452
  0
ARC
  5
46D
330
22
100
AcDbEntity
  8
0
  6
Continuous
100
AcDbCircle
 10
7.081268279991263
 20
17.63376167290978
 30
0.0
 40
10.35430999999998
100
AcDbArc
 50
272.5287088269579
 51
297.6918376124662
  0
ARC
  5
46F
330
22
100
AcDbEntity
  8
0
  6
Continuous
100
AcDbCircle
 10
7.402005895457932
 20
-6.335395162225708
 30
0.0
 40
27.67711000000284
100
AcDbArc
 50
93.1110082287139
 51
95.81487868020698
  0
ARC
  5
471
330
22
100
AcDbEntity
  8
0
  6
Continuous
100
AcDbCircle
 10
6.550203239476786
 20
24.24347131156033
 30
0.0
 40
17.13458743108211
100
AcDbArc
 50
251.185189886016
 51
273.4921035154399
  0
LINE
  5
4E9
330
22
100
AcDbEntity
  8
0
  6
Continuous
100
AcDbLine
 10
14.95313792108141
 20
16.21149425464973
 30
0.0
 11
15.0543503478392
 21
16.21850727619512
 31
0.0
  0
LINE
  5
4EA
330
22
100
AcDbEntity
  8
0
  6
Continuous
100
AcDbLine
 10
15.0543503478392
 20
16.21850727619512
 30
0.0
 11
14.96834621759012
 21
16.16469041576728
 31
0.0
  0
LINE
  5
4ED
330
22
100
AcDbEntity
  8
0
  6
Continuous
100
AcDbLine
 10
14.95010058709704
 20
16.5708862276493
 30
0.0
 11
15.0508059905394
 21
16.58318664932592
 31
0.0
  0
LINE
  5
4EE
330
22
100
AcDbEntity
  8
0
  6
Continuous
100
AcDbLine
 10
15.0508059905394
 20
16.58318664932592
 30
0.0
 11
14.96773706872545
 21
16.52494249615059
 31
0.0
  0
TEXT
  5
555
330
22
100
AcDbEntity
  8
0
  6
Continuous
100
AcDbText
 10
-0.1398050013391412
 20
9.809268648837658
 30
0.0
 40
0.098425
  1
R1
 50
51.00000000001084
 41
0.6547619344966496
100
AcDbText
  0
ARC
  5
6CC
330
22
100
AcDbEntity
  8
0
  6
Continuous
100
AcDbCircle
 10
7.623224235414568
 20
6.542484995684006
 30
0.0
 40
8.863186641698543
100
AcDbArc
 50
233.1395282751508
 51
236.7853757753573
  0
LINE
  5
6CD
330
22
100
AcDbEntity
  8
0
  6
Continuous
100
AcDbLine
 10
-0.0038240064088768
 20
-0.6688883789142182
 30
0.0
 11
0.8229459935911336
 21
-0.6688883789142182
 31
0.0
  0
ARC
  5
6CE
330
22
100
AcDbEntity
  8
0
  6
Continuous
100
AcDbCircle
 10
0.4090593408024006
 20
1.53056509847245
 30
0.0
 40
2.238056692880003
100
AcDbArc
 50
280.657124958144
 51
294.9774430808635
  0
ARC
  5
6CF
330
22
100
AcDbEntity
  8
0
  6
Continuous
100
AcDbCircle
 10
1.520348665382698
 20
-0.8550541770181752
 30
0.0
 40
0.3936999999999943
100
AcDbArc
 50
82.68959628431773
 51
114.9774430808635
  0
LINE
  5
6D0
330
22
100
AcDbEntity
  8
0
  6
Continuous
100
AcDbLine
 10
13.3973747700337
 20
-0.6885733789141995
 30
0.0
 11
15.40002510121121
 21
-0.6885733789141995
 31
0.0
  0
ARC
  5
6D1
330
22
100
AcDbEntity
  8
0
  6
Continuous
100
AcDbCircle
 10
5.077194431507223
 20
26.87042662111652
 30
0.0
 40
27.55900000003097
100
AcDbArc
 50
262.6895701784845
 51
264.2295021565678
  0
ARC
  5
6D2
330
22
100
AcDbEntity
  8
0
  6
Continuous
100
AcDbCircle
 10
15.40002510121121
 20
-0.6098333789142174
 30
0.0
 40
0.0787400000000026
100
AcDbArc
 50
255.4866987734823
 51
6.560608745281492
  0
ARC
  5
6D4
330
22
100
AcDbEntity
  8
0
  6
Continuous
100
AcDbCircle
 10
2.81113196744468
 20
-0.8066833789142009
 30
0.0
 40
0.0787399999999966
100
AcDbArc
 50
236.938626434979
 51
270.0
  0
ARC
  5
6D6
330
22
100
AcDbEntity
  8
0
  6
Continuous
100
AcDbCircle
 10
-23.63393808391686
 20
-5.099023779160901
 30
0.0
 40
39.37000000000001
100
AcDbArc
 50
6.560608745281492
 51
7.324387954082885
  0
ARC
  5
6D7
330
22
100
AcDbEntity
  8
0
  6
Continuous
100
AcDbCircle
 10
19.42667323575529
 20
197.0645050223064
 30
0.0
 40
196.85
100
AcDbArc
 50
264.8566043437212
 51
268.7210903157188
  0
ARC
  5
6D8
330
22
100
AcDbEntity
  8
0
  6
Continuous
100
AcDbCircle
 10
15.02432574102613
 20
-0.1300601315679586
 30
0.0
 40
0.3936999999999997
100
AcDbArc
 50
7.324387954082885
 51
91.86195359222024
  0
ARC
  5
6DC
330
22
100
AcDbEntity
  8
0
  6
Continuous
100
AcDbCircle
 10
12.81108011805656
 20
-0.8066833789142009
 30
0.0
 40
0.0787400000000154
100
AcDbArc
 50
176.156484450619
 51
293.2094799573897
  0
ARC
  5
6DD
330
22
100
AcDbEntity
  8
0
  6
Continuous
100
AcDbCircle
 10
13.63599061564082
 20
-0.8621027245912245
 30
0.0
 40
0.9055100000000036
100
AcDbArc
 50
105.9771635754386
 51
176.156513230066
  0
ARC
  5
6DE
330
22
100
AcDbEntity
  8
0
  6
Continuous
100
AcDbCircle
 10
14.39366157051608
 20
-4.497429061554939
 30
0.0
 40
3.936999999999998
100
AcDbArc
 50
75.48669877348236
 51
113.2095193675094
  0
ARC
  5
6DF
330
22
100
AcDbEntity
  8
0
  6
Continuous
100
AcDbCircle
 10
15.22899450662862
 20
-6.425934283453997
 30
0.0
 40
6.692900000000007
100
AcDbArc
 50
91.86193904639155
 51
105.9771677477325
  0
LINE
  5
6E1
330
22
100
AcDbEntity
  8
0
  6
Continuous
100
AcDbLine
 10
0.9432872029351528
 20
-0.1453151640555319
 30
0.0
 11
0.8229459935911336
 21
-0.6688883789142182
 31
0.0
  0
ARC
  5
6E2
330
22
100
AcDbEntity
  8
0
  6
Continuous
100
AcDbCircle
 10
1.326982483439905
 20
-0.2335059896462184
 30
0.0
 40
0.3937000000000008
100
AcDbArc
 50
136.3042286616394
 51
167.0556159831293
  0
LINE
  5
6E5
330
22
100
AcDbEntity
  8
0
  6
Continuous
100
AcDbLine
 10
12.81108011805656
 20
-0.8854233789141829
 30
0.0
 11
2.81113196744468
 21
-0.8854233789141829
 31
0.0
  0
LINE
  5
71D
330
22
100
AcDbEntity
  8
0
  6
CENTER
100
AcDbLine
 10
-0.8576455572509757
 20
0.0000000000000071
 30
0.0
 11
0.8576455572509757
 21
0.0000000000000071
 31
0.0
  0
LINE
  5
71F
330
22
100
AcDbEntity
  8
0
  6
CENTER
 48
0.25
100
AcDbLine
 10
6.695809557296911
 20
-1.256819970249679
 30
0.0
 11
6.695809557296911
 21
3.339595192424646
 31
0.0
  0
LINE
  5
7A6
330
22
100
AcDbEntity
  8
0
  6
Continuous
100
AcDbLine
 10
0.1142859935911247
 20
-0.1263184163353088
 30
0.0
 11
0.1142859935911247
 21
0.1271216585069084
 31
0.0
  0
LINE
  5
7A7
330
22
100
AcDbEntity
  8
0
  6
Continuous
100
AcDbLine
 10
-0.1219340064088783
 20
-0.1263184163353088
 30
0.0
 11
-0.1219340064088783
 21
0.1271216585069084
 31
0.0
  0
ARC
  5
7A8
330
22
100
AcDbEntity
  8
0
  6
Continuous
100
AcDbCircle
 10
-0.0038240064088768
 20
0.0004016210857714
 30
0.0
 40
0.1732280000000025
100
AcDbArc
 50
47.01411391981168
 51
132.9858860801883
  0
ARC
  5
7A9
330
22
100
AcDbEntity
  8
0
  6
Continuous
100
AcDbCircle
 10
-0.0038240064088768
 20
0.0004016210857714
 30
0.0
 40
0.1732280000000025
100
AcDbArc
 50
227.0141139198117
 51
312.9858860801883
  0
ARC
  5
14A5
330
22
100
AcDbEntity
  8
0
  6
Continuous
100
AcDbCircle
 10
8.787498234961049
 20
14.21777619345501
 30
0.0
 40
6.41731
100
AcDbArc
 50
294.3350725724039
 51
65.6649281626662
  0
ARC
  5
14A6
330
22
100
AcDbEntity
  8
0
  6
Continuous
100
AcDbCircle
 10
8.787498234961049
 20
14.21777619345501
 30
0.0
 40
6.478727199999997
100
AcDbArc
 50
296.6890847464033
 51
63.3109155155243
  0
ARC
  5
14A7
330
22
100
AcDbEntity
  8
0
  6
Continuous
100
AcDbCircle
 10
6.858368234961062
 20
7.891804593455006
 30
0.0
 40
13.11021
100
AcDbArc
 50
83.60827502735963
 51
111.4762372273078
  0
ARC
  5
14A8
330
22
100
AcDbEntity
  8
0
  6
Continuous
100
AcDbCircle
 10
6.905612234960926
 20
8.002827993454971
 30
0.0
 40
13.11021
100
AcDbArc
 50
87.06370684454872
 51
98.68993137532244
  0
ARC
  5
14A9
330
22
100
AcDbEntity
  8
0
  6
Continuous
100
AcDbCircle
 10
7.165169987786612
 20
10.63057393285966
 30
0.0
 40
10.35431
100
AcDbArc
 50
65.66492744166542
 51
83.6082754179827
  0
ARC
  5
14AA
330
22
100
AcDbEntity
  8
0
  6
Continuous
100
AcDbCircle
 10
7.046784738509245
 20
10.75510979847458
 30
0.0
 40
10.35431
100
AcDbArc
 50
63.31091452129938
 51
87.06370684454872
  0
LINE
  5
14AB
330
22
100
AcDbEntity
  8
0
  6
Continuous
100
AcDbLine
 10
-0.6809867650390516
 20
18.469736193455
 30
0.0
 11
-0.1303230943094604
 21
18.469736193455
 31
0.0
  0
ARC
  5
14AC
330
22
100
AcDbEntity
  8
0
  6
Continuous
100
AcDbCircle
 10
-95.231978765039
 20
14.21777619345501
 30
0.0
 40
95.338392
100
AcDbArc
 50
0.0
 51
2.618924094813562
  0
ARC
  5
14AD
330
22
100
AcDbEntity
  8
0
  6
Continuous
100
AcDbCircle
 10
0.9113996036188609
 20
18.61544239801095
 30
0.0
 40
0.905510000000009
100
AcDbArc
 50
114.9196583131871
 51
182.6189240948135
  0
ARC
  5
14AF
330
22
100
AcDbEntity
  8
0
  6
Continuous
100
AcDbCircle
 10
12.19153288076768
 20
-5.663708324569071
 30
0.0
 40
27.67711
100
AcDbArc
 50
111.476236030626
 51
114.9196583131871
  0
ARC
  5
14B0
330
22
100
AcDbEntity
  8
0
  6
Continuous
100
AcDbCircle
 10
-0.6809867650390516
 20
18.54847619345498
 30
0.0
 40
0.07874
100
AcDbArc
 50
180.0
 51
270.0
  0
ARC
  5
14B1
330
22
100
AcDbEntity
  8
0
  6
Continuous
100
AcDbCircle
 10
-95.231978765039
 20
14.21777619345501
 30
0.0
 40
95.19666
100
AcDbArc
 50
0.0
 51
2.559968358298756
  0
LINE
  5
14BA
330
22
100
AcDbEntity
  8
0
  6
Continuous
100
AcDbLine
 10
-0.6487054201437559
 20
18.66658619345499
 30
0.0
 11
-0.6487054201437559
 21
19.00233558147131
 31
0.0
  0
LINE
  5
14BB
330
22
100
AcDbEntity
  8
0
  6
Continuous
100
AcDbLine
 10
-0.6093354201437933
 20
18.62721619345497
 30
0.0
 11
-0.1972482943256182
 21
18.62721619345497
 31
0.0
  0
ARC
  5
14BC
330
22
100
AcDbEntity
  8
0
  6
Continuous
100
AcDbCircle
 10
-0.6093354201437933
 20
18.66658619345499
 30
0.0
 40
0.03937
100
AcDbArc
 50
180.0
 51
270.0
  0
ARC
  5
14BD
330
22
100
AcDbEntity
  8
0
  6
Continuous
100
AcDbCircle
 10
0.1457832349609589
 20
19.00233558147131
 30
0.0
 40
0.7944886551047736
100
AcDbArc
 50
170.5598223121769
 51
180.0
  0
LINE
  5
14BE
330
22
100
AcDbEntity
  8
0
  6
Continuous
100
AcDbLine
 10
-0.1578782943256556
 20
18.62721619345497
 30
0.0
 11
-0.1790247945405099
 21
18.99472475555446
 31
0.0
  0
LINE
  5
14BF
330
22
100
AcDbEntity
  8
0
  6
Continuous
100
AcDbLine
 10
-0.2052845657538
 20
19.02960905876115
 30
0.0
 11
-0.58606392661261
 21
19.16333435421121
 31
0.0
  0
ARC
  5
14C0
330
22
100
AcDbEntity
  8
0
  6
Continuous
100
AcDbCircle
 10
-0.1972482943256182
 20
18.66658619345499
 30
0.0
 40
0.03937
100
AcDbArc
 50
270.0
 51
0.0
  0
ARC
  5
14C1
330
22
100
AcDbEntity
  8
0
  6
Continuous
100
AcDbCircle
 10
-0.2183297814648313
 20
18.99246314045167
 30
0.0
 40
0.0393699999999996
100
AcDbArc
 50
3.293176902508655
 51
70.64931663025859
  0
ARC
  5
14C2
330
22
100
AcDbEntity
  8
0
  6
Continuous
100
AcDbCircle
 10
-0.5991091423236412
 20
19.12618843590174
 30
0.0
 40
0.0393699999999989
100
AcDbArc
 50
70.64931663025859
 51
170.5598223121769
  0
LINE
  5
14C3
330
22
100
AcDbEntity
  8
0
  6
Continuous
100
AcDbLine
 10
-0.3289535425141139
 20
14.21777619345501
 30
0.0
 11
-0.3289535425141139
 21
17.70202100227699
 31
0.0
  0
ARC
  5
14C4
330
22
100
AcDbEntity
  8
0
  6
Continuous
100
AcDbCircle
 10
6.858368234961062
 20
20.54374779345501
 30
0.0
 40
13.11021
100
AcDbArc
 50
248.5237627726922
 51
276.3917249726404
  0
ARC
  5
14C5
330
22
100
AcDbEntity
  8
0
  6
Continuous
100
AcDbCircle
 10
6.905612234960926
 20
20.43272439345499
 30
0.0
 40
13.11021
100
AcDbArc
 50
261.3100686246776
 51
272.9362931554513
  0
ARC
  5
14C6
330
22
100
AcDbEntity
  8
0
  6
Continuous
100
AcDbCircle
 10
7.165169987786612
 20
17.8049784540503
 30
0.0
 40
10.35431
100
AcDbArc
 50
276.3917245820238
 51
294.3350725583345
  0
ARC
  5
14C7
330
22
100
AcDbEntity
  8
0
  6
Continuous
100
AcDbCircle
 10
7.046784738509245
 20
17.68044258843538
 30
0.0
 40
10.35431
100
AcDbArc
 50
272.9362931554513
 51
296.6890856426283
  0
LINE
  5
14C8
330
22
100
AcDbEntity
  8
0
  6
Continuous
100
AcDbLine
 10
-0.6809867650390516
 20
9.965816193455012
 30
0.0
 11
-0.1303230943094604
 21
9.965816193455012
 31
0.0
  0
LINE
  5
14C9
330
22
100
AcDbEntity
  8
0
  6
Continuous
100
AcDbLine
 10
-0.7597267650389768
 20
9.887076193454973
 30
0.0
 11
-0.7597267650389768
 21
9.30419753753587
 31
0.0
  0
ARC
  5
14CA
330
22
100
AcDbEntity
  8
0
  6
Continuous
100
AcDbCircle
 10
-95.231978765039
 20
14.21777619345501
 30
0.0
 40
95.338392
100
AcDbArc
 50
357.3810759051864
 51
0.0
  0
ARC
  5
14CB
330
22
100
AcDbEntity
  8
0
  6
Continuous
100
AcDbCircle
 10
0.9113996036188609
 20
9.820109988899005
 30
0.0
 40
0.905510000000009
100
AcDbArc
 50
177.3810759051864
 51
245.0803416868128
  0
ARC
  5
14CD
330
22
100
AcDbEntity
  8
0
  6
Continuous
100
AcDbCircle
 10
12.19153288076768
 20
34.09926071147904
 30
0.0
 40
27.67711
100
AcDbArc
 50
245.0803416868128
 51
248.523763969374
  0
ARC
  5
14CE
330
22
100
AcDbEntity
  8
0
  6
Continuous
100
AcDbCircle
 10
-0.6809867650390516
 20
9.887076193454973
 30
0.0
 40
0.07874
100
AcDbArc
 50
90.0
 51
180.0
  0
ARC
  5
14CF
330
22
100
AcDbEntity
  8
0
  6
Continuous
100
AcDbCircle
 10
7.296712094269082
 20
22.99158632282037
 30
0.0
 40
15.6987875000001
100
AcDbArc
 50
250.6612102055849
 51
261.3100919418847
  0
ARC
  5
14D1
330
22
100
AcDbEntity
  8
0
  6
Continuous
100
AcDbCircle
 10
-95.231978765039
 20
14.21777619345501
 30
0.0
 40
95.19666
100
AcDbArc
 50
357.4400316417012
 51
0.0
  0
LINE
  5
14D2
330
22
100
AcDbEntity
  8
0
  6
Continuous
100
AcDbLine
 10
-0.6487054201437559
 20
9.768966193454971
 30
0.0
 11
-0.6487054201437559
 21
9.433216805438647
 31
0.0
  0
LINE
  5
14D3
330
22
100
AcDbEntity
  8
0
  6
Continuous
100
AcDbLine
 10
-0.6093354201437933
 20
9.808336193454991
 30
0.0
 11
-0.1972482943256182
 21
9.808336193454991
 31
0.0
  0
ARC
  5
14D4
330
22
100
AcDbEntity
  8
0
  6
Continuous
100
AcDbCircle
 10
-0.6093354201437933
 20
9.768966193454971
 30
0.0
 40
0.03937
100
AcDbArc
 50
90.0
 51
180.0
  0
ARC
  5
14D5
330
22
100
AcDbEntity
  8
0
  6
Continuous
100
AcDbCircle
 10
0.1457832349609589
 20
9.433216805438647
 30
0.0
 40
0.7944886551047736
100
AcDbArc
 50
180.0
 51
189.4401776878231
  0
LINE
  5
14D6
330
22
100
AcDbEntity
  8
0
  6
Continuous
100
AcDbLine
 10
-0.1578782943256556
 20
9.808336193454991
 30
0.0
 11
-0.1790247945405099
 21
9.44082763135556
 31
0.0
  0
LINE
  5
14D7
330
22
100
AcDbEntity
  8
0
  6
Continuous
100
AcDbLine
 10
-0.2052845657538
 20
9.405943328148808
 30
0.0
 11
-0.58606392661261
 21
9.272218032698745
 31
0.0
  0
ARC
  5
14D8
330
22
100
AcDbEntity
  8
0
  6
Continuous
100
AcDbCircle
 10
-0.1972482943256182
 20
9.768966193454971
 30
0.0
 40
0.03937
100
AcDbArc
 50
0.0
 51
90.0
  0
ARC
  5
14D9
330
22
100
AcDbEntity
  8
0
  6
Continuous
100
AcDbCircle
 10
-0.2183297814648313
 20
9.443089246458285
 30
0.0
 40
0.0393699999999996
100
AcDbArc
 50
289.3506833697415
 51
356.7068230974913
  0
ARC
  5
14DA
330
22
100
AcDbEntity
  8
0
  6
Continuous
100
AcDbCircle
 10
-0.5991091423236412
 20
9.309363951008222
 30
0.0
 40
0.0393699999999989
100
AcDbArc
 50
189.4401776878231
 51
289.3506833697415
  0
LINE
  5
14DB
330
22
100
AcDbEntity
  8
0
  6
Continuous
100
AcDbLine
 10
-0.3289535425141139
 20
14.21777619345501
 30
0.0
 11
-0.3289535425141139
 21
9.965816193455012
 31
0.0
  0
ARC
  5
156C
330
22
100
AcDbEntity
  8
0
  6
Continuous
100
AcDbCircle
 10
6.118765549805516
 20
23.02072168276091
 30
0.0
 40
15.86610999999958
100
AcDbArc
 50
246.4688548093323
 51
250.0165842303193
  0
ARC
  5
156D
330
22
100
AcDbEntity
  8
0
  6
Continuous
100
AcDbCircle
 10
0.1457832349609589
 20
9.30419753753587
 30
0.0
 40
0.9055099999999999
100
AcDbArc
 50
180.0
 51
246.4688548093323
  0
LINE
  5
156E
330
22
100
AcDbEntity
  8
0
  6
Continuous
100
AcDbLine
 10
0.8237674387260085
 20
8.107381497773261
 30
0.0
 11
1.356874725736929
 21
8.277810270587977
 31
0.0
  0
ARC
  5
156F
330
22
100
AcDbEntity
  8
0
  6
Continuous
100
AcDbCircle
 10
1.500736194900355
 20
7.827806458059924
 30
0.0
 40
0.4724399999999997
100
AcDbArc
 50
89.49006819351259
 51
107.7285294958559
  0
ARC
  5
1570
330
22
100
AcDbEntity
  8
0
  6
Continuous
100
AcDbCircle
 10
1.490925332565097
 20
6.72549011663149
 30
0.0
 40
1.5748
100
AcDbArc
 50
67.32535753944716
 51
89.49006819351259
  0
ARC
  5
1571
330
22
100
AcDbEntity
  8
0
  6
Continuous
100
AcDbCircle
 10
0.7638251599078103
 20
8.294883086326777
 30
0.0
 40
0.19685
100
AcDbArc
 50
250.0165842303193
 51
287.7285294958559
  0
ARC
  5
1572
330
22
100
AcDbEntity
  8
0
  6
Continuous
100
AcDbCircle
 10
7.296712094269082
 20
5.44396606408965
 30
0.0
 40
15.6987875000001
100
AcDbArc
 50
98.68990805811534
 51
109.3387897944151
  0
ARC
  5
1573
330
22
100
AcDbEntity
  8
0
  6
Continuous
100
AcDbCircle
 10
1.490925332565097
 20
21.71006227027847
 30
0.0
 40
1.5748
100
AcDbArc
 50
270.5099318064874
 51
292.6746424605529
  0
ARC
  5
1574
330
22
100
AcDbEntity
  8
0
  6
Continuous
100
AcDbCircle
 10
1.500736194900355
 20
20.60774592885004
 30
0.0
 40
0.4724399999999997
100
AcDbArc
 50
252.2714705041441
 51
270.5099318064874
  0
LINE
  5
1575
330
22
100
AcDbEntity
  8
0
  6
Continuous
100
AcDbLine
 10
0.8237674387260085
 20
20.3281708891367
 30
0.0
 11
1.356874725736929
 21
20.15774211632198
 31
0.0
  0
ARC
  5
1576
330
22
100
AcDbEntity
  8
0
  6
Continuous
100
AcDbCircle
 10
6.118765549805516
 20
5.414830704149053
 30
0.0
 40
15.86610999999958
100
AcDbArc
 50
109.9834157696807
 51
113.5311451906617
  0
ARC
  5
1577
330
22
100
AcDbEntity
  8
0
  6
Continuous
100
AcDbCircle
 10
0.7638251599078103
 20
20.14066930058318
 30
0.0
 40
0.19685
100
AcDbArc
 50
72.27147050414405
 51
109.9834157696807
  0
ARC
  5
1578
330
22
100
AcDbEntity
  8
0
  6
Continuous
100
AcDbCircle
 10
0.1457832349609589
 20
19.13135484937409
 30
0.0
 40
0.9055099999999999
100
AcDbArc
 50
113.5311451906617
 51
180.0
  0
LINE
  5
1579
330
22
100
AcDbEntity
  8
0
  6
Continuous
100
AcDbLine
 10
-0.7597267650389768
 20
18.54847619345498
 30
0.0
 11
-0.7597267650389768
 21
19.13135484937409
 31
0.0
  0
ARC
  5
177F
330
22
100
AcDbEntity
  8
0
  6
Continuous
100
AcDbCircle
 10
-0.0038242881306587
 20
0.0004013763699717
 30
0.0
 40
0.6692897552843026
100
AcDbArc
 50
159.0131194957164
 51
270.0000248437957
  0
LINE
  5
1781
330
22
100
AcDbEntity
  8
0
  6
CENTER
100
AcDbLine
 10
0.0
 20
-0.8994572930467867
 30
0.0
 11
0.0
 21
0.8994572930467938
 31
0.0
  0
ARC
  5
1783
330
22
100
AcDbEntity
  8
0
  6
Continuous
100
AcDbCircle
 10
15.15347727175071
 20
0.6333143667822157
 30
0.0
 40
0.1574800000000017
100
AcDbArc
 50
8.994238046342777
 51
79.63706467025589
  0
ARC
  5
1784
330
22
100
AcDbEntity
  8
0
  6
Continuous
100
AcDbCircle
 10
15.30681714402271
 20
0.4153722307818413
 30
0.0
 40
0.0393699999999999
100
AcDbArc
 50
268.0547287871149
 51
8.645725305043562
  0
ARC
  5
1787
330
22
100
AcDbEntity
  8
0
  6
Continuous
100
AcDbCircle
 10
-2.52316277642717
 20
-96.03127006597446
 30
0.0
 40
98.42500000000001
100
AcDbArc
 50
79.63706467025589
 51
86.55553548317181
  0
LINE
  5
1789
330
22
100
AcDbEntity
  8
0
  6
Continuous
100
AcDbLine
 10
15.30548073467673
 20
0.3760249194371141
 30
0.0
 11
12.26097015233108
 21
0.47943001261838
 31
0.0
  0
ARC
  5
178B
330
22
100
AcDbEntity
  8
0
  6
Continuous
100
AcDbCircle
 10
-23.57688822691614
 20
-5.496980331686287
 30
0.0
 40
39.37000000000001
100
AcDbArc
 50
8.645725305043562
 51
8.994238046342777
  0
ARC
  5
178C
330
22
100
AcDbEntity
  8
0
  6
Continuous
100
AcDbCircle
 10
0.2462280511521158
 20
2.301127940361041
 30
0.0
 40
0.0787399999999999
100
AcDbArc
 50
87.47090481587589
 51
159.0131342496566
  0
ARC
  5
178D
330
22
100
AcDbEntity
  8
0
  6
Continuous
100
AcDbCircle
 10
-8.436639322749783
 20
-194.2784655482685
 30
0.0
 40
196.85
100
AcDbArc
 50
86.55553548317181
 51
87.47090481587589
  0
LINE
  5
1790
330
22
100
AcDbEntity
  8
0
  6
Continuous
100
AcDbLine
 10
0.1727114617472125
 20
2.329328980807716
 30
0.0
 11
-0.6287150078641162
 21
0.2401102934332613
 31
0.0
  0
ARC
  5
1792
330
22
100
AcDbEntity
  8
0
  6
Continuous
100
AcDbCircle
 10
18.94301688199084
 20
197.215986736331
 30
0.0
 40
196.85
100
AcDbArc
 50
265.1163370007969
 51
268.0547287871149
  0
ARC
  5
1793
330
22
100
AcDbEntity
  8
0
  6
Continuous
100
AcDbCircle
 10
2.117586282402385
 20
0.2960873764684635
 30
0.0
 40
0.7873999999999989
100
AcDbArc
 50
85.11633701304821
 51
148.8822710098031
  0
LINE
  5
1798
330
22
100
AcDbEntity
  8
0
  6
Continuous
100
AcDbLine
 10
1.042330244133722
 20
0.0384734078418063
 30
0.0
 11
1.443487462816278
 21
0.7030143249895815
 31
0.0
  0
ARC
  5
179E
330
22
100
AcDbEntity
  8
0
  6
Continuous
100
AcDbCircle
 10
20.15910477291106
 20
197.0526257830285
 30
0.0
 40
196.85
100
AcDbArc
 50
267.5982876934272
 51
267.8626090599085
  0
ARC
  5
179F
330
22
100
AcDbEntity
  8
0
  6
Continuous
100
AcDbCircle
 10
12.82182022102415
 20
0.4576085563023327
 30
0.0
 40
0.1181100000000005
100
AcDbArc
 50
267.8626090599085
 51
328.8278029581237
  0
ARC
  5
17A0
330
22
100
AcDbEntity
  8
0
  6
Continuous
100
AcDbCircle
 10
11.91495402201758
 20
0.493549367390429
 30
0.0
 40
0.11811
100
AcDbArc
 50
208.5033162408688
 51
267.5982876934728
  0
ARC
  5
17A1
330
22
100
AcDbEntity
  8
0
  6
Continuous
100
AcDbCircle
 10
13.02393372239192
 20
0.3353382779643681
 30
0.0
 40
0.1181099999999995
100
AcDbArc
 50
88.05472878711491
 51
148.827802958124
  0
ARC
  5
17A2
330
22
100
AcDbEntity
  8
0
  6
Continuous
100
AcDbCircle
 10
11.70736636784784
 20
0.3808229098204521
 30
0.0
 40
0.11811
100
AcDbArc
 50
28.50331624086886
 51
87.89475801280792
  0
ARC
  5
17A3
330
22
100
AcDbEntity
  8
0
  6
PHANTOM
100
AcDbCircle
 10
16.84156056359825
 20
71.42096352673452
 30
0.0
 40
70.66915
100
AcDbArc
 50
265.4916896913119
 51
268.5846367341236
  0
ARC
  5
17A4
330
22
100
AcDbEntity
  8
0
  6
PHANTOM
100
AcDbCircle
 10
30.91552770279918
 20
252.8835556941968
 30
0.0
 40
252.67666
100
AcDbArc
 50
263.7958401526374
 51
265.5445708240828
  0
ARC
  5
184B
330
22
100
AcDbEntity
  8
0
  6
PHANTOM
100
AcDbCircle
 10
28.87456702101872
 20
253.0970428376655
 30
0.0
 40
252.6766599999999
100
AcDbArc
 50
263.4546843802052
 51
264.2611650976503
  0
LINE
  5
185E
330
22
100
AcDbEntity
  8
0
  6
DASHED
100
AcDbLine
 10
0.1142860020772787
 20
-0.1263185877846098
 30
0.0
 11
0.1142860020772787
 21
0.1271214870575505
 31
0.0
  0
LINE
  5
185F
330
22
100
AcDbEntity
  8
0
  6
DASHED
100
AcDbLine
 10
-0.1219339979227243
 20
-0.1263185877846098
 30
0.0
 11
-0.1219339979227243
 21
0.1271214870575505
 31
0.0
  0
ARC
  5
186B
330
22
100
AcDbEntity
  8
0
  6
DASHED
100
AcDbCircle
 10
-0.0038239979226091
 20
0.0004014496364704
 30
0.0
 40
0.1732279999999998
100
AcDbArc
 50
47.01411391981168
 51
132.9858860801883
  0
ARC
  5
186C
330
22
100
AcDbEntity
  8
0
  6
DASHED
100
AcDbCircle
 10
-0.0038239979226091
 20
0.0004014496364704
 30
0.0
 40
0.1732279999999998
100
AcDbArc
 50
227.0141139198117
 51
312.9858860801883
  0
ARC
  5
18AC
330
22
100
AcDbEntity
  8
0
  6
Continuous
100
AcDbCircle
 10
32.25447822519754
 20
-36.78837189268605
 30
0.0
 40
39.17065834232346
100
AcDbArc
 50
82.92660012951621
 51
98.15849792169752
  0
ARC
  5
18AD
330
22
100
AcDbEntity
  8
0
  6
Continuous
100
AcDbCircle
 10
38.74096337009473
 20
1.333555019824167
 30
0.0
 40
0.3140228813873713
100
AcDbArc
 50
5.258555111952541
 51
56.55308137357218
  0
ARC
  5
18AE
330
22
100
AcDbEntity
  8
0
  6
Continuous
100
AcDbCircle
 10
38.06016990932801
 20
0.4487866936707761
 30
0.0
 40
1.429762047382001
100
AcDbArc
 50
53.32948935082782
 51
71.72200186726493
  0
ARC
  5
18AF
330
22
100
AcDbEntity
  8
0
  6
Continuous
100
AcDbCircle
 10
37.11354651357988
 20
-2.165890008244183
 30
0.0
 40
4.210143272313914
100
AcDbArc
 50
70.6491834865648
 51
79.5629783371929
  0
ARC
  5
18B0
330
22
100
AcDbEntity
  8
0
  6
Continuous
100
AcDbCircle
 10
36.3949009127856
 20
-5.854674974991858
 30
0.0
 40
7.968174970784469
100
AcDbArc
 50
79.28603347673846
 51
85.08220924315345
  0
ARC
  5
18B1
330
22
100
AcDbEntity
  8
0
  6
Continuous
100
AcDbCircle
 10
0.2963831177353313
 20
-5.538321571579409
 30
0.0
 40
39.37000000000001
100
AcDbArc
 50
7.245879347669118
 51
8.343901473917982
  0
ARC
  5
18B2
330
22
100
AcDbEntity
  8
0
  6
Continuous
100
AcDbCircle
 10
39.25277380925616
 20
-0.5852897435383042
 30
0.0
 40
0.1
100
AcDbArc
 50
270.0
 51
7.245879347675176
  0
ARC
  5
18B3
330
22
100
AcDbEntity
  8
0
  6
Continuous
100
AcDbCircle
 10
39.15070581800865
 20
0.1603192754142881
 30
0.0
 40
0.1
100
AcDbArc
 50
8.343901473908717
 51
89.99999999996743
  0
ARC
  5
18B4
330
22
100
AcDbEntity
  8
0
  6
Continuous
100
AcDbCircle
 10
0.2963831177353313
 20
-5.538321571579409
 30
0.0
 40
39.37000000000001
100
AcDbArc
 50
8.808458136681686
 51
10.09560616178479
  0
ARC
  5
18B5
330
22
100
AcDbEntity
  8
0
  6
Continuous
100
AcDbCircle
 10
39.10322435565422
 20
0.4751610412630285
 30
0.0
 40
0.1
100
AcDbArc
 50
269.9999999999674
 51
8.808458136676664
  0
LINE
  5
18B6
330
22
100
AcDbEntity
  8
0
  6
Continuous
100
AcDbLine
 10
39.05680266043055
 20
1.362894036865931
 30
0.0
 11
39.0536646089115
 21
1.362335313034272
 31
0.0
  0
ARC
  5
18B7
330
22
100
AcDbEntity
  8
0
  6
Continuous
100
AcDbCircle
 10
28.11786414595918
 20
-5.854674974991745
 30
0.0
 40
7.968174970784354
100
AcDbArc
 50
100.2242111647332
 51
100.7139665232549
  0
ARC
  5
18B8
330
22
100
AcDbEntity
  8
0
  6
Continuous
100
AcDbCircle
 10
27.39921854516513
 20
-2.165890008244922
 30
0.0
 40
4.210143272314642
100
AcDbArc
 50
100.4370216628071
 51
109.3508165134352
  0
ARC
  5
18B9
330
22
100
AcDbEntity
  8
0
  6
Continuous
100
AcDbCircle
 10
26.45259514941699
 20
0.448786693670435
 30
0.0
 40
1.429762047382381
100
AcDbArc
 50
108.277998132735
 51
126.6705106491722
  0
ARC
  5
18BA
330
22
100
AcDbEntity
  8
0
  6
Continuous
100
AcDbCircle
 10
25.77180168865016
 20
1.333555019824167
 30
0.0
 40
0.3140228813874047
100
AcDbArc
 50
123.4469186264278
 51
174.7414448880474
  0
ARC
  5
18BB
330
22
100
AcDbEntity
  8
0
  6
Continuous
100
AcDbCircle
 10
47.45362031516663
 20
-2.829425581462082
 30
0.0
 40
22.39039444724391
100
AcDbArc
 50
169.2098487670395
 51
171.4731195043494
  0
ARC
  5
18BC
330
22
100
AcDbEntity
  8
0
  6
Continuous
100
AcDbCircle
 10
25.40954070309067
 20
0.475161041263057
 30
0.0
 40
0.1
100
AcDbArc
 50
171.1915418633233
 51
270.0
  0
ARC
  5
18BD
330
22
100
AcDbEntity
  8
0
  6
Continuous
100
AcDbCircle
 10
64.21638194100944
 20
-5.538321571579409
 30
0.0
 40
39.37000000000001
100
AcDbArc
 50
171.656098526082
 51
172.7541206523308
  0
ARC
  5
18BE
330
22
100
AcDbEntity
  8
0
  6
Continuous
100
AcDbCircle
 10
25.25999124948862
 20
-0.5852897435382758
 30
0.0
 40
0.1
100
AcDbArc
 50
172.7541206523248
 51
270.0
  0
ARC
  5
18BF
330
22
100
AcDbEntity
  8
0
  6
Continuous
100
AcDbCircle
 10
25.36205924073624
 20
0.1603192754143166
 30
0.0
 40
0.1
100
AcDbArc
 50
89.99999999996743
 51
171.6560985260755
  0
LINE
  5
18C0
330
22
100
AcDbEntity
  8
0
  6
Continuous
100
AcDbLine
 10
25.36205924073624
 20
0.2603192754143393
 30
0.0
 11
39.15070581800865
 21
0.2603192754143109
 31
0.0
  0
LINE
  5
18C1
330
22
100
AcDbEntity
  8
0
  6
Continuous
100
AcDbLine
 10
25.40954070309067
 20
0.3751610412630342
 30
0.0
 11
39.10322435565411
 21
0.3751610412630058
 31
0.0
  0
LINE
  5
18C2
330
22
100
AcDbEntity
  8
0
  6
Continuous
100
AcDbLine
 10
25.25999124948862
 20
-0.6852897435382701
 30
0.0
 11
39.25277380925616
 21
-0.6852897435382701
 31
0.0
  0
ARC
  5
18C3
330
22
100
AcDbEntity
  8
0
  6
Continuous
100
AcDbCircle
 10
25.94769228718633
 20
1.273712594929385
 30
0.0
 40
0.4965641647282834
100
AcDbArc
 50
169.7192387918296
 51
258.0883564887491
  0
ARC
  5
18C4
330
22
100
AcDbEntity
  8
0
  6
Continuous
100
AcDbCircle
 10
30.94973862450274
 20
59.68681371913333
 30
0.0
 40
59.11975399500652
100
AcDbArc
 50
265.0467801359786
 51
271.2664341851018
  0
ARC
  5
18C5
330
22
100
AcDbEntity
  8
0
  6
Continuous
100
AcDbCircle
 10
38.56507277155822
 20
1.273712594929385
 30
0.0
 40
0.4965641647282834
100
AcDbArc
 50
281.9116435112509
 51
10.28076120817198
  0
ARC
  5
18C6
330
22
100
AcDbEntity
  8
0
  6
Continuous
100
AcDbCircle
 10
33.56302643424181
 20
59.68681371913333
 30
0.0
 40
59.11975399500652
100
AcDbArc
 50
268.7335658148916
 51
274.9532198640214
  0
LWPOLYLINE
  5
18C7
330
22
100
AcDbEntity
  8
0
  6
Continuous
100
AcDbPolyline
 90
        4
 70
     1
 43
0.0
 10
26.10682888464385
 20
-0.8846824208412655
 10
27.99504073197613
 20
-0.8846824208412655
 10
27.99504073197613
 20
-0.6852897435382701
 10
26.10682888464385
 20
-0.6852897435382701
  0
LWPOLYLINE
  5
18C8
330
22
100
AcDbEntity
  8
0
  6
Continuous
100
AcDbPolyline
 90
        4
 70
     1
 43
0.0
 10
38.40212756575125
 20
-0.8846824208412655
 10
36.51391571841896
 20
-0.8846824208412655
 10
36.51391571841896
 20
-0.6852897435382701
 10
38.40212756575125
 20
-0.6852897435382701
  0
LWPOLYLINE
  5
18C9
330
22
100
AcDbEntity
  8
0
  6
Continuous
100
AcDbPolyline
 90
        4
 70
     1
 43
0.0
 10
26.41155300809953
 20
0.2603192754143393
 10
27.99504073197625
 20
0.2603192754143393
 10
27.99504073197625
 20
0.3751610412630626
 10
26.41155300809942
 20
0.3751610412630626
  0
LWPOLYLINE
  5
18CA
330
22
100
AcDbEntity
  8
0
  6
Continuous
100
AcDbPolyline
 90
        4
 70
     1
 43
0.0
 10
38.09740344229556
 20
0.2603192754143393
 10
36.51391571841884
 20
0.2603192754143393
 10
36.51391571841884
 20
0.3751610412630626
 10
38.09740344229567
 20
0.3751610412630626
  0
LINE
  5
18CD
330
22
100
AcDbEntity
  8
0
  6
Continuous
100
AcDbLine
 10
0.960528954161532
 20
20.28444967614294
 30
0.0
 11
0.9723193494595534
 21
20.35050917376112
 31
0.0
  0
LINE
  5
18D2
330
22
100
AcDbEntity
  8
0
  6
Continuous
100
AcDbLine
 10
0.960528889601619
 20
8.151102690127892
 30
0.0
 11
0.9723193494595534
 21
8.085042830792886
 31
0.0
  0
LINE
  5
18E3
330
22
100
AcDbEntity
  8
0
  6
CENTER
 48
0.25
100
AcDbLine
 10
18.23244449692584
 20
14.217776002277
 30
0.0
 11
-4.840825382332013
 21
14.217776002277
 31
0.0
  0
VIEWPORT
  5
1903
102
{ACAD_XDICTIONARY
360
1919
102
}
330
1E
100
AcDbEntity
 67
     1
  8
0
100
AcDbViewport
 10
5.250183132535525
 20
4.000122090685323
 30
0.0
 40
10.63098306903433
 41
6.454849668730496
 68
     1
 69
     1
 12
5.250183132535525
 22
4.000122090685323
 13
0.0
 23
0.0
 14
0.5
 24
0.5
 15
0.5
 25
0.5
 16
0.0
 26
0.0
 36
1.0
 17
0.0
 27
0.0
 37
0.0
 42
50.0
 43
0.0
 44
0.0
 45
6.454849668730496
 50
0.0
 51
0.0
 72
   100
 90
   819232
  1

281
     0
 71
     1
 74
     0
110
0.0
120
0.0
130
0.0
111
1.0
121
0.0
131
0.0
112
0.0
122
1.0
132
0.0
 79
     0
146
0.0
  0
VIEWPORT
  5
1905
102
{ACAD_XDICTIONARY
360
191B
102
}
330
1E
100
AcDbEntity
 67
     1
  8
0
100
AcDbViewport
 10
5.249999761581421
 20
3.999999761581421
 30
0.0
 40
8.399999618530275
 41
6.399999618530274
 68
     2
 69
     2
 12
17.25789031171916
 22
10.02810776167098
 13
0.0
 23
0.0
 14
0.0
 24
0.0
 15
0.0
 25
0.0
 16
0.0
 26
0.0
 36
1.0
 17
0.0
 27
0.0
 37
0.0
 42
50.0
 43
0.0
 44
0.0
 45
34.03631671786374
 50
0.0
 51
0.0
 72
   100
 90
   819232
  1

281
     0
 71
     1
 74
     0
110
0.0
120
0.0
130
0.0
111
1.0
121
0.0
131
0.0
112
0.0
122
1.0
132
0.0
 79
     0
146
0.0
  0
ENDSEC
  0
SECTION
  2
OBJECTS
  0
DICTIONARY
  5
C
330
0
100
AcDbDictionary
281
     1
  3
ACAD_COLOR
350
1B
  3
ACAD_GROUP
350
D
  3
ACAD_LAYOUT
350
19
  3
ACAD_MATERIAL
350
1A
  3
ACAD_MLINESTYLE
350
16
  3
ACAD_PLOTSETTINGS
350
18
  3
ACAD_PLOTSTYLENAME
350
E
  3
ACAD_TABLESTYLE
350
1C
  3
ACAD_VISUALSTYLE
350
18EB
  3
AcDbVariableDictionary
350
DC3
  3
ASE_INDEX_DICTIONARY
350
1907
  3
DWGPROPS
350
190C
  0
DICTIONARY
  5
B38
330
2
100
AcDbDictionary
280
     1
281
     1
  3
ACAD_LAYERSTATES
360
B39
  0
DICTIONARY
  5
18CE
330
22
100
AcDbDictionary
280
     1
281
     1
  3
ACAD_SORTENTS
360
18CF
  0
DICTIONARY
  5
1919
330
1903
100
AcDbDictionary
280
     1
281
     1
  3
ACAD_XREC_ROUNDTRIP
360
191A
  0
DICTIONARY
  5
191B
330
1905
100
AcDbDictionary
280
     1
281
     1
  3
ACAD_XREC_ROUNDTRIP
360
191C
  0
DICTIONARY
  5
1B
102
{ACAD_REACTORS
330
C
102
}
330
C
100
AcDbDictionary
281
     1
  0
DICTIONARY
  5
D
102
{ACAD_REACTORS
330
C
102
}
330
C
100
AcDbDictionary
281
     1
  0
DICTIONARY
  5
19
102
{ACAD_REACTORS
330
C
102
}
330
C
100
AcDbDictionary
281
     1
  3
Layout1
350
21
  3
Model
350
25
  0
DICTIONARY
  5
1A
102
{ACAD_REACTORS
330
C
102
}
330
C
100
AcDbDictionary
281
     1
  3
ByBlock
350
18E9
  3
ByLayer
350
18E8
  3
Global
350
18EA
  0
DICTIONARY
  5
16
102
{ACAD_REACTORS
330
C
102
}
330
C
100
AcDbDictionary
281
     1
  3
Standard
350
17
  0
DICTIONARY
  5
18
102
{ACAD_REACTORS
330
C
102
}
330
C
100
AcDbDictionary
281
     1
  0
ACDBDICTIONARYWDFLT
  5
E
102
{ACAD_REACTORS
330
C
102
}
330
C
100
AcDbDictionary
281
     1
  3
Normal
350
F
100
AcDbDictionaryWithDefault
340
F
  0
DICTIONARY
  5
1C
102
{ACAD_REACTORS
330
C
102
}
330
C
100
AcDbDictionary
281
     1
  3
Standard
350
1D
  0
DICTIONARY
  5
18EB
102
{ACAD_REACTORS
330
C
102
}
330
C
100
AcDbDictionary
281
     1
  3
2dWireframe
350
18F1
  3
3D Hidden
350
18F3
  3
3dWireframe
350
18F2
  3
Basic
350
18F0
  3
Brighten
350
18F7
  3
ColorChange
350
18FB
  3
Conceptual
350
18F4
  3
Dim
350
18F6
  3
Facepattern
350
18FA
  3
Flat
350
18EC
  3
FlatWithEdges
350
18ED
  3
Gouraud
350
18EE
  3
GouraudWithEdges
350
18EF
  3
Linepattern
350
18F9
  3
Realistic
350
18F5
  3
Thicken
350
18F8
  0
DICTIONARY
  5
DC3
102
{ACAD_REACTORS
330
C
102
}
330
C
100
AcDbDictionary
281
     1
  3
CTABLESTYLE
350
DC4
  3
DIMASSOC
350
190B
  3
INDEXCTL
350
190A
  3
SORTENTS
350
1909
  0
DICTIONARY
  5
1907
102
{ACAD_REACTORS
330
C
102
}
330
C
100
AcDbDictionary
281
     1
  3
ASEBlockHierarchyIndexRecord
350
1908
1001
DCO15
1040
1651981389.476
  0
XRECORD
  5
190C
102
{ACAD_REACTORS
330
C
102
}
330
C
100
AcDbXrecord
280
     1
  1
DWGPROPS COOKIE
  2

  3

  4

  6

  7

  8
nnguyen
  9

300
=
301
=
302
=
303
=
304
=
305
=
306
=
307
=
308
=
309
=
 40
0.1191346180555556
 41
2453558.313101852
 42
2454923.366822639
  1

 90
        0
  0
DICTIONARY
  5
B39
102
{ACAD_REACTORS
330
B38
102
}
330
B38
100
AcDbDictionary
281
     1
  0
SORTENTSTABLE
  5
18CF
102
{ACAD_REACTORS
330
18CE
102
}
330
18CE
100
AcDbSortentsTable
330
22
331
18B4
  5
18B8
331
14A7
  5
14AB
331
4ED
  5
53D
331
18BC
  5
18C0
331
7A8
  5
7AD
331
14AF
  5
14BB
331
446
  5
446
331
555
  5
6CD
331
156E
  5
1572
331
1576
  5
177F
331
18C4
  5
18C8
331
44E
  5
44E
331
456
  5
456
331
14BF
  5
14C3
331
6D1
  5
6D5
331
45E
  5
45F
331
14C7
  5
14CB
331
14CF
  5
14D4
331
6E1
  5
6E5
331
18AD
  5
18B1
331
14D7
  5
14DB
331
179E
  5
17A2
331
18B5
  5
18B9
331
4EE
  5
53E
331
14A8
  5
14AC
331
14B0
  5
14BC
331
156F
  5
1573
331
447
  5
447
331
7A9
  5
7AE
331
18BD
  5
18C1
331
18C5
  5
18C9
331
44F
  5
44F
331
1577
  5
1781
331
18CD
  5
45B
331
457
  5
457
331
177F
  5
1787
331
14C0
  5
14C4
331
185E
  5
18AC
331
6D2
  5
6D6
331
45F
  5
460
331
1787
  5
178D
331
467
  5
468
331
14C8
  5
14CD
331
6E2
  5
6EA
331
46F
  5
471
331
18AE
  5
18B2
331
14D8
  5
1520
331
179F
  5
17A3
331
18B6
  5
18BA
331
14A9
  5
14AD
331
18BE
  5
18C2
331
14B1
  5
14BD
331
1570
  5
1574
331
1578
  5
1783
331
18C6
  5
18CA
331
14C1
  5
14C5
331
185F
  5
18AD
331
460
  5
464
331
14C9
  5
14CE
331
468
  5
469
331
1790
  5
1795
331
14D1
  5
14D5
331
18AF
  5
18B3
331
1798
  5
179C
331
14D9
  5
156D
331
17A0
  5
17A4
331
18B7
  5
18BB
331
14AA
  5
14AF
331
449
  5
449
331
1571
  5
1575
331
18BF
  5
18C3
331
18C7
  5
18CB
331
1579
  5
1784
331
14BA
  5
14BE
331
6CC
  5
6D0
331
459
  5
459
331
1781
  5
1789
331
14C2
  5
14C6
331
6D4
  5
6D8
331
1789
  5
178E
331
6DC
  5
6E0
331
14CA
  5
14CF
331
14D2
  5
14D6
331
471
  5
474
331
14DA
  5
156E
331
4E9
  5
533
331
18B0
  5
18B4
331
17A1
  5
17BF
331
18B8
  5
18BC
331
14AB
  5
14B0
331
18C0
  5
18C4
331
1572
  5
1576
331
18C8
  5
18CD
331
452
  5
452
331
14BB
  5
14BF
331
6CD
  5
6D1
331
14C3
  5
14C7
331
14CB
  5
14D1
331
6DD
  5
6E1
331
1792
  5
1796
331
14D3
  5
14D7
331
6E5
  5
6EE
331
18B1
  5
18B5
331
4EA
  5
53C
331
71D
  5
75B
331
14DB
  5
156F
331
17A2
  5
17C9
331
18B9
  5
18BD
331
14AC
  5
14B1
331
44B
  5
44B
331
1573
  5
1577
331
18C1
  5
18C5
331
18C9
  5
18D0
331
453
  5
453
331
14BC
  5
14C0
331
6CE
  5
6D2
331
45B
  5
45C
331
1783
  5
178B
331
14C4
  5
14C8
331
6D6
  5
6DA
331
6DE
  5
6E2
331
46B
  5
46C
331
178B
  5
178F
331
14D4
  5
14D8
331
1793
  5
1797
331
18B2
  5
18B6
331
14A5
  5
14A9
331
17A3
  5
17CB
331
18BA
  5
18BE
331
14AD
  5
14BA
331
156C
  5
1570
331
444
  5
444
331
7A6
  5
7AB
331
18C2
  5
18C6
331
1574
  5
1578
331
184B
  5
186C
331
44C
  5
44C
331
18CA
  5
18D1
331
454
  5
454
331
18D2
  5
4EE
331
6CF
  5
6D3
331
14BD
  5
14C1
331
186B
  5
18AE
331
14C5
  5
14C9
331
6D7
  5
6DB
331
1784
  5
178C
331
14CD
  5
14D2
331
6DF
  5
6E3
331
46C
  5
46D
331
178C
  5
1790
331
14D5
  5
14D9
331
18B3
  5
18B7
331
71F
  5
768
331
14A6
  5
14AA
331
156D
  5
1571
331
445
  5
445
331
7A7
  5
7AC
331
17A4
  5
17CC
331
18BB
  5
18BF
331
18C3
  5
18C7
331
44D
  5
44D
331
1575
  5
1579
331
455
  5
455
331
14BE
  5
14C2
331
6D0
  5
6D4
331
6D8
  5
6DC
331
465
  5
466
331
14C6
  5
14CA
331
186C
  5
18AF
331
178D
  5
1792
331
46D
  5
46F
331
14CE
  5
14D3
331
14D6
  5
14DA
331
18AC
  5
18B0
  0
XRECORD
  5
191A
102
{ACAD_REACTORS
330
1919
102
}
330
1919
100
AcDbXrecord
280
     1
102
SHADEPLOT
 70
     0
  0
XRECORD
  5
191C
102
{ACAD_REACTORS
330
191B
102
}
330
191B
100
AcDbXrecord
280
     1
102
SHADEPLOT
 70
     0
  0
LAYOUT
  5
21
102
{ACAD_XDICTIONARY
360
190F
102
}
102
{ACAD_REACTORS
330
19
102
}
330
19
100
AcDbPlotSettings
  1

  2
none_device
  4
Letter_(8.50_x_11.00_Inches)
  6

 40
6.349999904632568
 41
6.349999904632568
 42
6.350006103515625
 43
6.350006103515625
 44
215.8999938964844
 45
279.3999938964844
 46
0.0
 47
0.0
 48
0.0
 49
0.0
140
0.0
141
0.0
142
1.0
143
1.0
 70
   688
 72
     0
 73
     1
 74
     5
  7

 75
    16
147
1.0
148
0.0
149
0.0
100
AcDbLayout
  1
Layout1
 70
     1
 71
     1
 10
-0.2500002402958907
 20
-0.2499999962453767
 11
10.74999951940822
 21
8.249999763458733
 12
0.0
 22
0.0
 32
0.0
 14
1.049743681505489
 24
0.7996673802841308
 34
-0.0015258207003583
 15
9.450622583565561
 25
7.200576801086516
 35
0.0000000349246037
146
0.0
 13
0.0
 23
0.0
 33
0.0
 16
1.0
 26
0.0
 36
0.0
 17
0.0
 27
1.0
 37
0.0
 76
     0
330
1E
331
1903
1001
ACAD_PSEXT
1000
None
1000
None
1000
Not applicable
1000
The layout will not be plotted unless a new plotter configuration name is selected.
1070
     0
  0
LAYOUT
  5
25
102
{ACAD_XDICTIONARY
360
1911
102
}
102
{ACAD_REACTORS
330
19
102
}
330
19
100
AcDbPlotSettings
  1

  2
HP Color LaserJet 2830 PCL 6
  4

  6

 40
0.0
 41
0.0
 42
0.0
 43
0.0
 44
0.0
 45
0.0
 46
0.0
 47
0.0
 48
0.0
 49
0.0
140
0.0
141
0.0
142
1.0
143
1.0
 70
  1712
 72
     0
 73
     0
 74
     0
  7

 75
     0
147
1.0
148
0.0
149
0.0
100
AcDbLayout
  1
Model
 70
     1
 71
     0
 10
0.0
 20
0.0
 11
12.0
 21
9.0
 12
0.0
 22
0.0
 32
0.0
 14
0.0
 24
0.0
 34
0.0
 15
0.0
 25
0.0
 35
0.0
146
0.0
 13
0.0
 23
0.0
 33
0.0
 16
1.0
 26
0.0
 36
0.0
 17
0.0
 27
1.0
 37
0.0
 76
     0
330
22
  0
MATERIAL
  5
18E9
102
{ACAD_XDICTIONARY
360
1915
102
}
102
{ACAD_REACTORS
330
1A
102
}
330
1A
100
AcDbMaterial
  1
ByBlock
  0
MATERIAL
  5
18E8
102
{ACAD_XDICTIONARY
360
1913
102
}
102
{ACAD_REACTORS
330
1A
102
}
330
1A
100
AcDbMaterial
  1
ByLayer
  0
MATERIAL
  5
18EA
102
{ACAD_XDICTIONARY
360
1917
102
}
102
{ACAD_REACTORS
330
1A
102
}
330
1A
100
AcDbMaterial
  1
Global
  0
MLINESTYLE
  5
17
102
{ACAD_REACTORS
330
16
102
}
330
16
100
AcDbMlineStyle
  2
STANDARD
 70
     0
  3

 62
   256
 51
90.0
 52
90.0
 71
     2
 49
0.5
 62
   256
  6
BYLAYER
 49
-0.5
 62
   256
  6
BYLAYER
  0
ACDBPLACEHOLDER
  5
F
102
{ACAD_REACTORS
330
E
102
}
330
E
  0
TABLESTYLE
  5
1D
102
{ACAD_XDICTIONARY
360
190D
102
}
102
{ACAD_REACTORS
330
1C
102
}
330
1C
100
AcDbTableStyle
  3
Standard
 70
     0
 71
     0
 40
0.06
 41
0.06
280
     0
281
     0
  7
STANDARD
140
0.18
170
     2
 62
     0
 63
     7
283
     0
274
    -2
284
     1
 64
     0
275
    -2
285
     1
 65
     0
276
    -2
286
     1
 66
     0
277
    -2
287
     1
 67
     0
278
    -2
288
     1
 68
     0
279
    -2
289
     1
 69
     0
  7
STANDARD
140
0.25
170
     5
 62
     0
 63
     7
283
     0
274
    -2
284
     1
 64
     0
275
    -2
285
     1
 65
     0
276
    -2
286
     1
 66
     0
277
    -2
287
     1
 67
     0
278
    -2
288
     1
 68
     0
279
    -2
289
     1
 69
     0
  7
STANDARD
140
0.18
170
     5
 62
     0
 63
     7
283
     0
274
    -2
284
     1
 64
     0
275
    -2
285
     1
 65
     0
276
    -2
286
     1
 66
     0
277
    -2
287
     1
 67
     0
278
    -2
288
     1
 68
     0
279
    -2
289
     1
 69
     0
  0
VISUALSTYLE
  5
18F1
102
{ACAD_REACTORS
330
18EB
102
}
330
18EB
100
AcDbVisualStyle
  2
2dWireframe
 70
     4
 71
     0
 72
     2
 73
     0
 90
        0
 40
-0.6
 41
-30.0
 62
     5
 63
     7
 74
     1
 91
        4
 64
     7
 65
   257
 75
     1
175
     1
 42
1.0
 92
        0
 66
   257
 43
1.0
 76
     1
 77
     6
 78
     2
 67
     7
 79
     5
170
     0
171
     0
290
     0
174
     0
 93
        1
 44
0.0
173
     0
291
     0
 45
0.0
1001
ACAD
1000
AcDbSavedByObjectVersion
1070
     0
  0
VISUALSTYLE
  5
18F3
102
{ACAD_REACTORS
330
18EB
102
}
330
18EB
100
AcDbVisualStyle
  2
3D Hidden
 70
     6
 71
     1
 72
     2
 73
     2
 90
        0
 40
-0.6
 41
-30.0
 62
     5
 63
     7
 74
     2
 91
        2
 64
     7
 65
   257
 75
     2
175
     1
 42
40.0
 92
        0
 66
   257
 43
1.0
 76
     1
 77
     6
 78
     2
 67
     7
 79
     3
170
     0
171
     0
290
     0
174
     0
 93
        1
 44
0.0
173
     0
291
     0
 45
0.0
1001
ACAD
1000
AcDbSavedByObjectVersion
1070
     0
  0
VISUALSTYLE
  5
18F2
102
{ACAD_REACTORS
330
18EB
102
}
330
18EB
100
AcDbVisualStyle
  2
3dWireframe
 70
     5
 71
     0
 72
     2
 73
     0
 90
        0
 40
-0.6
 41
-30.0
 62
     5
 63
     7
 74
     1
 91
        4
 64
     7
 65
   257
 75
     1
175
     1
 42
1.0
 92
        0
 66
   257
 43
1.0
 76
     1
 77
     6
 78
     2
 67
     7
 79
     5
170
     0
171
     0
290
     0
174
     0
 93
        1
 44
0.0
173
     0
291
     0
 45
0.0
1001
ACAD
1000
AcDbSavedByObjectVersion
1070
     0
  0
VISUALSTYLE
  5
18F0
102
{ACAD_REACTORS
330
18EB
102
}
330
18EB
100
AcDbVisualStyle
  2
Basic
 70
     7
 71
     1
 72
     0
 73
     1
 90
        0
 40
-0.6
 41
-30.0
 62
     5
 63
     7
 74
     0
 91
        4
 64
     7
 65
   257
 75
     1
175
     1
 42
1.0
 92
        8
 66
     7
 43
1.0
 76
     1
 77
     6
 78
     2
 67
     7
 79
     5
170
     0
171
     0
290
     0
174
     0
 93
        1
 44
0.0
173
     0
291
     1
 45
0.0
1001
ACAD
1000
AcDbSavedByObjectVersion
1070
     0
  0
VISUALSTYLE
  5
18F7
102
{ACAD_REACTORS
330
18EB
102
}
330
18EB
100
AcDbVisualStyle
  2
Brighten
 70
    12
 71
     2
 72
     2
 73
     0
 90
        0
 40
-0.6
 41
-30.0
 62
     5
 63
     7
 74
     1
 91
        4
 64
     7
 65
   257
 75
     1
175
     1
 42
1.0
 92
        8
 66
     7
 43
1.0
 76
     1
 77
     6
 78
     2
 67
     7
 79
     5
170
     0
171
     0
290
     0
174
     0
 93
        1
 44
50.0
173
     0
291
     1
 45
0.0
1001
ACAD
1000
AcDbSavedByObjectVersion
1070
     0
  0
VISUALSTYLE
  5
18FB
102
{ACAD_REACTORS
330
18EB
102
}
330
18EB
100
AcDbVisualStyle
  2
ColorChange
 70
    16
 71
     2
 72
     2
 73
     3
 90
        0
 40
-0.6
 41
-30.0
 62
     5
 63
     8
 74
     1
 91
        4
 64
     7
 65
   257
 75
     1
175
     1
 42
1.0
 92
        8
 66
     8
 43
1.0
 76
     1
 77
     6
 78
     2
 67
     7
 79
     5
170
     0
171
     0
290
     0
174
     0
 93
        1
 44
0.0
173
     0
291
     1
 45
0.0
1001
ACAD
1000
AcDbSavedByObjectVersion
1070
     0
  0
VISUALSTYLE
  5
18F4
102
{ACAD_REACTORS
330
18EB
102
}
330
18EB
100
AcDbVisualStyle
  2
Conceptual
 70
     9
 71
     3
 72
     2
 73
     0
 90
        0
 40
-0.6
 41
-30.0
 62
     5
 63
     7
 74
     2
 91
        2
 64
     7
 65
   257
 75
     1
175
     1
 42
40.0
 92
        8
 66
     7
 43
1.0
 76
     1
 77
     6
 78
     2
 67
     7
 79
     3
170
     0
171
     0
290
     0
174
     0
 93
        1
 44
0.0
173
     0
291
     0
 45
0.0
1001
ACAD
1000
AcDbSavedByObjectVersion
1070
     0
  0
VISUALSTYLE
  5
18F6
102
{ACAD_REACTORS
330
18EB
102
}
330
18EB
100
AcDbVisualStyle
  2
Dim
 70
    11
 71
     2
 72
     2
 73
     0
 90
        0
 40
-0.6
 41
-30.0
 62
     5
 63
     7
 74
     1
 91
        4
 64
     7
 65
   257
 75
     1
175
     1
 42
1.0
 92
        8
 66
     7
 43
1.0
 76
     1
 77
     6
 78
     2
 67
     7
 79
     5
170
     0
171
     0
290
     0
174
     0
 93
        1
 44
-50.0
173
     0
291
     1
 45
0.0
1001
ACAD
1000
AcDbSavedByObjectVersion
1070
     0
  0
VISUALSTYLE
  5
18FA
102
{ACAD_REACTORS
330
18EB
102
}
330
18EB
100
AcDbVisualStyle
  2
Facepattern
 70
    15
 71
     2
 72
     2
 73
     0
 90
        0
 40
-0.6
 41
-30.0
 62
     5
 63
     7
 74
     1
 91
        4
 64
     7
 65
   257
 75
     1
175
     1
 42
1.0
 92
        8
 66
     7
 43
1.0
 76
     1
 77
     6
 78
     2
 67
     7
 79
     5
170
     0
171
     0
290
     0
174
     0
 93
        1
 44
0.0
173
     0
291
     1
 45
0.0
1001
ACAD
1000
AcDbSavedByObjectVersion
1070
     0
  0
VISUALSTYLE
  5
18EC
102
{ACAD_REACTORS
330
18EB
102
}
330
18EB
100
AcDbVisualStyle
  2
Flat
 70
     0
 71
     2
 72
     1
 73
     1
 90
        2
 40
-0.6
 41
30.0
 62
     5
 63
     7
 74
     0
 91
        4
 64
     7
 65
   257
 75
     1
175
     1
 42
1.0
 92
        8
 66
     7
 43
1.0
 76
     1
 77
     6
 78
     2
 67
     7
 79
     5
170
     0
171
     0
290
     0
174
     0
 93
       13
 44
0.0
173
     0
291
     1
 45
0.0
1001
ACAD
1000
AcDbSavedByObjectVersion
1070
     0
  0
VISUALSTYLE
  5
18ED
102
{ACAD_REACTORS
330
18EB
102
}
330
18EB
100
AcDbVisualStyle
  2
FlatWithEdges
 70
     1
 71
     2
 72
     1
 73
     1
 90
        2
 40
-0.6
 41
30.0
 62
     5
 63
     7
 74
     1
 91
        4
 64
     7
 65
   257
 75
     1
175
     1
 42
1.0
 92
        0
 66
   257
 43
1.0
 76
     1
 77
     6
 78
     2
 67
     7
 79
     5
170
     0
171
     0
290
     0
174
     0
 93
       13
 44
0.0
173
     0
291
     1
 45
0.0
1001
ACAD
1000
AcDbSavedByObjectVersion
1070
     0
  0
VISUALSTYLE
  5
18EE
102
{ACAD_REACTORS
330
18EB
102
}
330
18EB
100
AcDbVisualStyle
  2
Gouraud
 70
     2
 71
     2
 72
     2
 73
     1
 90
        2
 40
-0.6
 41
30.0
 62
     5
 63
     7
 74
     0
 91
        4
 64
     7
 65
   257
 75
     1
175
     1
 42
1.0
 92
        0
 66
     7
 43
1.0
 76
     1
 77
     6
 78
     2
 67
     7
 79
     5
170
     0
171
     0
290
     0
174
     0
 93
       13
 44
0.0
173
     0
291
     1
 45
0.0
1001
ACAD
1000
AcDbSavedByObjectVersion
1070
     0
  0
VISUALSTYLE
  5
18EF
102
{ACAD_REACTORS
330
18EB
102
}
330
18EB
100
AcDbVisualStyle
  2
GouraudWithEdges
 70
     3
 71
     2
 72
     2
 73
     1
 90
        2
 40
-0.6
 41
30.0
 62
     5
 63
     7
 74
     1
 91
        4
 64
     7
 65
   257
 75
     1
175
     1
 42
1.0
 92
        0
 66
   257
 43
1.0
 76
     1
 77
     6
 78
     2
 67
     7
 79
     5
170
     0
171
     0
290
     0
174
     0
 93
       13
 44
0.0
173
     0
291
     1
 45
0.0
1001
ACAD
1000
AcDbSavedByObjectVersion
1070
     0
  0
VISUALSTYLE
  5
18F9
102
{ACAD_REACTORS
330
18EB
102
}
330
18EB
100
AcDbVisualStyle
  2
Linepattern
 70
    14
 71
     2
 72
     2
 73
     0
 90
        0
 40
-0.6
 41
-30.0
 62
     5
 63
     7
 74
     1
 91
        4
 64
     7
 65
   257
 75
     7
175
     7
 42
1.0
 92
        8
 66
     7
 43
1.0
 76
     1
 77
     6
 78
     2
 67
     7
 79
     5
170
     0
171
     0
290
     0
174
     0
 93
        1
 44
0.0
173
     0
291
     1
 45
0.0
1001
ACAD
1000
AcDbSavedByObjectVersion
1070
     0
  0
VISUALSTYLE
  5
18F5
102
{ACAD_REACTORS
330
18EB
102
}
330
18EB
100
AcDbVisualStyle
  2
Realistic
 70
     8
 71
     2
 72
     2
 73
     0
 90
        0
 40
-0.6
 41
-30.0
 62
     5
 63
     7
 74
     1
 91
        0
 64
     7
 65
   257
 75
     1
175
     1
 42
1.0
 92
        8
 66
     8
 43
1.0
 76
     1
 77
     6
 78
     2
 67
     7
 79
     5
170
     0
171
     0
290
     0
174
     0
 93
       13
 44
0.0
173
     0
291
     0
 45
0.0
1001
ACAD
1000
AcDbSavedByObjectVersion
1070
     0
  0
VISUALSTYLE
  5
18F8
102
{ACAD_REACTORS
330
18EB
102
}
330
18EB
100
AcDbVisualStyle
  2
Thicken
 70
    13
 71
     2
 72
     2
 73
     0
 90
        0
 40
-0.6
 41
-30.0
 62
     5
 63
     7
 74
     1
 91
        4
 64
     7
 65
   257
 75
     1
175
     1
 42
1.0
 92
       12
 66
     7
 43
1.0
 76
     1
 77
     6
 78
     2
 67
     7
 79
     5
170
     0
171
     0
290
     0
174
     0
 93
        1
 44
0.0
173
     0
291
     1
 45
0.0
1001
ACAD
1000
AcDbSavedByObjectVersion
1070
     0
  0
DICTIONARYVAR
  5
DC4
102
{ACAD_REACTORS
330
DC3
102
}
330
DC3
100
DictionaryVariables
280
     0
  1
STANDARD
  0
DICTIONARYVAR
  5
190B
102
{ACAD_REACTORS
330
DC3
102
}
330
DC3
100
DictionaryVariables
280
     0
  1
1
  0
DICTIONARYVAR
  5
190A
102
{ACAD_REACTORS
330
DC3
102
}
330
DC3
100
DictionaryVariables
280
     0
  1
0
  0
DICTIONARYVAR
  5
1909
102
{ACAD_REACTORS
330
DC3
102
}
330
DC3
100
DictionaryVariables
280
     0
  1
127
  0
XRECORD
  5
1908
102
{ACAD_REACTORS
330
1907
102
}
330
1907
100
AcDbXrecord
280
     1
  0
DICTIONARY
  5
190F
330
21
100
AcDbDictionary
280
     1
281
     1
  3
ACAD_XREC_ROUNDTRIP
360
1910
  0
DICTIONARY
  5
1911
330
25
100
AcDbDictionary
280
     1
281
     1
  3
ACAD_XREC_ROUNDTRIP
360
1912
  0
DICTIONARY
  5
1915
330
18E9
100
AcDbDictionary
280
     1
281
     1
  3
ACAD_XREC_ROUNDTRIP
360
1916
  0
DICTIONARY
  5
1913
330
18E8
100
AcDbDictionary
280
     1
281
     1
  3
ACAD_XREC_ROUNDTRIP
360
1914
  0
DICTIONARY
  5
1917
330
18EA
100
AcDbDictionary
280
     1
281
     1
  3
ACAD_XREC_ROUNDTRIP
360
1918
  0
DICTIONARY
  5
190D
330
1D
100
AcDbDictionary
280
     1
281
     1
  3
ACAD_XREC_ROUNDTRIP
360
190E
  0
XRECORD
  5
1910
102
{ACAD_REACTORS
330
190F
102
}
330
190F
100
AcDbXrecord
280
     1
102
SHADEPLOT
 70
     0
102
SHADEPLOTRESLEVEL
 70
     2
102
SHADEPLOTCUSTOMDPI
 70
   300
  0
XRECORD
  5
1912
102
{ACAD_REACTORS
330
1911
102
}
330
1911
100
AcDbXrecord
280
     1
102
SHADEPLOT
 70
     0
102
SHADEPLOTRESLEVEL
 70
     2
102
SHADEPLOTCUSTOMDPI
 70
   300
  0
XRECORD
  5
1916
102
{ACAD_REACTORS
330
1915
102
}
330
1915
100
AcDbXrecord
280
     1
102
MATERIAL
148
0.0
149
0.0
149
0.0
 93
        0
 94
       63
282
     0
 72
     1
 77
     1
171
     1
175
     1
179
     1
273
     0
  0
XRECORD
  5
1914
102
{ACAD_REACTORS
330
1913
102
}
330
1913
100
AcDbXrecord
280
     1
102
MATERIAL
148
0.0
149
0.0
149
0.0
 93
        0
 94
       63
282
     0
 72
     1
 77
     1
171
     1
175
     1
179
     1
273
     0
  0
XRECORD
  5
1918
102
{ACAD_REACTORS
330
1917
102
}
330
1917
100
AcDbXrecord
280
     1
102
MATERIAL
148
0.0
149
0.0
149
0.0
 93
        0
 94
       63
282
     0
 72
     1
 77
     1
171
     1
175
     1
179
     1
273
     0
  0
XRECORD
  5
190E
102
{ACAD_REACTORS
330
190D
102
}
330
190D
100
AcDbXrecord
280
     1
102
ACAD_ROUNDTRIP_PRE2007_TABLESTYLE
 90
        4
 91
        0
  1

 92
        4
 93
        0
  2

 94
        4
 95
        0
  3

  0
ENDSEC
  0
EOF
