  0
SECTION
  2
HEADER
  9
$ACADVER
  1
AC1015
  9
$ACADMAINTVER
 70
    20
  9
$DWGCODEPAGE
  3
ANSI_1252
  9
$INSBASE
 10
0.0
 20
0.0
 30
0.0
  9
$EXTMIN
 10
9.197230806104158
 20
5.628083770683645
 30
-0.0000000349181948
  9
$EXTMAX
 10
60.37945548021366
 20
67.38467052787484
 30
0.0000000814935746
  9
$LIMMIN
 10
0.0
 20
0.0
  9
$LIMMAX
 10
12.0
 20
9.0
  9
$ORTHOMODE
 70
     1
  9
$REGENMODE
 70
     1
  9
$FILLMODE
 70
     1
  9
$QTEXTMODE
 70
     0
  9
$MIRRTEXT
 70
     0
  9
$LTSCALE
 40
1.0
  9
$ATTMODE
 70
     1
  9
$TEXTSIZE
 40
0.2
  9
$TRACEWID
 40
0.05
  9
$TEXTSTYLE
  7
Standard
  9
$CLAYER
  8
0
  9
$CELTYPE
  6
ByLayer
  9
$CECOLOR
 62
   256
  9
$CELTSCALE
 40
1.0
  9
$DISPSILH
 70
     0
  9
$DIMSCALE
 40
1.0
  9
$DIMASZ
 40
0.18
  9
$DIMEXO
 40
0.0625
  9
$DIMDLI
 40
0.38
  9
$DIMRND
 40
0.0
  9
$DIMDLE
 40
0.0
  9
$DIMEXE
 40
0.18
  9
$DIMTP
 40
0.0
  9
$DIMTM
 40
0.0
  9
$DIMTXT
 40
0.18
  9
$DIMCEN
 40
0.09
  9
$DIMTSZ
 40
0.0
  9
$DIMTOL
 70
     0
  9
$DIMLIM
 70
     0
  9
$DIMTIH
 70
     1
  9
$DIMTOH
 70
     1
  9
$DIMSE1
 70
     0
  9
$DIMSE2
 70
     0
  9
$DIMTAD
 70
     0
  9
$DIMZIN
 70
     0
  9
$DIMBLK
  1

  9
$DIMASO
 70
     1
  9
$DIMSHO
 70
     1
  9
$DIMPOST
  1

  9
$DIMAPOST
  1

  9
$DIMALT
 70
     1
  9
$DIMALTD
 70
     2
  9
$DIMALTF
 40
25.4
  9
$DIMLFAC
 40
1.0
  9
$DIMTOFL
 70
     0
  9
$DIMTVP
 40
0.0
  9
$DIMTIX
 70
     0
  9
$DIMSOXD
 70
     0
  9
$DIMSAH
 70
     0
  9
$DIMBLK1
  1

  9
$DIMBLK2
  1

  9
$DIMSTYLE
  2
Standard
  9
$DIMCLRD
 70
     0
  9
$DIMCLRE
 70
     0
  9
$DIMCLRT
 70
     0
  9
$DIMTFAC
 40
1.0
  9
$DIMGAP
 40
0.09
  9
$DIMJUST
 70
     0
  9
$DIMSD1
 70
     0
  9
$DIMSD2
 70
     0
  9
$DIMTOLJ
 70
     1
  9
$DIMTZIN
 70
     0
  9
$DIMALTZ
 70
     0
  9
$DIMALTTZ
 70
     0
  9
$DIMUPT
 70
     0
  9
$DIMDEC
 70
     4
  9
$DIMTDEC
 70
     4
  9
$DIMALTU
 70
     2
  9
$DIMALTTD
 70
     2
  9
$DIMTXSTY
  7
Standard
  9
$DIMAUNIT
 70
     0
  9
$DIMADEC
 70
     0
  9
$DIMALTRND
 40
0.0
  9
$DIMAZIN
 70
     0
  9
$DIMDSEP
 70
    46
  9
$DIMATFIT
 70
     3
  9
$DIMFRAC
 70
     0
  9
$DIMLDRBLK
  1

  9
$DIMLUNIT
 70
     2
  9
$DIMLWD
 70
    -2
  9
$DIMLWE
 70
    -2
  9
$DIMTMOVE
 70
     0
  9
$LUNITS
 70
     2
  9
$LUPREC
 70
     4
  9
$SKETCHINC
 40
0.1
  9
$FILLETRAD
 40
0.0
  9
$AUNITS
 70
     0
  9
$AUPREC
 70
     0
  9
$MENU
  1
.
  9
$ELEVATION
 40
0.0
  9
$PELEVATION
 40
0.0
  9
$THICKNESS
 40
0.0
  9
$LIMCHECK
 70
     0
  9
$CHAMFERA
 40
0.0
  9
$CHAMFERB
 40
0.0
  9
$CHAMFERC
 40
0.0
  9
$CHAMFERD
 40
0.0
  9
$SKPOLY
 70
     0
  9
$TDCREATE
 40
2454617.584509595
  9
$TDUCREATE
 40
2454617.876176262
  9
$TDUPDATE
 40
2454923.482763727
  9
$TDUUPDATE
 40
2454923.774430394
  9
$TDINDWG
 40
0.0452364005
  9
$TDUSRTIMER
 40
0.0452364005
  9
$USRTIMER
 70
     1
  9
$ANGBASE
 50
0.0
  9
$ANGDIR
 70
     0
  9
$PDMODE
 70
     0
  9
$PDSIZE
 40
0.0
  9
$PLINEWID
 40
0.0
  9
$SPLFRAME
 70
     0
  9
$SPLINETYPE
 70
     6
  9
$SPLINESEGS
 70
     8
  9
$HANDSEED
  5
1AE6
  9
$SURFTAB1
 70
     6
  9
$SURFTAB2
 70
     6
  9
$SURFTYPE
 70
     6
  9
$SURFU
 70
     6
  9
$SURFV
 70
     6
  9
$UCSBASE
  2

  9
$UCSNAME
  2

  9
$UCSORG
 10
0.0
 20
0.0
 30
0.0
  9
$UCSXDIR
 10
1.0
 20
0.0
 30
0.0
  9
$UCSYDIR
 10
0.0
 20
1.0
 30
0.0
  9
$UCSORTHOREF
  2

  9
$UCSORTHOVIEW
 70
     0
  9
$UCSORGTOP
 10
0.0
 20
0.0
 30
0.0
  9
$UCSORGBOTTOM
 10
0.0
 20
0.0
 30
0.0
  9
$UCSORGLEFT
 10
0.0
 20
0.0
 30
0.0
  9
$UCSORGRIGHT
 10
0.0
 20
0.0
 30
0.0
  9
$UCSORGFRONT
 10
0.0
 20
0.0
 30
0.0
  9
$UCSORGBACK
 10
0.0
 20
0.0
 30
0.0
  9
$PUCSBASE
  2

  9
$PUCSNAME
  2

  9
$PUCSORG
 10
0.0
 20
0.0
 30
0.0
  9
$PUCSXDIR
 10
1.0
 20
0.0
 30
0.0
  9
$PUCSYDIR
 10
0.0
 20
1.0
 30
0.0
  9
$PUCSORTHOREF
  2

  9
$PUCSORTHOVIEW
 70
     0
  9
$PUCSORGTOP
 10
0.0
 20
0.0
 30
0.0
  9
$PUCSORGBOTTOM
 10
0.0
 20
0.0
 30
0.0
  9
$PUCSORGLEFT
 10
0.0
 20
0.0
 30
0.0
  9
$PUCSORGRIGHT
 10
0.0
 20
0.0
 30
0.0
  9
$PUCSORGFRONT
 10
0.0
 20
0.0
 30
0.0
  9
$PUCSORGBACK
 10
0.0
 20
0.0
 30
0.0
  9
$USERI1
 70
     0
  9
$USERI2
 70
     0
  9
$USERI3
 70
     0
  9
$USERI4
 70
     0
  9
$USERI5
 70
     0
  9
$USERR1
 40
0.0
  9
$USERR2
 40
0.0
  9
$USERR3
 40
0.0
  9
$USERR4
 40
0.0
  9
$USERR5
 40
0.0
  9
$WORLDVIEW
 70
     1
  9
$SHADEDGE
 70
     3
  9
$SHADEDIF
 70
    70
  9
$TILEMODE
 70
     1
  9
$MAXACTVP
 70
    64
  9
$PINSBASE
 10
0.0
 20
0.0
 30
0.0
  9
$PLIMCHECK
 70
     0
  9
$PEXTMIN
 10
1.000000000000000E+20
 20
1.000000000000000E+20
 30
1.000000000000000E+20
  9
$PEXTMAX
 10
-1.000000000000000E+20
 20
-1.000000000000000E+20
 30
-1.000000000000000E+20
  9
$PLIMMIN
 10
-20.0
 20
-7.5
  9
$PLIMMAX
 10
277.0
 20
202.5
  9
$UNITMODE
 70
     0
  9
$VISRETAIN
 70
     1
  9
$PLINEGEN
 70
     0
  9
$PSLTSCALE
 70
     1
  9
$TREEDEPTH
 70
  3020
  9
$CMLSTYLE
  2
Standard
  9
$CMLJUST
 70
     0
  9
$CMLSCALE
 40
1.0
  9
$PROXYGRAPHICS
 70
     1
  9
$MEASUREMENT
 70
     0
  9
$CELWEIGHT
370
    -1
  9
$ENDCAPS
280
     0
  9
$JOINSTYLE
280
     0
  9
$LWDISPLAY
290
     0
  9
$INSUNITS
 70
     1
  9
$HYPERLINKBASE
  1

  9
$STYLESHEET
  1

  9
$XEDIT
290
     1
  9
$CEPSNTYPE
380
     0
  9
$PSTYLEMODE
290
     1
  9
$FINGERPRINTGUID
  2
{F581CD9C-7017-4B5B-83EA-6F013C9C94BB}
  9
$VERSIONGUID
  2
{42858E2B-FA30-402A-A329-56345840A253}
  9
$EXTNAMES
290
     1
  9
$PSVPSCALE
 40
0.0
  9
$OLESTARTUP
290
     0
  0
ENDSEC
  0
SECTION
  2
CLASSES
  0
CLASS
  1
ACDBDICTIONARYWDFLT
  2
AcDbDictionaryWithDefault
  3
ObjectDBX Classes
 90
        0
280
     0
281
     0
  0
CLASS
  1
ACDBPLACEHOLDER
  2
AcDbPlaceHolder
  3
ObjectDBX Classes
 90
        0
280
     0
281
     0
  0
CLASS
  1
LAYOUT
  2
AcDbLayout
  3
ObjectDBX Classes
 90
        0
280
     0
281
     0
  0
CLASS
  1
DICTIONARYVAR
  2
AcDbDictionaryVar
  3
ObjectDBX Classes
 90
        0
280
     0
281
     0
  0
CLASS
  1
TABLESTYLE
  2
AcDbTableStyle
  3
ObjectDBX Classes
 90
     4095
280
     0
281
     0
  0
CLASS
  1
SORTENTSTABLE
  2
AcDbSortentsTable
  3
ObjectDBX Classes
 90
        0
280
     0
281
     0
  0
CLASS
  1
DIMASSOC
  2
AcDbDimAssoc
  3
"AcDbDimAssoc|Product Desc:     AcDim ARX App For Dimension|Company:          Autodesk, Inc.|WEB Address:      www.autodesk.com"
 90
    32768
280
     0
281
     0
  0
CLASS
  1
MATERIAL
  2
AcDbMaterial
  3
ObjectDBX Classes
 90
     1024
280
     0
281
     0
  0
CLASS
  1
VISUALSTYLE
  2
AcDbVisualStyle
  3
ObjectDBX Classes
 90
     4095
280
     0
281
     0
  0
ENDSEC
  0
SECTION
  2
TABLES
  0
TABLE
  2
VPORT
  5
8
330
0
100
AcDbSymbolTable
 70
     1
  0
VPORT
  5
1AB0
330
8
100
AcDbSymbolTableRecord
100
AcDbViewportTableRecord
  2
*Active
 70
     0
 10
0.0
 20
0.0
 11
1.0
 21
1.0
 12
34.78834314315891
 22
36.50637714927924
 13
0.0
 23
0.0
 14
0.5
 24
0.5
 15
0.5
 25
0.5
 16
0.0
 26
0.0
 36
1.0
 17
0.0
 27
0.0
 37
0.0
 40
62.27700743211135
 41
1.646976090014064
 42
50.0
 43
0.0
 44
0.0
 50
0.0
 51
0.0
 71
     0
 72
 20000
 73
     1
 74
     3
 75
     0
 76
     0
 77
     0
 78
     0
281
     0
 65
     1
110
0.0
120
0.0
130
0.0
111
1.0
121
0.0
131
0.0
112
0.0
122
1.0
132
0.0
 79
     0
146
0.0
  0
ENDTAB
  0
TABLE
  2
LTYPE
  5
5
330
0
100
AcDbSymbolTable
 70
     1
  0
LTYPE
  5
14
330
5
100
AcDbSymbolTableRecord
100
AcDbLinetypeTableRecord
  2
ByBlock
 70
     0
  3

 72
    65
 73
     0
 40
0.0
  0
LTYPE
  5
15
330
5
100
AcDbSymbolTableRecord
100
AcDbLinetypeTableRecord
  2
ByLayer
 70
     0
  3

 72
    65
 73
     0
 40
0.0
  0
LTYPE
  5
16
330
5
100
AcDbSymbolTableRecord
100
AcDbLinetypeTableRecord
  2
Continuous
 70
     0
  3
Solid line
 72
    65
 73
     0
 40
0.0
  0
ENDTAB
  0
TABLE
  2
LAYER
  5
2
102
{ACAD_XDICTIONARY
360
1D0
102
}
330
0
100
AcDbSymbolTable
 70
     2
  0
LAYER
  5
10
330
2
100
AcDbSymbolTableRecord
100
AcDbLayerTableRecord
  2
0
 70
     0
 62
     7
  6
Continuous
370
    -3
390
F
  0
LAYER
  5
200
330
2
100
AcDbSymbolTableRecord
100
AcDbLayerTableRecord
  2
Defpoints
 70
     0
 62
     7
  6
Continuous
290
     0
370
    -3
390
F
  0
ENDTAB
  0
TABLE
  2
STYLE
  5
3
330
0
100
AcDbSymbolTable
 70
     1
  0
STYLE
  5
11
330
3
100
AcDbSymbolTableRecord
100
AcDbTextStyleTableRecord
  2
Standard
 70
     0
 40
0.0
 41
1.0
 50
0.0
 71
     0
 42
0.2
  3
txt
  4

  0
ENDTAB
  0
TABLE
  2
VIEW
  5
6
330
0
100
AcDbSymbolTable
 70
     3
  0
ENDTAB
  0
TABLE
  2
UCS
  5
7
330
0
100
AcDbSymbolTable
 70
     0
  0
ENDTAB
  0
TABLE
  2
APPID
  5
9
330
0
100
AcDbSymbolTable
 70
    12
  0
APPID
  5
12
330
9
100
AcDbSymbolTableRecord
100
AcDbRegAppTableRecord
  2
ACAD
 70
     0
  0
APPID
  5
1CA
330
9
100
AcDbSymbolTableRecord
100
AcDbRegAppTableRecord
  2
ACAD_PSEXT
 70
     0
  0
APPID
  5
1CB
330
9
100
AcDbSymbolTableRecord
100
AcDbRegAppTableRecord
  2
ACAD_DSTYLE_DIMEXT_LENGTH
 70
     0
  0
APPID
  5
1CC
330
9
100
AcDbSymbolTableRecord
100
AcDbRegAppTableRecord
  2
ACAD_DSTYLE_DIMEXT_ENABLED
 70
     0
  0
APPID
  5
1CD
330
9
100
AcDbSymbolTableRecord
100
AcDbRegAppTableRecord
  2
ACAD_DSTYLE_DIMJOGGED_JOGANGLE_SYMBOL
 70
     0
  0
APPID
  5
1CE
330
9
100
AcDbSymbolTableRecord
100
AcDbRegAppTableRecord
  2
ACAD_DSTYLE_DIMARC_LENGTH_SYMBOL
 70
     0
  0
APPID
  5
1CF
330
9
100
AcDbSymbolTableRecord
100
AcDbRegAppTableRecord
  2
DCO15
 70
     0
  0
APPID
  5
2A8
330
9
100
AcDbSymbolTableRecord
100
AcDbRegAppTableRecord
  2
ACAD_DSTYLE_DIMTEXT_FILL
 70
     0
  0
APPID
  5
2AB
330
9
100
AcDbSymbolTableRecord
100
AcDbRegAppTableRecord
  2
ACAD_DSTYLE_DIM_LINETYPE
 70
     0
  0
APPID
  5
2AC
330
9
100
AcDbSymbolTableRecord
100
AcDbRegAppTableRecord
  2
ACAD_DSTYLE_DIM_EXT1_LINETYPE
 70
     0
  0
APPID
  5
2AD
330
9
100
AcDbSymbolTableRecord
100
AcDbRegAppTableRecord
  2
ACAD_DSTYLE_DIM_EXT2_LINETYPE
 70
     0
  0
APPID
  5
50A
330
9
100
AcDbSymbolTableRecord
100
AcDbRegAppTableRecord
  2
AcAecLayerStandard
 70
     0
  0
ENDTAB
  0
TABLE
  2
DIMSTYLE
  5
A
330
0
100
AcDbSymbolTable
 70
     1
100
AcDbDimStyleTable
 71
     1
340
27
  0
DIMSTYLE
105
27
330
A
100
AcDbSymbolTableRecord
100
AcDbDimStyleTableRecord
  2
Standard
 70
     0
170
     1
340
11
1001
ACAD_DSTYLE_DIMJOGGED_JOGANGLE_SYMBOL
1070
   384
1040
0.7853981633974483
1001
ACAD_DSTYLE_DIMEXT_LENGTH
1070
   378
1040
0.18
  0
ENDTAB
  0
TABLE
  2
BLOCK_RECORD
  5
1
330
0
100
AcDbSymbolTable
 70
     0
  0
BLOCK_RECORD
  5
1F
102
{ACAD_XDICTIONARY
360
A08
102
}
330
1
100
AcDbSymbolTableRecord
100
AcDbBlockTableRecord
  2
*Model_Space
340
22
  0
BLOCK_RECORD
  5
58
330
1
100
AcDbSymbolTableRecord
100
AcDbBlockTableRecord
  2
*Paper_Space
340
59
  0
ENDTAB
  0
ENDSEC
  0
SECTION
  2
BLOCKS
  0
BLOCK
  5
20
330
1F
100
AcDbEntity
  8
0
100
AcDbBlockBegin
  2
*Model_Space
 70
     0
 10
0.0
 20
0.0
 30
0.0
  3
*Model_Space
  1

  0
ENDBLK
  5
21
330
1F
100
AcDbEntity
  8
0
100
AcDbBlockEnd
  0
BLOCK
  5
5A
330
58
100
AcDbEntity
 67
     1
  8
0
100
AcDbBlockBegin
  2
*Paper_Space
 70
     0
 10
0.0
 20
0.0
 30
0.0
  3
*Paper_Space
  1

  0
ENDBLK
  5
5B
330
58
100
AcDbEntity
 67
     1
  8
0
100
AcDbBlockEnd
  0
ENDSEC
  0
SECTION
  2
ENTITIES
  0
LINE
  5
6BC
330
1F
100
AcDbEntity
  8
0
100
AcDbLine
 10
35.03566301142411
 20
67.38162025135193
 30
0.0
 11
10.4490980114241
 21
67.38162025135193
 31
0.0
  0
ARC
  5
6BD
330
1F
100
AcDbEntity
  8
0
100
AcDbCircle
 10
22.7423805114241
 20
126.265230533298
 30
0.0
 40
78.76546028194607
100
AcDbArc
 50
262.6459462901154
 51
277.3540537098846
  0
ARC
  5
6BE
330
1F
100
AcDbEntity
  8
0
100
AcDbCircle
 10
22.7423805114241
 20
126.265230533298
 30
0.0
 40
77.97806028194607
100
AcDbArc
 50
262.8639906730854
 51
277.1360093269146
  0
ARC
  5
6BF
330
1F
100
AcDbEntity
  8
0
100
AcDbCircle
 10
32.39986951187325
 20
49.12557382787949
 30
0.0
 40
0.23622
100
AcDbArc
 50
277.1360093269146
 51
316.6499946885519
  0
ARC
  5
6C0
330
1F
100
AcDbEntity
  8
0
100
AcDbCircle
 10
32.79414841424294
 20
48.38196184683695
 30
0.0
 40
0.23622
100
AcDbArc
 50
277.3540537098846
 51
320.7910033393712
  0
ARC
  5
6C1
330
1F
100
AcDbEntity
  8
0
100
AcDbCircle
 10
-3.084339488575899
 20
57.53975511307686
 30
0.0
 40
39.37000000000001
100
AcDbArc
 50
348.6581928396847
 51
14.47655796313257
  0
ARC
  5
6C2
330
1F
100
AcDbEntity
  8
0
100
AcDbCircle
 10
-3.084339488575899
 20
57.53975511307686
 30
0.0
 40
38.5826
100
AcDbArc
 50
349.4336374777658
 51
14.77865659295895
  0
ARC
  5
6C3
330
1F
100
AcDbEntity
  8
0
100
AcDbCircle
 10
-3.084339488575899
 20
57.53975511307686
 30
0.0
 40
37.59835000000001
100
AcDbArc
 50
351.1208179593067
 51
11.26387534258811
  0
ARC
  5
6C4
330
1F
100
AcDbEntity
  8
0
100
AcDbCircle
 10
-3.084339488575899
 20
57.53975511307686
 30
0.0
 40
37.0078
100
AcDbArc
 50
352.265934709071
 51
10.55729792807294
  0
ARC
  5
6C5
330
1F
100
AcDbEntity
  8
0
100
AcDbCircle
 10
35.69218582762172
 20
46.01762236758341
 30
0.0
 40
3.503929999999999
100
AcDbArc
 50
98.28113380081367
 51
140.7910033393713
  0
ARC
  5
6C6
330
1F
100
AcDbEntity
  8
0
100
AcDbCircle
 10
35.69218582762172
 20
46.01762236758341
 30
0.0
 40
4.29133
100
AcDbArc
 50
105.2864931224814
 51
136.6499946885519
  0
ARC
  5
6C7
330
1F
100
AcDbEntity
  8
0
100
AcDbCircle
 10
34.45699800880324
 20
50.53689411789259
 30
0.0
 40
0.3937
100
AcDbArc
 50
285.2864931224814
 51
349.4336374777558
  0
ARC
  5
6C8
330
1F
100
AcDbEntity
  8
0
100
AcDbCircle
 10
35.13080875683537
 20
49.87461282664542
 30
0.0
 40
0.3937
100
AcDbArc
 50
278.2811338008136
 51
348.6581928396847
  0
ARC
  5
6C9
330
1F
100
AcDbEntity
  8
0
100
AcDbCircle
 10
22.7423805114241
 20
92.65716025135192
 30
0.0
 40
42.99204
100
AcDbArc
 50
260.9440608797323
 51
279.0559391202677
  0
ARC
  5
6CA
330
1F
100
AcDbEntity
  8
0
100
AcDbCircle
 10
22.7423805114241
 20
92.65716025135192
 30
0.0
 40
40.82669
100
AcDbArc
 50
259.9019279653842
 51
280.0980720346158
  0
ARC
  5
6CB
330
1F
100
AcDbEntity
  8
0
100
AcDbCircle
 10
22.7423805114241
 20
92.65716025135192
 30
0.0
 40
43.58259
100
AcDbArc
 50
260.9440608797323
 51
279.0559391202677
  0
ARC
  5
6CC
330
1F
100
AcDbEntity
  8
0
100
AcDbCircle
 10
28.71608270197447
 20
55.17755511307687
 30
0.0
 40
5.62991
100
AcDbArc
 50
279.0559391202677
 51
304.9874931455047
  0
ARC
  5
6CD
330
1F
100
AcDbEntity
  8
0
100
AcDbCircle
 10
28.71608270197447
 20
55.17755511307687
 30
0.0
 40
5.03936
100
AcDbArc
 50
279.0559391202677
 51
304.9874931455047
  0
ARC
  5
6CE
330
1F
100
AcDbEntity
  8
0
100
AcDbCircle
 10
35.26273527386275
 20
45.82362121374936
 30
0.0
 40
5.78739
100
AcDbArc
 50
104.8896778197133
 51
124.9874931455047
  0
ARC
  5
6CF
330
1F
100
AcDbEntity
  8
0
100
AcDbCircle
 10
35.26273527386275
 20
45.82362121374936
 30
0.0
 40
6.37794
100
AcDbArc
 50
111.1071158554216
 51
124.9874931455047
  0
ARC
  5
6D0
330
1F
100
AcDbEntity
  8
0
100
AcDbCircle
 10
32.61151734935945
 20
52.69187318298377
 30
0.0
 40
0.9842500000000001
100
AcDbArc
 50
291.1071158554216
 51
352.265934709071
  0
ARC
  5
6D1
330
1F
100
AcDbEntity
  8
0
100
AcDbCircle
 10
33.67445048158011
 20
51.79716496990479
 30
0.0
 40
0.3937
100
AcDbArc
 50
284.8896778197134
 51
351.1208179593067
  0
ARC
  5
6D2
330
1F
100
AcDbEntity
  8
0
100
AcDbCircle
 10
33.7266105114241
 20
72.95004795196641
 30
0.0
 40
7.75589
100
AcDbArc
 50
248.0951566220559
 51
267.7290023448334
  0
ARC
  5
6D3
330
1F
100
AcDbEntity
  8
0
100
AcDbCircle
 10
32.90996338176444
 20
64.24814386807657
 30
0.0
 40
0.3937
100
AcDbArc
 50
10.55729792807294
 51
84.63866875878848
  0
ARC
  5
6D4
330
1F
100
AcDbEntity
  8
0
100
AcDbCircle
 10
33.40367478644221
 20
64.80685879257496
 30
0.0
 40
0.3937
100
AcDbArc
 50
11.26387534258811
 51
87.72900234483339
  0
ARC
  5
6D5
330
1F
100
AcDbEntity
  8
0
100
AcDbCircle
 10
22.74047500214206
 20
19.78329025135192
 30
0.0
 40
42.28337999999999
100
AcDbArc
 50
75.60876723993395
 51
104.3857046044466
  0
ARC
  5
6D6
330
1F
100
AcDbEntity
  8
0
100
AcDbCircle
 10
22.74047500214206
 20
19.78329025135192
 30
0.0
 40
41.88968
100
AcDbArc
 50
77.13858167050496
 51
102.9851231935341
  0
ARC
  5
6D7
330
1F
100
AcDbEntity
  8
0
100
AcDbCircle
 10
33.37938017189627
 20
66.37935154435583
 30
0.0
 40
5.905499999999999
100
AcDbArc
 50
257.138581670505
 51
272.0516872026823
  0
ARC
  5
6D8
330
1F
100
AcDbEntity
  8
0
100
AcDbCircle
 10
32.59727190215978
 20
51.50670901822859
 30
0.0
 40
1.1811
100
AcDbArc
 50
40.15518787716825
 51
89.38989468220981
  0
ARC
  5
6D9
330
1F
100
AcDbEntity
  8
0
100
AcDbCircle
 10
32.45473795814272
 20
38.12166790081685
 30
0.0
 40
14.5669
100
AcDbArc
 50
89.38989468220981
 51
100.0980720346158
  0
ARC
  5
6DA
330
1F
100
AcDbEntity
  8
0
100
AcDbCircle
 10
13.08489151097495
 20
49.12557382787949
 30
0.0
 40
0.23622
100
AcDbArc
 50
223.3500053114481
 51
262.8639906730854
  0
ARC
  5
6DB
330
1F
100
AcDbEntity
  8
0
100
AcDbCircle
 10
12.69061260860526
 20
48.38196184683695
 30
0.0
 40
0.23622
100
AcDbArc
 50
219.2089966606287
 51
262.6459462901154
  0
ARC
  5
6DC
330
1F
100
AcDbEntity
  8
0
100
AcDbCircle
 10
48.5691005114241
 20
57.53975511307686
 30
0.0
 40
39.37000000000001
100
AcDbArc
 50
165.5234420368674
 51
191.3418071603152
  0
ARC
  5
6DD
330
1F
100
AcDbEntity
  8
0
100
AcDbCircle
 10
48.5691005114241
 20
57.53975511307686
 30
0.0
 40
38.5826
100
AcDbArc
 50
165.221343407041
 51
190.5663625222342
  0
ARC
  5
6DE
330
1F
100
AcDbEntity
  8
0
100
AcDbCircle
 10
9.792575195226504
 20
46.01762236758341
 30
0.0
 40
3.503929999999999
100
AcDbArc
 50
39.20899666062871
 51
81.71886619918636
  0
ARC
  5
6DF
330
1F
100
AcDbEntity
  8
0
100
AcDbCircle
 10
9.792575195226504
 20
46.01762236758341
 30
0.0
 40
4.29133
100
AcDbArc
 50
43.3500053114481
 51
74.71350687751861
  0
ARC
  5
6E0
330
1F
100
AcDbEntity
  8
0
100
AcDbCircle
 10
11.02776301404493
 20
50.53689411789259
 30
0.0
 40
0.3937
100
AcDbArc
 50
190.5663625222441
 51
254.7135068775186
  0
ARC
  5
6E1
330
1F
100
AcDbEntity
  8
0
100
AcDbCircle
 10
10.35395226601281
 20
49.87461282664542
 30
0.0
 40
0.3937
100
AcDbArc
 50
191.3418071603152
 51
261.7188661991864
  0
ARC
  5
6E2
330
1F
100
AcDbEntity
  8
0
100
AcDbCircle
 10
48.5691005114241
 20
57.53975511307686
 30
0.0
 40
37.59835000000001
100
AcDbArc
 50
168.7361246574119
 51
188.8791820406933
  0
ARC
  5
6E3
330
1F
100
AcDbEntity
  8
0
100
AcDbCircle
 10
48.5691005114241
 20
57.53975511307686
 30
0.0
 40
37.0078
100
AcDbArc
 50
169.4427020719369
 51
187.734065290929
  0
ARC
  5
6E4
330
1F
100
AcDbEntity
  8
0
100
AcDbCircle
 10
16.7686783208737
 20
55.17755511307687
 30
0.0
 40
5.62991
100
AcDbArc
 50
235.0125068544953
 51
260.9440608797323
  0
ARC
  5
6E5
330
1F
100
AcDbEntity
  8
0
100
AcDbCircle
 10
16.7686783208737
 20
55.17755511307687
 30
0.0
 40
5.03936
100
AcDbArc
 50
235.0125068544953
 51
260.9440608797323
  0
ARC
  5
6E6
330
1F
100
AcDbEntity
  8
0
100
AcDbCircle
 10
10.22202574898539
 20
45.82362121374936
 30
0.0
 40
5.78739
100
AcDbArc
 50
55.0125068544953
 51
75.11032218028663
  0
ARC
  5
6E7
330
1F
100
AcDbEntity
  8
0
100
AcDbCircle
 10
10.22202574898539
 20
45.82362121374936
 30
0.0
 40
6.37794
100
AcDbArc
 50
55.0125068544953
 51
68.89288414457839
  0
ARC
  5
6E8
330
1F
100
AcDbEntity
  8
0
100
AcDbCircle
 10
11.81031054126806
 20
51.79716496990479
 30
0.0
 40
0.3937
100
AcDbArc
 50
188.8791820406933
 51
255.1103221802866
  0
ARC
  5
6E9
330
1F
100
AcDbEntity
  8
0
100
AcDbCircle
 10
11.75815051142406
 20
72.95004795196641
 30
0.0
 40
7.75589
100
AcDbArc
 50
272.2709976551666
 51
291.9040518729708
  0
ARC
  5
6EA
330
1F
100
AcDbEntity
  8
0
100
AcDbCircle
 10
12.57479764108369
 20
64.24814386807657
 30
0.0
 40
0.3937
100
AcDbArc
 50
95.36133124121153
 51
169.4427020719369
  0
ARC
  5
6EB
330
1F
100
AcDbEntity
  8
0
100
AcDbCircle
 10
12.08108623640599
 20
64.80685879257496
 30
0.0
 40
0.3937
100
AcDbArc
 50
92.2709976551666
 51
168.7361246574119
  0
ARC
  5
6EC
330
1F
100
AcDbEntity
  8
0
100
AcDbCircle
 10
18.52890925135809
 20
56.11069768924827
 30
0.0
 40
10.39368
100
AcDbArc
 50
92.44192664005192
 51
111.9040518729707
  0
ARC
  5
6ED
330
1F
100
AcDbEntity
  8
0
100
AcDbCircle
 10
12.87324367348871
 20
52.69187318298377
 30
0.0
 40
0.9842500000000001
100
AcDbArc
 50
187.734065290929
 51
248.8928841445325
  0
ARC
  5
6EE
330
1F
100
AcDbEntity
  8
0
100
AcDbCircle
 10
12.1053808509519
 20
66.37935154435583
 30
0.0
 40
5.905499999999999
100
AcDbArc
 50
267.9483127973177
 51
281.9478532169512
  0
ARC
  5
6EF
330
1F
100
AcDbEntity
  8
0
100
AcDbCircle
 10
12.43087278909581
 20
59.97817124842855
 30
0.0
 40
0.7874000000000001
100
AcDbArc
 50
104.3857046044466
 51
176.1398355046127
  0
ARC
  5
6F0
330
1F
100
AcDbEntity
  8
0
100
AcDbCircle
 10
33.05395535085059
 20
59.97717634435371
 30
0.0
 40
0.7874000000000001
100
AcDbArc
 50
3.85858711444776
 51
75.60876723993395
  0
ARC
  5
6F1
330
1F
100
AcDbEntity
  8
0
100
AcDbCircle
 10
12.88748912068838
 20
51.50670901822859
 30
0.0
 40
1.1811
100
AcDbArc
 50
90.61010531779018
 51
139.8448121228317
  0
ARC
  5
6F2
330
1F
100
AcDbEntity
  8
0
100
AcDbCircle
 10
13.03002306470546
 20
38.12166790081685
 30
0.0
 40
14.5669
100
AcDbArc
 50
79.90192796538416
 51
90.61010531779018
  0
CIRCLE
  5
6F3
330
1F
100
AcDbEntity
  8
0
100
AcDbCircle
 10
22.7423805114241
 20
59.50762025135192
 30
0.0
 40
0.86614
  0
CIRCLE
  5
6F4
330
1F
100
AcDbEntity
  8
0
100
AcDbCircle
 10
22.7423805114241
 20
59.50762025135192
 30
0.0
 40
1.25984
  0
CIRCLE
  5
6F5
330
1F
100
AcDbEntity
  8
0
100
AcDbCircle
 10
18.72664051142411
 20
64.42791549077894
 30
0.0
 40
0.6889750000000001
  0
CIRCLE
  5
6F7
330
1F
100
AcDbEntity
  8
0
100
AcDbCircle
 10
26.7581205114241
 20
64.42791549077894
 30
0.0
 40
0.6889750000000001
  0
CIRCLE
  5
6F8
330
1F
100
AcDbEntity
  8
0
100
AcDbCircle
 10
22.7423805114241
 20
64.42791549077894
 30
0.0
 40
0.6889750000000001
  0
LINE
  5
6F9
330
1F
100
AcDbEntity
  8
0
100
AcDbLine
 10
35.35382015845427
 20
39.29086854549153
 30
0.0
 11
10.1309408643939
 21
39.29086854549153
 31
0.0
  0
LINE
  5
723
330
1F
100
AcDbEntity
  8
0
100
AcDbLine
 10
22.7423805114241
 20
32.79481854549154
 30
0.0
 11
19.33796416591031
 21
32.79481854549154
 31
0.0
  0
ARC
  5
725
330
1F
100
AcDbEntity
  8
0
100
AcDbCircle
 10
9.081369209219204
 20
39.6775019484314
 30
0.0
 40
0.9842500000000001
100
AcDbArc
 50
286.8229340177894
 51
329.3135889871094
  0
ARC
  5
726
330
1F
100
AcDbEntity
  8
0
100
AcDbCircle
 10
9.43459149033255
 20
38.50926351342548
 30
0.0
 40
0.23622
100
AcDbArc
 50
106.8229340177894
 51
180.0601050916241
  0
ARC
  5
727
330
1F
100
AcDbEntity
  8
0
100
AcDbCircle
 10
10.1309408643939
 20
39.05464854549153
 30
0.0
 40
0.23622
100
AcDbArc
 50
90.0
 51
149.3135889871093
  0
LINE
  5
729
330
1F
100
AcDbEntity
  8
0
100
AcDbLine
 10
22.7423805114241
 20
38.70031854549154
 30
0.0
 11
12.69913418941522
 21
38.70031854549154
 31
0.0
  0
LINE
  5
72A
330
1F
100
AcDbEntity
  8
0
100
AcDbLine
 10
12.63095737144115
 20
38.70031854549154
 30
0.0
 11
10.15976918941523
 21
38.70031854549154
 31
0.0
  0
LINE
  5
72B
330
1F
100
AcDbEntity
  8
0
100
AcDbLine
 10
10.09159237144116
 20
38.70031854549154
 30
0.0
 11
9.332999189415232
 21
38.70031854549154
 31
0.0
  0
LINE
  5
72C
330
1F
100
AcDbEntity
  8
0
100
AcDbLine
 10
22.7423805114241
 20
35.74756854549153
 30
0.0
 11
12.8356017031365
 21
35.74756854549153
 31
0.0
  0
LINE
  5
72D
330
1F
100
AcDbEntity
  8
0
100
AcDbLine
 10
12.78346354016608
 20
35.74756854549153
 30
0.0
 11
10.3009970318856
 21
35.74756854549153
 31
0.0
  0
LINE
  5
72E
330
1F
100
AcDbEntity
  8
0
100
AcDbLine
 10
10.24752666600247
 20
35.74756854549153
 30
0.0
 11
9.476390324497131
 21
35.74756854549153
 31
0.0
  0
ARC
  5
72F
330
1F
100
AcDbEntity
  8
0
100
AcDbCircle
 10
27.2434274950113
 20
77.57103301034456
 30
0.0
 40
45.47235
100
AcDbArc
 50
247.0594209998866
 51
259.9353116392315
  0
ARC
  5
730
330
1F
100
AcDbEntity
  8
0
100
AcDbCircle
 10
9.611457464051682
 20
35.91264741747453
 30
0.0
 40
0.23622
100
AcDbArc
 50
187.7331497800155
 51
247.0594209998866
  0
ARC
  5
731
330
1F
100
AcDbEntity
  8
0
100
AcDbCircle
 10
19.33796416591031
 20
33.03103854549153
 30
0.0
 40
0.23622
100
AcDbArc
 50
259.9353116392315
 51
270.0
  0
ARC
  5
732
330
1F
100
AcDbEntity
  8
0
100
AcDbCircle
 10
28.61612724255457
 20
77.33383074042442
 30
0.0
 40
45.47235
100
AcDbArc
 50
246.3078996674511
 51
258.3409303781946
  0
ARC
  5
733
330
1F
100
AcDbEntity
  8
0
100
AcDbCircle
 10
10.43927647072382
 20
35.91029210119787
 30
0.0
 40
0.23622
100
AcDbArc
 50
187.7401522436507
 51
246.3078996674511
  0
ARC
  5
734
330
1F
100
AcDbEntity
  8
0
100
AcDbCircle
 10
32.42341589841695
 20
76.74960144553214
 30
0.0
 40
45.47235
100
AcDbArc
 50
244.5428221455736
 51
255.1169984151486
  0
ARC
  5
735
330
1F
100
AcDbEntity
  8
0
100
AcDbCircle
 10
19.4744610317649
 20
33.03103854549153
 30
0.0
 40
0.23622
100
AcDbArc
 50
258.3409303781946
 51
270.0
  0
LINE
  5
739
330
1F
100
AcDbEntity
  8
0
100
AcDbLine
 10
10.11264243921742
 20
49.60238734915051
 30
0.0
 11
10.71461263255047
 21
50.21710986301894
 31
0.0
  0
LINE
  5
73A
330
1F
100
AcDbEntity
  8
0
100
AcDbLine
 10
12.58762827857448
 20
48.20097130079535
 30
0.0
 11
12.96122014093799
 21
48.88413716364732
 31
0.0
  0
LINE
  5
73B
330
1F
100
AcDbEntity
  8
0
100
AcDbLine
 10
35.37211858363071
 20
49.60238734915051
 30
0.0
 11
34.77014839029771
 21
50.21710986301894
 31
0.0
  0
LINE
  5
73C
330
1F
100
AcDbEntity
  8
0
100
AcDbLine
 10
32.89713274427368
 20
48.20097130079535
 30
0.0
 11
32.52354088191018
 21
48.88413716364732
 31
0.0
  0
ARC
  5
73F
330
1F
100
AcDbEntity
  8
0
100
AcDbCircle
 10
28.88336078895739
 20
38.52966589732698
 30
0.0
 40
19.685
100
AcDbArc
 50
180.0601050916241
 51
187.7331497800155
  0
ARC
  5
740
330
1F
100
AcDbEntity
  8
0
100
AcDbCircle
 10
9.908868230310716
 20
39.6775019484314
 30
0.0
 40
0.9842500000000001
100
AcDbArc
 50
286.8229340177894
 51
329.3135889871094
  0
ARC
  5
741
330
1F
100
AcDbEntity
  8
0
100
AcDbCircle
 10
10.2620905114241
 20
38.50926351342548
 30
0.0
 40
0.23622
100
AcDbArc
 50
106.8229340177894
 51
180.0601050916241
  0
ARC
  5
742
330
1F
100
AcDbEntity
  8
0
100
AcDbCircle
 10
10.95843988548546
 20
39.05464854549153
 30
0.0
 40
0.23622
100
AcDbArc
 50
90.0
 51
149.3135889871093
  0
ARC
  5
743
330
1F
100
AcDbEntity
  8
0
100
AcDbCircle
 10
29.7108598100489
 20
38.52966589732698
 30
0.0
 40
19.685
100
AcDbArc
 50
180.0601050916241
 51
187.7401522436507
  0
ARC
  5
744
330
1F
100
AcDbEntity
  8
0
100
AcDbCircle
 10
12.44823323031072
 20
39.6775019484314
 30
0.0
 40
0.9842500000000001
100
AcDbArc
 50
286.8229340177894
 51
329.3135889871094
  0
ARC
  5
745
330
1F
100
AcDbEntity
  8
0
100
AcDbCircle
 10
12.80145551142411
 20
38.50926351342548
 30
0.0
 40
0.23622
100
AcDbArc
 50
106.8229340177894
 51
180.0601050916241
  0
ARC
  5
746
330
1F
100
AcDbEntity
  8
0
100
AcDbCircle
 10
13.49780488548546
 20
39.05464854549153
 30
0.0
 40
0.23622
100
AcDbArc
 50
90.0
 51
149.3135889871093
  0
ARC
  5
747
330
1F
100
AcDbEntity
  8
0
100
AcDbCircle
 10
32.25022481004891
 20
38.52966589732698
 30
0.0
 40
19.685
100
AcDbArc
 50
180.0601050916241
 51
187.754124786534
  0
ARC
  5
748
330
1F
100
AcDbEntity
  8
0
100
AcDbCircle
 10
12.97928082227808
 20
35.90559247827028
 30
0.0
 40
0.23622
100
AcDbArc
 50
187.754124786534
 51
244.5428221455736
  0
LINE
  5
74B
330
1F
100
AcDbEntity
  8
0
100
AcDbLine
 10
41.42538667514357
 20
39.29086854549153
 30
0.0
 11
60.37539632217479
 21
39.29086854549153
 31
0.0
  0
LINE
  5
759
330
1F
100
AcDbEntity
  8
0
100
AcDbLine
 10
59.76849839857866
 20
32.59796854549154
 30
0.0
 11
60.37539632217479
 21
32.59796854549154
 31
0.0
  0
LINE
  5
75D
330
1F
100
AcDbEntity
  8
0
100
AcDbLine
 10
60.37539632217485
 20
32.59796854549154
 30
0.0
 11
60.37539632217479
 21
39.29086854549153
 31
0.0
  0
ARC
  5
762
330
1F
100
AcDbEntity
  8
0
100
AcDbCircle
 10
59.76849839857866
 20
33.14914854549153
 30
0.0
 40
0.55118
100
AcDbArc
 50
186.0945214096467
 51
270.0
  0
ARC
  5
7A1
330
1F
100
AcDbEntity
  8
0
100
AcDbCircle
 10
53.81975052140197
 20
60.0228663802887
 30
0.0
 40
27.59837
100
AcDbArc
 50
241.8428468427741
 51
260.562794557254
  0
ARC
  5
7A2
330
1F
100
AcDbEntity
  8
0
100
AcDbCircle
 10
40.90778238620193
 20
35.89884657640697
 30
0.0
 40
0.23622
100
AcDbArc
 50
187.7741819734599
 51
241.8428468427741
  0
LINE
  5
7A5
330
1F
100
AcDbEntity
  8
0
100
AcDbLine
 10
49.33327275380199
 20
32.79481854549154
 30
0.0
 11
51.09504768499926
 21
32.79481854549154
 31
0.0
  0
ARC
  5
7B0
330
1F
100
AcDbEntity
  8
0
100
AcDbCircle
 10
40.37581501996887
 20
39.6775019484314
 30
0.0
 40
0.9842500000000001
100
AcDbArc
 50
286.8229340177894
 51
329.3135889871094
  0
ARC
  5
7B1
330
1F
100
AcDbEntity
  8
0
100
AcDbCircle
 10
41.42538667514357
 20
39.05464854549153
 30
0.0
 40
0.23622
100
AcDbArc
 50
90.0
 51
149.3135889871093
  0
ARC
  5
7B2
330
1F
100
AcDbEntity
  8
0
100
AcDbCircle
 10
60.17780659970705
 20
38.52966589732705
 30
0.0
 40
19.685
100
AcDbArc
 50
180.0601050916241
 51
187.7741819734599
  0
ARC
  5
7B4
330
1F
100
AcDbEntity
  8
0
100
AcDbCircle
 10
40.72903730108222
 20
38.50926351342548
 30
0.0
 40
0.23622
100
AcDbArc
 50
106.8229340177894
 51
180.0601050916241
  0
LINE
  5
7CB
330
1F
100
AcDbEntity
  8
0
100
AcDbLine
 10
53.92695881301401
 20
32.79481854549154
 30
0.0
 11
54.87216310824857
 21
32.79481854549154
 31
0.0
  0
ARC
  5
7CC
330
1F
100
AcDbEntity
  8
0
100
AcDbCircle
 10
58.78980768928482
 20
33.4155092503693
 30
0.0
 40
0.3937
100
AcDbArc
 50
6.094521409646736
 51
95.75467449791485
  0
ARC
  5
7CD
330
1F
100
AcDbEntity
  8
0
100
AcDbCircle
 10
58.35447984761254
 20
27.04053154681894
 30
0.0
 40
6.6929
100
AcDbArc
 50
95.75467449791485
 51
120.1696872565598
  0
LINE
  5
7CE
330
1F
100
AcDbEntity
  8
0
100
AcDbLine
 10
57.68338787689742
 20
33.69970161348954
 30
0.0
 11
58.75033169100746
 21
33.80722513664404
 31
0.0
  0
ARC
  5
7CF
330
1F
100
AcDbEntity
  8
0
100
AcDbCircle
 10
54.87216310824857
 20
33.03103854549153
 30
0.0
 40
0.23622
100
AcDbArc
 50
270.0
 51
300.1696872565599
  0
ARC
  5
7D0
330
1F
100
AcDbEntity
  8
0
100
AcDbCircle
 10
22.74238051142439
 20
-42.73626737186722
 30
0.0
 40
109.33049
100
AcDbArc
 50
87.55931270985991
 51
92.4406872901401
  0
ARC
  5
7D1
330
1F
100
AcDbEntity
  8
0
100
AcDbCircle
 10
26.95561914716217
 20
56.11079122460505
 30
0.0
 40
10.39368
100
AcDbArc
 50
68.09515662205594
 51
87.55931270985991
  0
LINE
  5
9E9
330
1F
100
AcDbEntity
  8
0
100
AcDbLine
 10
22.7423805114241
 20
32.79481854549154
 30
0.0
 11
26.1467968569379
 21
32.79481854549154
 31
0.0
  0
ARC
  5
9EA
330
1F
100
AcDbEntity
  8
0
100
AcDbCircle
 10
36.403391813629
 20
39.6775019484314
 30
0.0
 40
0.9842500000000001
100
AcDbArc
 50
210.6864110128912
 51
253.1770659822106
  0
ARC
  5
9EB
330
1F
100
AcDbEntity
  8
0
100
AcDbCircle
 10
36.05016953251566
 20
38.50926351342548
 30
0.0
 40
0.23622
100
AcDbArc
 50
359.9398949083759
 51
73.17706598221059
  0
ARC
  5
9EC
330
1F
100
AcDbEntity
  8
0
100
AcDbCircle
 10
35.3538201584543
 20
39.05464854549153
 30
0.0
 40
0.23622
100
AcDbArc
 50
30.68641101289118
 51
90.0
  0
LINE
  5
9ED
330
1F
100
AcDbEntity
  8
0
100
AcDbLine
 10
22.7423805114241
 20
38.70031854549154
 30
0.0
 11
32.78562683343299
 21
38.70031854549154
 31
0.0
  0
LINE
  5
9EE
330
1F
100
AcDbEntity
  8
0
100
AcDbLine
 10
32.85380365140705
 20
38.70031854549154
 30
0.0
 11
35.32499183343297
 21
38.70031854549154
 31
0.0
  0
LINE
  5
9EF
330
1F
100
AcDbEntity
  8
0
100
AcDbLine
 10
35.39316865140704
 20
38.70031854549154
 30
0.0
 11
36.15176183343297
 21
38.70031854549154
 31
0.0
  0
LINE
  5
9F0
330
1F
100
AcDbEntity
  8
0
100
AcDbLine
 10
22.7423805114241
 20
35.74756854549153
 30
0.0
 11
32.6491593197117
 21
35.74756854549153
 31
0.0
  0
LINE
  5
9F1
330
1F
100
AcDbEntity
  8
0
100
AcDbLine
 10
32.70129748268213
 20
35.74756854549153
 30
0.0
 11
35.1837639909626
 21
35.74756854549153
 31
0.0
  0
LINE
  5
9F2
330
1F
100
AcDbEntity
  8
0
100
AcDbLine
 10
35.23723435684573
 20
35.74756854549153
 30
0.0
 11
36.00837069835107
 21
35.74756854549153
 31
0.0
  0
ARC
  5
9F3
330
1F
100
AcDbEntity
  8
0
100
AcDbCircle
 10
18.2413335278369
 20
77.57103301034456
 30
0.0
 40
45.47235
100
AcDbArc
 50
280.0646883607677
 51
292.940579000113
  0
ARC
  5
9F4
330
1F
100
AcDbEntity
  8
0
100
AcDbCircle
 10
35.87330355879652
 20
35.91264741747453
 30
0.0
 40
0.23622
100
AcDbArc
 50
292.940579000113
 51
352.2668502199845
  0
ARC
  5
9F5
330
1F
100
AcDbEntity
  8
0
100
AcDbCircle
 10
26.1467968569379
 20
33.03103854549153
 30
0.0
 40
0.23622
100
AcDbArc
 50
270.0
 51
280.0646883607677
  0
ARC
  5
9F6
330
1F
100
AcDbEntity
  8
0
100
AcDbCircle
 10
16.86863378029363
 20
77.33383074042442
 30
0.0
 40
45.47235
100
AcDbArc
 50
281.6590696218058
 51
293.6921003325493
  0
ARC
  5
9F7
330
1F
100
AcDbEntity
  8
0
100
AcDbCircle
 10
35.04548455212438
 20
35.91029210119787
 30
0.0
 40
0.23622
100
AcDbArc
 50
293.6921003325493
 51
352.2598477563493
  0
ARC
  5
9F8
330
1F
100
AcDbEntity
  8
0
100
AcDbCircle
 10
13.06134512443125
 20
76.74960144553214
 30
0.0
 40
45.47235
100
AcDbArc
 50
284.883001584851
 51
295.4571778544267
  0
ARC
  5
9F9
330
1F
100
AcDbEntity
  8
0
100
AcDbCircle
 10
26.0102999910833
 20
33.03103854549153
 30
0.0
 40
0.23622
100
AcDbArc
 50
270.0
 51
281.6590696218058
  0
ARC
  5
9FA
330
1F
100
AcDbEntity
  8
0
100
AcDbCircle
 10
16.60140023389081
 20
38.52966589732698
 30
0.0
 40
19.685
100
AcDbArc
 50
352.2668502199845
 51
359.9398949083759
  0
ARC
  5
9FB
330
1F
100
AcDbEntity
  8
0
100
AcDbCircle
 10
35.57589279253749
 20
39.6775019484314
 30
0.0
 40
0.9842500000000001
100
AcDbArc
 50
210.6864110128912
 51
253.1770659822106
  0
ARC
  5
9FC
330
1F
100
AcDbEntity
  8
0
100
AcDbCircle
 10
35.2226705114241
 20
38.50926351342548
 30
0.0
 40
0.23622
100
AcDbArc
 50
359.9398949083759
 51
73.17706598221059
  0
ARC
  5
9FD
330
1F
100
AcDbEntity
  8
0
100
AcDbCircle
 10
34.52632113736274
 20
39.05464854549153
 30
0.0
 40
0.23622
100
AcDbArc
 50
30.68641101289118
 51
90.0
  0
ARC
  5
9FE
330
1F
100
AcDbEntity
  8
0
100
AcDbCircle
 10
15.7739012127993
 20
38.52966589732698
 30
0.0
 40
19.685
100
AcDbArc
 50
352.2598477563493
 51
359.9398949083759
  0
ARC
  5
9FF
330
1F
100
AcDbEntity
  8
0
100
AcDbCircle
 10
33.03652779253749
 20
39.6775019484314
 30
0.0
 40
0.9842500000000001
100
AcDbArc
 50
210.6864110128912
 51
253.1770659822106
  0
ARC
  5
A00
330
1F
100
AcDbEntity
  8
0
100
AcDbCircle
 10
32.6833055114241
 20
38.50926351342548
 30
0.0
 40
0.23622
100
AcDbArc
 50
359.9398949083759
 51
73.17706598221059
  0
ARC
  5
A01
330
1F
100
AcDbEntity
  8
0
100
AcDbCircle
 10
31.98695613736274
 20
39.05464854549153
 30
0.0
 40
0.23622
100
AcDbArc
 50
30.68641101289118
 51
90.0
  0
ARC
  5
A02
330
1F
100
AcDbEntity
  8
0
100
AcDbCircle
 10
13.2345362127993
 20
38.52966589732698
 30
0.0
 40
19.685
100
AcDbArc
 50
352.245875213466
 51
359.9398949083759
  0
ARC
  5
A03
330
1F
100
AcDbEntity
  8
0
100
AcDbCircle
 10
32.50548020057012
 20
35.90559247827028
 30
0.0
 40
0.23622
100
AcDbArc
 50
295.4571778544267
 51
352.245875213466
  0
LINE
  5
A05
330
1F
100
AcDbEntity
  8
0
100
AcDbLine
 10
59.18128253645109
 20
33.45730798283984
 30
0.0
 11
59.22043361254587
 21
33.09063032003276
 31
0.0
  0
LINE
  5
A06
330
1F
100
AcDbEntity
  8
0
100
AcDbLine
 10
36.00837069835107
 20
35.74756854549153
 30
0.0
 11
36.04226762132113
 21
35.74756854549153
 31
0.0
  0
LINE
  5
A07
330
1F
100
AcDbEntity
  8
0
100
AcDbLine
 10
40.72635789567667
 20
35.74756854549155
 30
0.0
 11
60.37539632217484
 21
35.74756854549153
 31
0.0
  0
LINE
  5
A0A
330
1F
100
AcDbEntity
  8
0
100
AcDbLine
 10
40.66067169828636
 20
38.73537417826542
 30
0.0
 11
60.3753963221748
 21
38.73537417826542
 31
0.0
  0
ARC
  5
17DD
330
1F
100
AcDbEntity
  8
0
100
AcDbCircle
 10
30.84195482947621
 20
5.47656348901647
 30
0.0
 40
13.98655267375494
100
AcDbArc
 50
170.8444668057019
 51
178.4344527426019
  0
ARC
  5
17DE
330
1F
100
AcDbEntity
  8
0
100
AcDbCircle
 10
14.67971770896557
 20
5.480023070575228
 30
0.0
 40
13.94956063377023
100
AcDbArc
 50
1.555484911000301
 51
9.165522597300851
  0
ARC
  5
17DF
330
1F
100
AcDbEntity
  8
0
100
AcDbCircle
 10
28.38781333867274
 20
5.865651284434008
 30
0.0
 40
0.2362207654478742
100
AcDbArc
 50
269.999981050004
 51
1.60952502059938
  0
ARC
  5
17E0
330
1F
100
AcDbEntity
  8
0
100
AcDbCircle
 10
17.09694768417549
 20
5.865651284434008
 30
0.0
 40
0.2362207654478717
100
AcDbArc
 50
178.4203942380986
 51
270.000018949996
  0
ARC
  5
17E1
330
1F
100
AcDbEntity
  8
0
100
AcDbCircle
 10
16.39791491698102
 20
8.704557728947428
 30
0.0
 40
1.119045458656203
100
AcDbArc
 50
309.6776523473962
 51
337.319493540302
  0
ARC
  5
17E2
330
1F
100
AcDbEntity
  8
0
100
AcDbCircle
 10
29.08684593992217
 20
8.704557448844724
 30
0.0
 40
1.119045127923526
100
AcDbArc
 50
202.6804947248018
 51
230.3223456482991
  0
ARC
  5
17E3
330
1F
100
AcDbEntity
  8
0
100
AcDbCircle
 10
17.25375301547123
 20
7.671789999309638
 30
0.0
 40
0.2216416930018731
100
AcDbArc
 50
127.7585595986969
 51
172.2389696648984
  0
ARC
  5
17E4
330
1F
100
AcDbEntity
  8
0
100
AcDbCircle
 10
28.22619397054746
 20
7.668592105476861
 30
0.0
 40
0.2273145583376522
100
AcDbArc
 50
8.36885501719882
 51
51.71742271959663
  0
ARC
  5
17E5
330
1F
100
AcDbEntity
  8
0
100
AcDbCircle
 10
27.87650252706772
 20
8.188488811338089
 30
0.0
 40
0.1968506378574794
100
AcDbArc
 50
23.26208845059923
 51
82.93210491149693
  0
ARC
  5
17E6
330
1F
100
AcDbEntity
  8
0
100
AcDbCircle
 10
17.60825849579626
 20
8.188488811338089
 30
0.0
 40
0.1968506378574785
100
AcDbArc
 50
96.78339980219295
 51
156.7574361832986
  0
LINE
  5
17E7
330
1F
100
AcDbEntity
  8
0
100
AcDbLine
 10
19.19918715355334
 20
32.79481854549154
 30
0.0
 11
19.19449655727843
 21
31.38008452602552
 31
0.0
  0
LINE
  5
17E8
330
1F
100
AcDbEntity
  8
0
100
AcDbLine
 10
19.19449655727843
 20
31.38008452602552
 30
0.0
 11
19.18997395051113
 21
30.0103045250367
 31
0.0
  0
LINE
  5
17E9
330
1F
100
AcDbEntity
  8
0
100
AcDbLine
 10
19.18997395051113
 20
30.0103045250367
 30
0.0
 11
19.18563969130818
 21
28.6854845048948
 31
0.0
  0
LINE
  5
17EA
330
1F
100
AcDbEntity
  8
0
100
AcDbLine
 10
19.18563969130818
 20
28.6854845048948
 30
0.0
 11
19.18146628113149
 21
27.4056340056824
 31
0.0
  0
LINE
  5
17EB
330
1F
100
AcDbEntity
  8
0
100
AcDbLine
 10
19.18146628113149
 20
27.4056340056824
 30
0.0
 11
19.1773685227337
 21
26.17076692146407
 31
0.0
  0
LINE
  5
17EC
330
1F
100
AcDbEntity
  8
0
100
AcDbLine
 10
19.1773685227337
 20
26.17076692146407
 30
0.0
 11
19.17335380943106
 21
25.00174847455391
 31
0.0
  0
LINE
  5
17ED
330
1F
100
AcDbEntity
  8
0
100
AcDbLine
 10
19.17335380943106
 20
25.00174847455391
 30
0.0
 11
19.16953006728653
 21
23.8761254507783
 31
0.0
  0
LINE
  5
17EE
330
1F
100
AcDbEntity
  8
0
100
AcDbLine
 10
19.16953006728653
 20
23.8761254507783
 30
0.0
 11
19.16628877500619
 21
22.7938739298792
 31
0.0
  0
LINE
  5
17EF
330
1F
100
AcDbEntity
  8
0
100
AcDbLine
 10
19.16628877500619
 20
22.7938739298792
 30
0.0
 11
19.16258102267486
 21
21.75508068232645
 31
0.0
  0
LINE
  5
17F0
330
1F
100
AcDbEntity
  8
0
100
AcDbLine
 10
19.16258102267486
 20
21.75508068232645
 30
0.0
 11
19.15479610842007
 21
20.74015767267353
 31
0.0
  0
LINE
  5
17F1
330
1F
100
AcDbEntity
  8
0
100
AcDbLine
 10
19.15479610842007
 20
20.74015767267353
 30
0.0
 11
19.13917876785945
 21
19.77103908615902
 31
0.0
  0
LINE
  5
17F2
330
1F
100
AcDbEntity
  8
0
100
AcDbLine
 10
19.13917876785945
 20
19.77103908615902
 30
0.0
 11
19.11665430793596
 21
18.84764364645372
 31
0.0
  0
LINE
  5
17F3
330
1F
100
AcDbEntity
  8
0
100
AcDbLine
 10
19.11665430793596
 20
18.84764364645372
 30
0.0
 11
19.08862085364373
 21
17.96985838707896
 31
0.0
  0
LINE
  5
17F4
330
1F
100
AcDbEntity
  8
0
100
AcDbLine
 10
19.08862085364373
 20
17.96985838707896
 30
0.0
 11
19.05606760361132
 21
17.1376057158046
 31
0.0
  0
LINE
  5
17F5
330
1F
100
AcDbEntity
  8
0
100
AcDbLine
 10
19.05606760361132
 20
17.1376057158046
 30
0.0
 11
19.01991921238724
 21
16.35081673436407
 31
0.0
  0
LINE
  5
17F6
330
1F
100
AcDbEntity
  8
0
100
AcDbLine
 10
19.01991921238724
 20
16.35081673436407
 30
0.0
 11
18.98105558925974
 21
15.60942917290067
 31
0.0
  0
LINE
  5
17F7
330
1F
100
AcDbEntity
  8
0
100
AcDbLine
 10
18.98105558925974
 20
15.60942917290067
 30
0.0
 11
18.94054630368154
 21
14.91721371137494
 31
0.0
  0
LINE
  5
17F8
330
1F
100
AcDbEntity
  8
0
100
AcDbLine
 10
18.94054630368154
 20
14.91721371137494
 30
0.0
 11
18.89895141767016
 21
14.26978043829443
 31
0.0
  0
LINE
  5
17F9
330
1F
100
AcDbEntity
  8
0
100
AcDbLine
 10
18.89895141767016
 20
14.26978043829443
 30
0.0
 11
18.85699727562257
 21
13.66708600940852
 31
0.0
  0
LINE
  5
17FA
330
1F
100
AcDbEntity
  8
0
100
AcDbLine
 10
18.85699727562257
 20
13.66708600940852
 30
0.0
 11
18.8153637521853
 21
13.10909157759026
 31
0.0
  0
LINE
  5
17FB
330
1F
100
AcDbEntity
  8
0
100
AcDbLine
 10
18.8153637521853
 20
13.10909157759026
 30
0.0
 11
18.77468390983651
 21
12.59576225058381
 31
0.0
  0
LINE
  5
17FC
330
1F
100
AcDbEntity
  8
0
100
AcDbLine
 10
18.77468390983651
 20
12.59576225058381
 30
0.0
 11
18.73536075120199
 21
12.1248736830868
 31
0.0
  0
LINE
  5
17FD
330
1F
100
AcDbEntity
  8
0
100
AcDbLine
 10
18.73536075120199
 20
12.1248736830868
 30
0.0
 11
18.69624716506368
 21
11.67690474653885
 31
0.0
  0
LINE
  5
17FE
330
1F
100
AcDbEntity
  8
0
100
AcDbLine
 10
18.69624716506368
 20
11.67690474653885
 30
0.0
 11
18.65728241720447
 21
11.24723046495909
 31
0.0
  0
LINE
  5
17FF
330
1F
100
AcDbEntity
  8
0
100
AcDbLine
 10
18.65728241720447
 20
11.24723046495909
 30
0.0
 11
18.61836139568296
 21
10.83587634055236
 31
0.0
  0
LINE
  5
1800
330
1F
100
AcDbEntity
  8
0
100
AcDbLine
 10
18.61836139568296
 20
10.83587634055236
 30
0.0
 11
18.56817899204327
 21
10.44627465765479
 31
0.0
  0
LINE
  5
1801
330
1F
100
AcDbEntity
  8
0
100
AcDbLine
 10
18.56817899204327
 20
10.44627465765479
 30
0.0
 11
18.49032420204742
 21
10.08422803063715
 31
0.0
  0
LINE
  5
1802
330
1F
100
AcDbEntity
  8
0
100
AcDbLine
 10
18.49032420204742
 20
10.08422803063715
 30
0.0
 11
18.38944756825918
 21
9.749313464840902
 31
0.0
  0
LINE
  5
1803
330
1F
100
AcDbEntity
  8
0
100
AcDbLine
 10
18.38944756825918
 20
9.749313464840902
 30
0.0
 11
18.31167397330105
 21
9.540729956619017
 31
0.0
  0
LINE
  5
1804
330
1F
100
AcDbEntity
  8
0
100
AcDbLine
 10
18.31167397330105
 20
9.540729956619017
 30
0.0
 11
18.22699646201562
 21
9.343685128119091
 31
0.0
  0
LINE
  5
1805
330
1F
100
AcDbEntity
  8
0
100
AcDbLine
 10
18.22699646201562
 20
9.343685128119091
 30
0.0
 11
18.13557595387007
 21
9.15619066553625
 31
0.0
  0
LINE
  5
1806
330
1F
100
AcDbEntity
  8
0
100
AcDbLine
 10
18.13557595387007
 20
9.15619066553625
 30
0.0
 11
18.04863244601796
 21
8.996481492866948
 31
0.0
  0
LINE
  5
1807
330
1F
100
AcDbEntity
  8
0
100
AcDbLine
 10
18.04863244601796
 20
8.996481492866948
 30
0.0
 11
17.93729138872214
 21
8.812534874850193
 31
0.0
  0
LINE
  5
1808
330
1F
100
AcDbEntity
  8
0
100
AcDbLine
 10
17.93729138872214
 20
8.812534874850193
 30
0.0
 11
17.79761811428321
 21
8.607380852622377
 31
0.0
  0
LINE
  5
1809
330
1F
100
AcDbEntity
  8
0
100
AcDbLine
 10
17.79761811428321
 20
8.607380852622377
 30
0.0
 11
17.65757372099023
 21
8.428004310534156
 31
0.0
  0
ARC
  5
180A
330
1F
100
AcDbEntity
  8
0
100
AcDbCircle
 10
27.9068202161067
 20
8.479405907221547
 30
0.0
 40
0.0944891409360976
100
AcDbArc
 50
212.8400557333971
 51
258.0744314149973
  0
ARC
  5
180B
330
1F
100
AcDbEntity
  8
0
100
AcDbCircle
 10
17.56644562079012
 20
8.499290638492752
 30
0.0
 40
0.1166843733094552
100
AcDbArc
 50
279.1541703194025
 51
322.0626319120019
  0
LINE
  5
180C
330
1F
100
AcDbEntity
  8
0
100
AcDbLine
 10
22.7423805114241
 20
5.629430518986133
 30
0.0
 11
19.3088132673991
 21
5.629430518986133
 31
0.0
  0
LINE
  5
180D
330
1F
100
AcDbEntity
  8
0
100
AcDbLine
 10
19.3088132673991
 20
5.629430518986133
 30
0.0
 11
19.29735779323704
 21
5.634089832458428
 31
0.0
  0
LINE
  5
180E
330
1F
100
AcDbEntity
  8
0
100
AcDbLine
 10
19.29735779323704
 20
5.634089832458428
 30
0.0
 11
19.28635422384022
 21
5.647883968552854
 31
0.0
  0
LINE
  5
180F
330
1F
100
AcDbEntity
  8
0
100
AcDbLine
 10
19.28635422384022
 20
5.647883968552854
 30
0.0
 11
19.27623663687311
 21
5.670268765058985
 31
0.0
  0
LINE
  5
1810
330
1F
100
AcDbEntity
  8
0
100
AcDbLine
 10
19.27623663687311
 20
5.670268765058985
 30
0.0
 11
19.26740415906695
 21
5.700361168511427
 31
0.0
  0
LINE
  5
1811
330
1F
100
AcDbEntity
  8
0
100
AcDbLine
 10
19.26740415906695
 20
5.700361168511427
 30
0.0
 11
19.26020522110596
 21
5.736974069555785
 31
0.0
  0
LINE
  5
1812
330
1F
100
AcDbEntity
  8
0
100
AcDbLine
 10
19.26020522110596
 20
5.736974069555785
 30
0.0
 11
19.25492381249194
 21
5.778663132975331
 31
0.0
  0
LINE
  5
1813
330
1F
100
AcDbEntity
  8
0
100
AcDbLine
 10
19.25492381249194
 20
5.778663132975331
 30
0.0
 11
19.25176827848332
 21
5.82378377502934
 31
0.0
  0
LINE
  5
1814
330
1F
100
AcDbEntity
  8
0
100
AcDbLine
 10
19.25176827848332
 20
5.82378377502934
 30
0.0
 11
19.25086310113221
 21
5.870556040313111
 31
0.0
  0
LINE
  5
1815
330
1F
100
AcDbEntity
  8
0
100
AcDbLine
 10
19.25086310113221
 20
5.870556040313111
 30
0.0
 11
19.80402979519837
 21
5.871022558474457
 31
0.0
  0
LINE
  5
1816
330
1F
100
AcDbEntity
  8
0
100
AcDbLine
 10
19.80402979519837
 20
5.871022558474457
 30
0.0
 11
20.36275343914946
 21
5.871347622153251
 31
0.0
  0
LINE
  5
1817
330
1F
100
AcDbEntity
  8
0
100
AcDbLine
 10
20.36275343914946
 20
5.871347622153251
 30
0.0
 11
20.92433084787657
 21
5.871488560950119
 31
0.0
  0
LINE
  5
1818
330
1F
100
AcDbEntity
  8
0
100
AcDbLine
 10
20.92433084787657
 20
5.871488560950119
 30
0.0
 11
21.48968473399668
 21
5.871412590666913
 31
0.0
  0
LINE
  5
1819
330
1F
100
AcDbEntity
  8
0
100
AcDbLine
 10
21.48968473399668
 20
5.871412590666913
 30
0.0
 11
22.11481451358529
 21
5.871051780565821
 31
0.0
  0
LINE
  5
181A
330
1F
100
AcDbEntity
  8
0
100
AcDbLine
 10
22.11481451358529
 20
5.871051780565821
 30
0.0
 11
22.7423805114241
 21
5.87039149524287
 31
0.0
  0
LINE
  5
181B
330
1F
100
AcDbEntity
  8
0
100
AcDbLine
 10
26.17594775544126
 20
5.629430518986133
 30
0.0
 11
22.7423805114241
 21
5.629430518986133
 31
0.0
  0
LINE
  5
181C
330
1F
100
AcDbEntity
  8
0
100
AcDbLine
 10
22.7423805114241
 20
5.87039149524287
 30
0.0
 11
22.86017841543761
 21
5.87053773466836
 31
0.0
  0
LINE
  5
181D
330
1F
100
AcDbEntity
  8
0
100
AcDbLine
 10
22.86017841543761
 20
5.87053773466836
 30
0.0
 11
23.42818171548183
 21
5.871097205504057
 31
0.0
  0
LINE
  5
181E
330
1F
100
AcDbEntity
  8
0
100
AcDbLine
 10
23.42818171548183
 20
5.871097205504057
 30
0.0
 11
23.99507628884371
 21
5.871412590666913
 31
0.0
  0
LINE
  5
181F
330
1F
100
AcDbEntity
  8
0
100
AcDbLine
 10
23.99507628884371
 20
5.871412590666913
 30
0.0
 11
24.55998623528714
 21
5.871488079870786
 31
0.0
  0
LINE
  5
1820
330
1F
100
AcDbEntity
  8
0
100
AcDbLine
 10
24.55998623528714
 20
5.871488079870786
 30
0.0
 11
25.12200758369877
 21
5.871347622153251
 31
0.0
  0
LINE
  5
1821
330
1F
100
AcDbEntity
  8
0
100
AcDbLine
 10
25.12200758369877
 20
5.871347622153251
 30
0.0
 11
25.68028921043234
 21
5.871022642962749
 31
0.0
  0
LINE
  5
1822
330
1F
100
AcDbEntity
  8
0
100
AcDbLine
 10
25.68028921043234
 20
5.871022642962749
 30
0.0
 11
26.23389792170815
 21
5.870556040313111
 31
0.0
  0
LINE
  5
1823
330
1F
100
AcDbEntity
  8
0
100
AcDbLine
 10
26.17594775544126
 20
5.629430518986133
 30
0.0
 11
26.18740322961119
 21
5.634089832458428
 31
0.0
  0
LINE
  5
1824
330
1F
100
AcDbEntity
  8
0
100
AcDbLine
 10
26.18740322961119
 20
5.634089832458428
 30
0.0
 11
26.19840679900799
 21
5.647883968552854
 31
0.0
  0
LINE
  5
1825
330
1F
100
AcDbEntity
  8
0
100
AcDbLine
 10
26.19840679900799
 20
5.647883968552854
 30
0.0
 11
26.20852438596728
 21
5.670268765058985
 31
0.0
  0
LINE
  5
1826
330
1F
100
AcDbEntity
  8
0
100
AcDbLine
 10
26.20852438596728
 20
5.670268765058985
 30
0.0
 11
26.21735686378128
 21
5.700361168511427
 31
0.0
  0
LINE
  5
1827
330
1F
100
AcDbEntity
  8
0
100
AcDbLine
 10
26.21735686378128
 20
5.700361168511427
 30
0.0
 11
26.2245558017423
 21
5.736974069555785
 31
0.0
  0
LINE
  5
1828
330
1F
100
AcDbEntity
  8
0
100
AcDbLine
 10
26.2245558017423
 20
5.736974069555785
 30
0.0
 11
26.22983721035633
 21
5.778663132975331
 31
0.0
  0
LINE
  5
1829
330
1F
100
AcDbEntity
  8
0
100
AcDbLine
 10
26.22983721035633
 20
5.778663132975331
 30
0.0
 11
26.23299274435704
 21
5.82378377502934
 31
0.0
  0
LINE
  5
182A
330
1F
100
AcDbEntity
  8
0
100
AcDbLine
 10
26.23299274435704
 20
5.82378377502934
 30
0.0
 11
26.23389792170815
 21
5.870556040313111
 31
0.0
  0
ARC
  5
182B
330
1F
100
AcDbEntity
  8
0
100
AcDbCircle
 10
34.39892888507888
 20
5.696929925019119
 30
0.0
 40
15.14906079671633
100
AcDbArc
 50
172.433738731201
 51
179.3433083700988
  0
LINE
  5
182C
330
1F
100
AcDbEntity
  8
0
100
AcDbLine
 10
19.44659530471264
 20
7.69934008453773
 30
0.0
 11
19.38176720633959
 21
7.691647483263587
 31
0.0
  0
LINE
  5
182D
330
1F
100
AcDbEntity
  8
0
100
AcDbLine
 10
22.7423805114241
 20
7.696957798275676
 30
0.0
 11
22.74237814921648
 21
7.696957803070944
 31
0.0
  0
LINE
  5
182E
330
1F
100
AcDbEntity
  8
0
100
AcDbLine
 10
22.74237814921648
 20
7.696957803070944
 30
0.0
 11
22.45958712700312
 21
7.697648261793531
 31
0.0
  0
LINE
  5
182F
330
1F
100
AcDbEntity
  8
0
100
AcDbLine
 10
22.45958712700312
 20
7.697648261793531
 30
0.0
 11
21.69956688441997
 21
7.700157388716867
 31
0.0
  0
LINE
  5
1830
330
1F
100
AcDbEntity
  8
0
100
AcDbLine
 10
21.69956688441997
 20
7.700157388716867
 30
0.0
 11
20.94263303547615
 21
7.702317275962904
 31
0.0
  0
LINE
  5
1831
330
1F
100
AcDbEntity
  8
0
100
AcDbLine
 10
20.94263303547615
 20
7.702317275962904
 30
0.0
 11
20.19091552439636
 21
7.702364213225848
 31
0.0
  0
LINE
  5
1832
330
1F
100
AcDbEntity
  8
0
100
AcDbLine
 10
20.19091552439636
 20
7.702364213225848
 30
0.0
 11
19.44659531311421
 21
7.699340328160083
 31
0.0
  0
ARC
  5
1833
330
1F
100
AcDbEntity
  8
0
100
AcDbCircle
 10
11.08448262666201
 20
5.696832919158602
 30
0.0
 40
15.15041133120289
100
AcDbArc
 50
0.656999969299508
 51
7.565952929501761
  0
LINE
  5
1834
330
1F
100
AcDbEntity
  8
0
100
AcDbLine
 10
26.03817124248107
 20
7.699340292797842
 30
0.0
 11
25.29388790605566
 21
7.702364144887184
 31
0.0
  0
LINE
  5
1835
330
1F
100
AcDbEntity
  8
0
100
AcDbLine
 10
25.29388790605566
 20
7.702364144887184
 30
0.0
 11
24.54220787591999
 21
7.702317425758366
 31
0.0
  0
LINE
  5
1836
330
1F
100
AcDbEntity
  8
0
100
AcDbLine
 10
24.54220787591999
 20
7.702317425758366
 30
0.0
 11
23.78527446992953
 21
7.700157663858931
 31
0.0
  0
LINE
  5
1837
330
1F
100
AcDbEntity
  8
0
100
AcDbLine
 10
23.78527446992953
 20
7.700157663858931
 30
0.0
 11
23.02525443872458
 21
7.697648485581211
 31
0.0
  0
LINE
  5
1838
330
1F
100
AcDbEntity
  8
0
100
AcDbLine
 10
23.02525443872458
 20
7.697648485581211
 30
0.0
 11
22.74238287362391
 21
7.696957803070944
 31
0.0
  0
LINE
  5
1839
330
1F
100
AcDbEntity
  8
0
100
AcDbLine
 10
22.74238287362391
 20
7.696957803070944
 30
0.0
 11
22.7423805114241
 21
7.696957798275676
 31
0.0
  0
LINE
  5
183A
330
1F
100
AcDbEntity
  8
0
100
AcDbLine
 10
26.10299381650867
 20
7.691647483263587
 30
0.0
 11
26.03817125088261
 21
7.699340048970753
 31
0.0
  0
LINE
  5
183B
330
1F
100
AcDbEntity
  8
0
100
AcDbLine
 10
19.44659530471264
 20
7.69934008453773
 30
0.0
 11
19.45312484696145
 21
7.780841911403797
 31
0.0
  0
LINE
  5
183C
330
1F
100
AcDbEntity
  8
0
100
AcDbLine
 10
19.45312484696145
 20
7.780841911403797
 30
0.0
 11
19.4661878883301
 21
7.845827476791058
 31
0.0
  0
LINE
  5
183D
330
1F
100
AcDbEntity
  8
0
100
AcDbLine
 10
19.46626353839244
 20
7.845825613599778
 30
0.0
 11
20.20580480454211
 21
7.845748831181694
 31
0.0
  0
LINE
  5
183E
330
1F
100
AcDbEntity
  8
0
100
AcDbLine
 10
20.20580480454211
 20
7.845748831181694
 30
0.0
 11
20.95361552236647
 21
7.845589232345943
 31
0.0
  0
LINE
  5
183F
330
1F
100
AcDbEntity
  8
0
100
AcDbLine
 10
20.95361552236647
 20
7.845589232345943
 30
0.0
 11
21.70635587269135
 21
7.845372112234102
 31
0.0
  0
LINE
  5
1840
330
1F
100
AcDbEntity
  8
0
100
AcDbLine
 10
21.70635587269135
 20
7.845372112234102
 30
0.0
 11
22.46210170413005
 21
7.844996219169424
 31
0.0
  0
LINE
  5
1841
330
1F
100
AcDbEntity
  8
0
100
AcDbLine
 10
22.46210170413005
 20
7.844996219169424
 30
0.0
 11
22.74237814922435
 21
7.844812994036637
 31
0.0
  0
LINE
  5
1842
330
1F
100
AcDbEntity
  8
0
100
AcDbLine
 10
22.74237814922435
 20
7.844812994036637
 30
0.0
 11
22.7423805114241
 21
7.844812992430334
 31
0.0
  0
LINE
  5
1843
330
1F
100
AcDbEntity
  8
0
100
AcDbLine
 10
22.7423805114241
 20
7.844812992430334
 30
0.0
 11
22.74238287362391
 21
7.844812994036637
 31
0.0
  0
LINE
  5
1844
330
1F
100
AcDbEntity
  8
0
100
AcDbLine
 10
22.74238287362391
 20
7.844812994036637
 30
0.0
 11
23.02273934259696
 21
7.844996268925385
 31
0.0
  0
LINE
  5
1845
330
1F
100
AcDbEntity
  8
0
100
AcDbLine
 10
23.02273934259696
 20
7.844996268925385
 30
0.0
 11
23.7784850366024
 21
7.845372142990044
 31
0.0
  0
LINE
  5
1846
330
1F
100
AcDbEntity
  8
0
100
AcDbLine
 10
23.7784850366024
 20
7.845372142990044
 30
0.0
 11
24.53122499246229
 21
7.845589248511316
 31
0.0
  0
LINE
  5
1847
330
1F
100
AcDbEntity
  8
0
100
AcDbLine
 10
24.53122499246229
 20
7.845589248511316
 30
0.0
 11
25.27903497282901
 21
7.845748846536046
 31
0.0
  0
LINE
  5
1848
330
1F
100
AcDbEntity
  8
0
100
AcDbLine
 10
25.27903497282901
 20
7.845748846536046
 30
0.0
 11
26.01857521966247
 21
7.845825612229695
 31
0.0
  0
LINE
  5
1849
330
1F
100
AcDbEntity
  8
0
100
AcDbLine
 10
26.03817124248107
 20
7.699340292797842
 30
0.0
 11
26.03163972643452
 21
7.780840665252647
 31
0.0
  0
LINE
  5
184A
330
1F
100
AcDbEntity
  8
0
100
AcDbLine
 10
26.03163972643452
 20
7.780840665252647
 30
0.0
 11
26.01857521966247
 21
7.845825612229695
 31
0.0
  0
LINE
  5
184B
330
1F
100
AcDbEntity
  8
0
100
AcDbLine
 10
25.84306949533621
 20
8.262666257119036
 30
0.0
 11
25.15744136645381
 21
8.267639692154197
 31
0.0
  0
LINE
  5
184C
330
1F
100
AcDbEntity
  8
0
100
AcDbLine
 10
25.15744136645381
 20
8.267639692154197
 30
0.0
 11
24.4646987522348
 21
8.268634899955578
 31
0.0
  0
LINE
  5
184D
330
1F
100
AcDbEntity
  8
0
100
AcDbLine
 10
24.4646987522348
 20
8.268634899955578
 30
0.0
 11
23.76813910598986
 21
8.266637970171515
 31
0.0
  0
LINE
  5
184E
330
1F
100
AcDbEntity
  8
0
100
AcDbLine
 10
23.76813910598986
 20
8.266637970171515
 30
0.0
 11
23.06884651052033
 21
8.263483916204123
 31
0.0
  0
LINE
  5
184F
330
1F
100
AcDbEntity
  8
0
100
AcDbLine
 10
23.06884651052033
 20
8.263483916204123
 30
0.0
 11
22.74238287360029
 21
8.262129819642616
 31
0.0
  0
LINE
  5
1850
330
1F
100
AcDbEntity
  8
0
100
AcDbLine
 10
22.74238287360029
 20
8.262129819642616
 30
0.0
 11
22.7423805114241
 21
8.2621298107371
 31
0.0
  0
ARC
  5
1851
330
1F
100
AcDbEntity
  8
0
100
AcDbCircle
 10
26.46179999768009
 20
8.277933255898659
 30
0.0
 40
0.6190035338794072
100
AcDbArc
 50
181.413363972598
 51
224.2722311480987
  0
ARC
  5
1852
330
1F
100
AcDbEntity
  8
0
100
AcDbCircle
 10
19.02295490800304
 20
8.27793527218462
 30
0.0
 40
0.6190099581629816
100
AcDbArc
 50
315.729322014601
 51
358.5867311551991
  0
LINE
  5
1853
330
1F
100
AcDbEntity
  8
0
100
AcDbLine
 10
22.7423805114241
 20
8.2621298107371
 30
0.0
 11
22.7423781492401
 21
8.262129819642616
 31
0.0
  0
LINE
  5
1854
330
1F
100
AcDbEntity
  8
0
100
AcDbLine
 10
22.7423781492401
 20
8.262129819642616
 30
0.0
 11
22.41652277065719
 21
8.263481211003913
 31
0.0
  0
LINE
  5
1855
330
1F
100
AcDbEntity
  8
0
100
AcDbLine
 10
22.41652277065719
 20
8.263481211003913
 30
0.0
 11
21.71714575361838
 21
8.266635820483806
 31
0.0
  0
LINE
  5
1856
330
1F
100
AcDbEntity
  8
0
100
AcDbLine
 10
21.71714575361838
 20
8.266635820483806
 30
0.0
 11
21.02050081769283
 21
8.268634395411652
 31
0.0
  0
LINE
  5
1857
330
1F
100
AcDbEntity
  8
0
100
AcDbLine
 10
21.02050081769283
 20
8.268634395411652
 30
0.0
 11
20.32767229837518
 21
8.267641152526095
 31
0.0
  0
LINE
  5
1858
330
1F
100
AcDbEntity
  8
0
100
AcDbLine
 10
20.32767229837518
 20
8.267641152526095
 30
0.0
 11
19.64195876600098
 21
8.262669065902052
 31
0.0
  0
ARC
  5
1859
330
1F
100
AcDbEntity
  8
0
100
AcDbCircle
 10
19.18974147378196
 20
-4.055130739493499
 30
0.0
 40
9.92587496919751
100
AcDbArc
 50
89.64718138929848
 51
90.90372300459614
  0
ARC
  5
185A
330
1F
100
AcDbEntity
  8
0
100
AcDbCircle
 10
33.87043216525908
 20
5.676110258407099
 30
0.0
 40
14.83850484866211
100
AcDbArc
 50
172.1858793136003
 51
179.2532079956992
  0
ARC
  5
185B
330
1F
100
AcDbEntity
  8
0
100
AcDbCircle
 10
19.15532662714858
 20
-5.732004175588663
 30
0.0
 40
13.4255614107644
100
AcDbArc
 50
89.03358196260711
 51
89.93860683139429
  0
ARC
  5
185C
330
1F
100
AcDbEntity
  8
0
100
AcDbCircle
 10
26.31034316067209
 20
-0.8677482545494825
 30
0.0
 40
6.738737911865022
100
AcDbArc
 50
88.79910987249695
 51
90.64998573360034
  0
ARC
  5
185D
330
1F
100
AcDbEntity
  8
0
100
AcDbCircle
 10
26.34811105552632
 20
-7.814225269468337
 30
0.0
 40
15.50781004155224
100
AcDbArc
 50
90.1221534704981
 51
90.90565773559918
  0
ARC
  5
185E
330
1F
100
AcDbEntity
  8
0
100
AcDbCircle
 10
11.62352448079946
 20
5.676798526497137
 30
0.0
 40
14.82930104680385
100
AcDbArc
 50
0.7445960489013634
 51
7.816316641801869
  0
ARC
  5
185F
330
1F
100
AcDbEntity
  8
0
100
AcDbCircle
 10
26.22244002356672
 20
5.858682558876644
 30
0.0
 40
0.2293889390681984
100
AcDbArc
 50
271.9795815905059
 51
2.705323598001828
  0
LINE
  5
1860
330
1F
100
AcDbEntity
  8
0
100
AcDbLine
 10
26.23036388439542
 20
5.629430518986133
 30
0.0
 11
26.17594775544126
 21
5.629430518986133
 31
0.0
  0
ARC
  5
1861
330
1F
100
AcDbEntity
  8
0
100
AcDbCircle
 10
19.26232099928154
 20
5.858682558876651
 30
0.0
 40
0.2293889390682015
100
AcDbArc
 50
177.2946764020018
 51
268.0204184094941
  0
LINE
  5
1862
330
1F
100
AcDbEntity
  8
0
100
AcDbLine
 10
19.3088132673991
 20
5.629430518986133
 30
0.0
 11
19.25439713845281
 21
5.629430518986133
 31
0.0
  0
LINE
  5
1863
330
1F
100
AcDbEntity
  8
0
100
AcDbLine
 10
26.45157330723904
 20
5.869509547440245
 30
0.0
 11
26.52835659332317
 21
5.868713747445269
 31
0.0
  0
LINE
  5
1864
330
1F
100
AcDbEntity
  8
0
100
AcDbLine
 10
26.52835659332317
 20
5.868713747445269
 30
0.0
 11
26.62207545870535
 21
5.868128475750793
 31
0.0
  0
LINE
  5
1865
330
1F
100
AcDbEntity
  8
0
100
AcDbLine
 10
26.62207545870535
 20
5.868128475750793
 30
0.0
 11
26.73676363878286
 21
5.867723628587206
 31
0.0
  0
LINE
  5
1866
330
1F
100
AcDbEntity
  8
0
100
AcDbLine
 10
26.73676363878286
 20
5.867723628587206
 30
0.0
 11
26.86767582796873
 21
5.867507414728464
 31
0.0
  0
LINE
  5
1867
330
1F
100
AcDbEntity
  8
0
100
AcDbLine
 10
26.86767582796873
 20
5.867507414728464
 30
0.0
 11
26.98603470814266
 21
5.867459726976399
 31
0.0
  0
LINE
  5
1868
330
1F
100
AcDbEntity
  8
0
100
AcDbLine
 10
26.98603470814266
 20
5.867459726976399
 30
0.0
 11
27.11355334621371
 21
5.867523048047075
 31
0.0
  0
LINE
  5
1869
330
1F
100
AcDbEntity
  8
0
100
AcDbLine
 10
27.11355334621371
 20
5.867523048047075
 30
0.0
 11
27.25345067289905
 21
5.86770210603295
 31
0.0
  0
LINE
  5
186A
330
1F
100
AcDbEntity
  8
0
100
AcDbLine
 10
27.25345067289905
 20
5.86770210603295
 30
0.0
 11
27.40110399479545
 21
5.867999166173078
 31
0.0
  0
LINE
  5
186B
330
1F
100
AcDbEntity
  8
0
100
AcDbLine
 10
27.40110399479545
 20
5.867999166173078
 30
0.0
 11
27.5957172271375
 21
5.868547516947735
 31
0.0
  0
LINE
  5
186C
330
1F
100
AcDbEntity
  8
0
100
AcDbLine
 10
27.5957172271375
 20
5.868547516947735
 30
0.0
 11
27.80105022695739
 21
5.869317696501489
 31
0.0
  0
LINE
  5
186D
330
1F
100
AcDbEntity
  8
0
100
AcDbLine
 10
27.74018554848482
 20
5.629430518986133
 30
0.0
 11
27.75217690195726
 21
5.634059284554396
 31
0.0
  0
LINE
  5
186E
330
1F
100
AcDbEntity
  8
0
100
AcDbLine
 10
27.75217690195726
 20
5.634059284554396
 30
0.0
 11
27.76369831229556
 21
5.647764179175915
 31
0.0
  0
LINE
  5
186F
330
1F
100
AcDbEntity
  8
0
100
AcDbLine
 10
27.76369831229556
 20
5.647764179175915
 30
0.0
 11
27.77429825349881
 21
5.670008105735668
 31
0.0
  0
LINE
  5
1870
330
1F
100
AcDbEntity
  8
0
100
AcDbLine
 10
27.77429825349881
 20
5.670008105735668
 30
0.0
 11
27.78356131211467
 21
5.699919321065721
 31
0.0
  0
LINE
  5
1871
330
1F
100
AcDbEntity
  8
0
100
AcDbLine
 10
27.78356131211467
 20
5.699919321065721
 30
0.0
 11
27.79112446732273
 21
5.736325599633318
 31
0.0
  0
LINE
  5
1872
330
1F
100
AcDbEntity
  8
0
100
AcDbLine
 10
27.79112446732273
 20
5.736325599633318
 30
0.0
 11
27.7966913178262
 21
5.777800173337986
 31
0.0
  0
LINE
  5
1873
330
1F
100
AcDbEntity
  8
0
100
AcDbLine
 10
27.7966913178262
 20
5.777800173337986
 30
0.0
 11
27.80004369781125
 21
5.822717646714792
 31
0.0
  0
LINE
  5
1874
330
1F
100
AcDbEntity
  8
0
100
AcDbLine
 10
27.80004369781125
 20
5.822717646714792
 30
0.0
 11
27.80105022695739
 21
5.869317696501489
 31
0.0
  0
LINE
  5
1875
330
1F
100
AcDbEntity
  8
0
100
AcDbLine
 10
27.74018554848482
 20
5.629430518986133
 30
0.0
 11
26.23036388439542
 21
5.629430518986133
 31
0.0
  0
LINE
  5
1876
330
1F
100
AcDbEntity
  8
0
100
AcDbLine
 10
19.64177623903441
 20
8.262665343220263
 30
0.0
 11
19.64888232847872
 21
8.31264431199343
 31
0.0
  0
LINE
  5
1877
330
1F
100
AcDbEntity
  8
0
100
AcDbLine
 10
19.64888232847872
 20
8.31264431199343
 30
0.0
 11
19.6591826378536
 21
8.351816505322553
 31
0.0
  0
LINE
  5
1878
330
1F
100
AcDbEntity
  8
0
100
AcDbLine
 10
19.6591826378536
 20
8.351816505322553
 30
0.0
 11
19.67178060494461
 21
8.376772286946859
 31
0.0
  0
LINE
  5
1879
330
1F
100
AcDbEntity
  8
0
100
AcDbLine
 10
19.67178060494461
 20
8.376772286946859
 30
0.0
 11
19.68231507672803
 21
8.384869814463428
 31
0.0
  0
LINE
  5
187A
330
1F
100
AcDbEntity
  8
0
100
AcDbLine
 10
19.79923960480784
 20
8.383499848968853
 30
0.0
 11
19.68231512321628
 21
8.384869805636647
 31
0.0
  0
LINE
  5
187B
330
1F
100
AcDbEntity
  8
0
100
AcDbLine
 10
22.74231196655168
 20
8.383574701101082
 30
0.0
 11
22.11307683070547
 21
8.383830760119472
 31
0.0
  0
LINE
  5
187C
330
1F
100
AcDbEntity
  8
0
100
AcDbLine
 10
22.11307683070547
 20
8.383830760119472
 30
0.0
 11
21.53267544342449
 21
8.383999822628396
 31
0.0
  0
LINE
  5
187D
330
1F
100
AcDbEntity
  8
0
100
AcDbLine
 10
21.53267544342449
 20
8.383999822628396
 30
0.0
 11
20.95342338193916
 21
8.384041221018328
 31
0.0
  0
LINE
  5
187E
330
1F
100
AcDbEntity
  8
0
100
AcDbLine
 10
20.95342338193916
 20
8.384041221018328
 30
0.0
 11
20.37453859432677
 21
8.383900377631029
 31
0.0
  0
LINE
  5
187F
330
1F
100
AcDbEntity
  8
0
100
AcDbLine
 10
20.37453859432677
 20
8.383900377631029
 30
0.0
 11
19.79923960480784
 21
8.383499848968853
 31
0.0
  0
LINE
  5
1880
330
1F
100
AcDbEntity
  8
0
100
AcDbLine
 10
22.74244905665085
 20
8.383574701101082
 30
0.0
 11
22.74231196655168
 21
8.383574701101082
 31
0.0
  0
LINE
  5
1881
330
1F
100
AcDbEntity
  8
0
100
AcDbLine
 10
25.68552032101542
 20
8.383499850055478
 30
0.0
 11
25.06879899657315
 21
8.383917973070182
 31
0.0
  0
LINE
  5
1882
330
1F
100
AcDbEntity
  8
0
100
AcDbLine
 10
25.06879899657315
 20
8.383917973070182
 30
0.0
 11
24.49389792225645
 21
8.384043407761197
 31
0.0
  0
LINE
  5
1883
330
1F
100
AcDbEntity
  8
0
100
AcDbLine
 10
24.49389792225645
 20
8.384043407761197
 30
0.0
 11
23.91443082018944
 21
8.383992157429915
 31
0.0
  0
LINE
  5
1884
330
1F
100
AcDbEntity
  8
0
100
AcDbLine
 10
23.91443082018944
 20
8.383992157429915
 30
0.0
 11
23.32952675945723
 21
8.383815027769244
 31
0.0
  0
LINE
  5
1885
330
1F
100
AcDbEntity
  8
0
100
AcDbLine
 10
23.32952675945723
 20
8.383815027769244
 30
0.0
 11
22.74244905665085
 21
8.383574701101082
 31
0.0
  0
LINE
  5
1886
330
1F
100
AcDbEntity
  8
0
100
AcDbLine
 10
25.80252702836251
 20
8.384871239654181
 30
0.0
 11
25.797528342611
 21
8.384782105976682
 31
0.0
  0
LINE
  5
1887
330
1F
100
AcDbEntity
  8
0
100
AcDbLine
 10
25.797528342611
 20
8.384782105976682
 30
0.0
 11
25.68552032101542
 21
8.383499850055478
 31
0.0
  0
LINE
  5
1888
330
1F
100
AcDbEntity
  8
0
100
AcDbLine
 10
25.84306949533621
 20
8.262666257119036
 30
0.0
 11
25.8359635991599
 21
8.312644886222493
 31
0.0
  0
LINE
  5
1889
330
1F
100
AcDbEntity
  8
0
100
AcDbLine
 10
25.8359635991599
 20
8.312644886222493
 30
0.0
 11
25.82566361676177
 21
8.351816780692971
 31
0.0
  0
LINE
  5
188A
330
1F
100
AcDbEntity
  8
0
100
AcDbLine
 10
25.82566361676177
 20
8.351816780692971
 30
0.0
 11
25.8130660743642
 21
8.376772358915452
 31
0.0
  0
LINE
  5
188B
330
1F
100
AcDbEntity
  8
0
100
AcDbLine
 10
25.8130660743642
 20
8.376772358915452
 30
0.0
 11
25.80252746940241
 21
8.38487111278787
 31
0.0
  0
LINE
  5
188C
330
1F
100
AcDbEntity
  8
0
100
AcDbLine
 10
17.74457547436341
 20
5.629430518986133
 30
0.0
 11
17.73258412088313
 21
5.634059284554396
 31
0.0
  0
LINE
  5
188D
330
1F
100
AcDbEntity
  8
0
100
AcDbLine
 10
17.73258412088313
 20
5.634059284554396
 30
0.0
 11
17.72106271055264
 21
5.647764179175915
 31
0.0
  0
LINE
  5
188E
330
1F
100
AcDbEntity
  8
0
100
AcDbLine
 10
17.72106271055264
 20
5.647764179175915
 30
0.0
 11
17.71046276934942
 21
5.670008105735668
 31
0.0
  0
LINE
  5
188F
330
1F
100
AcDbEntity
  8
0
100
AcDbLine
 10
17.71046276934942
 20
5.670008105735668
 30
0.0
 11
17.70119971073362
 21
5.699919321065721
 31
0.0
  0
LINE
  5
1890
330
1F
100
AcDbEntity
  8
0
100
AcDbLine
 10
17.70119971073362
 20
5.699919321065721
 30
0.0
 11
17.69363655551766
 21
5.736325599633318
 31
0.0
  0
LINE
  5
1891
330
1F
100
AcDbEntity
  8
0
100
AcDbLine
 10
17.69363655551766
 20
5.736325599633318
 30
0.0
 11
17.68806970502203
 21
5.777800173337986
 31
0.0
  0
LINE
  5
1892
330
1F
100
AcDbEntity
  8
0
100
AcDbLine
 10
17.68806970502203
 20
5.777800173337986
 30
0.0
 11
17.68471732502908
 21
5.822717646714792
 31
0.0
  0
LINE
  5
1893
330
1F
100
AcDbEntity
  8
0
100
AcDbLine
 10
17.68471732502908
 20
5.822717646714792
 30
0.0
 11
17.68371079589082
 21
5.869317696501489
 31
0.0
  0
LINE
  5
1894
330
1F
100
AcDbEntity
  8
0
100
AcDbLine
 10
17.68371079589082
 20
5.869317696501489
 30
0.0
 11
17.88785506481105
 21
5.868551460551053
 31
0.0
  0
LINE
  5
1895
330
1F
100
AcDbEntity
  8
0
100
AcDbLine
 10
17.88785506481105
 20
5.868551460551053
 30
0.0
 11
18.08365702805278
 21
5.867999166173078
 31
0.0
  0
LINE
  5
1896
330
1F
100
AcDbEntity
  8
0
100
AcDbLine
 10
18.08365702805278
 20
5.867999166173078
 30
0.0
 11
18.27591074267283
 21
5.867632532348231
 31
0.0
  0
LINE
  5
1897
330
1F
100
AcDbEntity
  8
0
100
AcDbLine
 10
18.27591074267283
 20
5.867632532348231
 30
0.0
 11
18.45483866911797
 21
5.867468460105342
 31
0.0
  0
LINE
  5
1898
330
1F
100
AcDbEntity
  8
0
100
AcDbLine
 10
18.45483866911797
 20
5.867468460105342
 30
0.0
 11
18.61708519487948
 21
5.867507414728464
 31
0.0
  0
LINE
  5
1899
330
1F
100
AcDbEntity
  8
0
100
AcDbLine
 10
18.61708519487948
 20
5.867507414728464
 30
0.0
 11
18.76080439619525
 21
5.867757570109624
 31
0.0
  0
LINE
  5
189A
330
1F
100
AcDbEntity
  8
0
100
AcDbLine
 10
18.76080439619525
 20
5.867757570109624
 30
0.0
 11
18.88496061710344
 21
5.868242616986862
 31
0.0
  0
LINE
  5
189B
330
1F
100
AcDbEntity
  8
0
100
AcDbLine
 10
18.88496061710344
 20
5.868242616986862
 30
0.0
 11
18.98722279568116
 21
5.868986120279188
 31
0.0
  0
LINE
  5
189C
330
1F
100
AcDbEntity
  8
0
100
AcDbLine
 10
18.98722279568116
 20
5.868986120279188
 30
0.0
 11
19.03318771560918
 21
5.869509547440245
 31
0.0
  0
LINE
  5
189D
330
1F
100
AcDbEntity
  8
0
100
AcDbLine
 10
19.25439713845281
 20
5.629430518986133
 30
0.0
 11
17.74457547436341
 21
5.629430518986133
 31
0.0
  0
ARC
  5
189E
330
1F
100
AcDbEntity
  8
0
100
AcDbCircle
 10
19.97529751458271
 20
7.812881935649997
 30
0.0
 40
0.6057854564600859
100
AcDbArc
 50
176.8576548972005
 51
191.5444268995005
  0
LINE
  5
189F
330
1F
100
AcDbEntity
  8
0
100
AcDbLine
 10
19.37042289892957
 20
7.846089142611695
 30
0.0
 11
19.4661856876896
 21
7.845827687822811
 31
0.0
  0
LINE
  5
18A0
330
1F
100
AcDbEntity
  8
0
100
AcDbLine
 10
19.4661856876896
 20
7.845827687822811
 30
0.0
 11
19.4661878883301
 21
7.845827476791058
 31
0.0
  0
LINE
  5
18A1
330
1F
100
AcDbEntity
  8
0
100
AcDbLine
 10
26.01857313451024
 20
7.845827476791058
 30
0.0
 11
26.01857533515079
 21
7.845827687822811
 31
0.0
  0
LINE
  5
18A2
330
1F
100
AcDbEntity
  8
0
100
AcDbLine
 10
26.01857533515079
 20
7.845827687822811
 30
0.0
 11
26.11433812391081
 21
7.846089142603815
 31
0.0
  0
ARC
  5
18A3
330
1F
100
AcDbEntity
  8
0
100
AcDbCircle
 10
25.50946350823412
 20
7.812881935665728
 30
0.0
 40
0.6057854564836293
100
AcDbArc
 50
348.4555730993983
 51
3.142345100504019
  0
ARC
  5
18A4
330
1F
100
AcDbEntity
  8
0
100
AcDbCircle
 10
26.15993590877713
 20
8.317077035893291
 30
0.0
 40
0.4731899762335268
100
AcDbArc
 50
264.4702529491969
 51
275.3331008424002
  0
ARC
  5
18A5
330
1F
100
AcDbEntity
  8
0
100
AcDbCircle
 10
26.06689798446786
 20
7.62929442817316
 30
0.0
 40
0.2563347678932428
100
AcDbArc
 50
14.51708517650194
 51
57.68786953069472
  0
ARC
  5
18A6
330
1F
100
AcDbEntity
  8
0
100
AcDbCircle
 10
19.41786303837247
 20
7.629294428173167
 30
0.0
 40
0.2563347678853554
100
AcDbArc
 50
122.3121304675942
 51
165.4829148244981
  0
ARC
  5
18A7
330
1F
100
AcDbEntity
  8
0
100
AcDbCircle
 10
19.32492708769368
 20
8.257654057350656
 30
0.0
 40
0.4140719114943005
100
AcDbArc
 50
263.8885836240017
 51
276.3080625821975
  0
LINE
  5
18A8
330
1F
100
AcDbEntity
  8
0
100
AcDbLine
 10
27.67873538038049
 20
7.698142859619629
 30
0.0
 11
27.65018497598246
 21
7.699251209781827
 31
0.0
  0
ARC
  5
18A9
330
1F
100
AcDbEntity
  8
0
100
AcDbCircle
 10
11.68859068038088
 20
5.710192688942655
 30
0.0
 40
16.11324527859047
100
AcDbArc
 50
0.5658288810014886
 51
7.086846838199225
  0
LINE
  5
18AA
330
1F
100
AcDbEntity
  8
0
100
AcDbLine
 10
26.3392378286153
 20
7.701860238041668
 30
0.0
 11
26.3150487357845
 21
7.693549527961458
 31
0.0
  0
ARC
  5
18AB
330
1F
100
AcDbEntity
  8
0
100
AcDbCircle
 10
27.03021949254762
 20
25.54197803471436
 30
0.0
 40
17.85349416061899
100
AcDbArc
 50
267.7819342018067
 51
271.9900052876961
  0
LINE
  5
18AC
330
1F
100
AcDbEntity
  8
0
100
AcDbLine
 10
19.16971228705586
 20
7.693549527961458
 30
0.0
 11
19.14552612081138
 21
7.701860416750548
 31
0.0
  0
ARC
  5
18AD
330
1F
100
AcDbEntity
  8
0
100
AcDbCircle
 10
33.79692153076991
 20
5.710142448226719
 30
0.0
 40
16.1139969264763
100
AcDbArc
 50
172.9133054147992
 51
179.4340188660997
  0
LINE
  5
18AE
330
1F
100
AcDbEntity
  8
0
100
AcDbLine
 10
17.83458519512123
 20
7.699250873986137
 30
0.0
 11
17.8060256424599
 21
7.698142859619629
 31
0.0
  0
ARC
  5
18AF
330
1F
100
AcDbEntity
  8
0
100
AcDbCircle
 10
18.4534950737191
 20
26.06709773297618
 30
0.0
 40
18.37827096259722
100
AcDbArc
 50
268.0701324143972
 51
272.1579742498007
  0
LINE
  5
18B0
330
1F
100
AcDbEntity
  8
0
100
AcDbLine
 10
19.22141140272646
 20
7.844206658599503
 30
0.0
 11
19.2214126184445
 21
7.844206939528987
 31
0.0
  0
LINE
  5
18B1
330
1F
100
AcDbEntity
  8
0
100
AcDbLine
 10
19.2214126184445
 20
7.844206939528987
 30
0.0
 11
19.28084408335979
 21
7.84593541966511
 31
0.0
  0
ARC
  5
18B2
330
1F
100
AcDbEntity
  8
0
100
AcDbCircle
 10
18.41777520853836
 20
8.513058271428327
 30
0.0
 40
1.045559020039501
100
AcDbArc
 50
320.2299412983958
 51
345.3486862095009
  0
ARC
  5
18B3
330
1F
100
AcDbEntity
  8
0
100
AcDbCircle
 10
19.60520403848153
 20
7.203906046445005
 30
0.0
 40
1.059390756219941
100
AcDbArc
 50
88.02164672459545
 51
99.55586953350195
  0
LINE
  5
18B4
330
1F
100
AcDbEntity
  8
0
100
AcDbLine
 10
26.20391693948841
 20
7.845935419657237
 30
0.0
 11
26.26334840439583
 21
7.844206939528987
 31
0.0
  0
LINE
  5
18B5
330
1F
100
AcDbEntity
  8
0
100
AcDbLine
 10
26.26334840439583
 20
7.844206939528987
 30
0.0
 11
26.2633496201139
 21
7.844206658599503
 31
0.0
  0
ARC
  5
18B6
330
1F
100
AcDbEntity
  8
0
100
AcDbCircle
 10
25.84814164547018
 20
6.729517885560049
 30
0.0
 40
1.533156130387513
100
AcDbArc
 50
82.2297656215931
 51
90.19271811910694
  0
ARC
  5
18B7
330
1F
100
AcDbEntity
  8
0
100
AcDbCircle
 10
27.06698078165008
 20
8.513055214967835
 30
0.0
 40
1.045553378000979
100
AcDbArc
 50
194.6512216135997
 51
219.7706146535031
  0
ARC
  5
18B8
330
1F
100
AcDbEntity
  8
0
100
AcDbCircle
 10
19.74213261101991
 20
8.430370771965556
 30
0.0
 40
0.073878902016914
100
AcDbArc
 50
320.6223475896918
 51
357.6248078970073
  0
LINE
  5
18B9
330
1F
100
AcDbEntity
  8
0
100
AcDbLine
 10
19.8159480412809
 20
8.427309004931537
 30
0.0
 11
20.38769413905427
 21
8.428210369396047
 31
0.0
  0
LINE
  5
18BA
330
1F
100
AcDbEntity
  8
0
100
AcDbLine
 10
20.38769413905427
 20
8.428210369396047
 30
0.0
 11
20.96384434514874
 21
8.427842593120963
 31
0.0
  0
LINE
  5
18BB
330
1F
100
AcDbEntity
  8
0
100
AcDbLine
 10
20.96384434514874
 20
8.427842593120963
 30
0.0
 11
21.53912209570433
 21
8.426839763640835
 31
0.0
  0
LINE
  5
18BC
330
1F
100
AcDbEntity
  8
0
100
AcDbLine
 10
21.53912209570433
 20
8.426839763640835
 30
0.0
 11
22.11665558889257
 21
8.425711746903068
 31
0.0
  0
LINE
  5
18BD
330
1F
100
AcDbEntity
  8
0
100
AcDbLine
 10
22.11665558889257
 20
8.425711746903068
 30
0.0
 11
22.74237814921648
 21
8.42489265046187
 31
0.0
  0
LINE
  5
18BE
330
1F
100
AcDbEntity
  8
0
100
AcDbLine
 10
22.74237814921648
 20
8.42489265046187
 30
0.0
 11
22.7423805114241
 21
8.424892648879186
 31
0.0
  0
ARC
  5
18BF
330
1F
100
AcDbEntity
  8
0
100
AcDbCircle
 10
2.07992595699315
 20
8.438511828781869
 30
0.0
 40
20.66245904280662
100
AcDbArc
 50
359.8476624075895
 51
359.9622348151106
  0
LINE
  5
18C0
330
1F
100
AcDbEntity
  8
0
100
AcDbLine
 10
22.7423805114241
 20
8.424892648879186
 30
0.0
 11
22.74238287363179
 21
8.42489265046187
 31
0.0
  0
LINE
  5
18C1
330
1F
100
AcDbEntity
  8
0
100
AcDbLine
 10
22.74238287363179
 20
8.42489265046187
 30
0.0
 11
23.32559950045203
 21
8.425635037792169
 31
0.0
  0
LINE
  5
18C2
330
1F
100
AcDbEntity
  8
0
100
AcDbLine
 10
23.32559950045203
 20
8.425635037792169
 30
0.0
 11
23.9076905200493
 21
8.426761722866871
 31
0.0
  0
LINE
  5
18C3
330
1F
100
AcDbEntity
  8
0
100
AcDbLine
 10
23.9076905200493
 20
8.426761722866871
 30
0.0
 11
24.48309142430884
 21
8.427793854501452
 31
0.0
  0
LINE
  5
18C4
330
1F
100
AcDbEntity
  8
0
100
AcDbLine
 10
24.48309142430884
 20
8.427793854501452
 30
0.0
 11
25.0552545837885
 21
8.428217272569959
 31
0.0
  0
LINE
  5
18C5
330
1F
100
AcDbEntity
  8
0
100
AcDbLine
 10
25.0552545837885
 20
8.428217272569959
 30
0.0
 11
25.66881188950299
 21
8.427309008293747
 31
0.0
  0
ARC
  5
18C6
330
1F
100
AcDbEntity
  8
0
100
AcDbCircle
 10
25.74262732989789
 20
8.430370770288398
 30
0.0
 40
0.0738789119303237
100
AcDbArc
 50
182.3751878698984
 51
219.3776433253001
  0
ARC
  5
18C7
330
1F
100
AcDbEntity
  8
0
100
AcDbCircle
 10
43.40466939132736
 20
8.438511731748427
 30
0.0
 40
20.66229336826313
100
AcDbArc
 50
180.0377652185982
 51
180.1523385447984
  0
LINE
  5
18C8
330
1F
100
AcDbEntity
  8
0
100
AcDbLine
 10
22.74231196655168
 20
8.383574701101082
 30
0.0
 11
22.7423805114241
 21
8.424892648879186
 31
0.0
  0
LINE
  5
18C9
330
1F
100
AcDbEntity
  8
0
100
AcDbLine
 10
26.3392378286153
 20
7.701860238041668
 30
0.0
 11
26.31312685621953
 21
7.780742460351305
 31
0.0
  0
LINE
  5
18CA
330
1F
100
AcDbEntity
  8
0
100
AcDbLine
 10
26.31312685621953
 20
7.780742460351305
 30
0.0
 11
26.2633496201139
 21
7.844206658599503
 31
0.0
  0
LINE
  5
18CB
330
1F
100
AcDbEntity
  8
0
100
AcDbLine
 10
19.1455261423626
 20
7.701860555782218
 30
0.0
 11
19.17163515087404
 21
7.780741274334083
 31
0.0
  0
LINE
  5
18CC
330
1F
100
AcDbEntity
  8
0
100
AcDbLine
 10
19.17163515087404
 20
7.780741274334083
 30
0.0
 11
19.22140979366935
 21
7.844204762274316
 31
0.0
  0
LINE
  5
18CD
330
1F
100
AcDbEntity
  8
0
100
AcDbLine
 10
24.3392183811566
 20
32.79481854549154
 30
0.0
 11
22.7423805114241
 21
32.79481854549154
 31
0.0
  0
LINE
  5
18CE
330
1F
100
AcDbEntity
  8
0
100
AcDbLine
 10
25.66881188950299
 20
8.427309008293747
 30
0.0
 11
25.43420475127709
 21
8.776009582355442
 31
0.0
  0
LINE
  5
18CF
330
1F
100
AcDbEntity
  8
0
100
AcDbLine
 10
25.43420475127709
 20
8.776009582355442
 30
0.0
 11
25.2282916538164
 21
9.153472524542642
 31
0.0
  0
LINE
  5
18D0
330
1F
100
AcDbEntity
  8
0
100
AcDbLine
 10
25.2282916538164
 20
9.153472524542642
 30
0.0
 11
25.08499523601719
 21
9.482632037594051
 31
0.0
  0
LINE
  5
18D1
330
1F
100
AcDbEntity
  8
0
100
AcDbLine
 10
25.08499523601719
 20
9.482632037594051
 30
0.0
 11
24.96577217091311
 21
9.830150121228356
 31
0.0
  0
LINE
  5
18D2
330
1F
100
AcDbEntity
  8
0
100
AcDbLine
 10
24.96577217091311
 20
9.830150121228356
 30
0.0
 11
24.87358879406543
 21
10.19159096568356
 31
0.0
  0
LINE
  5
18D3
330
1F
100
AcDbEntity
  8
0
100
AcDbLine
 10
24.87358879406543
 20
10.19159096568356
 30
0.0
 11
24.81141144103546
 21
10.56251876120555
 31
0.0
  0
LINE
  5
18D4
330
1F
100
AcDbEntity
  8
0
100
AcDbLine
 10
24.81141144103546
 20
10.56251876120555
 30
0.0
 11
24.74334156843662
 21
11.22940199326207
 31
0.0
  0
LINE
  5
18D5
330
1F
100
AcDbEntity
  8
0
100
AcDbLine
 10
24.74334156843662
 20
11.22940199326207
 30
0.0
 11
24.69616256348297
 21
11.90046158634146
 31
0.0
  0
LINE
  5
18D6
330
1F
100
AcDbEntity
  8
0
100
AcDbLine
 10
24.69616256348297
 20
11.90046158634146
 30
0.0
 11
24.65952571254275
 21
12.57353600552632
 31
0.0
  0
LINE
  5
18D7
330
1F
100
AcDbEntity
  8
0
100
AcDbLine
 10
24.65952571254275
 20
12.57353600552632
 30
0.0
 11
24.6230823019921
 21
13.24646371589141
 31
0.0
  0
LINE
  5
18D8
330
1F
100
AcDbEntity
  8
0
100
AcDbLine
 10
24.6230823019921
 20
13.24646371589141
 30
0.0
 11
24.53323951008704
 21
14.92552771664822
 31
0.0
  0
LINE
  5
18D9
330
1F
100
AcDbEntity
  8
0
100
AcDbLine
 10
24.53323951008704
 20
14.92552771664822
 30
0.0
 11
24.46241175283896
 21
16.60700908655312
 31
0.0
  0
LINE
  5
18DA
330
1F
100
AcDbEntity
  8
0
100
AcDbLine
 10
24.46241175283896
 20
16.60700908655312
 30
0.0
 11
24.41066704137166
 21
18.2900860436104
 31
0.0
  0
LINE
  5
18DB
330
1F
100
AcDbEntity
  8
0
100
AcDbLine
 10
24.41066704137166
 20
18.2900860436104
 30
0.0
 11
24.38450740177379
 21
19.54534452139769
 31
0.0
  0
LINE
  5
18DC
330
1F
100
AcDbEntity
  8
0
100
AcDbLine
 10
24.38450740177379
 20
19.54534452139769
 30
0.0
 11
24.36907538164772
 21
20.80103268082035
 31
0.0
  0
LINE
  5
18DD
330
1F
100
AcDbEntity
  8
0
100
AcDbLine
 10
24.36907538164772
 20
20.80103268082035
 30
0.0
 11
24.35675440192395
 21
23.24784799282077
 31
0.0
  0
LINE
  5
18DE
330
1F
100
AcDbEntity
  8
0
100
AcDbLine
 10
24.35675440192395
 20
23.24784799282077
 30
0.0
 11
24.35318364429793
 21
25.694768285975
 31
0.0
  0
LINE
  5
18DF
330
1F
100
AcDbEntity
  8
0
100
AcDbLine
 10
24.35318364429793
 20
25.694768285975
 30
0.0
 11
24.35008558017165
 21
28.14169027595813
 31
0.0
  0
LINE
  5
18E0
330
1F
100
AcDbEntity
  8
0
100
AcDbLine
 10
24.35008558017165
 20
28.14169027595813
 30
0.0
 11
24.3392183811566
 21
32.79481854549154
 31
0.0
  0
LINE
  5
18E2
330
1F
100
AcDbEntity
  8
0
100
AcDbLine
 10
22.7423805114241
 20
32.79481854549154
 30
0.0
 11
21.14554264168379
 21
32.79481854549154
 31
0.0
  0
LINE
  5
18E3
330
1F
100
AcDbEntity
  8
0
100
AcDbLine
 10
21.14554264168379
 20
32.79481854549154
 30
0.0
 11
21.13656088759012
 21
28.96110461271734
 31
0.0
  0
LINE
  5
18E4
330
1F
100
AcDbEntity
  8
0
100
AcDbLine
 10
21.13656088759012
 20
28.96110461271734
 30
0.0
 11
21.13001925142078
 21
25.12737300992121
 31
0.0
  0
LINE
  5
18E5
330
1F
100
AcDbEntity
  8
0
100
AcDbLine
 10
21.13001925142078
 20
25.12737300992121
 30
0.0
 11
21.11879440338729
 21
21.29367650739697
 31
0.0
  0
LINE
  5
18E6
330
1F
100
AcDbEntity
  8
0
100
AcDbLine
 10
21.11879440338729
 20
21.29367650739697
 30
0.0
 11
21.11568573039747
 21
20.80103267398569
 31
0.0
  0
LINE
  5
18E7
330
1F
100
AcDbEntity
  8
0
100
AcDbLine
 10
21.11568573039747
 20
20.80103267398569
 30
0.0
 11
21.10025356031846
 21
19.54534451899611
 31
0.0
  0
LINE
  5
18E8
330
1F
100
AcDbEntity
  8
0
100
AcDbLine
 10
21.10025356031846
 20
19.54534451899611
 30
0.0
 11
21.07409365221633
 21
18.29008604947654
 31
0.0
  0
LINE
  5
18E9
330
1F
100
AcDbEntity
  8
0
100
AcDbLine
 10
21.07409365221633
 20
18.29008604947654
 30
0.0
 11
21.02234858852023
 21
16.6069997815967
 31
0.0
  0
LINE
  5
18EA
330
1F
100
AcDbEntity
  8
0
100
AcDbLine
 10
21.02234858852023
 20
16.6069997815967
 30
0.0
 11
20.95152085010682
 21
14.92550910752277
 31
0.0
  0
LINE
  5
18EB
330
1F
100
AcDbEntity
  8
0
100
AcDbLine
 10
20.95152085010682
 20
14.92550910752277
 30
0.0
 11
20.86167744328762
 21
13.2464358530852
 31
0.0
  0
LINE
  5
18EC
330
1F
100
AcDbEntity
  8
0
100
AcDbLine
 10
20.86167744328762
 20
13.2464358530852
 30
0.0
 11
20.82523051144912
 21
12.5735116579843
 31
0.0
  0
LINE
  5
18ED
330
1F
100
AcDbEntity
  8
0
100
AcDbLine
 10
20.82523051144912
 20
12.5735116579843
 30
0.0
 11
20.78858834968341
 21
11.90044093955207
 31
0.0
  0
LINE
  5
18EE
330
1F
100
AcDbEntity
  8
0
100
AcDbLine
 10
20.78858834968341
 20
11.90044093955207
 30
0.0
 11
20.74140982647055
 21
11.22938458150033
 31
0.0
  0
LINE
  5
18EF
330
1F
100
AcDbEntity
  8
0
100
AcDbLine
 10
20.74140982647055
 20
11.22938458150033
 30
0.0
 11
20.6733538102747
 21
10.56250346753302
 31
0.0
  0
LINE
  5
18F0
330
1F
100
AcDbEntity
  8
0
100
AcDbLine
 10
20.6733538102747
 20
10.56250346753302
 30
0.0
 11
20.61117565694454
 21
10.19158196434956
 31
0.0
  0
LINE
  5
18F1
330
1F
100
AcDbEntity
  8
0
100
AcDbLine
 10
20.61117565694454
 20
10.19158196434956
 30
0.0
 11
20.51897570585584
 21
9.830150078598386
 31
0.0
  0
LINE
  5
18F2
330
1F
100
AcDbEntity
  8
0
100
AcDbLine
 10
20.51897570585584
 20
9.830150078598386
 30
0.0
 11
20.39973903323093
 21
9.482639119264256
 31
0.0
  0
LINE
  5
18F3
330
1F
100
AcDbEntity
  8
0
100
AcDbLine
 10
20.39973903323093
 20
9.482639119264256
 30
0.0
 11
20.25645071530002
 21
9.153480395331925
 31
0.0
  0
LINE
  5
18F4
330
1F
100
AcDbEntity
  8
0
100
AcDbLine
 10
20.25645071530002
 20
9.153480395331925
 30
0.0
 11
20.05055249784991
 21
8.776011565664994
 31
0.0
  0
LINE
  5
18F5
330
1F
100
AcDbEntity
  8
0
100
AcDbLine
 10
20.05055249784991
 20
8.776011565664994
 30
0.0
 11
19.8159480412809
 21
8.427309004931537
 31
0.0
  0
LINE
  5
18F6
330
1F
100
AcDbEntity
  8
0
100
AcDbLine
 10
17.83458519512123
 20
7.699250873986137
 30
0.0
 11
17.8466875659046
 21
7.779722679755671
 31
0.0
  0
LINE
  5
18F7
330
1F
100
AcDbEntity
  8
0
100
AcDbLine
 10
17.8466875659046
 20
7.779722679755671
 30
0.0
 11
17.8665782083406
 21
7.843878648066656
 31
0.0
  0
LINE
  5
18F8
330
1F
100
AcDbEntity
  8
0
100
AcDbLine
 10
17.86674861991417
 20
7.84387635963862
 30
0.0
 11
18.05155397904337
 21
7.8440274977631
 31
0.0
  0
LINE
  5
18F9
330
1F
100
AcDbEntity
  8
0
100
AcDbLine
 10
18.05155397904337
 20
7.8440274977631
 30
0.0
 11
18.23112131119504
 21
7.843929316877542
 31
0.0
  0
LINE
  5
18FA
330
1F
100
AcDbEntity
  8
0
100
AcDbLine
 10
18.23112131119504
 20
7.843929316877542
 30
0.0
 11
18.39453440105706
 21
7.843814747798418
 31
0.0
  0
LINE
  5
18FB
330
1F
100
AcDbEntity
  8
0
100
AcDbLine
 10
18.39453440105706
 20
7.843814747798418
 30
0.0
 11
18.54886532458278
 21
7.843752839304308
 31
0.0
  0
LINE
  5
18FC
330
1F
100
AcDbEntity
  8
0
100
AcDbLine
 10
18.54886532458278
 20
7.843752839304308
 30
0.0
 11
18.69775322381369
 21
7.843773406920369
 31
0.0
  0
LINE
  5
18FD
330
1F
100
AcDbEntity
  8
0
100
AcDbLine
 10
18.69775322381369
 20
7.843773406920369
 30
0.0
 11
18.83463196377056
 21
7.843866567799707
 31
0.0
  0
LINE
  5
18FE
330
1F
100
AcDbEntity
  8
0
100
AcDbLine
 10
18.83463196377056
 20
7.843866567799707
 30
0.0
 11
18.94888433530744
 21
7.84399655870898
 31
0.0
  0
LINE
  5
18FF
330
1F
100
AcDbEntity
  8
0
100
AcDbLine
 10
18.94888433530744
 20
7.84399655870898
 30
0.0
 11
19.0512773901971
 21
7.844133851706047
 31
0.0
  0
LINE
  5
1900
330
1F
100
AcDbEntity
  8
0
100
AcDbLine
 10
19.0512773901971
 20
7.844133851706047
 30
0.0
 11
19.14346536867256
 21
7.844236030911531
 31
0.0
  0
LINE
  5
1901
330
1F
100
AcDbEntity
  8
0
100
AcDbLine
 10
19.14346536867256
 20
7.844236030911531
 30
0.0
 11
19.22140979366935
 21
7.844204762274316
 31
0.0
  0
LINE
  5
1902
330
1F
100
AcDbEntity
  8
0
100
AcDbLine
 10
26.26333073161803
 20
7.844204722904187
 30
0.0
 11
26.33879936807929
 21
7.844237321495803
 31
0.0
  0
LINE
  5
1903
330
1F
100
AcDbEntity
  8
0
100
AcDbLine
 10
26.33879936807929
 20
7.844237321495803
 30
0.0
 11
26.42771957366676
 21
7.844141483156455
 31
0.0
  0
LINE
  5
1904
330
1F
100
AcDbEntity
  8
0
100
AcDbLine
 10
26.42771957366676
 20
7.844141483156455
 30
0.0
 11
26.53260591972784
 21
7.844000890745846
 31
0.0
  0
LINE
  5
1905
330
1F
100
AcDbEntity
  8
0
100
AcDbLine
 10
26.53260591972784
 20
7.844000890745846
 30
0.0
 11
26.65009690187245
 21
7.843866598209196
 31
0.0
  0
LINE
  5
1906
330
1F
100
AcDbEntity
  8
0
100
AcDbLine
 10
26.65009690187245
 20
7.843866598209196
 30
0.0
 11
26.78225415253971
 21
7.843775342505445
 31
0.0
  0
LINE
  5
1907
330
1F
100
AcDbEntity
  8
0
100
AcDbLine
 10
26.78225415253971
 20
7.843775342505445
 30
0.0
 11
26.92567630245554
 21
7.843751566822419
 31
0.0
  0
LINE
  5
1908
330
1F
100
AcDbEntity
  8
0
100
AcDbLine
 10
26.92567630245554
 20
7.843751566822419
 30
0.0
 11
27.08476051245987
 21
7.843811787771123
 31
0.0
  0
LINE
  5
1909
330
1F
100
AcDbEntity
  8
0
100
AcDbLine
 10
27.08476051245987
 20
7.843811787771123
 30
0.0
 11
27.25359734794711
 21
7.843929284838125
 31
0.0
  0
LINE
  5
190A
330
1F
100
AcDbEntity
  8
0
100
AcDbLine
 10
27.25359734794711
 20
7.843929284838125
 30
0.0
 11
27.43141808437324
 21
7.844027216699764
 31
0.0
  0
LINE
  5
190B
330
1F
100
AcDbEntity
  8
0
100
AcDbLine
 10
27.43141808437324
 20
7.844027216699764
 30
0.0
 11
27.61818690258357
 21
7.843875977866495
 31
0.0
  0
LINE
  5
190C
330
1F
100
AcDbEntity
  8
0
100
AcDbLine
 10
27.65018496595883
 20
7.699251321711095
 30
0.0
 11
27.63807959480167
 21
7.779720984068525
 31
0.0
  0
LINE
  5
190D
330
1F
100
AcDbEntity
  8
0
100
AcDbLine
 10
27.63807959480167
 20
7.779720984068525
 30
0.0
 11
27.61818690258357
 21
7.843875977866495
 31
0.0
  0
LINE
  5
190E
330
1F
100
AcDbEntity
  8
0
100
AcDbLine
 10
20.8979959257542
 20
32.79481854549154
 30
0.0
 11
21.14554264168379
 21
32.79481854549154
 31
0.0
  0
LINE
  5
190F
330
1F
100
AcDbEntity
  8
0
100
AcDbLine
 10
19.72715413548789
 20
8.421801184265028
 30
0.0
 11
19.79547576495807
 21
8.425281703157047
 31
0.0
  0
LINE
  5
1910
330
1F
100
AcDbEntity
  8
0
100
AcDbLine
 10
19.79547576495807
 20
8.425281703157047
 30
0.0
 11
19.8159480412809
 21
8.427309004931537
 31
0.0
  0
ARC
  5
1911
330
1F
100
AcDbEntity
  8
0
100
AcDbCircle
 10
19.68689324764298
 20
10.12698370610307
 30
0.0
 40
1.705657743781845
100
AcDbArc
 50
269.1474163736996
 51
271.3525535799978
  0
LINE
  5
1912
330
1F
100
AcDbEntity
  8
0
100
AcDbLine
 10
19.64942683494942
 20
8.422427076175232
 30
0.0
 11
19.6615133238312
 21
8.421514790555448
 31
0.0
  0
LINE
  5
1913
330
1F
100
AcDbEntity
  8
0
100
AcDbLine
 10
19.64942683494942
 20
8.422427076175232
 30
0.0
 11
19.87944478202618
 21
8.781731052641298
 31
0.0
  0
LINE
  5
1914
330
1F
100
AcDbEntity
  8
0
100
AcDbLine
 10
19.87944478202618
 20
8.781731052641298
 30
0.0
 11
20.07971513435379
 21
9.171111026326848
 31
0.0
  0
LINE
  5
1915
330
1F
100
AcDbEntity
  8
0
100
AcDbLine
 10
20.07971513435379
 20
9.171111026326848
 30
0.0
 11
20.21332085729017
 21
9.497814354796197
 31
0.0
  0
LINE
  5
1916
330
1F
100
AcDbEntity
  8
0
100
AcDbLine
 10
20.21332085729017
 20
9.497814354796197
 30
0.0
 11
20.32433696086008
 21
9.842098841340813
 31
0.0
  0
LINE
  5
1917
330
1F
100
AcDbEntity
  8
0
100
AcDbLine
 10
20.32433696086008
 20
9.842098841340813
 30
0.0
 11
20.41011265245263
 21
10.19969048705299
 31
0.0
  0
LINE
  5
1918
330
1F
100
AcDbEntity
  8
0
100
AcDbLine
 10
20.41011265245263
 20
10.19969048705299
 30
0.0
 11
20.46799713948056
 21
10.56631529301711
 31
0.0
  0
LINE
  5
1919
330
1F
100
AcDbEntity
  8
0
100
AcDbLine
 10
20.46799713948056
 20
10.56631529301711
 30
0.0
 11
20.5327144573304
 21
11.23279788976566
 31
0.0
  0
LINE
  5
191A
330
1F
100
AcDbEntity
  8
0
100
AcDbLine
 10
20.5327144573304
 20
11.23279788976566
 30
0.0
 11
20.57844306463457
 21
11.9031914467748
 31
0.0
  0
LINE
  5
191B
330
1F
100
AcDbEntity
  8
0
100
AcDbLine
 10
20.57844306463457
 20
11.9031914467748
 30
0.0
 11
20.61447659850359
 21
12.57549120466021
 31
0.0
  0
LINE
  5
191C
330
1F
100
AcDbEntity
  8
0
100
AcDbLine
 10
20.61447659850359
 20
12.57549120466021
 30
0.0
 11
20.65010869605578
 21
13.24769240399027
 31
0.0
  0
LINE
  5
191D
330
1F
100
AcDbEntity
  8
0
100
AcDbLine
 10
20.65010869605578
 20
13.24769240399027
 30
0.0
 11
20.73691301326281
 21
14.92646469362145
 31
0.0
  0
LINE
  5
191E
330
1F
100
AcDbEntity
  8
0
100
AcDbLine
 10
20.73691301326281
 20
14.92646469362145
 30
0.0
 11
20.80478507482101
 21
16.60768711545712
 31
0.0
  0
LINE
  5
191F
330
1F
100
AcDbEntity
  8
0
100
AcDbLine
 10
20.80478507482101
 20
16.60768711545712
 30
0.0
 11
20.85363496635117
 21
18.29052307797926
 31
0.0
  0
LINE
  5
1920
330
1F
100
AcDbEntity
  8
0
100
AcDbLine
 10
20.85363496635117
 20
18.29052307797926
 30
0.0
 11
20.87763182989625
 21
19.54561918609272
 31
0.0
  0
LINE
  5
1921
330
1F
100
AcDbEntity
  8
0
100
AcDbLine
 10
20.87763182989625
 20
19.54561918609272
 30
0.0
 11
20.89104547923526
 21
20.80114714314344
 31
0.0
  0
LINE
  5
1922
330
1F
100
AcDbEntity
  8
0
100
AcDbLine
 10
20.89104547923526
 20
20.80114714314344
 30
0.0
 11
20.899135370577
 21
23.2507094008897
 31
0.0
  0
LINE
  5
1923
330
1F
100
AcDbEntity
  8
0
100
AcDbLine
 10
20.899135370577
 20
23.2507094008897
 30
0.0
 11
20.897714386279
 21
25.70037536522132
 31
0.0
  0
LINE
  5
1924
330
1F
100
AcDbEntity
  8
0
100
AcDbLine
 10
20.897714386279
 20
25.70037536522132
 30
0.0
 11
20.89585007324211
 21
28.15004309633465
 31
0.0
  0
LINE
  5
1925
330
1F
100
AcDbEntity
  8
0
100
AcDbLine
 10
20.89585007324211
 20
28.15004309633465
 30
0.0
 11
20.8979959257542
 21
32.79481854549154
 31
0.0
  0
LINE
  5
1926
330
1F
100
AcDbEntity
  8
0
100
AcDbLine
 10
24.3392183811566
 20
32.79481854549154
 30
0.0
 11
24.58676509708616
 21
32.79481854549154
 31
0.0
  0
LINE
  5
1927
330
1F
100
AcDbEntity
  8
0
100
AcDbLine
 10
24.58676509708616
 20
32.79481854549154
 30
0.0
 11
24.58830323115157
 21
29.64588491736698
 31
0.0
  0
LINE
  5
1928
330
1F
100
AcDbEntity
  8
0
100
AcDbLine
 10
24.58830323115157
 20
29.64588491736698
 30
0.0
 11
24.59032559313252
 21
23.34801552171368
 31
0.0
  0
LINE
  5
1929
330
1F
100
AcDbEntity
  8
0
100
AcDbLine
 10
24.59032559313252
 20
23.34801552171368
 30
0.0
 11
24.59002436594787
 21
22.07456057884376
 31
0.0
  0
LINE
  5
192A
330
1F
100
AcDbEntity
  8
0
100
AcDbLine
 10
24.59002436594787
 20
22.07456057884376
 30
0.0
 11
24.59371547431369
 21
20.80114710613552
 31
0.0
  0
LINE
  5
192B
330
1F
100
AcDbEntity
  8
0
100
AcDbLine
 10
24.59371547431369
 20
20.80114710613552
 30
0.0
 11
24.60712904654235
 21
19.54561912350211
 31
0.0
  0
LINE
  5
192C
330
1F
100
AcDbEntity
  8
0
100
AcDbLine
 10
24.60712904654235
 20
19.54561912350211
 30
0.0
 11
24.63112580418971
 21
18.29052298212086
 31
0.0
  0
LINE
  5
192D
330
1F
100
AcDbEntity
  8
0
100
AcDbLine
 10
24.63112580418971
 20
18.29052298212086
 30
0.0
 11
24.67997530673512
 21
16.60769635127174
 31
0.0
  0
LINE
  5
192E
330
1F
100
AcDbEntity
  8
0
100
AcDbLine
 10
24.67997530673512
 20
16.60769635127174
 30
0.0
 11
24.74784689137147
 21
14.92648326994373
 31
0.0
  0
LINE
  5
192F
330
1F
100
AcDbEntity
  8
0
100
AcDbLine
 10
24.74784689137147
 20
14.92648326994373
 30
0.0
 11
24.83465041975072
 21
13.2477202518201
 31
0.0
  0
LINE
  5
1930
330
1F
100
AcDbEntity
  8
0
100
AcDbLine
 10
24.83465041975072
 20
13.2477202518201
 30
0.0
 11
24.87028239627128
 21
12.57551717177115
 31
0.0
  0
LINE
  5
1931
330
1F
100
AcDbEntity
  8
0
100
AcDbLine
 10
24.87028239627128
 20
12.57551717177115
 30
0.0
 11
24.90631583399056
 21
11.90321517880424
 31
0.0
  0
LINE
  5
1932
330
1F
100
AcDbEntity
  8
0
100
AcDbLine
 10
24.90631583399056
 20
11.90321517880424
 30
0.0
 11
24.95204440152307
 21
11.23282029719503
 31
0.0
  0
LINE
  5
1933
330
1F
100
AcDbEntity
  8
0
100
AcDbLine
 10
24.95204440152307
 20
11.23282029719503
 30
0.0
 11
25.01676176749891
 21
10.56633855123492
 31
0.0
  0
LINE
  5
1934
330
1F
100
AcDbEntity
  8
0
100
AcDbLine
 10
25.01676176749891
 20
10.56633855123492
 30
0.0
 11
25.07464625784181
 21
10.19970748591659
 31
0.0
  0
LINE
  5
1935
330
1F
100
AcDbEntity
  8
0
100
AcDbLine
 10
25.07464625784181
 20
10.19970748591659
 30
0.0
 11
25.16042147027628
 21
9.842104798419079
 31
0.0
  0
LINE
  5
1936
330
1F
100
AcDbEntity
  8
0
100
AcDbLine
 10
25.16042147027628
 20
9.842104798419079
 30
0.0
 11
25.27143700564077
 21
9.497811828422982
 31
0.0
  0
LINE
  5
1937
330
1F
100
AcDbEntity
  8
0
100
AcDbLine
 10
25.27143700564077
 20
9.497811828422982
 30
0.0
 11
25.40504246478156
 21
9.171109915648308
 31
0.0
  0
LINE
  5
1938
330
1F
100
AcDbEntity
  8
0
100
AcDbLine
 10
25.40504246478156
 20
9.171109915648308
 30
0.0
 11
25.60531421061481
 21
8.781732982431094
 31
0.0
  0
LINE
  5
1939
330
1F
100
AcDbEntity
  8
0
100
AcDbLine
 10
25.60531421061481
 20
8.781732982431094
 30
0.0
 11
25.83533426270211
 21
8.422426524646994
 31
0.0
  0
LINE
  5
193A
330
1F
100
AcDbEntity
  8
0
100
AcDbLine
 10
25.82323680405079
 20
8.421513777404591
 30
0.0
 11
25.83533426270211
 21
8.422426524646994
 31
0.0
  0
LINE
  5
193B
330
1F
100
AcDbEntity
  8
0
100
AcDbLine
 10
25.75766566437025
 20
8.421799776192415
 30
0.0
 11
25.81029148489901
 21
8.421119704632317
 31
0.0
  0
LINE
  5
193C
330
1F
100
AcDbEntity
  8
0
100
AcDbLine
 10
25.81029148489901
 20
8.421119704632317
 30
0.0
 11
25.82323679845234
 21
8.421513784207753
 31
0.0
  0
ARC
  5
193D
330
1F
100
AcDbEntity
  8
0
100
AcDbCircle
 10
25.77660763366896
 20
9.446576014579477
 30
0.0
 40
1.024951292777434
100
AcDbArc
 50
263.9629480482966
 51
268.9410653185039
  0
ARC
  5
193E
330
1F
100
AcDbEntity
  8
0
100
AcDbCircle
 10
26.75504917012555
 20
21.90488011605966
 30
0.0
 40
13.67419115248696
100
AcDbArc
 50
267.0672923438039
 51
272.526096939694
  0
ARC
  5
193F
330
1F
100
AcDbEntity
  8
0
100
AcDbCircle
 10
27.98372373142652
 20
8.366618669376002
 30
0.0
 40
0.6378693560600219
100
AcDbArc
 50
191.0850144890992
 51
235.0359460524995
  0
ARC
  5
1940
330
1F
100
AcDbEntity
  8
0
100
AcDbCircle
 10
17.5010368478149
 20
8.366619502597494
 30
0.0
 40
0.6378699515410537
100
AcDbArc
 50
304.9680564303966
 51
348.9149196236981
  0
ARC
  5
1941
330
1F
100
AcDbEntity
  8
0
100
AcDbCircle
 10
18.72787486262521
 20
22.42258069867481
 30
0.0
 40
14.1913291081129
100
AcDbArc
 50
267.5734347627056
 51
272.8331758798988
  0
ARC
  5
1942
330
1F
100
AcDbEntity
  8
0
100
AcDbCircle
 10
19.60538129570926
 20
8.203991547575476
 30
0.0
 40
0.1816189575389903
100
AcDbArc
 50
93.59553829089604
 51
165.7824748096018
  0
ARC
  5
1943
330
1F
100
AcDbEntity
  8
0
100
AcDbCircle
 10
19.61611197428721
 20
3.304768897959434
 30
0.0
 40
5.080532272566612
100
AcDbArc
 50
89.25337238069579
 51
90.24946058429225
  0
ARC
  5
1944
330
1F
100
AcDbEntity
  8
0
100
AcDbCircle
 10
25.86264628874514
 20
4.686635282267083
 30
0.0
 40
3.698724632764897
100
AcDbArc
 50
89.56456615219472
 51
90.93161353769563
  0
ARC
  5
1945
330
1F
100
AcDbEntity
  8
0
100
AcDbCircle
 10
25.87936892435394
 20
8.203990784684762
 30
0.0
 40
0.1816196034374308
100
AcDbArc
 50
14.21740601549992
 51
86.4055306813988
  0
LINE
  5
1946
330
1F
100
AcDbEntity
  8
0
100
AcDbLine
 10
25.80252702836251
 20
8.384871239654181
 30
0.0
 11
25.77826838002812
 21
8.395887239845919
 31
0.0
  0
LINE
  5
1947
330
1F
100
AcDbEntity
  8
0
100
AcDbLine
 10
25.77826838002812
 20
8.395887239845919
 30
0.0
 11
25.75766566810256
 21
8.421799768507362
 31
0.0
  0
LINE
  5
1948
330
1F
100
AcDbEntity
  8
0
100
AcDbLine
 10
19.68231507672803
 20
8.384869814463428
 30
0.0
 11
19.70656164490572
 21
8.395888728556428
 31
0.0
  0
LINE
  5
1949
330
1F
100
AcDbEntity
  8
0
100
AcDbLine
 10
19.70656164490572
 20
8.395888728556428
 30
0.0
 11
19.72715414023594
 21
8.421801194036696
 31
0.0
  0
LINE
  5
194A
330
1F
100
AcDbEntity
  8
0
100
AcDbLine
 10
19.59399146208531
 20
8.385253009088351
 30
0.0
 11
19.63072252224472
 21
8.395348023791257
 31
0.0
  0
LINE
  5
194B
330
1F
100
AcDbEntity
  8
0
100
AcDbLine
 10
19.63072252224472
 20
8.395348023791257
 30
0.0
 11
19.6615133238312
 21
8.421514790555448
 31
0.0
  0
LINE
  5
194C
330
1F
100
AcDbEntity
  8
0
100
AcDbLine
 10
25.89075541666668
 20
8.385253103285322
 30
0.0
 11
25.8540262233127
 21
8.395347456585824
 31
0.0
  0
LINE
  5
194D
330
1F
100
AcDbEntity
  8
0
100
AcDbLine
 10
25.8540262233127
 20
8.395347456585824
 30
0.0
 11
25.82323679845234
 21
8.421513784207753
 31
0.0
  0
LINE
  5
194E
330
1F
100
AcDbEntity
  8
0
100
AcDbLine
 10
27.30251171725015
 20
8.384795352323827
 30
0.0
 11
27.25499997641134
 21
8.384487892446387
 31
0.0
  0
LINE
  5
194F
330
1F
100
AcDbEntity
  8
0
100
AcDbLine
 10
27.35773130758673
 20
8.243976854708456
 30
0.0
 11
27.34911636848349
 21
8.300775683948813
 31
0.0
  0
LINE
  5
1950
330
1F
100
AcDbEntity
  8
0
100
AcDbLine
 10
27.34911636848349
 20
8.300775683948813
 30
0.0
 11
27.33525836750672
 21
8.346084861992586
 31
0.0
  0
LINE
  5
1951
330
1F
100
AcDbEntity
  8
0
100
AcDbLine
 10
27.33525836750672
 20
8.346084861992586
 30
0.0
 11
27.31757531189558
 21
8.37526816877407
 31
0.0
  0
LINE
  5
1952
330
1F
100
AcDbEntity
  8
0
100
AcDbLine
 10
27.31757531189558
 20
8.37526816877407
 30
0.0
 11
27.30251171725015
 21
8.384795352315954
 31
0.0
  0
LINE
  5
1953
330
1F
100
AcDbEntity
  8
0
100
AcDbLine
 10
25.90724027524823
 20
8.385178598854324
 30
0.0
 11
25.89075533700515
 21
8.385253099151455
 31
0.0
  0
LINE
  5
1954
330
1F
100
AcDbEntity
  8
0
100
AcDbLine
 10
27.25499997641134
 20
8.384487892446387
 30
0.0
 11
26.96747025865085
 21
8.383854768267369
 31
0.0
  0
LINE
  5
1955
330
1F
100
AcDbEntity
  8
0
100
AcDbLine
 10
26.96747025865085
 20
8.383854768267369
 30
0.0
 11
26.69482363178432
 21
8.383643177768689
 31
0.0
  0
LINE
  5
1956
330
1F
100
AcDbEntity
  8
0
100
AcDbLine
 10
26.69482363178432
 20
8.383643177768689
 30
0.0
 11
26.51991789536765
 21
8.383767492655174
 31
0.0
  0
LINE
  5
1957
330
1F
100
AcDbEntity
  8
0
100
AcDbLine
 10
26.51991789536765
 20
8.383767492655174
 30
0.0
 11
26.35758305560683
 21
8.384043304501226
 31
0.0
  0
LINE
  5
1958
330
1F
100
AcDbEntity
  8
0
100
AcDbLine
 10
26.35758305560683
 20
8.384043304501226
 30
0.0
 11
26.20458426981225
 21
8.38440641282564
 31
0.0
  0
LINE
  5
1959
330
1F
100
AcDbEntity
  8
0
100
AcDbLine
 10
26.20458426981225
 20
8.38440641282564
 30
0.0
 11
26.06736020395459
 21
8.384776006835259
 31
0.0
  0
LINE
  5
195A
330
1F
100
AcDbEntity
  8
0
100
AcDbLine
 10
26.06736020395459
 20
8.384776006835259
 30
0.0
 11
25.90724027524823
 21
8.385178598854324
 31
0.0
  0
LINE
  5
195B
330
1F
100
AcDbEntity
  8
0
100
AcDbLine
 10
19.59399146208531
 20
8.385253009088351
 30
0.0
 11
19.57752072034802
 21
8.385178585799188
 31
0.0
  0
LINE
  5
195C
330
1F
100
AcDbEntity
  8
0
100
AcDbLine
 10
18.12700549408183
 20
8.243976760755586
 30
0.0
 11
18.13562011798783
 21
8.300775623625909
 31
0.0
  0
LINE
  5
195D
330
1F
100
AcDbEntity
  8
0
100
AcDbLine
 10
18.13562011798783
 20
8.300775623625909
 30
0.0
 11
18.14947762007424
 21
8.346084832653971
 31
0.0
  0
LINE
  5
195E
330
1F
100
AcDbEntity
  8
0
100
AcDbLine
 10
18.14947762007424
 20
8.346084832653971
 30
0.0
 11
18.16716004306255
 21
8.375268161041788
 31
0.0
  0
LINE
  5
195F
330
1F
100
AcDbEntity
  8
0
100
AcDbLine
 10
18.16716004306255
 20
8.375268161041788
 30
0.0
 11
18.18222286677789
 21
8.384795297048171
 31
0.0
  0
LINE
  5
1960
330
1F
100
AcDbEntity
  8
0
100
AcDbLine
 10
18.22976726901154
 20
8.384487433973376
 30
0.0
 11
18.18222287454955
 21
8.384795293945806
 31
0.0
  0
LINE
  5
1961
330
1F
100
AcDbEntity
  8
0
100
AcDbLine
 10
19.57752072034802
 20
8.385178585799188
 30
0.0
 11
19.41638731617979
 21
8.384773150445894
 31
0.0
  0
LINE
  5
1962
330
1F
100
AcDbEntity
  8
0
100
AcDbLine
 10
19.41638731617979
 20
8.384773150445894
 30
0.0
 11
19.22005383882995
 21
8.384254883102251
 31
0.0
  0
LINE
  5
1963
330
1F
100
AcDbEntity
  8
0
100
AcDbLine
 10
19.22005383882995
 20
8.384254883102251
 30
0.0
 11
19.06576062142187
 21
8.383922442122958
 31
0.0
  0
LINE
  5
1964
330
1F
100
AcDbEntity
  8
0
100
AcDbLine
 10
19.06576062142187
 20
8.383922442122958
 30
0.0
 11
18.89814588474971
 21
8.383695979613719
 31
0.0
  0
LINE
  5
1965
330
1F
100
AcDbEntity
  8
0
100
AcDbLine
 10
18.89814588474971
 20
8.383695979613719
 30
0.0
 11
18.71243540069466
 21
8.38365623619434
 31
0.0
  0
LINE
  5
1966
330
1F
100
AcDbEntity
  8
0
100
AcDbLine
 10
18.71243540069466
 20
8.38365623619434
 30
0.0
 11
18.51516873068337
 21
8.383857657176463
 31
0.0
  0
LINE
  5
1967
330
1F
100
AcDbEntity
  8
0
100
AcDbLine
 10
18.51516873068337
 20
8.383857657176463
 30
0.0
 11
18.22976726901154
 21
8.384487433973376
 31
0.0
  0
ARC
  5
1968
330
1F
100
AcDbEntity
  8
0
100
AcDbCircle
 10
25.91309775350595
 20
8.484516458206307
 30
0.0
 40
0.0995104032274321
100
AcDbArc
 50
218.6054692630007
 51
266.6254494004074
  0
ARC
  5
1969
330
1F
100
AcDbEntity
  8
0
100
AcDbCircle
 10
19.57166300218449
 20
8.48451618022171
 30
0.0
 40
0.0995101528964053
100
AcDbArc
 50
273.3746974742057
 51
321.3950268287038
  0
ARC
  5
196A
330
1F
100
AcDbEntity
  8
0
100
AcDbCircle
 10
18.19839094332875
 20
8.440257527063678
 30
0.0
 40
0.0639904453576445
100
AcDbArc
 50
299.3621614470992
 51
353.7908136878042
  0
LINE
  5
196B
330
1F
100
AcDbEntity
  8
0
100
AcDbLine
 10
18.26200599740974
 20
8.433336400612617
 30
0.0
 11
18.55294990395637
 21
8.427479683930656
 31
0.0
  0
LINE
  5
196C
330
1F
100
AcDbEntity
  8
0
100
AcDbLine
 10
18.55294990395637
 20
8.427479683930656
 30
0.0
 11
18.74825518014108
 21
8.424496638695067
 31
0.0
  0
LINE
  5
196D
330
1F
100
AcDbEntity
  8
0
100
AcDbLine
 10
18.74825518014108
 20
8.424496638695067
 30
0.0
 11
18.93308934840047
 21
8.422474185997444
 31
0.0
  0
LINE
  5
196E
330
1F
100
AcDbEntity
  8
0
100
AcDbLine
 10
18.93308934840047
 20
8.422474185997444
 30
0.0
 11
19.11084634920425
 21
8.421291348986954
 31
0.0
  0
LINE
  5
196F
330
1F
100
AcDbEntity
  8
0
100
AcDbLine
 10
19.11084634920425
 20
8.421291348986954
 30
0.0
 11
19.27498829396248
 21
8.420851825363037
 31
0.0
  0
LINE
  5
1970
330
1F
100
AcDbEntity
  8
0
100
AcDbLine
 10
19.27498829396248
 20
8.420851825363037
 30
0.0
 11
19.47673642780816
 21
8.421197329279785
 31
0.0
  0
LINE
  5
1971
330
1F
100
AcDbEntity
  8
0
100
AcDbLine
 10
19.47673642780816
 20
8.421197329279785
 30
0.0
 11
19.64942683494942
 21
8.422427076175232
 31
0.0
  0
LINE
  5
1972
330
1F
100
AcDbEntity
  8
0
100
AcDbLine
 10
25.83533426270211
 20
8.422426524646994
 30
0.0
 11
26.00439540289278
 21
8.421210888328097
 31
0.0
  0
LINE
  5
1973
330
1F
100
AcDbEntity
  8
0
100
AcDbLine
 10
26.00439540289278
 20
8.421210888328097
 30
0.0
 11
26.14297985391028
 21
8.420848800493139
 31
0.0
  0
LINE
  5
1974
330
1F
100
AcDbEntity
  8
0
100
AcDbLine
 10
26.14297985391028
 20
8.420848800493139
 30
0.0
 11
26.29604273291034
 21
8.421000202893544
 31
0.0
  0
LINE
  5
1975
330
1F
100
AcDbEntity
  8
0
100
AcDbLine
 10
26.29604273291034
 20
8.421000202893544
 30
0.0
 11
26.46737056927487
 21
8.421815942716399
 31
0.0
  0
LINE
  5
1976
330
1F
100
AcDbEntity
  8
0
100
AcDbLine
 10
26.46737056927487
 20
8.421815942716399
 30
0.0
 11
26.65159241668025
 21
8.423457755674164
 31
0.0
  0
LINE
  5
1977
330
1F
100
AcDbEntity
  8
0
100
AcDbLine
 10
26.65159241668025
 20
8.423457755674164
 30
0.0
 11
26.92569960889386
 21
8.427364819284235
 31
0.0
  0
LINE
  5
1978
330
1F
100
AcDbEntity
  8
0
100
AcDbLine
 10
26.92569960889386
 20
8.427364819284235
 30
0.0
 11
27.22276337706305
 21
8.433326481702671
 31
0.0
  0
ARC
  5
1979
330
1F
100
AcDbEntity
  8
0
100
AcDbCircle
 10
27.28636555272647
 20
8.440249588841233
 30
0.0
 40
0.0639778568065984
100
AcDbArc
 50
186.2121971584004
 51
240.6425414333966
  0
LINE
  5
197A
330
1F
100
AcDbEntity
  8
0
100
AcDbLine
 10
20.8979959257542
 20
32.79481854549154
 30
0.0
 11
19.711120058993
 21
32.79481854549154
 31
0.0
  0
LINE
  5
197B
330
1F
100
AcDbEntity
  8
0
100
AcDbLine
 10
19.711120058993
 20
32.79481854549154
 30
0.0
 11
19.70265984179036
 21
29.64589163413123
 31
0.0
  0
LINE
  5
197C
330
1F
100
AcDbEntity
  8
0
100
AcDbLine
 10
19.70265984179036
 20
29.64589163413123
 30
0.0
 11
19.69862030972462
 21
26.71028736057987
 31
0.0
  0
LINE
  5
197D
330
1F
100
AcDbEntity
  8
0
100
AcDbLine
 10
19.69862030972462
 20
26.71028736057987
 30
0.0
 11
19.69402825224912
 21
23.77468493874733
 31
0.0
  0
LINE
  5
197E
330
1F
100
AcDbEntity
  8
0
100
AcDbLine
 10
19.69402825224912
 20
23.77468493874733
 30
0.0
 11
19.67699927511862
 21
20.83920076573077
 31
0.0
  0
LINE
  5
197F
330
1F
100
AcDbEntity
  8
0
100
AcDbLine
 10
19.67699927511862
 20
20.83920076573077
 30
0.0
 11
19.65977369709065
 21
19.66262545743926
 31
0.0
  0
LINE
  5
1980
330
1F
100
AcDbEntity
  8
0
100
AcDbLine
 10
19.65977369709065
 20
19.66262545743926
 30
0.0
 11
19.63037761339171
 21
18.48643453939621
 31
0.0
  0
LINE
  5
1981
330
1F
100
AcDbEntity
  8
0
100
AcDbLine
 10
19.63037761339171
 20
18.48643453939621
 30
0.0
 11
19.56513531781198
 21
16.74420263339651
 31
0.0
  0
LINE
  5
1982
330
1F
100
AcDbEntity
  8
0
100
AcDbLine
 10
19.56513531781198
 20
16.74420263339651
 30
0.0
 11
19.47386527794759
 21
15.0035420371569
 31
0.0
  0
LINE
  5
1983
330
1F
100
AcDbEntity
  8
0
100
AcDbLine
 10
19.47386527794759
 20
15.0035420371569
 30
0.0
 11
19.35653955283476
 21
13.26540382001454
 31
0.0
  0
LINE
  5
1984
330
1F
100
AcDbEntity
  8
0
100
AcDbLine
 10
19.35653955283476
 20
13.26540382001454
 30
0.0
 11
19.21313020147812
 21
11.53073905132235
 31
0.0
  0
LINE
  5
1985
330
1F
100
AcDbEntity
  8
0
100
AcDbLine
 10
19.21313020147812
 20
11.53073905132235
 30
0.0
 11
19.17409349221469
 21
11.11857152489882
 31
0.0
  0
LINE
  5
1986
330
1F
100
AcDbEntity
  8
0
100
AcDbLine
 10
19.17409349221469
 20
11.11857152489882
 30
0.0
 11
19.12573042320179
 21
10.70593120321952
 31
0.0
  0
LINE
  5
1987
330
1F
100
AcDbEntity
  8
0
100
AcDbLine
 10
19.12573042320179
 20
10.70593120321952
 30
0.0
 11
19.06004543589185
 21
10.29813421231165
 31
0.0
  0
LINE
  5
1988
330
1F
100
AcDbEntity
  8
0
100
AcDbLine
 10
19.06004543589185
 20
10.29813421231165
 30
0.0
 11
18.96904297170582
 21
9.900496678218118
 31
0.0
  0
LINE
  5
1989
330
1F
100
AcDbEntity
  8
0
100
AcDbLine
 10
18.96904297170582
 20
9.900496678218118
 30
0.0
 11
18.84472747209611
 21
9.518334726989706
 31
0.0
  0
LINE
  5
198A
330
1F
100
AcDbEntity
  8
0
100
AcDbLine
 10
18.84472747209611
 20
9.518334726989706
 30
0.0
 11
18.67768645813558
 21
9.13657982506934
 31
0.0
  0
LINE
  5
198B
330
1F
100
AcDbEntity
  8
0
100
AcDbLine
 10
18.67768645813558
 20
9.13657982506934
 30
0.0
 11
18.48158475885273
 21
8.774277326238255
 31
0.0
  0
LINE
  5
198C
330
1F
100
AcDbEntity
  8
0
100
AcDbLine
 10
18.48158475885273
 20
8.774277326238255
 30
0.0
 11
18.26200599740187
 21
8.433336400612617
 31
0.0
  0
LINE
  5
198D
330
1F
100
AcDbEntity
  8
0
100
AcDbLine
 10
24.58676509708616
 20
32.79481854549154
 30
0.0
 11
25.77364096383161
 21
32.79481854549154
 31
0.0
  0
LINE
  5
198E
330
1F
100
AcDbEntity
  8
0
100
AcDbLine
 10
27.22276337706305
 20
8.433326481702671
 30
0.0
 11
27.00301228402833
 21
8.77437600873862
 31
0.0
  0
LINE
  5
198F
330
1F
100
AcDbEntity
  8
0
100
AcDbLine
 10
27.00301228402833
 20
8.77437600873862
 30
0.0
 11
26.80675146220952
 21
9.136812999681403
 31
0.0
  0
LINE
  5
1990
330
1F
100
AcDbEntity
  8
0
100
AcDbLine
 10
26.80675146220952
 20
9.136812999681403
 30
0.0
 11
26.63972665172577
 21
9.518808579412116
 31
0.0
  0
LINE
  5
1991
330
1F
100
AcDbEntity
  8
0
100
AcDbLine
 10
26.63972665172577
 20
9.518808579412116
 30
0.0
 11
26.51565087798824
 21
9.900799226648523
 31
0.0
  0
LINE
  5
1992
330
1F
100
AcDbEntity
  8
0
100
AcDbLine
 10
26.51565087798824
 20
9.900799226648523
 30
0.0
 11
26.42476630877519
 21
10.29818402976714
 31
0.0
  0
LINE
  5
1993
330
1F
100
AcDbEntity
  8
0
100
AcDbLine
 10
26.42476630877519
 20
10.29818402976714
 30
0.0
 11
26.3591180476447
 21
10.70567945804113
 31
0.0
  0
LINE
  5
1994
330
1F
100
AcDbEntity
  8
0
100
AcDbLine
 10
26.3591180476447
 20
10.70567945804113
 30
0.0
 11
26.31075119816254
 21
11.11800198075141
 31
0.0
  0
LINE
  5
1995
330
1F
100
AcDbEntity
  8
0
100
AcDbLine
 10
26.31075119816254
 20
11.11800198075141
 30
0.0
 11
26.27171086390248
 21
11.52986806717112
 31
0.0
  0
LINE
  5
1996
330
1F
100
AcDbEntity
  8
0
100
AcDbLine
 10
26.27171086390248
 20
11.52986806717112
 30
0.0
 11
26.12821755792203
 21
13.26508077834612
 31
0.0
  0
LINE
  5
1997
330
1F
100
AcDbEntity
  8
0
100
AcDbLine
 10
26.12821755792203
 20
13.26508077834612
 30
0.0
 11
26.01085662294662
 21
15.00377431657888
 31
0.0
  0
LINE
  5
1998
330
1F
100
AcDbEntity
  8
0
100
AcDbLine
 10
26.01085662294662
 20
15.00377431657888
 30
0.0
 11
25.91958144928844
 21
16.74499376166129
 31
0.0
  0
LINE
  5
1999
330
1F
100
AcDbEntity
  8
0
100
AcDbLine
 10
25.91958144928844
 20
16.74499376166129
 30
0.0
 11
25.85434542729129
 21
18.48778419337739
 31
0.0
  0
LINE
  5
199A
330
1F
100
AcDbEntity
  8
0
100
AcDbLine
 10
25.85434542729129
 20
18.48778419337739
 30
0.0
 11
25.82496329978287
 21
19.66397584531899
 31
0.0
  0
LINE
  5
199B
330
1F
100
AcDbEntity
  8
0
100
AcDbLine
 10
25.82496329978287
 20
19.66397584531899
 30
0.0
 11
25.80775127971666
 21
20.84055162491816
 31
0.0
  0
LINE
  5
199C
330
1F
100
AcDbEntity
  8
0
100
AcDbLine
 10
25.80775127971666
 20
20.84055162491816
 30
0.0
 11
25.78494384426108
 21
24.82520018413919
 31
0.0
  0
LINE
  5
199D
330
1F
100
AcDbEntity
  8
0
100
AcDbLine
 10
25.78494384426108
 20
24.82520018413919
 30
0.0
 11
25.77914637433764
 21
28.81000923210262
 31
0.0
  0
LINE
  5
199E
330
1F
100
AcDbEntity
  8
0
100
AcDbLine
 10
25.77914637433764
 20
28.81000923210262
 30
0.0
 11
25.77364096383161
 21
32.79481854549154
 31
0.0
  0
ARC
  5
199F
330
1F
100
AcDbEntity
  8
0
100
AcDbCircle
 10
28.00416206640785
 20
-9.616646658669075
 30
0.0
 40
15.48729629175969
100
AcDbArc
 50
89.72647538650496
 51
90.75144070189763
  0
ARC
  5
19A0
330
1F
100
AcDbEntity
  8
0
100
AcDbCircle
 10
27.80133251481937
 20
2.612657084343105
 30
0.0
 40
5.086963301219479
100
AcDbArc
 50
88.44403730719649
 51
91.38097684689951
  0
ARC
  5
19A1
330
1F
100
AcDbEntity
  8
0
100
AcDbCircle
 10
12.29009097613905
 20
5.59152311949353
 30
0.0
 40
15.79046981106501
100
AcDbArc
 50
1.01222391149961
 51
7.665278453300602
  0
ARC
  5
19A2
330
1F
100
AcDbEntity
  8
0
100
AcDbCircle
 10
17.45269047757102
 20
-16.30831835260162
 30
0.0
 40
22.17883926435147
100
AcDbArc
 50
89.40318208579716
 51
90.11890182579545
  0
ARC
  5
19A3
330
1F
100
AcDbEntity
  8
0
100
AcDbCircle
 10
33.20281221583292
 20
5.590905368467389
 30
0.0
 40
15.79862162971249
100
AcDbArc
 50
172.3364399075995
 51
178.9860577276011
  0
ARC
  5
19A4
330
1F
100
AcDbEntity
  8
0
100
AcDbCircle
 10
17.68154554589009
 20
3.84573622725663
 30
0.0
 40
3.854417226447475
100
AcDbArc
 50
88.14928583599424
 51
92.02570000949375
  0
ARC
  5
19A5
330
1F
100
AcDbEntity
  8
0
100
AcDbCircle
 10
17.63851831554299
 20
5.861412426254894
 30
0.0
 40
0.2320309375342983
100
AcDbArc
 50
177.7620505496991
 51
268.8221107946067
  0
LINE
  5
19A6
330
1F
100
AcDbEntity
  8
0
100
AcDbLine
 10
17.74457547436341
 20
5.629430518986133
 30
0.0
 11
17.63374854911478
 21
5.629430518986133
 31
0.0
  0
ARC
  5
19A7
330
1F
100
AcDbEntity
  8
0
100
AcDbCircle
 10
27.84624270729739
 20
5.861412426254887
 30
0.0
 40
0.232030937534296
100
AcDbArc
 50
271.1778892053934
 51
2.237949450300899
  0
LINE
  5
19A8
330
1F
100
AcDbEntity
  8
0
100
AcDbLine
 10
27.85101247372558
 20
5.629430518986133
 30
0.0
 11
27.74018554848482
 21
5.629430518986133
 31
0.0
  0
ARC
  5
19A9
330
1F
100
AcDbEntity
  8
0
100
AcDbCircle
 10
18.29857520038416
 20
7.729490366195818
 30
0.0
 40
0.493546080089482
100
AcDbArc
 50
166.096825924903
 51
183.6415842412006
  0
LINE
  5
19AA
330
1F
100
AcDbEntity
  8
0
100
AcDbLine
 10
17.81948845494648
 20
7.84808051554635
 30
0.0
 11
17.86657608962144
 21
7.843878953744209
 31
0.0
  0
LINE
  5
19AB
330
1F
100
AcDbEntity
  8
0
100
AcDbLine
 10
17.86657608962144
 20
7.843878953744209
 30
0.0
 11
17.8665782083406
 21
7.843878648066656
 31
0.0
  0
LINE
  5
19AC
330
1F
100
AcDbEntity
  8
0
100
AcDbLine
 10
27.61818281450763
 20
7.843878648066656
 30
0.0
 11
27.61818493322682
 21
7.843878953744209
 31
0.0
  0
LINE
  5
19AD
330
1F
100
AcDbEntity
  8
0
100
AcDbLine
 10
27.61818493322682
 20
7.843878953744209
 30
0.0
 11
27.66527256790175
 21
7.84808051554635
 31
0.0
  0
ARC
  5
19AE
330
1F
100
AcDbEntity
  8
0
100
AcDbCircle
 10
27.18618582244844
 20
7.729490366203691
 30
0.0
 40
0.493546080105145
100
AcDbArc
 50
356.3584157577984
 51
13.90317407340178
  0
ARC
  5
19AF
330
1F
100
AcDbEntity
  8
0
100
AcDbCircle
 10
27.7721030891224
 20
5.917863186489043
 30
0.0
 40
1.933171409280592
100
AcDbArc
 50
87.94727892699571
 51
93.16788137339974
  0
ARC
  5
19B0
330
1F
100
AcDbEntity
  8
0
100
AcDbCircle
 10
27.69943358516466
 20
7.650541717929776
 30
0.0
 40
0.2446243192180364
100
AcDbArc
 50
11.12564749539737
 51
54.54030921570258
  0
ARC
  5
19B1
330
1F
100
AcDbEntity
  8
0
100
AcDbCircle
 10
17.78532743768358
 20
7.650541717929762
 30
0.0
 40
0.2446243192180498
100
AcDbArc
 50
125.459690785197
 51
168.8743525046026
  0
ARC
  5
19B2
330
1F
100
AcDbEntity
  8
0
100
AcDbCircle
 10
17.71514914773721
 20
6.173847085553219
 30
0.0
 40
1.677481525714954
100
AcDbArc
 50
86.4339020391062
 51
92.45093766299801
  0
LINE
  5
19B3
330
1F
100
AcDbEntity
  8
0
100
AcDbLine
 10
17.61886582163072
 20
7.84618328639776
 30
0.0
 11
17.61886676860038
 21
7.846183547130365
 31
0.0
  0
LINE
  5
19B4
330
1F
100
AcDbEntity
  8
0
100
AcDbLine
 10
17.61886676860038
 20
7.846183547130365
 30
0.0
 11
17.64341351704806
 21
7.849794062167887
 31
0.0
  0
ARC
  5
19B5
330
1F
100
AcDbEntity
  8
0
100
AcDbCircle
 10
16.72978811091027
 20
8.697028784592809
 30
0.0
 40
1.230608497573809
100
AcDbArc
 50
316.2586676053982
 51
339.2339477761026
  0
ARC
  5
19B6
330
1F
100
AcDbEntity
  8
0
100
AcDbCircle
 10
17.84776288171872
 20
5.954330822990819
 30
0.0
 40
2.306611141241384
100
AcDbArc
 50
83.04661108120003
 51
89.18802229470351
  0
LINE
  5
19B7
330
1F
100
AcDbEntity
  8
0
100
AcDbLine
 10
27.84134750579233
 20
7.849794062167887
 30
0.0
 11
27.86589425423995
 21
7.846183547130365
 31
0.0
  0
LINE
  5
19B8
330
1F
100
AcDbEntity
  8
0
100
AcDbLine
 10
27.86589425423995
 20
7.846183547130365
 30
0.0
 11
27.86589520121751
 21
7.84618328639776
 31
0.0
  0
ARC
  5
19B9
330
1F
100
AcDbEntity
  8
0
100
AcDbCircle
 10
27.60616863577067
 20
6.408577460151988
 30
0.0
 40
1.852133813849187
100
AcDbArc
 50
90.05747619649559
 51
97.707890427102
  0
ARC
  5
19BA
330
1F
100
AcDbEntity
  8
0
100
AcDbCircle
 10
28.75496723102538
 20
8.697026337046466
 30
0.0
 40
1.230602392298495
100
AcDbArc
 50
200.7662569446989
 51
223.7389763014966
  0
LINE
  5
19BB
330
1F
100
AcDbEntity
  8
0
100
AcDbLine
 10
19.38971614291591
 20
32.79481854549154
 30
0.0
 11
19.711120058993
 21
32.79481854549154
 31
0.0
  0
LINE
  5
19BC
330
1F
100
AcDbEntity
  8
0
100
AcDbLine
 10
18.22443724928212
 20
8.43108431371678
 30
0.0
 11
18.26200599740187
 21
8.433336400612617
 31
0.0
  0
ARC
  5
19BD
330
1F
100
AcDbEntity
  8
0
100
AcDbCircle
 10
17.9656847131921
 20
13.53238553587954
 30
0.0
 40
5.107859334958846
100
AcDbArc
 50
271.5236967013964
 51
272.9037167138915
  0
LINE
  5
19BE
330
1F
100
AcDbEntity
  8
0
100
AcDbLine
 10
18.06845791304244
 20
8.427676572568572
 30
0.0
 11
18.08860484925304
 21
8.425935334030803
 31
0.0
  0
LINE
  5
19BF
330
1F
100
AcDbEntity
  8
0
100
AcDbLine
 10
18.08860484925304
 20
8.425935334030803
 30
0.0
 11
18.10150468369488
 21
8.426332272877488
 31
0.0
  0
LINE
  5
19C0
330
1F
100
AcDbEntity
  8
0
100
AcDbLine
 10
18.06845791304244
 20
8.427676572568572
 30
0.0
 11
18.27376660080853
 21
8.773271561573395
 31
0.0
  0
LINE
  5
19C1
330
1F
100
AcDbEntity
  8
0
100
AcDbLine
 10
18.27376660080853
 20
8.773271561573395
 30
0.0
 11
18.45389320225234
 21
9.139883801466787
 31
0.0
  0
LINE
  5
19C2
330
1F
100
AcDbEntity
  8
0
100
AcDbLine
 10
18.45389320225234
 20
9.139883801466787
 30
0.0
 11
18.60691558276122
 21
9.525825521084399
 31
0.0
  0
LINE
  5
19C3
330
1F
100
AcDbEntity
  8
0
100
AcDbLine
 10
18.60691558276122
 20
9.525825521084399
 30
0.0
 11
18.72044801189329
 21
9.907569787015191
 31
0.0
  0
LINE
  5
19C4
330
1F
100
AcDbEntity
  8
0
100
AcDbLine
 10
18.72044801189329
 20
9.907569787015191
 30
0.0
 11
18.80402134985641
 21
10.30430079962207
 31
0.0
  0
LINE
  5
19C5
330
1F
100
AcDbEntity
  8
0
100
AcDbLine
 10
18.80402134985641
 20
10.30430079962207
 30
0.0
 11
18.86485985025717
 21
10.71087730284282
 31
0.0
  0
LINE
  5
19C6
330
1F
100
AcDbEntity
  8
0
100
AcDbLine
 10
18.86485985025717
 20
10.71087730284282
 30
0.0
 11
18.9101877666549
 21
11.12215804060736
 31
0.0
  0
LINE
  5
19C7
330
1F
100
AcDbEntity
  8
0
100
AcDbLine
 10
18.9101877666549
 20
11.12215804060736
 30
0.0
 11
18.94722935264832
 21
11.53300175684553
 31
0.0
  0
LINE
  5
19C8
330
1F
100
AcDbEntity
  8
0
100
AcDbLine
 10
18.94722935264832
 20
11.53300175684553
 30
0.0
 11
19.08415379546503
 21
13.26748966450732
 31
0.0
  0
LINE
  5
19C9
330
1F
100
AcDbEntity
  8
0
100
AcDbLine
 10
19.08415379546503
 20
13.26748966450732
 30
0.0
 11
19.19576006194018
 21
15.00532752165506
 31
0.0
  0
LINE
  5
19CA
330
1F
100
AcDbEntity
  8
0
100
AcDbLine
 10
19.19576006194018
 20
15.00532752165506
 30
0.0
 11
19.28206520241781
 21
16.74559544631313
 31
0.0
  0
LINE
  5
19CB
330
1F
100
AcDbEntity
  8
0
100
AcDbLine
 10
19.28206520241781
 20
16.74559544631313
 30
0.0
 11
19.34308626723398
 21
18.48737355650583
 31
0.0
  0
LINE
  5
19CC
330
1F
100
AcDbEntity
  8
0
100
AcDbLine
 10
19.34308626723398
 20
18.48737355650583
 30
0.0
 11
19.37008046927647
 21
19.66313179042953
 31
0.0
  0
LINE
  5
19CD
330
1F
100
AcDbEntity
  8
0
100
AcDbLine
 10
19.37008046927647
 20
19.66313179042953
 30
0.0
 11
19.38513927289236
 21
20.83925782158894
 31
0.0
  0
LINE
  5
19CE
330
1F
100
AcDbEntity
  8
0
100
AcDbLine
 10
19.38513927289236
 20
20.83925782158894
 30
0.0
 11
19.39942331463382
 21
24.82434649176531
 31
0.0
  0
LINE
  5
19CF
330
1F
100
AcDbEntity
  8
0
100
AcDbLine
 10
19.39942331463382
 20
24.82434649176531
 30
0.0
 11
19.39490621168437
 21
28.80958264409315
 31
0.0
  0
LINE
  5
19D0
330
1F
100
AcDbEntity
  8
0
100
AcDbLine
 10
19.39490621168437
 20
28.80958264409315
 30
0.0
 11
19.38971614291591
 21
32.79481854549154
 31
0.0
  0
LINE
  5
19D1
330
1F
100
AcDbEntity
  8
0
100
AcDbLine
 10
25.77364096383161
 20
32.79481854549154
 30
0.0
 11
26.09504487994807
 21
32.79481854549154
 31
0.0
  0
LINE
  5
19D2
330
1F
100
AcDbEntity
  8
0
100
AcDbLine
 10
26.09504487994807
 20
32.79481854549154
 30
0.0
 11
26.09541278800285
 21
28.82611201272995
 31
0.0
  0
LINE
  5
19D3
330
1F
100
AcDbEntity
  8
0
100
AcDbLine
 10
26.09541278800285
 20
28.82611201272995
 30
0.0
 11
26.09213285059582
 21
26.16424388083749
 31
0.0
  0
LINE
  5
19D4
330
1F
100
AcDbEntity
  8
0
100
AcDbLine
 10
26.09213285059582
 20
26.16424388083749
 30
0.0
 11
26.08973069333274
 21
23.50237696718277
 31
0.0
  0
LINE
  5
19D5
330
1F
100
AcDbEntity
  8
0
100
AcDbLine
 10
26.08973069333274
 20
23.50237696718277
 30
0.0
 11
26.09961100997407
 21
20.84060799483848
 31
0.0
  0
LINE
  5
19D6
330
1F
100
AcDbEntity
  8
0
100
AcDbLine
 10
26.09961100997407
 20
20.84060799483848
 30
0.0
 11
26.1146561891006
 21
19.66448140554451
 31
0.0
  0
LINE
  5
19D7
330
1F
100
AcDbEntity
  8
0
100
AcDbLine
 10
26.1146561891006
 20
19.66448140554451
 30
0.0
 11
26.14163605142451
 21
18.48872234937572
 31
0.0
  0
LINE
  5
19D8
330
1F
100
AcDbEntity
  8
0
100
AcDbLine
 10
26.14163605142451
 20
18.48872234937572
 30
0.0
 11
26.20264529143077
 21
16.74638659011336
 31
0.0
  0
LINE
  5
19D9
330
1F
100
AcDbEntity
  8
0
100
AcDbLine
 10
26.20264529143077
 20
16.74638659011336
 30
0.0
 11
26.28894778529093
 21
15.00556054887325
 31
0.0
  0
LINE
  5
19DA
330
1F
100
AcDbEntity
  8
0
100
AcDbLine
 10
26.28894778529093
 20
15.00556054887325
 30
0.0
 11
26.40058533785998
 21
13.26716825540787
 31
0.0
  0
LINE
  5
19DB
330
1F
100
AcDbEntity
  8
0
100
AcDbLine
 10
26.40058533785998
 20
13.26716825540787
 30
0.0
 11
26.53759975394578
 21
11.53213373946175
 31
0.0
  0
LINE
  5
19DC
330
1F
100
AcDbEntity
  8
0
100
AcDbLine
 10
26.53759975394578
 20
11.53213373946175
 30
0.0
 11
26.57467715289701
 21
11.12158267993304
 31
0.0
  0
LINE
  5
19DD
330
1F
100
AcDbEntity
  8
0
100
AcDbLine
 10
26.57467715289701
 20
11.12158267993304
 30
0.0
 11
26.62007385844305
 21
10.71061239682919
 31
0.0
  0
LINE
  5
19DE
330
1F
100
AcDbEntity
  8
0
100
AcDbLine
 10
26.62007385844305
 20
10.71061239682919
 30
0.0
 11
26.6809427090468
 21
10.30433075136788
 31
0.0
  0
LINE
  5
19DF
330
1F
100
AcDbEntity
  8
0
100
AcDbLine
 10
26.6809427090468
 20
10.30433075136788
 30
0.0
 11
26.76443654316327
 21
9.907845604751003
 31
0.0
  0
LINE
  5
19E0
330
1F
100
AcDbEntity
  8
0
100
AcDbLine
 10
26.76443654316327
 20
9.907845604751003
 30
0.0
 11
26.87770819925538
 21
9.526264818196224
 31
0.0
  0
LINE
  5
19E1
330
1F
100
AcDbEntity
  8
0
100
AcDbLine
 10
26.87770819925538
 20
9.526264818196224
 30
0.0
 11
27.03062073294296
 21
9.140095352485097
 31
0.0
  0
LINE
  5
19E2
330
1F
100
AcDbEntity
  8
0
100
AcDbLine
 10
27.03062073294296
 20
9.140095352485097
 30
0.0
 11
27.21083334820998
 21
8.773359101910322
 31
0.0
  0
LINE
  5
19E3
330
1F
100
AcDbEntity
  8
0
100
AcDbLine
 10
27.21083334820998
 20
8.773359101910322
 30
0.0
 11
27.41629914130482
 21
8.427665218278896
 31
0.0
  0
LINE
  5
19E4
330
1F
100
AcDbEntity
  8
0
100
AcDbLine
 10
27.38322472616926
 20
8.426323854252871
 30
0.0
 11
27.41629914130482
 21
8.427665218278896
 31
0.0
  0
ARC
  5
19E5
330
1F
100
AcDbEntity
  8
0
100
AcDbCircle
 10
27.64098614787966
 20
16.68593520787759
 30
0.0
 40
8.263632413210844
100
AcDbArc
 50
267.3596327558948
 51
268.2125248584059
  0
LINE
  5
19E6
330
1F
100
AcDbEntity
  8
0
100
AcDbLine
 10
27.22276337706305
 20
8.433326481702671
 30
0.0
 11
27.26030710674229
 21
8.431075778021153
 31
0.0
  0
LINE
  5
19E7
330
1F
100
AcDbEntity
  8
0
100
AcDbLine
 10
17.54530049338069
 20
7.697744721692714
 30
0.0
 11
17.5353527022541
 21
7.700271298771546
 31
0.0
  0
LINE
  5
19E8
330
1F
100
AcDbEntity
  8
0
100
AcDbLine
 10
16.86279709617736
 20
5.872280351058236
 30
0.0
 11
16.87062248969496
 21
5.872270667502917
 31
0.0
  0
LINE
  5
19E9
330
1F
100
AcDbEntity
  8
0
100
AcDbLine
 10
16.87062248969496
 20
5.872270667502917
 30
0.0
 11
16.90328173694544
 21
5.872153702263346
 31
0.0
  0
LINE
  5
19EA
330
1F
100
AcDbEntity
  8
0
100
AcDbLine
 10
16.90328173694544
 20
5.872153702263346
 30
0.0
 11
16.95893440017355
 21
5.871943933633083
 31
0.0
  0
LINE
  5
19EB
330
1F
100
AcDbEntity
  8
0
100
AcDbLine
 10
16.95893440017355
 20
5.871943933633083
 30
0.0
 11
17.03675976421951
 21
5.871658043010739
 31
0.0
  0
LINE
  5
19EC
330
1F
100
AcDbEntity
  8
0
100
AcDbLine
 10
17.03675976421951
 20
5.871658043010739
 30
0.0
 11
17.13718272523243
 21
5.871308504868515
 31
0.0
  0
LINE
  5
19ED
330
1F
100
AcDbEntity
  8
0
100
AcDbLine
 10
17.13718272523243
 20
5.871308504868515
 30
0.0
 11
17.26060498610425
 21
5.870908385773788
 31
0.0
  0
LINE
  5
19EE
330
1F
100
AcDbEntity
  8
0
100
AcDbLine
 10
17.26060498610425
 20
5.870908385773788
 30
0.0
 11
17.4066643546613
 21
5.870473154375659
 31
0.0
  0
ARC
  5
19EF
330
1F
100
AcDbEntity
  8
0
100
AcDbCircle
 10
17.2697720729711
 20
2.085024457925705
 30
0.0
 40
5.621524429577402
100
AcDbArc
 50
87.29213647430164
 51
92.38261050910059
  0
LINE
  5
19F0
330
1F
100
AcDbEntity
  8
0
100
AcDbLine
 10
27.94941090003042
 20
7.700271338787345
 30
0.0
 11
27.93946052945967
 21
7.697744721692714
 31
0.0
  0
LINE
  5
19F1
330
1F
100
AcDbEntity
  8
0
100
AcDbLine
 10
28.44888970995123
 20
7.701691293186442
 30
0.0
 11
28.44932350213497
 21
7.702163047795224
 31
0.0
  0
LINE
  5
19F2
330
1F
100
AcDbEntity
  8
0
100
AcDbLine
 10
28.44932350213497
 20
7.702163047795224
 30
0.0
 11
28.42648994256825
 21
7.70342825072678
 31
0.0
  0
LINE
  5
19F3
330
1F
100
AcDbEntity
  8
0
100
AcDbLine
 10
28.42648994256825
 20
7.70342825072678
 30
0.0
 11
28.37949025312835
 21
7.704241521759179
 31
0.0
  0
LINE
  5
19F4
330
1F
100
AcDbEntity
  8
0
100
AcDbLine
 10
28.37949025312835
 20
7.704241521759179
 30
0.0
 11
28.30801448140724
 21
7.704400827413472
 31
0.0
  0
LINE
  5
19F5
330
1F
100
AcDbEntity
  8
0
100
AcDbLine
 10
28.30801448140724
 20
7.704400827413472
 30
0.0
 11
28.21219397579611
 21
7.70377840173591
 31
0.0
  0
LINE
  5
19F6
330
1F
100
AcDbEntity
  8
0
100
AcDbLine
 10
28.21219397579611
 20
7.70377840173591
 30
0.0
 11
28.09279119742183
 21
7.702368548876897
 31
0.0
  0
LINE
  5
19F7
330
1F
100
AcDbEntity
  8
0
100
AcDbLine
 10
28.09279119742183
 20
7.702368548876897
 30
0.0
 11
27.94941080210902
 21
7.700271935394383
 31
0.0
  0
LINE
  5
19F8
330
1F
100
AcDbEntity
  8
0
100
AcDbLine
 10
28.07809666817909
 20
5.870473154375659
 30
0.0
 11
28.22306891872626
 21
5.87090499832076
 31
0.0
  0
LINE
  5
19F9
330
1F
100
AcDbEntity
  8
0
100
AcDbLine
 10
28.22306891872626
 20
5.87090499832076
 30
0.0
 11
28.34612849311668
 21
5.871303620185294
 31
0.0
  0
LINE
  5
19FA
330
1F
100
AcDbEntity
  8
0
100
AcDbLine
 10
28.34612849311668
 20
5.871303620185294
 30
0.0
 11
28.44727776687305
 21
5.871655445117752
 31
0.0
  0
LINE
  5
19FB
330
1F
100
AcDbEntity
  8
0
100
AcDbLine
 10
28.44727776687305
 20
5.871655445117752
 30
0.0
 11
28.52582662266679
 21
5.871943933633083
 31
0.0
  0
LINE
  5
19FC
330
1F
100
AcDbEntity
  8
0
100
AcDbLine
 10
28.52582662266679
 20
5.871943933633083
 30
0.0
 11
28.58112485413244
 21
5.872152373041224
 31
0.0
  0
LINE
  5
19FD
330
1F
100
AcDbEntity
  8
0
100
AcDbLine
 10
28.58112485413244
 20
5.872152373041224
 30
0.0
 11
28.61386464837264
 21
5.872269806974294
 31
0.0
  0
LINE
  5
19FE
330
1F
100
AcDbEntity
  8
0
100
AcDbLine
 10
28.61386464837264
 20
5.872269806974294
 30
0.0
 11
28.62200969408201
 21
5.872280580570333
 31
0.0
  0
LINE
  5
19FF
330
1F
100
AcDbEntity
  8
0
100
AcDbLine
 10
27.85101247372558
 20
5.629430518986133
 30
0.0
 11
28.38696243350708
 21
5.629430518986133
 31
0.0
  0
LINE
  5
1A00
330
1F
100
AcDbEntity
  8
0
100
AcDbLine
 10
17.63374854911478
 20
5.629430518986133
 30
0.0
 11
17.09764001449883
 21
5.629430518986133
 31
0.0
  0
LINE
  5
1A01
330
1F
100
AcDbEntity
  8
0
100
AcDbLine
 10
27.94941090003042
 20
7.700271338787345
 30
0.0
 11
27.92070406043047
 21
7.781248239293631
 31
0.0
  0
LINE
  5
1A02
330
1F
100
AcDbEntity
  8
0
100
AcDbLine
 10
27.92070406043047
 20
7.781248239293631
 30
0.0
 11
27.86589520121751
 21
7.84618328639776
 31
0.0
  0
LINE
  5
1A03
330
1F
100
AcDbEntity
  8
0
100
AcDbLine
 10
17.53535280027785
 20
7.700271895898268
 30
0.0
 11
17.56405720796138
 21
7.781246035038932
 31
0.0
  0
LINE
  5
1A04
330
1F
100
AcDbEntity
  8
0
100
AcDbLine
 10
17.56405720796138
 20
7.781246035038932
 30
0.0
 11
17.61886203388584
 21
7.846179865834457
 31
0.0
  0
ARC
  5
1A05
330
1F
100
AcDbEntity
  8
0
100
AcDbCircle
 10
27.35320649222612
 20
3.704087114347188
 30
0.0
 40
4.68098275804943
100
AcDbArc
 50
88.82789727679687
 51
90.62051277379396
  0
ARC
  5
1A06
330
1F
100
AcDbEntity
  8
0
100
AcDbCircle
 10
27.425276774606
 20
8.19477731690997
 30
0.0
 40
0.190788625338195
100
AcDbArc
 50
20.21729859560179
 51
82.86961815049776
  0
ARC
  5
1A07
330
1F
100
AcDbEntity
  8
0
100
AcDbCircle
 10
18.05946397316199
 20
8.194776030656413
 30
0.0
 40
0.190790063513204
100
AcDbArc
 50
97.13575027129159
 51
159.7825185162975
  0
ARC
  5
1A08
330
1F
100
AcDbEntity
  8
0
100
AcDbCircle
 10
18.12140448368552
 20
5.813194663075925
 30
0.0
 40
2.572319711155517
100
AcDbArc
 50
88.64520673989471
 51
91.90790647919945
  0
LINE
  5
1A09
330
1F
100
AcDbEntity
  8
0
100
AcDbLine
 10
17.11859947296139
 20
7.846119963917644
 30
0.0
 11
17.11809313225458
 21
7.846147492014779
 31
0.0
  0
LINE
  5
1A0A
330
1F
100
AcDbEntity
  8
0
100
AcDbLine
 10
17.11809313225458
 20
7.846147492014779
 30
0.0
 11
17.14109611097632
 21
7.846180762780456
 31
0.0
  0
LINE
  5
1A0B
330
1F
100
AcDbEntity
  8
0
100
AcDbLine
 10
17.14109611097632
 20
7.846180762780456
 30
0.0
 11
17.1887035158787
 21
7.846191103076748
 31
0.0
  0
LINE
  5
1A0C
330
1F
100
AcDbEntity
  8
0
100
AcDbLine
 10
17.1887035158787
 20
7.846191103076748
 30
0.0
 11
17.26168253769279
 21
7.846201288813787
 31
0.0
  0
LINE
  5
1A0D
330
1F
100
AcDbEntity
  8
0
100
AcDbLine
 10
17.26168253769279
 20
7.846201288813787
 30
0.0
 11
17.35971299313962
 21
7.846215029807211
 31
0.0
  0
LINE
  5
1A0E
330
1F
100
AcDbEntity
  8
0
100
AcDbLine
 10
17.35971299313962
 20
7.846215029807211
 30
0.0
 11
17.47774343174865
 21
7.846219133316239
 31
0.0
  0
LINE
  5
1A0F
330
1F
100
AcDbEntity
  8
0
100
AcDbLine
 10
17.47774343174865
 20
7.846219133316239
 30
0.0
 11
17.61886203388584
 21
7.846179865834457
 31
0.0
  0
ARC
  5
1A10
330
1F
100
AcDbEntity
  8
0
100
AcDbCircle
 10
17.57423714446253
 20
1.575744729910233
 30
0.0
 40
6.69197397927111
100
AcDbArc
 50
87.37751153130499
 51
91.25298560129577
  0
LINE
  5
1A11
330
1F
100
AcDbEntity
  8
0
100
AcDbLine
 10
17.42738384829863
 20
8.266073436857098
 30
0.0
 11
17.42792000068024
 21
8.265986399442049
 31
0.0
  0
LINE
  5
1A12
330
1F
100
AcDbEntity
  8
0
100
AcDbLine
 10
28.05683332243408
 20
8.265986319402578
 30
0.0
 11
28.05737670728132
 21
8.266073760251202
 31
0.0
  0
ARC
  5
1A13
330
1F
100
AcDbEntity
  8
0
100
AcDbCircle
 10
27.9102790904364
 20
1.595644067797302
 30
0.0
 40
6.6720850244048
100
AcDbArc
 50
88.74111949810462
 51
92.62849056990255
  0
LINE
  5
1A14
330
1F
100
AcDbEntity
  8
0
100
AcDbLine
 10
27.86597310103855
 20
7.846179901771513
 30
0.0
 11
28.01124724169247
 21
7.846219474033198
 31
0.0
  0
LINE
  5
1A15
330
1F
100
AcDbEntity
  8
0
100
AcDbLine
 10
28.01124724169247
 20
7.846219474033198
 30
0.0
 11
28.13231034507106
 21
7.846214079561939
 31
0.0
  0
LINE
  5
1A16
330
1F
100
AcDbEntity
  8
0
100
AcDbLine
 10
28.13231034507106
 20
7.846214079561939
 30
0.0
 11
28.2279944225366
 21
7.846199521126564
 31
0.0
  0
LINE
  5
1A17
330
1F
100
AcDbEntity
  8
0
100
AcDbLine
 10
28.2279944225366
 20
7.846199521126564
 30
0.0
 11
28.29912696842257
 21
7.846190745375515
 31
0.0
  0
LINE
  5
1A18
330
1F
100
AcDbEntity
  8
0
100
AcDbLine
 10
28.29912696842257
 20
7.846190745375515
 30
0.0
 11
28.34568465324336
 21
7.846179663542876
 31
0.0
  0
LINE
  5
1A19
330
1F
100
AcDbEntity
  8
0
100
AcDbLine
 10
28.34568465324336
 20
7.846179663542876
 30
0.0
 11
28.36732898084674
 21
7.846143875238638
 31
0.0
  0
LINE
  5
1A1A
330
1F
100
AcDbEntity
  8
0
100
AcDbLine
 10
28.36732898084674
 20
7.846143875238638
 30
0.0
 11
28.36649514932427
 21
7.846120840603767
 31
0.0
  0
ARC
  5
1A1B
330
1F
100
AcDbEntity
  8
0
100
AcDbCircle
 10
18.1616391828523
 20
8.445960802571065
 30
0.0
 40
0.0645360915305272
100
AcDbArc
 50
288.5993412331042
 51
346.6726546090972
  0
ARC
  5
1A1C
330
1F
100
AcDbEntity
  8
0
100
AcDbCircle
 10
27.32309435543431
 20
8.445949407423064
 30
0.0
 40
0.0645249056583813
100
AcDbArc
 50
193.3270934052969
 51
251.3982959167985
  0
LINE
  5
1A1D
330
1F
100
AcDbEntity
  8
0
100
AcDbLine
 10
27.44895891956389
 20
8.384090432063622
 30
0.0
 11
27.41245256750204
 21
8.397540581077812
 31
0.0
  0
LINE
  5
1A1E
330
1F
100
AcDbEntity
  8
0
100
AcDbLine
 10
27.41245256750204
 20
8.397540581077812
 30
0.0
 11
27.38322472605907
 21
8.426323854418228
 31
0.0
  0
LINE
  5
1A1F
330
1F
100
AcDbEntity
  8
0
100
AcDbLine
 10
18.03576391164643
 20
8.384088353076791
 30
0.0
 11
18.07227500158026
 21
8.397543564585454
 31
0.0
  0
LINE
  5
1A20
330
1F
100
AcDbEntity
  8
0
100
AcDbLine
 10
18.07227500158026
 20
8.397543564585454
 30
0.0
 11
18.10150468369488
 21
8.426332272877488
 31
0.0
  0
LINE
  5
1A21
330
1F
100
AcDbEntity
  8
0
100
AcDbLine
 10
27.48857613497256
 20
8.38263757063158
 30
0.0
 11
27.44895852011453
 21
8.384090448780177
 31
0.0
  0
LINE
  5
1A22
330
1F
100
AcDbEntity
  8
0
100
AcDbLine
 10
27.9007502853413
 20
8.38354026035757
 30
0.0
 11
27.9020457729325
 21
8.383561877219023
 31
0.0
  0
LINE
  5
1A23
330
1F
100
AcDbEntity
  8
0
100
AcDbLine
 10
27.9020457729325
 20
8.383561877219023
 30
0.0
 11
27.87947034866235
 21
8.383601584126544
 31
0.0
  0
LINE
  5
1A24
330
1F
100
AcDbEntity
  8
0
100
AcDbLine
 10
27.87947034866235
 20
8.383601584126544
 30
0.0
 11
27.82694640532296
 21
8.383558570057445
 31
0.0
  0
LINE
  5
1A25
330
1F
100
AcDbEntity
  8
0
100
AcDbLine
 10
27.82694640532296
 20
8.383558570057445
 30
0.0
 11
27.74385763550422
 21
8.383403987283024
 31
0.0
  0
LINE
  5
1A26
330
1F
100
AcDbEntity
  8
0
100
AcDbLine
 10
27.74385763550422
 20
8.383403987283024
 30
0.0
 11
27.63031863911201
 21
8.383106148338782
 31
0.0
  0
LINE
  5
1A27
330
1F
100
AcDbEntity
  8
0
100
AcDbLine
 10
27.63031863911201
 20
8.383106148338782
 30
0.0
 11
27.48857613497256
 21
8.38263757063158
 31
0.0
  0
LINE
  5
1A28
330
1F
100
AcDbEntity
  8
0
100
AcDbLine
 10
18.03576391164643
 20
8.384088353076791
 30
0.0
 11
18.02174407335079
 21
8.383402577076552
 31
0.0
  0
LINE
  5
1A29
330
1F
100
AcDbEntity
  8
0
100
AcDbLine
 10
18.02174407335079
 20
8.383402577076552
 30
0.0
 11
17.99617465824093
 21
8.382636632866635
 31
0.0
  0
LINE
  5
1A2A
330
1F
100
AcDbEntity
  8
0
100
AcDbLine
 10
17.99617465824093
 20
8.382636632866635
 30
0.0
 11
17.8544334139377
 21
8.383105348400789
 31
0.0
  0
LINE
  5
1A2B
330
1F
100
AcDbEntity
  8
0
100
AcDbLine
 10
17.8544334139377
 20
8.383105348400789
 30
0.0
 11
17.7106172617143
 21
8.383469017056597
 31
0.0
  0
LINE
  5
1A2C
330
1F
100
AcDbEntity
  8
0
100
AcDbLine
 10
17.7106172617143
 20
8.383469017056597
 30
0.0
 11
17.61990479554151
 21
8.383597918783415
 31
0.0
  0
LINE
  5
1A2D
330
1F
100
AcDbEntity
  8
0
100
AcDbLine
 10
17.61990479554151
 20
8.383597918783415
 30
0.0
 11
17.58271182462803
 21
8.383561440289355
 31
0.0
  0
LINE
  5
1A2E
330
1F
100
AcDbEntity
  8
0
100
AcDbLine
 10
17.58271182462803
 20
8.383561440289355
 30
0.0
 11
17.58503594435336
 21
8.383538325347295
 31
0.0
  0
ARC
  5
1A2F
330
1F
100
AcDbEntity
  8
0
100
AcDbCircle
 10
27.50837225718902
 20
8.494935922807727
 30
0.0
 40
0.1140298485364875
100
AcDbArc
 50
216.1527105133984
 51
260.0025271714995
  0
ARC
  5
1A30
330
1F
100
AcDbEntity
  8
0
100
AcDbCircle
 10
17.97637491823263
 20
8.49493523345253
 30
0.0
 40
0.1140307212934723
100
AcDbArc
 50
279.9992413484936
 51
323.8551040219958
  0
LINE
  5
1A31
330
1F
100
AcDbEntity
  8
0
100
AcDbLine
 10
27.41629914130482
 20
8.427665218278896
 30
0.0
 11
27.55570124638379
 21
8.428211164483649
 31
0.0
  0
LINE
  5
1A32
330
1F
100
AcDbEntity
  8
0
100
AcDbLine
 10
27.55570124638379
 20
8.428211164483649
 30
0.0
 11
27.6666038562696
 21
8.428305693561526
 31
0.0
  0
LINE
  5
1A33
330
1F
100
AcDbEntity
  8
0
100
AcDbLine
 10
27.6666038562696
 20
8.428305693561526
 30
0.0
 11
27.74885805857284
 21
8.42800599504806
 31
0.0
  0
LINE
  5
1A34
330
1F
100
AcDbEntity
  8
0
100
AcDbLine
 10
27.74885805857284
 20
8.42800599504806
 30
0.0
 11
27.80223611390079
 21
8.427363645204039
 31
0.0
  0
LINE
  5
1A35
330
1F
100
AcDbEntity
  8
0
100
AcDbLine
 10
27.80223611390079
 20
8.427363645204039
 30
0.0
 11
27.82597216044525
 21
8.426434276838662
 31
0.0
  0
LINE
  5
1A36
330
1F
100
AcDbEntity
  8
0
100
AcDbLine
 10
27.82597216044525
 20
8.426434276838662
 30
0.0
 11
27.82482972036672
 21
8.4261239541309
 31
0.0
  0
LINE
  5
1A37
330
1F
100
AcDbEntity
  8
0
100
AcDbLine
 10
26.09504487994807
 20
32.79481854549154
 30
0.0
 11
26.28569144958246
 21
32.79481854549154
 31
0.0
  0
LINE
  5
1A38
330
1F
100
AcDbEntity
  8
0
100
AcDbLine
 10
17.65997155192511
 20
8.426127397544618
 30
0.0
 11
17.65878966533313
 21
8.426441215721283
 31
0.0
  0
LINE
  5
1A39
330
1F
100
AcDbEntity
  8
0
100
AcDbLine
 10
17.65878966533313
 20
8.426441215721283
 30
0.0
 11
17.68215254265089
 21
8.427363697227733
 31
0.0
  0
LINE
  5
1A3A
330
1F
100
AcDbEntity
  8
0
100
AcDbLine
 10
17.68215254265089
 20
8.427363697227733
 30
0.0
 11
17.73470906784959
 21
8.428006781025402
 31
0.0
  0
LINE
  5
1A3B
330
1F
100
AcDbEntity
  8
0
100
AcDbLine
 10
17.73470906784959
 20
8.428006781025402
 30
0.0
 11
17.81720449931822
 21
8.428314759273561
 31
0.0
  0
LINE
  5
1A3C
330
1F
100
AcDbEntity
  8
0
100
AcDbLine
 10
17.81720449931822
 20
8.428314759273561
 30
0.0
 11
17.92905681450801
 21
8.42822200190654
 31
0.0
  0
LINE
  5
1A3D
330
1F
100
AcDbEntity
  8
0
100
AcDbLine
 10
17.92905681450801
 20
8.42822200190654
 30
0.0
 11
18.06845791304244
 21
8.427676572568572
 31
0.0
  0
LINE
  5
1A3E
330
1F
100
AcDbEntity
  8
0
100
AcDbLine
 10
19.38971614291591
 20
32.79481854549154
 30
0.0
 11
19.19906957325787
 21
32.79481854549154
 31
0.0
  0
ARC
  5
1A3F
330
1F
100
AcDbEntity
  8
0
100
AcDbCircle
 10
31.22781135727559
 20
11.1752380459891
 30
0.0
 40
4.372277720742703
100
AcDbArc
 50
190.390808811979
 51
218.942876480175
  0
ARC
  5
1A40
330
1F
100
AcDbEntity
  8
0
100
AcDbCircle
 10
138.3302090490742
 20
22.02691499112365
 30
0.0
 40
112.0094547665225
100
AcDbArc
 50
179.964312847811
 51
185.9650723979774
  0
LINE
  5
1A41
330
1F
100
AcDbEntity
  8
0
100
AcDbLine
 10
26.32366063591061
 20
21.22002611197398
 30
0.0
 11
26.28557387044151
 21
32.7948185369241
 31
0.0
  0
LINE
  5
1A42
330
1F
100
AcDbEntity
  8
0
100
AcDbLine
 10
22.95783832093361
 20
8.480416722443095
 30
0.0
 11
22.7423803476799
 21
8.383574955390749
 31
0.0
  0
ARC
  5
1A83
330
1F
100
AcDbEntity
  8
0
100
AcDbCircle
 10
46.28587027225828
 20
8.625759712167464
 30
0.0
 40
0.9787009299909767
100
AcDbArc
 50
306.8781030183032
 51
338.2426567884988
  0
LINE
  5
1A84
330
1F
100
AcDbEntity
  8
0
100
AcDbLine
 10
55.54316882140108
 20
5.629430518986147
 30
0.0
 11
46.84474113833687
 21
5.629430518986147
 31
0.0
  0
LINE
  5
1A85
330
1F
100
AcDbEntity
  8
0
100
AcDbLine
 10
55.66127920412498
 20
5.86802659306538
 30
0.0
 11
55.66127920412498
 21
5.747540901710088
 31
0.0
  0
ARC
  5
1A86
330
1F
100
AcDbEntity
  8
0
100
AcDbCircle
 10
55.54316882140108
 20
5.747540901710081
 30
0.0
 40
0.1181103827239349
100
AcDbArc
 50
270.0
 51
0.0000000000032569
  0
LINE
  5
1A87
330
1F
100
AcDbEntity
  8
0
100
AcDbLine
 10
50.52364267757088
 20
32.79481854549155
 30
0.0
 11
55.57252201759013
 21
32.79481854549155
 31
0.0
  0
LINE
  5
1A88
330
1F
100
AcDbEntity
  8
0
100
AcDbLine
 10
55.57252201759013
 20
32.79481854549155
 30
0.0
 11
55.66127920412498
 21
32.79481854549155
 31
0.0
  0
LINE
  5
1A89
330
1F
100
AcDbEntity
  8
0
100
AcDbLine
 10
55.66127920412498
 20
32.79481854549155
 30
0.0
 11
55.66127920412492
 21
5.747540901710081
 31
0.0
  0
LINE
  5
1A8A
330
1F
100
AcDbEntity
  8
0
100
AcDbLine
 10
50.20595465252814
 20
32.79481854549155
 30
0.0
 11
50.52364267757088
 21
32.79481854549155
 31
0.0
  0
LINE
  5
1A8B
330
1F
100
AcDbEntity
  8
0
100
AcDbLine
 10
49.26629085777753
 20
32.79481854549155
 30
0.0
 11
50.20595465252814
 21
32.79481854549155
 31
0.0
  0
ARC
  5
1A8C
330
1F
100
AcDbEntity
  8
0
100
AcDbCircle
 10
58.61403877222318
 20
5.629430518986161
 30
0.0
 40
12.00788891026667
100
AcDbArc
 50
170.0853634505009
 51
178.8501747636014
  0
ARC
  5
1A8D
330
1F
100
AcDbEntity
  8
0
100
AcDbCircle
 10
46.84474113833687
 20
5.865651445434217
 30
0.0
 40
0.2362209264480747
100
AcDbArc
 50
178.8502158476983
 51
270.0000230280025
  0
LINE
  5
1A8E
330
1F
100
AcDbEntity
  8
0
100
AcDbLine
 10
49.07680061127817
 20
32.79481854549155
 30
0.0
 11
49.26629085777753
 21
32.79481854549155
 31
0.0
  0
LINE
  5
1A8F
330
1F
100
AcDbEntity
  8
0
100
AcDbLine
 10
46.87584583664341
 20
7.844812992430348
 30
0.0
 11
46.87584583075365
 21
7.844812994036651
 31
0.0
  0
LINE
  5
1A90
330
1F
100
AcDbEntity
  8
0
100
AcDbLine
 10
46.87584583075365
 20
7.844812994036651
 30
0.0
 11
46.87787485285309
 21
7.844996268925399
 31
0.0
  0
LINE
  5
1A91
330
1F
100
AcDbEntity
  8
0
100
AcDbLine
 10
46.87787485285309
 20
7.844996268925399
 30
0.0
 11
46.91091995206256
 21
7.84537917580981
 31
0.0
  0
LINE
  5
1A92
330
1F
100
AcDbEntity
  8
0
100
AcDbLine
 10
46.91091995206256
 20
7.84537917580981
 30
0.0
 11
46.98572073999463
 21
7.84558924851133
 31
0.0
  0
LINE
  5
1A93
330
1F
100
AcDbEntity
  8
0
100
AcDbLine
 10
46.98572073999463
 20
7.84558924851133
 30
0.0
 11
47.10346239029269
 21
7.84573121482915
 31
0.0
  0
LINE
  5
1A94
330
1F
100
AcDbEntity
  8
0
100
AcDbLine
 10
47.5550608478151
 20
8.26266625711905
 30
0.0
 11
47.4090775491949
 21
8.267691730683338
 31
0.0
  0
LINE
  5
1A95
330
1F
100
AcDbEntity
  8
0
100
AcDbLine
 10
47.4090775491949
 20
8.267691730683338
 30
0.0
 11
47.30112542798463
 21
8.268634899955593
 31
0.0
  0
LINE
  5
1A96
330
1F
100
AcDbEntity
  8
0
100
AcDbLine
 10
47.30112542798463
 20
8.268634899955593
 30
0.0
 11
47.2313861821261
 21
8.266641227569266
 31
0.0
  0
LINE
  5
1A97
330
1F
100
AcDbEntity
  8
0
100
AcDbLine
 10
47.2313861821261
 20
8.266641227569266
 30
0.0
 11
47.1985220439443
 21
8.263483916204137
 31
0.0
  0
LINE
  5
1A98
330
1F
100
AcDbEntity
  8
0
100
AcDbLine
 10
47.1985220439443
 20
8.263483916204137
 30
0.0
 11
47.19558392790619
 21
8.26212981964263
 31
0.0
  0
LINE
  5
1A99
330
1F
100
AcDbEntity
  8
0
100
AcDbLine
 10
47.19558392790619
 20
8.26212981964263
 30
0.0
 11
47.19558393457546
 21
8.262129810737114
 31
0.0
  0
LINE
  5
1A9A
330
1F
100
AcDbEntity
  8
0
100
AcDbLine
 10
46.78548319554233
 20
7.69695779827569
 30
0.0
 11
46.79433898292069
 21
7.731765036922823
 31
0.0
  0
LINE
  5
1A9B
330
1F
100
AcDbEntity
  8
0
100
AcDbLine
 10
46.79433898292069
 20
7.731765036922823
 30
0.0
 11
46.79669011518348
 21
7.738408436816811
 31
0.0
  0
ARC
  5
1A9C
330
1F
100
AcDbEntity
  8
0
100
AcDbCircle
 10
47.01817910292507
 20
7.656284680722613
 30
0.0
 40
0.2362237985618648
100
AcDbArc
 50
127.0517187765948
 51
159.6562112608994
  0
ARC
  5
1A9D
330
1F
100
AcDbEntity
  8
0
100
AcDbCircle
 10
47.37814243761059
 20
8.188486976107476
 30
0.0
 40
0.1968524171037851
100
AcDbArc
 50
97.6776830713031
 51
158.0311933344006
  0
LINE
  5
1A9E
330
1F
100
AcDbEntity
  8
0
100
AcDbLine
 10
49.07680061127817
 20
32.79481854549155
 30
0.0
 11
48.96835751643525
 21
32.79481854549155
 31
0.0
  0
ARC
  5
1A9F
330
1F
100
AcDbEntity
  8
0
100
AcDbCircle
 10
47.33606327019535
 20
8.50062619372418
 30
0.0
 40
0.1181103147317258
100
AcDbArc
 50
277.6776833193025
 51
320.1178756367048
  0
ARC
  5
1AA0
330
1F
100
AcDbEntity
  8
0
100
AcDbCircle
 10
47.33606315858103
 20
8.500626282204606
 30
0.0
 40
0.1181104571098506
100
AcDbArc
 50
277.6777717892045
 51
320.1177773855038
  0
LINE
  5
1AA1
330
1F
100
AcDbEntity
  8
0
100
AcDbLine
 10
47.19558393457546
 20
8.262129810737114
 30
0.0
 11
47.19558392790619
 21
8.26212981964263
 31
0.0
  0
LINE
  5
1AA2
330
1F
100
AcDbEntity
  8
0
100
AcDbLine
 10
47.19558392790619
 20
8.26212981964263
 30
0.0
 11
47.19611983653942
 21
8.262377381477264
 31
0.0
  0
ARC
  5
1AA3
330
1F
100
AcDbEntity
  8
0
100
AcDbCircle
 10
44.1151250237961
 20
11.20683746995712
 30
0.0
 40
4.325011684900325
100
AcDbArc
 50
319.9674650464294
 51
353.4253654210932
  0
ARC
  5
1AA4
330
1F
100
AcDbEntity
  8
0
100
AcDbCircle
 10
-63.36877812896807
 20
21.87117288535244
 30
0.0
 40
112.3361434329631
100
AcDbArc
 50
354.2988004774724
 51
0.1150180044721978
  0
LINE
  5
1AA5
330
1F
100
AcDbEntity
  8
0
100
AcDbLine
 10
48.96835751643525
 20
32.79481854549155
 30
0.0
 11
48.965305803083
 21
20.95837393086747
 31
0.0
  0
LINE
  5
1AAC
330
1F
100
AcDbEntity
  8
0
100
AcDbLine
 10
47.5550608478151
 20
8.26266625711905
 30
0.0
 11
55.66127920412498
 21
8.26266625711905
 31
0.0
  0
LINE
  5
1AAD
330
1F
100
AcDbEntity
  8
0
100
AcDbLine
 10
47.10346239029269
 20
7.84573121482915
 30
0.0
 11
55.66127920412492
 21
7.845731214829143
 31
0.0
  0
VIEWPORT
  5
220
102
{ACAD_XDICTIONARY
360
1ADE
102
}
330
58
100
AcDbEntity
 67
     1
  8
0
100
AcDbViewport
 10
128.5
 20
97.5
 30
0.0
 40
348.7795714217987
 41
211.7696629213483
 68
     1
 69
     1
 12
128.5
 22
97.5
 13
0.0
 23
0.0
 14
0.5
 24
0.5
 15
0.5
 25
0.5
 16
0.0
 26
0.0
 36
1.0
 17
0.0
 27
0.0
 37
0.0
 42
50.0
 43
0.0
 44
0.0
 45
211.7696629213483
 50
0.0
 51
0.0
 72
  1000
 90
    32800
  1

281
     0
 71
     1
 74
     0
110
0.0
120
0.0
130
0.0
111
1.0
121
0.0
131
0.0
112
0.0
122
1.0
132
0.0
 79
     0
146
0.0
  0
ENDSEC
  0
SECTION
  2
OBJECTS
  0
DICTIONARY
  5
C
330
0
100
AcDbDictionary
281
     1
  3
ACAD_2007HEADERVARS_RT
350
1AD7
  3
ACAD_COLOR
350
73
  3
ACAD_GROUP
350
D
  3
ACAD_LAYOUT
350
1A
  3
ACAD_MATERIAL
350
72
  3
ACAD_MLINESTYLE
350
17
  3
ACAD_PLOTSETTINGS
350
19
  3
ACAD_PLOTSTYLENAME
350
E
  3
ACAD_TABLESTYLE
350
86
  3
ACAD_VISUALSTYLE
350
1AB5
  3
AcDbVariableDictionary
350
66
  3
ASE_INDEX_DICTIONARY
350
1AD2
  3
DWGPROPS
350
1AD6
  0
DICTIONARY
  5
1D0
330
2
100
AcDbDictionary
280
     1
281
     1
  3
ACAD_LAYERSTATES
360
1D1
  0
DICTIONARY
  5
A08
330
1F
100
AcDbDictionary
280
     1
281
     1
  3
ACAD_SORTENTS
360
A09
  0
DICTIONARY
  5
1ADE
330
220
100
AcDbDictionary
280
     1
281
     1
  3
ACAD_XREC_ROUNDTRIP
360
1ADF
  0
DICTIONARY
  5
1AD7
102
{ACAD_REACTORS
330
C
102
}
330
C
100
AcDbDictionary
281
     1
  3
DIMFXL
350
1AD8
  0
DICTIONARY
  5
73
102
{ACAD_REACTORS
330
C
102
}
330
C
100
AcDbDictionary
281
     1
  0
DICTIONARY
  5
D
102
{ACAD_REACTORS
330
C
102
}
330
C
100
AcDbDictionary
281
     1
  0
DICTIONARY
  5
1A
102
{ACAD_REACTORS
330
C
102
}
330
C
100
AcDbDictionary
281
     1
  3
Layout1
350
59
  3
Model
350
22
  0
DICTIONARY
  5
72
102
{ACAD_REACTORS
330
C
102
}
330
C
100
AcDbDictionary
281
     1
  3
ByBlock
350
1AB3
  3
ByLayer
350
1AB2
  3
Global
350
1AB4
  0
DICTIONARY
  5
17
102
{ACAD_REACTORS
330
C
102
}
330
C
100
AcDbDictionary
281
     1
  3
Standard
350
18
  0
DICTIONARY
  5
19
102
{ACAD_REACTORS
330
C
102
}
330
C
100
AcDbDictionary
281
     1
  0
ACDBDICTIONARYWDFLT
  5
E
102
{ACAD_REACTORS
330
C
102
}
330
C
100
AcDbDictionary
281
     1
  3
Normal
350
F
100
AcDbDictionaryWithDefault
340
F
  0
DICTIONARY
  5
86
102
{ACAD_REACTORS
330
C
102
}
330
C
100
AcDbDictionary
281
     1
  3
Standard
350
87
  0
DICTIONARY
  5
1AB5
102
{ACAD_REACTORS
330
C
102
}
330
C
100
AcDbDictionary
281
     1
  3
2dWireframe
350
1ABB
  3
3D Hidden
350
1ABD
  3
3dWireframe
350
1ABC
  3
Basic
350
1ABA
  3
Brighten
350
1AC1
  3
ColorChange
350
1AC5
  3
Conceptual
350
1ABE
  3
Dim
350
1AC0
  3
Facepattern
350
1AC4
  3
Flat
350
1AB6
  3
FlatWithEdges
350
1AB7
  3
Gouraud
350
1AB8
  3
GouraudWithEdges
350
1AB9
  3
Linepattern
350
1AC3
  3
Realistic
350
1ABF
  3
Thicken
350
1AC2
  0
DICTIONARY
  5
66
102
{ACAD_REACTORS
330
C
102
}
330
C
100
AcDbDictionary
281
     1
  3
CTABLESTYLE
350
1FB
  3
DIMASSOC
350
67
  3
HIDETEXT
350
6B
  3
INDEXCTL
350
1AD5
  3
SORTENTS
350
1AD4
  0
DICTIONARY
  5
1AD2
102
{ACAD_REACTORS
330
C
102
}
330
C
100
AcDbDictionary
281
     1
  3
ASEBlockHierarchyIndexRecord
350
1AD3
1001
DCO15
1040
1651991406.786
  0
XRECORD
  5
1AD6
102
{ACAD_REACTORS
330
C
102
}
330
C
100
AcDbXrecord
280
     1
  1
DWGPROPS COOKIE
  2

  3

  4

  6

  7

  8
nnguyen
  9

300
=
301
=
302
=
303
=
304
=
305
=
306
=
307
=
308
=
309
=
 40
0.045236400462963
 41
2454617.584509595
 42
2454923.482763727
  1

 90
        0
  0
DICTIONARY
  5
1D1
102
{ACAD_REACTORS
330
1D0
102
}
330
1D0
100
AcDbDictionary
281
     1
  0
SORTENTSTABLE
  5
A09
102
{ACAD_REACTORS
330
A08
102
}
330
A08
100
AcDbSortentsTable
330
1F
331
18E8
  5
18E8
331
19DC
  5
19DC
331
1A1B
  5
1A1B
331
1A8A
  5
1A8A
331
192F
  5
192F
331
1966
  5
1966
331
18F0
  5
18F0
331
19A5
  5
19A5
331
1A23
  5
1A23
331
1A92
  5
1A92
331
19AD
  5
19AD
331
19E4
  5
19E4
331
1937
  5
1937
331
196E
  5
196E
331
18F8
  5
18F8
331
1A2B
  5
1A2B
331
1A9A
  5
1A9A
331
19B5
  5
19B5
331
19EC
  5
19EC
331
1900
  5
1900
331
193F
  5
193F
331
1976
  5
1976
331
1AA2
  5
1AA2
331
197E
  5
197E
331
19F4
  5
19F4
331
6F9
  5
6F9
331
18B3
  5
18B3
331
9FF
  5
9FF
331
17FE
  5
17FE
331
6C2
  5
6C2
331
183D
  5
183D
331
1874
  5
1874
331
18BB
  5
18BB
331
729
  5
729
331
A07
  5
A07
331
1806
  5
1806
331
6CA
  5
6CA
331
1845
  5
1845
331
187C
  5
187C
331
184D
  5
184D
331
1884
  5
1884
331
180E
  5
180E
331
18C3
  5
18C3
331
6D2
  5
6D2
331
7B0
  5
7B0
331
188C
  5
188C
331
1816
  5
1816
331
1908
  5
1908
331
18C9
  5
18C9
331
1A33
  5
1A33
331
1986
  5
1986
331
19BD
  5
19BD
331
18D1
  5
18D1
331
1910
  5
1910
331
1947
  5
1947
331
19FC
  5
19FC
331
1A04
  5
1A04
331
1A3B
  5
1A3B
331
194F
  5
194F
331
198E
  5
198E
331
18D9
  5
18D9
331
1918
  5
1918
331
19C5
  5
19C5
331
19CD
  5
19CD
331
1A0C
  5
1A0C
331
1920
  5
1920
331
1957
  5
1957
331
1996
  5
1996
331
1A14
  5
1A14
331
199E
  5
199E
331
19D5
  5
19D5
331
195F
  5
195F
331
1A83
  5
1A83
331
6DA
  5
6DA
331
731
  5
731
331
181E
  5
181E
331
1855
  5
1855
331
1894
  5
1894
331
7D0
  5
7D0
331
6E2
  5
6E2
331
739
  5
739
331
17DF
  5
17DF
331
1826
  5
1826
331
185D
  5
185D
331
189C
  5
189C
331
6EA
  5
6EA
331
741
  5
741
331
17E7
  5
17E7
331
18A4
  5
18A4
331
17EF
  5
17EF
331
6F2
  5
6F2
331
9F0
  5
9F0
331
182E
  5
182E
331
1865
  5
1865
331
186D
  5
186D
331
18AC
  5
18AC
331
17F7
  5
17F7
331
1836
  5
1836
331
1928
  5
1928
331
18E9
  5
18E9
331
1A1C
  5
1A1C
331
1A8B
  5
1A8B
331
19A6
  5
19A6
331
19DD
  5
19DD
331
18F1
  5
18F1
331
1930
  5
1930
331
1967
  5
1967
331
1A24
  5
1A24
331
1A93
  5
1A93
331
196F
  5
196F
331
19AE
  5
19AE
331
19E5
  5
19E5
331
18F9
  5
18F9
331
1938
  5
1938
331
19ED
  5
19ED
331
1A2C
  5
1A2C
331
1A9B
  5
1A9B
331
1977
  5
1977
331
1901
  5
1901
331
19B6
  5
19B6
331
1AA3
  5
1AA3
331
19F5
  5
19F5
331
197F
  5
197F
331
9F8
  5
9F8
331
759
  5
759
331
183E
  5
183E
331
1875
  5
1875
331
A00
  5
A00
331
17FF
  5
17FF
331
18B4
  5
18B4
331
6C3
  5
6C3
331
18BC
  5
18BC
331
1846
  5
1846
331
187D
  5
187D
331
6CB
  5
6CB
331
72A
  5
72A
331
7A1
  5
7A1
331
1807
  5
1807
331
18C4
  5
18C4
331
180F
  5
180F
331
6D3
  5
6D3
331
7B1
  5
7B1
331
184E
  5
184E
331
1885
  5
1885
331
1817
  5
1817
331
188D
  5
188D
331
1940
  5
1940
331
18CA
  5
18CA
331
1909
  5
1909
331
1A34
  5
1A34
331
19BE
  5
19BE
331
19FD
  5
19FD
331
1911
  5
1911
331
1948
  5
1948
331
18D2
  5
18D2
331
1987
  5
1987
331
1A3C
  5
1A3C
331
198F
  5
198F
331
19C6
  5
19C6
331
1919
  5
1919
331
1950
  5
1950
331
1A05
  5
1A05
331
18DA
  5
18DA
331
1997
  5
1997
331
19CE
  5
19CE
331
18E2
  5
18E2
331
1921
  5
1921
331
1958
  5
1958
331
1A0D
  5
1A0D
331
1A84
  5
1A84
331
1A15
  5
1A15
331
199F
  5
199F
331
19D6
  5
19D6
331
6DB
  5
6DB
331
732
  5
732
331
1895
  5
1895
331
17E0
  5
17E0
331
6E3
  5
6E3
331
73A
  5
73A
331
7D1
  5
7D1
331
181F
  5
181F
331
1856
  5
1856
331
185E
  5
185E
331
189D
  5
189D
331
17E8
  5
17E8
331
6EB
  5
6EB
331
742
  5
742
331
9E9
  5
9E9
331
1827
  5
1827
331
182F
  5
182F
331
1866
  5
1866
331
18A5
  5
18A5
331
17F0
  5
17F0
331
6F3
  5
6F3
331
9F1
  5
9F1
331
18AD
  5
18AD
331
1837
  5
1837
331
186E
  5
186E
331
1929
  5
1929
331
1960
  5
1960
331
18EA
  5
18EA
331
19DE
  5
19DE
331
1A1D
  5
1A1D
331
1A8C
  5
1A8C
331
1931
  5
1931
331
1968
  5
1968
331
18F2
  5
18F2
331
19A7
  5
19A7
331
1A25
  5
1A25
331
1A94
  5
1A94
331
19AF
  5
19AF
331
19E6
  5
19E6
331
1939
  5
1939
331
1970
  5
1970
331
18FA
  5
18FA
331
1A2D
  5
1A2D
331
1A9C
  5
1A9C
331
19B7
  5
19B7
331
19EE
  5
19EE
331
1902
  5
1902
331
1978
  5
1978
331
1AA4
  5
1AA4
331
19F6
  5
19F6
331
6BC
  5
6BC
331
9F9
  5
9F9
331
17F8
  5
17F8
331
18B5
  5
18B5
331
A01
  5
A01
331
1800
  5
1800
331
762
  5
762
331
183F
  5
183F
331
1876
  5
1876
331
6C4
  5
6C4
331
723
  5
723
331
187E
  5
187E
331
18BD
  5
18BD
331
72B
  5
72B
331
7A2
  5
7A2
331
1808
  5
1808
331
6CC
  5
6CC
331
1847
  5
1847
331
184F
  5
184F
331
1886
  5
1886
331
1810
  5
1810
331
18C5
  5
18C5
331
6D4
  5
6D4
331
7B2
  5
7B2
331
188E
  5
188E
331
1980
  5
1980
331
18CB
  5
18CB
331
190A
  5
190A
331
1941
  5
1941
331
19FE
  5
19FE
331
1A35
  5
1A35
331
1988
  5
1988
331
19BF
  5
19BF
331
1AAC
  5
1AAC
331
18D3
  5
18D3
331
1912
  5
1912
331
1949
  5
1949
331
1A06
  5
1A06
331
1A3D
  5
1A3D
331
1951
  5
1951
331
1990
  5
1990
331
18DB
  5
18DB
331
191A
  5
191A
331
19C7
  5
19C7
331
1998
  5
1998
331
19CF
  5
19CF
331
1922
  5
1922
331
1959
  5
1959
331
1A0E
  5
1A0E
331
18E3
  5
18E3
331
1A16
  5
1A16
331
19D7
  5
19D7
331
1A85
  5
1A85
331
6DC
  5
6DC
331
733
  5
733
331
1818
  5
1818
331
1820
  5
1820
331
1857
  5
1857
331
1896
  5
1896
331
6E4
  5
6E4
331
73B
  5
73B
331
17E1
  5
17E1
331
17E9
  5
17E9
331
9EA
  5
9EA
331
1828
  5
1828
331
185F
  5
185F
331
6EC
  5
6EC
331
743
  5
743
331
189E
  5
189E
331
18A6
  5
18A6
331
17F1
  5
17F1
331
6F4
  5
6F4
331
74B
  5
74B
331
9F2
  5
9F2
331
1830
  5
1830
331
1867
  5
1867
331
186F
  5
186F
331
18AE
  5
18AE
331
19A0
  5
19A0
331
192A
  5
192A
331
1961
  5
1961
331
18EB
  5
18EB
331
1A1E
  5
1A1E
331
1A8D
  5
1A8D
331
19A8
  5
19A8
331
19DF
  5
19DF
331
18F3
  5
18F3
331
1932
  5
1932
331
1969
  5
1969
331
1A26
  5
1A26
331
1A95
  5
1A95
331
193A
  5
193A
331
1971
  5
1971
331
18FB
  5
18FB
331
19B0
  5
19B0
331
19E7
  5
19E7
331
19EF
  5
19EF
331
1979
  5
1979
331
1903
  5
1903
331
1A2E
  5
1A2E
331
1A9D
  5
1A9D
331
1AA5
  5
1AA5
331
19F7
  5
19F7
331
9FA
  5
9FA
331
17F9
  5
17F9
331
6BD
  5
6BD
331
1838
  5
1838
331
1840
  5
1840
331
1877
  5
1877
331
A02
  5
A02
331
1801
  5
1801
331
18B6
  5
18B6
331
6C5
  5
6C5
331
18BE
  5
18BE
331
1848
  5
1848
331
187F
  5
187F
331
1809
  5
1809
331
6CD
  5
6CD
331
72C
  5
72C
331
A0A
  5
A0A
331
18C6
  5
18C6
331
1811
  5
1811
331
6D5
  5
6D5
331
1887
  5
1887
331
188F
  5
188F
331
1942
  5
1942
331
1981
  5
1981
331
18CC
  5
18CC
331
190B
  5
190B
331
19B8
  5
19B8
331
1A36
  5
1A36
331
1AAD
  5
1AAD
331
19C0
  5
19C0
331
19FF
  5
19FF
331
1913
  5
1913
331
194A
  5
194A
331
18D4
  5
18D4
331
1989
  5
1989
331
1A3E
  5
1A3E
331
1991
  5
1991
331
19C8
  5
19C8
331
18DC
  5
18DC
331
191B
  5
191B
331
1952
  5
1952
331
1A07
  5
1A07
331
1A0F
  5
1A0F
331
1999
  5
1999
331
19D0
  5
19D0
331
18E4
  5
18E4
331
1923
  5
1923
331
195A
  5
195A
331
1A86
  5
1A86
331
1A17
  5
1A17
331
7CB
  5
7CB
331
1819
  5
1819
331
1850
  5
1850
331
6DD
  5
6DD
331
734
  5
734
331
1897
  5
1897
331
6E5
  5
6E5
331
73C
  5
73C
331
17E2
  5
17E2
331
1821
  5
1821
331
1858
  5
1858
331
1860
  5
1860
331
189F
  5
189F
331
17EA
  5
17EA
331
6ED
  5
6ED
331
744
  5
744
331
9EB
  5
9EB
331
1829
  5
1829
331
1831
  5
1831
331
1868
  5
1868
331
18A7
  5
18A7
331
17F2
  5
17F2
331
6F5
  5
6F5
331
9F3
  5
9F3
331
18AF
  5
18AF
331
192B
  5
192B
331
1962
  5
1962
331
18EC
  5
18EC
331
19A1
  5
19A1
331
19D8
  5
19D8
331
19A9
  5
19A9
331
19E0
  5
19E0
331
1933
  5
1933
331
196A
  5
196A
331
18F4
  5
18F4
331
1A1F
  5
1A1F
331
1A8E
  5
1A8E
331
1A27
  5
1A27
331
1A96
  5
1A96
331
19B1
  5
19B1
331
19E8
  5
19E8
331
193B
  5
193B
331
1972
  5
1972
331
18FC
  5
18FC
331
1A2F
  5
1A2F
331
1A9E
  5
1A9E
331
19F0
  5
19F0
331
1904
  5
1904
331
197A
  5
197A
331
9FB
  5
9FB
331
17FA
  5
17FA
331
6BE
  5
6BE
331
1839
  5
1839
331
1870
  5
1870
331
18B7
  5
18B7
331
725
  5
725
331
A03
  5
A03
331
1802
  5
1802
331
6C6
  5
6C6
331
1841
  5
1841
331
1878
  5
1878
331
1880
  5
1880
331
18BF
  5
18BF
331
72D
  5
72D
331
180A
  5
180A
331
6CE
  5
6CE
331
1849
  5
1849
331
1888
  5
1888
331
1812
  5
1812
331
18C7
  5
18C7
331
6D6
  5
6D6
331
7B4
  5
7B4
331
1982
  5
1982
331
19B9
  5
19B9
331
18CD
  5
18CD
331
190C
  5
190C
331
1943
  5
1943
331
19F8
  5
19F8
331
1A00
  5
1A00
331
1A37
  5
1A37
331
194B
  5
194B
331
198A
  5
198A
331
18D5
  5
18D5
331
1914
  5
1914
331
19C1
  5
19C1
331
1A08
  5
1A08
331
1A3F
  5
1A3F
331
1953
  5
1953
331
1992
  5
1992
331
18DD
  5
18DD
331
191C
  5
191C
331
19C9
  5
19C9
331
199A
  5
199A
331
19D1
  5
19D1
331
1924
  5
1924
331
195B
  5
195B
331
18E5
  5
18E5
331
1A10
  5
1A10
331
1A87
  5
1A87
331
1851
  5
1851
331
1890
  5
1890
331
6DE
  5
6DE
331
735
  5
735
331
7CC
  5
7CC
331
181A
  5
181A
331
1822
  5
1822
331
1859
  5
1859
331
1898
  5
1898
331
6E6
  5
6E6
331
17E3
  5
17E3
331
18A0
  5
18A0
331
17EB
  5
17EB
331
9EC
  5
9EC
331
182A
  5
182A
331
1861
  5
1861
331
6EE
  5
6EE
331
745
  5
745
331
18A8
  5
18A8
331
17F3
  5
17F3
331
9F4
  5
9F4
331
1832
  5
1832
331
1869
  5
1869
331
1A18
  5
1A18
331
19A2
  5
19A2
331
19D9
  5
19D9
331
18ED
  5
18ED
331
192C
  5
192C
331
1963
  5
1963
331
1A20
  5
1A20
331
1A8F
  5
1A8F
331
19AA
  5
19AA
331
19E1
  5
19E1
331
18F5
  5
18F5
331
1934
  5
1934
331
196B
  5
196B
331
1A28
  5
1A28
331
1A97
  5
1A97
331
193C
  5
193C
331
1973
  5
1973
331
18FD
  5
18FD
331
19B2
  5
19B2
331
19E9
  5
19E9
331
19F1
  5
19F1
331
197B
  5
197B
331
1905
  5
1905
331
1A9F
  5
1A9F
331
183A
  5
183A
331
1871
  5
1871
331
9FC
  5
9FC
331
17FB
  5
17FB
331
18B0
  5
18B0
331
6BF
  5
6BF
331
75D
  5
75D
331
1842
  5
1842
331
1879
  5
1879
331
6C7
  5
6C7
331
726
  5
726
331
1803
  5
1803
331
18B8
  5
18B8
331
18C0
  5
18C0
331
7A5
  5
7A5
331
180B
  5
180B
331
184A
  5
184A
331
1881
  5
1881
331
6CF
  5
6CF
331
72E
  5
72E
331
1813
  5
1813
331
6D7
  5
6D7
331
1889
  5
1889
331
19BA
  5
19BA
331
19F9
  5
19F9
331
1944
  5
1944
331
1983
  5
1983
331
1A30
  5
1A30
331
18CE
  5
18CE
331
190D
  5
190D
331
1A38
  5
1A38
331
19C2
  5
19C2
331
1A01
  5
1A01
331
1915
  5
1915
331
194C
  5
194C
331
18D6
  5
18D6
331
198B
  5
198B
331
1A40
  5
1A40
331
1993
  5
1993
331
19CA
  5
19CA
331
18DE
  5
18DE
331
191D
  5
191D
331
1954
  5
1954
331
1A09
  5
1A09
331
1A11
  5
1A11
331
195C
  5
195C
331
199B
  5
199B
331
19D2
  5
19D2
331
18E6
  5
18E6
331
1925
  5
1925
331
1891
  5
1891
331
7CD
  5
7CD
331
181B
  5
181B
331
1852
  5
1852
331
6DF
  5
6DF
331
1899
  5
1899
331
6E7
  5
6E7
331
17E4
  5
17E4
331
1823
  5
1823
331
185A
  5
185A
331
1862
  5
1862
331
18A1
  5
18A1
331
17EC
  5
17EC
331
6EF
  5
6EF
331
746
  5
746
331
9ED
  5
9ED
331
182B
  5
182B
331
18A9
  5
18A9
331
1833
  5
1833
331
186A
  5
186A
331
17F4
  5
17F4
331
6F7
  5
6F7
331
9F5
  5
9F5
331
1A19
  5
1A19
331
1A88
  5
1A88
331
192D
  5
192D
331
1964
  5
1964
331
18EE
  5
18EE
331
19A3
  5
19A3
331
19DA
  5
19DA
331
19AB
  5
19AB
331
19E2
  5
19E2
331
1935
  5
1935
331
196C
  5
196C
331
18F6
  5
18F6
331
1A21
  5
1A21
331
1A90
  5
1A90
331
1A29
  5
1A29
331
1A98
  5
1A98
331
19B3
  5
19B3
331
19EA
  5
19EA
331
18FE
  5
18FE
331
193D
  5
193D
331
1974
  5
1974
331
1AA0
  5
1AA0
331
19F2
  5
19F2
331
1906
  5
1906
331
197C
  5
197C
331
18B1
  5
18B1
331
9FD
  5
9FD
331
17FC
  5
17FC
331
6C0
  5
6C0
331
183B
  5
183B
331
1872
  5
1872
331
18B9
  5
18B9
331
727
  5
727
331
A05
  5
A05
331
1804
  5
1804
331
6C8
  5
6C8
331
1843
  5
1843
331
187A
  5
187A
331
184B
  5
184B
331
1882
  5
1882
331
72F
  5
72F
331
180C
  5
180C
331
18C1
  5
18C1
331
6D0
  5
6D0
331
188A
  5
188A
331
1814
  5
1814
331
1A31
  5
1A31
331
1984
  5
1984
331
19BB
  5
19BB
331
18CF
  5
18CF
331
190E
  5
190E
331
1945
  5
1945
331
19FA
  5
19FA
331
1A02
  5
1A02
331
1A39
  5
1A39
331
194D
  5
194D
331
198C
  5
198C
331
18D7
  5
18D7
331
1916
  5
1916
331
19C3
  5
19C3
331
19CB
  5
19CB
331
1A0A
  5
1A0A
331
1955
  5
1955
331
1994
  5
1994
331
1A41
  5
1A41
331
18DF
  5
18DF
331
191E
  5
191E
331
1A12
  5
1A12
331
199C
  5
199C
331
19D3
  5
19D3
331
1926
  5
1926
331
195D
  5
195D
331
18E7
  5
18E7
331
6D8
  5
6D8
331
181C
  5
181C
331
1853
  5
1853
331
1892
  5
1892
331
17DD
  5
17DD
331
6E0
  5
6E0
331
7CE
  5
7CE
331
1824
  5
1824
331
185B
  5
185B
331
189A
  5
189A
331
6E8
  5
6E8
331
73F
  5
73F
331
17E5
  5
17E5
331
18A2
  5
18A2
331
17ED
  5
17ED
331
747
  5
747
331
9EE
  5
9EE
331
182C
  5
182C
331
1863
  5
1863
331
6F0
  5
6F0
331
18AA
  5
18AA
331
17F5
  5
17F5
331
9F6
  5
9F6
331
1834
  5
1834
331
186B
  5
186B
331
1A1A
  5
1A1A
331
1A89
  5
1A89
331
19A4
  5
19A4
331
19DB
  5
19DB
331
18EF
  5
18EF
331
192E
  5
192E
331
1965
  5
1965
331
1A22
  5
1A22
331
1A91
  5
1A91
331
196D
  5
196D
331
19AC
  5
19AC
331
19E3
  5
19E3
331
18F7
  5
18F7
331
1936
  5
1936
331
1A2A
  5
1A2A
331
1A99
  5
1A99
331
193E
  5
193E
331
1975
  5
1975
331
18FF
  5
18FF
331
19B4
  5
19B4
331
19EB
  5
19EB
331
19F3
  5
19F3
331
197D
  5
197D
331
1907
  5
1907
331
1AA1
  5
1AA1
331
6F8
  5
6F8
331
183C
  5
183C
331
1873
  5
1873
331
9FE
  5
9FE
331
17FD
  5
17FD
331
18B2
  5
18B2
331
6C1
  5
6C1
331
18BA
  5
18BA
331
1844
  5
1844
331
187B
  5
187B
331
6C9
  5
6C9
331
A06
  5
A06
331
1805
  5
1805
331
18C2
  5
18C2
331
180D
  5
180D
331
6D1
  5
6D1
331
184C
  5
184C
331
1883
  5
1883
331
1815
  5
1815
331
188B
  5
188B
331
18C8
  5
18C8
331
19BC
  5
19BC
331
19FB
  5
19FB
331
190F
  5
190F
331
1946
  5
1946
331
18D0
  5
18D0
331
1985
  5
1985
331
1A32
  5
1A32
331
1A3A
  5
1A3A
331
19C4
  5
19C4
331
1A03
  5
1A03
331
1917
  5
1917
331
194E
  5
194E
331
18D8
  5
18D8
331
198D
  5
198D
331
1A42
  5
1A42
331
1995
  5
1995
331
19CC
  5
19CC
331
18E0
  5
18E0
331
191F
  5
191F
331
1956
  5
1956
331
1A0B
  5
1A0B
331
1A13
  5
1A13
331
195E
  5
195E
331
199D
  5
199D
331
19D4
  5
19D4
331
1927
  5
1927
331
6D9
  5
6D9
331
730
  5
730
331
1893
  5
1893
331
17DE
  5
17DE
331
6E1
  5
6E1
331
7CF
  5
7CF
331
181D
  5
181D
331
1854
  5
1854
331
185C
  5
185C
331
189B
  5
189B
331
6E9
  5
6E9
331
740
  5
740
331
17E6
  5
17E6
331
1825
  5
1825
331
182D
  5
182D
331
1864
  5
1864
331
18A3
  5
18A3
331
17EE
  5
17EE
331
6F1
  5
6F1
331
748
  5
748
331
9EF
  5
9EF
331
18AB
  5
18AB
331
1835
  5
1835
331
186C
  5
186C
331
17F6
  5
17F6
331
9F7
  5
9F7
  0
XRECORD
  5
1ADF
102
{ACAD_REACTORS
330
1ADE
102
}
330
1ADE
100
AcDbXrecord
280
     1
102
SHADEPLOT
 70
     0
  0
XRECORD
  5
1AD8
102
{ACAD_REACTORS
330
1AD7
102
}
330
1AD7
100
AcDbXrecord
280
     1
 40
0.18
  0
LAYOUT
  5
59
102
{ACAD_XDICTIONARY
360
227
102
}
102
{ACAD_REACTORS
330
1A
102
}
330
1A
100
AcDbPlotSettings
  1

  2
none_device
  4
ISO_A4_(210.00_x_297.00_MM)
  6

 40
7.5
 41
20.0
 42
7.5
 43
20.0
 44
210.0
 45
297.0
 46
0.0
 47
0.0
 48
0.0
 49
0.0
140
0.0
141
0.0
142
1.0
143
1.0
 70
   688
 72
     1
 73
     1
 74
     5
  7

 75
    16
147
1.0
148
0.0
149
0.0
100
AcDbLayout
  1
Layout1
 70
     1
 71
     1
 10
-20.0
 20
-7.5
 11
277.0
 21
202.5
 12
0.0
 22
0.0
 32
0.0
 14
1.000000000000000E+20
 24
1.000000000000000E+20
 34
1.000000000000000E+20
 15
-1.000000000000000E+20
 25
-1.000000000000000E+20
 35
-1.000000000000000E+20
146
0.0
 13
0.0
 23
0.0
 33
0.0
 16
1.0
 26
0.0
 36
0.0
 17
0.0
 27
1.0
 37
0.0
 76
     0
330
58
331
220
1001
ACAD_PSEXT
1000
None
1000
None
1000
Not applicable
1000
The layout will not be plotted unless a new plotter configuration name is selected.
1070
     0
  0
LAYOUT
  5
22
102
{ACAD_XDICTIONARY
360
1AD9
102
}
102
{ACAD_REACTORS
330
1A
102
}
330
1A
100
AcDbPlotSettings
  1

  2
none_device
  4
ANSI_A_(8.50_x_11.00_Inches)
  6

 40
6.349999904632568
 41
19.04999923706055
 42
6.350006103515625
 43
19.04998779296875
 44
215.8999938964844
 45
279.3999938964844
 46
0.0
 47
0.0
 48
0.0
 49
0.0
140
0.0
141
0.0
142
1.0
143
2.584895464708373
 70
 11952
 72
     0
 73
     1
 74
     0
  7

 75
     0
147
0.3868628397755418
148
0.0
149
0.0
100
AcDbLayout
  1
Model
 70
     1
 71
     0
 10
0.0
 20
0.0
 11
12.0
 21
9.0
 12
0.0
 22
0.0
 32
0.0
 14
0.0
 24
0.0
 34
0.0
 15
0.0
 25
0.0
 35
0.0
146
0.0
 13
0.0
 23
0.0
 33
0.0
 16
1.0
 26
0.0
 36
0.0
 17
0.0
 27
1.0
 37
0.0
 76
     0
330
1F
331
1AB0
  0
MATERIAL
  5
1AB3
102
{ACAD_XDICTIONARY
360
1AE2
102
}
102
{ACAD_REACTORS
330
72
102
}
330
72
100
AcDbMaterial
  1
ByBlock
  0
MATERIAL
  5
1AB2
102
{ACAD_XDICTIONARY
360
1AE0
102
}
102
{ACAD_REACTORS
330
72
102
}
330
72
100
AcDbMaterial
  1
ByLayer
  0
MATERIAL
  5
1AB4
102
{ACAD_XDICTIONARY
360
1AE4
102
}
102
{ACAD_REACTORS
330
72
102
}
330
72
100
AcDbMaterial
  1
Global
  0
MLINESTYLE
  5
18
102
{ACAD_REACTORS
330
17
102
}
330
17
100
AcDbMlineStyle
  2
STANDARD
 70
     0
  3

 62
   256
 51
90.0
 52
90.0
 71
     2
 49
0.5
 62
   256
  6
BYLAYER
 49
-0.5
 62
   256
  6
BYLAYER
  0
ACDBPLACEHOLDER
  5
F
102
{ACAD_REACTORS
330
E
102
}
330
E
  0
TABLESTYLE
  5
87
102
{ACAD_XDICTIONARY
360
1ADC
102
}
102
{ACAD_REACTORS
330
86
102
}
330
86
100
AcDbTableStyle
  3
Standard
 70
     0
 71
     0
 40
0.06
 41
0.06
280
     0
281
     0
  7
Standard
140
0.18
170
     2
 62
     0
 63
     7
283
     0
274
    -2
284
     1
 64
     0
275
    -2
285
     1
 65
     0
276
    -2
286
     1
 66
     0
277
    -2
287
     1
 67
     0
278
    -2
288
     1
 68
     0
279
    -2
289
     1
 69
     0
  7
Standard
140
0.25
170
     5
 62
     0
 63
     7
283
     0
274
    -2
284
     1
 64
     0
275
    -2
285
     1
 65
     0
276
    -2
286
     1
 66
     0
277
    -2
287
     1
 67
     0
278
    -2
288
     1
 68
     0
279
    -2
289
     1
 69
     0
  7
Standard
140
0.18
170
     5
 62
     0
 63
     7
283
     0
274
    -2
284
     1
 64
     0
275
    -2
285
     1
 65
     0
276
    -2
286
     1
 66
     0
277
    -2
287
     1
 67
     0
278
    -2
288
     1
 68
     0
279
    -2
289
     1
 69
     0
  0
VISUALSTYLE
  5
1ABB
102
{ACAD_REACTORS
330
1AB5
102
}
330
1AB5
100
AcDbVisualStyle
  2
2dWireframe
 70
     4
 71
     0
 72
     2
 73
     0
 90
        0
 40
-0.6
 41
-30.0
 62
     5
 63
     7
 74
     1
 91
        4
 64
     7
 65
   257
 75
     1
175
     1
 42
1.0
 92
        0
 66
   257
 43
1.0
 76
     1
 77
     6
 78
     2
 67
     7
 79
     5
170
     0
171
     0
290
     0
174
     0
 93
        1
 44
0.0
173
     0
291
     0
 45
0.0
1001
ACAD
1000
AcDbSavedByObjectVersion
1070
     0
  0
VISUALSTYLE
  5
1ABD
102
{ACAD_REACTORS
330
1AB5
102
}
330
1AB5
100
AcDbVisualStyle
  2
3D Hidden
 70
     6
 71
     1
 72
     2
 73
     2
 90
        0
 40
-0.6
 41
-30.0
 62
     5
 63
     7
 74
     2
 91
        2
 64
     7
 65
   257
 75
     2
175
     1
 42
40.0
 92
        0
 66
   257
 43
1.0
 76
     1
 77
     6
 78
     2
 67
     7
 79
     3
170
     0
171
     0
290
     0
174
     0
 93
        1
 44
0.0
173
     0
291
     0
 45
0.0
1001
ACAD
1000
AcDbSavedByObjectVersion
1070
     0
  0
VISUALSTYLE
  5
1ABC
102
{ACAD_REACTORS
330
1AB5
102
}
330
1AB5
100
AcDbVisualStyle
  2
3dWireframe
 70
     5
 71
     0
 72
     2
 73
     0
 90
        0
 40
-0.6
 41
-30.0
 62
     5
 63
     7
 74
     1
 91
        4
 64
     7
 65
   257
 75
     1
175
     1
 42
1.0
 92
        0
 66
   257
 43
1.0
 76
     1
 77
     6
 78
     2
 67
     7
 79
     5
170
     0
171
     0
290
     0
174
     0
 93
        1
 44
0.0
173
     0
291
     0
 45
0.0
1001
ACAD
1000
AcDbSavedByObjectVersion
1070
     0
  0
VISUALSTYLE
  5
1ABA
102
{ACAD_REACTORS
330
1AB5
102
}
330
1AB5
100
AcDbVisualStyle
  2
Basic
 70
     7
 71
     1
 72
     0
 73
     1
 90
        0
 40
-0.6
 41
-30.0
 62
     5
 63
     7
 74
     0
 91
        4
 64
     7
 65
   257
 75
     1
175
     1
 42
1.0
 92
        8
 66
     7
 43
1.0
 76
     1
 77
     6
 78
     2
 67
     7
 79
     5
170
     0
171
     0
290
     0
174
     0
 93
        1
 44
0.0
173
     0
291
     1
 45
0.0
1001
ACAD
1000
AcDbSavedByObjectVersion
1070
     0
  0
VISUALSTYLE
  5
1AC1
102
{ACAD_REACTORS
330
1AB5
102
}
330
1AB5
100
AcDbVisualStyle
  2
Brighten
 70
    12
 71
     2
 72
     2
 73
     0
 90
        0
 40
-0.6
 41
-30.0
 62
     5
 63
     7
 74
     1
 91
        4
 64
     7
 65
   257
 75
     1
175
     1
 42
1.0
 92
        8
 66
     7
 43
1.0
 76
     1
 77
     6
 78
     2
 67
     7
 79
     5
170
     0
171
     0
290
     0
174
     0
 93
        1
 44
50.0
173
     0
291
     1
 45
0.0
1001
ACAD
1000
AcDbSavedByObjectVersion
1070
     0
  0
VISUALSTYLE
  5
1AC5
102
{ACAD_REACTORS
330
1AB5
102
}
330
1AB5
100
AcDbVisualStyle
  2
ColorChange
 70
    16
 71
     2
 72
     2
 73
     3
 90
        0
 40
-0.6
 41
-30.0
 62
     5
 63
     8
 74
     1
 91
        4
 64
     7
 65
   257
 75
     1
175
     1
 42
1.0
 92
        8
 66
     8
 43
1.0
 76
     1
 77
     6
 78
     2
 67
     7
 79
     5
170
     0
171
     0
290
     0
174
     0
 93
        1
 44
0.0
173
     0
291
     1
 45
0.0
1001
ACAD
1000
AcDbSavedByObjectVersion
1070
     0
  0
VISUALSTYLE
  5
1ABE
102
{ACAD_REACTORS
330
1AB5
102
}
330
1AB5
100
AcDbVisualStyle
  2
Conceptual
 70
     9
 71
     3
 72
     2
 73
     0
 90
        0
 40
-0.6
 41
-30.0
 62
     5
 63
     7
 74
     2
 91
        2
 64
     7
 65
   257
 75
     1
175
     1
 42
40.0
 92
        8
 66
     7
 43
1.0
 76
     1
 77
     6
 78
     2
 67
     7
 79
     3
170
     0
171
     0
290
     0
174
     0
 93
        1
 44
0.0
173
     0
291
     0
 45
0.0
1001
ACAD
1000
AcDbSavedByObjectVersion
1070
     0
  0
VISUALSTYLE
  5
1AC0
102
{ACAD_REACTORS
330
1AB5
102
}
330
1AB5
100
AcDbVisualStyle
  2
Dim
 70
    11
 71
     2
 72
     2
 73
     0
 90
        0
 40
-0.6
 41
-30.0
 62
     5
 63
     7
 74
     1
 91
        4
 64
     7
 65
   257
 75
     1
175
     1
 42
1.0
 92
        8
 66
     7
 43
1.0
 76
     1
 77
     6
 78
     2
 67
     7
 79
     5
170
     0
171
     0
290
     0
174
     0
 93
        1
 44
-50.0
173
     0
291
     1
 45
0.0
1001
ACAD
1000
AcDbSavedByObjectVersion
1070
     0
  0
VISUALSTYLE
  5
1AC4
102
{ACAD_REACTORS
330
1AB5
102
}
330
1AB5
100
AcDbVisualStyle
  2
Facepattern
 70
    15
 71
     2
 72
     2
 73
     0
 90
        0
 40
-0.6
 41
-30.0
 62
     5
 63
     7
 74
     1
 91
        4
 64
     7
 65
   257
 75
     1
175
     1
 42
1.0
 92
        8
 66
     7
 43
1.0
 76
     1
 77
     6
 78
     2
 67
     7
 79
     5
170
     0
171
     0
290
     0
174
     0
 93
        1
 44
0.0
173
     0
291
     1
 45
0.0
1001
ACAD
1000
AcDbSavedByObjectVersion
1070
     0
  0
VISUALSTYLE
  5
1AB6
102
{ACAD_REACTORS
330
1AB5
102
}
330
1AB5
100
AcDbVisualStyle
  2
Flat
 70
     0
 71
     2
 72
     1
 73
     1
 90
        2
 40
-0.6
 41
30.0
 62
     5
 63
     7
 74
     0
 91
        4
 64
     7
 65
   257
 75
     1
175
     1
 42
1.0
 92
        8
 66
     7
 43
1.0
 76
     1
 77
     6
 78
     2
 67
     7
 79
     5
170
     0
171
     0
290
     0
174
     0
 93
       13
 44
0.0
173
     0
291
     1
 45
0.0
1001
ACAD
1000
AcDbSavedByObjectVersion
1070
     0
  0
VISUALSTYLE
  5
1AB7
102
{ACAD_REACTORS
330
1AB5
102
}
330
1AB5
100
AcDbVisualStyle
  2
FlatWithEdges
 70
     1
 71
     2
 72
     1
 73
     1
 90
        2
 40
-0.6
 41
30.0
 62
     5
 63
     7
 74
     1
 91
        4
 64
     7
 65
   257
 75
     1
175
     1
 42
1.0
 92
        0
 66
   257
 43
1.0
 76
     1
 77
     6
 78
     2
 67
     7
 79
     5
170
     0
171
     0
290
     0
174
     0
 93
       13
 44
0.0
173
     0
291
     1
 45
0.0
1001
ACAD
1000
AcDbSavedByObjectVersion
1070
     0
  0
VISUALSTYLE
  5
1AB8
102
{ACAD_REACTORS
330
1AB5
102
}
330
1AB5
100
AcDbVisualStyle
  2
Gouraud
 70
     2
 71
     2
 72
     2
 73
     1
 90
        2
 40
-0.6
 41
30.0
 62
     5
 63
     7
 74
     0
 91
        4
 64
     7
 65
   257
 75
     1
175
     1
 42
1.0
 92
        0
 66
     7
 43
1.0
 76
     1
 77
     6
 78
     2
 67
     7
 79
     5
170
     0
171
     0
290
     0
174
     0
 93
       13
 44
0.0
173
     0
291
     1
 45
0.0
1001
ACAD
1000
AcDbSavedByObjectVersion
1070
     0
  0
VISUALSTYLE
  5
1AB9
102
{ACAD_REACTORS
330
1AB5
102
}
330
1AB5
100
AcDbVisualStyle
  2
GouraudWithEdges
 70
     3
 71
     2
 72
     2
 73
     1
 90
        2
 40
-0.6
 41
30.0
 62
     5
 63
     7
 74
     1
 91
        4
 64
     7
 65
   257
 75
     1
175
     1
 42
1.0
 92
        0
 66
   257
 43
1.0
 76
     1
 77
     6
 78
     2
 67
     7
 79
     5
170
     0
171
     0
290
     0
174
     0
 93
       13
 44
0.0
173
     0
291
     1
 45
0.0
1001
ACAD
1000
AcDbSavedByObjectVersion
1070
     0
  0
VISUALSTYLE
  5
1AC3
102
{ACAD_REACTORS
330
1AB5
102
}
330
1AB5
100
AcDbVisualStyle
  2
Linepattern
 70
    14
 71
     2
 72
     2
 73
     0
 90
        0
 40
-0.6
 41
-30.0
 62
     5
 63
     7
 74
     1
 91
        4
 64
     7
 65
   257
 75
     7
175
     7
 42
1.0
 92
        8
 66
     7
 43
1.0
 76
     1
 77
     6
 78
     2
 67
     7
 79
     5
170
     0
171
     0
290
     0
174
     0
 93
        1
 44
0.0
173
     0
291
     1
 45
0.0
1001
ACAD
1000
AcDbSavedByObjectVersion
1070
     0
  0
VISUALSTYLE
  5
1ABF
102
{ACAD_REACTORS
330
1AB5
102
}
330
1AB5
100
AcDbVisualStyle
  2
Realistic
 70
     8
 71
     2
 72
     2
 73
     0
 90
        0
 40
-0.6
 41
-30.0
 62
     5
 63
     7
 74
     1
 91
        0
 64
     7
 65
   257
 75
     1
175
     1
 42
1.0
 92
        8
 66
     8
 43
1.0
 76
     1
 77
     6
 78
     2
 67
     7
 79
     5
170
     0
171
     0
290
     0
174
     0
 93
       13
 44
0.0
173
     0
291
     0
 45
0.0
1001
ACAD
1000
AcDbSavedByObjectVersion
1070
     0
  0
VISUALSTYLE
  5
1AC2
102
{ACAD_REACTORS
330
1AB5
102
}
330
1AB5
100
AcDbVisualStyle
  2
Thicken
 70
    13
 71
     2
 72
     2
 73
     0
 90
        0
 40
-0.6
 41
-30.0
 62
     5
 63
     7
 74
     1
 91
        4
 64
     7
 65
   257
 75
     1
175
     1
 42
1.0
 92
       12
 66
     7
 43
1.0
 76
     1
 77
     6
 78
     2
 67
     7
 79
     5
170
     0
171
     0
290
     0
174
     0
 93
        1
 44
0.0
173
     0
291
     1
 45
0.0
1001
ACAD
1000
AcDbSavedByObjectVersion
1070
     0
  0
DICTIONARYVAR
  5
1FB
102
{ACAD_REACTORS
330
66
102
}
330
66
100
DictionaryVariables
280
     0
  1
STANDARD
  0
DICTIONARYVAR
  5
67
102
{ACAD_REACTORS
330
66
102
}
330
66
100
DictionaryVariables
280
     0
  1
2
  0
DICTIONARYVAR
  5
6B
102
{ACAD_REACTORS
330
66
102
}
330
66
100
DictionaryVariables
280
     0
  1
1
  0
DICTIONARYVAR
  5
1AD5
102
{ACAD_REACTORS
330
66
102
}
330
66
100
DictionaryVariables
280
     0
  1
0
  0
DICTIONARYVAR
  5
1AD4
102
{ACAD_REACTORS
330
66
102
}
330
66
100
DictionaryVariables
280
     0
  1
127
  0
XRECORD
  5
1AD3
102
{ACAD_REACTORS
330
1AD2
102
}
330
1AD2
100
AcDbXrecord
280
     1
  0
DICTIONARY
  5
227
330
59
100
AcDbDictionary
280
     1
281
     1
  3
ACAD_XREC_ROUNDTRIP
360
1ADB
  3
ADSK_XREC_LAYOUTTHUMBNAIL
360
228
  0
DICTIONARY
  5
1AD9
330
22
100
AcDbDictionary
280
     1
281
     1
  3
ACAD_XREC_ROUNDTRIP
360
1ADA
  0
DICTIONARY
  5
1AE2
330
1AB3
100
AcDbDictionary
280
     1
281
     1
  3
ACAD_XREC_ROUNDTRIP
360
1AE3
  0
DICTIONARY
  5
1AE0
330
1AB2
100
AcDbDictionary
280
     1
281
     1
  3
ACAD_XREC_ROUNDTRIP
360
1AE1
  0
DICTIONARY
  5
1AE4
330
1AB4
100
AcDbDictionary
280
     1
281
     1
  3
ACAD_XREC_ROUNDTRIP
360
1AE5
  0
DICTIONARY
  5
1ADC
330
87
100
AcDbDictionary
280
     1
281
     1
  3
ACAD_XREC_ROUNDTRIP
360
1ADD
  0
XRECORD
  5
1ADB
102
{ACAD_REACTORS
330
227
102
}
330
227
100
AcDbXrecord
280
     1
102
SHADEPLOT
 70
     0
102
SHADEPLOTRESLEVEL
 70
     2
102
SHADEPLOTCUSTOMDPI
 70
   300
  0
XRECORD
  5
228
102
{ACAD_REACTORS
330
227
102
}
330
227
100
AcDbXrecord
280
     1
310
28000000B40000007F00000001000800000000004C5900000000000000000000000100000000000000000000000000007F7F00000000000000000000000000000000000000000000000000000000000000000000330000006600000099000000CC000000FF00000000330000333300006633000099330000CC330000FF3300
310
0000660000336600006666000099660000CC660000FF66000000990000339900006699000099990000CC990000FF99000000CC000033CC000066CC000099CC0000CCCC0000FFCC000000FF000033FF000066FF000099FF0000CCFF0000FFFF000000003300330033006600330099003300CC003300FF003300003333003333
310
33006633330099333300CC333300FF33330000663300336633006666330099663300CC663300FF66330000993300339933006699330099993300CC993300FF99330000CC330033CC330066CC330099CC3300CCCC3300FFCC330000FF330033FF330066FF330099FF3300CCFF3300FFFF330000006600330066006600660099
310
006600CC006600FF00660000336600333366006633660099336600CC336600FF33660000666600336666006666660099666600CC666600FF66660000996600339966006699660099996600CC996600FF99660000CC660033CC660066CC660099CC6600CCCC6600FFCC660000FF660033FF660066FF660099FF6600CCFF6600
310
FFFF660000009900330099006600990099009900CC009900FF00990000339900333399006633990099339900CC339900FF33990000669900336699006666990099669900CC669900FF66990000999900339999006699990099999900CC999900FF99990000CC990033CC990066CC990099CC9900CCCC9900FFCC990000FF99
310
0033FF990066FF990099FF9900CCFF9900FFFF99000000CC003300CC006600CC009900CC00CC00CC00FF00CC000033CC003333CC006633CC009933CC00CC33CC00FF33CC000066CC003366CC006666CC009966CC00CC66CC00FF66CC000099CC003399CC006699CC009999CC00CC99CC00FF99CC0000CCCC0033CCCC0066CC
310
CC0099CCCC00CCCCCC00FFCCCC0000FFCC0033FFCC0066FFCC0099FFCC00CCFFCC00FFFFCC000000FF003300FF006600FF009900FF00CC00FF00FF00FF000033FF003333FF006633FF009933FF00CC33FF00FF33FF000066FF003366FF006666FF009966FF00CC66FF00FF66FF000099FF003399FF006699FF009999FF00CC
310
99FF00FF99FF0000CCFF0033CCFF0066CCFF0099CCFF00CCCCFF00FFCCFF0000FFFF0033FFFF0066FFFF0099FFFF00CCFFFF00FFFFFF00000000000D0D0D001A1A1A00282828003535350043434300505050005D5D5D006B6B6B00787878008686860093939300A1A1A100AEAEAE00BBBBBB00C9C9C900D6D6D600E4E4E400
310
F1F1F100FFFFFF0000000000000000000000000000000000000000000000000000000000000000000000000000000000F5F5F5F5F5F5F5F5F5F5F5F5F5F5F5F5F5F5F5F5F5F5F5F5F5F5F5F5F5F5F5F5F5F5F5F5F5F5F5F5F5F5F5F5F5F5F5F5F5F5F5F5F5F5F5F5F5F5F5F5F5F5F5F5F5F5F5F5F5F5F5F5F5F5F5F5F5F5F5
310
F5F5F5F5F5F5F5F5F5F5F5F5F5F5F5F5F5F5F5F5F5F5F5F5F5F5F5F5F5F5F5F5F5F5F5F5F5F5F5F5F5F5F5F5F5F5F5F5F5F5F5F5F5F5F5F5F5F5F5F5F5F5F5F5F5F5F5F5F5F5F5F5F5F5F5F5F5F5F5F5F5F5F5F5F5F5F5F5F5F5F5F5F5F5F5F5F5F5F5F5EFF5E2E2E2E2E2E2E2E2E2E2E2E2E2E2E2E2E2E2E2E2E2E2E2E2E2
310
E2E2E2E2E2E2E2E2E2E2E2E2E2E2E2E2E2E2E2E2E2E2E2E2E2E2E2E2E2E2E2E2E2E2E2E2E2E2E2E2E2E2E2E2E2E2E2E2E2E2E2E2E2E2E2E2E2E2E2E2E2E2E2E2E2E2E2E2E2E2E2E2E2E2E2E2E2E2E2E2E2E2E2E2E2E2E2E2E2E2E2E2E2E2E2E2E2E2E2E2E2E2E2E2E2E2E2E2E2E2E2E2E2E2E2E2E2E2E2E2E2E2E2E2E2E2E2
310
E2E2E2E2E2E2E2E2E2E2E2E2E2E2E2E2E2E2E2E2E2E2E2E2F5F5EFF5E2E2E2E2E2E2E2E2E2E2E2E2E2E2E2E2E2E2E2E2E2E2E2E2E2E2E2E2E2E2E2E2E2E2E2E2E2E2E2E2E2E2E2E2E2E2E2E2E2E2E2E2E2E2E2E2E2E2E2E2E2E2E2E2E2E2E2E2E2E2E2E2E2E2E2E2E2E2E2E2E2E2E2E2E2E2E2E2E2E2E2E2E2E2E2E2E2E2E2
310
E2E2E2E2E2E2E2E2E2E2E2E2E2E2E2E2E2E2E2E2E2E2E2E2E2E2E2E2E2E2E2E2E2E2E2E2E2E2E2E2E2E2E2E2E2E2E2E2E2E2E2E2E2E2E2E2E2E2E2E2E2E2E2E2E2E2E2E2E2E2E2E2E2E2E2E2E2F5F5EFF5E2E2E2E2E2E2E2E2E2E2E2E2E2E2E2E2E2E2E2E2E2E2E2E2E2E2E2E2E2E2E2E2E2E2E2E2E2E2E2E2E2E2E2E2E2E2
310
E2E2E2E2E2E2E2E2E2E2E2E2E2E2E2E2E2E2E2E2E2E2E2E2E2E2E2E2E2E2E2E2E2E2E2E2E2E2E2E2E2E2E2E2E2E2E2E2E2E2E2E2E2E2E2E2E2E2E2E2E2E2E2E2E2E2E2E2E2E2E2E2E2E2E2E2E2E2E2E2E2E2E2E2E2E2E2E2E2E2E2E2E2E2E2E2E2E2E2E2E2E2E2E2E2E2E2E2E2E2E2E2E2E2E2E2E2E2E2E2E2E2E2E2E2E2E2
310
E2E2E2F5F5EFF5E2E2E2E2E2E2E2E2E2E2E2E2E2E2E2E2E2E2E2E2E2E2E2E2E2E2E2E2E2E2E2E2E2E2E2E2E2E2E2E2E2E2E2E2E2E2E2E2E2E2E2E2E2E2E2E2E2E2E2E2E2E2E2E2E2E2E2E2E2E2E2E2E2E2E2E2E2E2E2E2E2E2E2E2E2E2E2E2E2E2E2E2E2E2E2E2E2E2E2E2E2E2E2E2E2E2E2E2E2E2E2E2E2E2E2E2E2E2E2E2
310
E2E2E2E2E2E2E2E2E2E2E2E2E2E2E2E2E2E2E2E2E2E2E2E2E2E2E2E2E2E2E2E2E2E2E2E2E2E2E2E2E2E2E2E2E2E2E2E2E2E2E2E2E2E2E2E2F5F5EFF5E2E2E2E2E2E2E2E2E2E2E2F5F5F5F5F5F5F5F5F5E2E2E2E2E2E2E2E2E2F5F5F5F5F5F5F5F5F5F5F5F5F5F5F5F5E2E2E2E2E2E2E2E2E2F5F5F5F5F5F5F5F5F5F5F5F5F5
310
F5F5F5F5E2E2E2E2E2E2E2E2E2F5F5F5F5F5F5F5F5F5F5F5F5F5F5F5F5E2E2E2E2E2E2E2E2E2F5F5F5F5F5F5F5F5F5F5F5F5F5F5F5F5F5E2E2E2E2E2E2E2E2E2F5F5F5F5F5F5F5F5F5F5F5F5F5F5F5F5E2E2E2E2E2E2E2E2E2F5F5F5F5F5F5F5F5F5E2E2E2E2E2E2E2E2E2E2E2F5F5EFF5E2E2E2E2E2E2E2E2E2E2E2F5E2E2
310
E2E2E2E2E2E2E2E2E2E2E2E2E2E2E2E2E2E2E2E2E2E2E2E2E2E2E2E2E2E2E2E2E2E2E2E2E2E2E2E2E2E2E2E2E2E2E2E2E2E2E2E2E2E2E2E2E2E2E2E2E2E2E2E2E2E2E2E2E2E2E2E2E2E2E2E2E2E2E2E2E2E2E2E2E2E2E2E2E2E2E2E2E2E2E2E2E2E2E2E2E2E2E2E2E2E2E2E2E2E2E2E2E2E2E2E2E2E2E2E2E2E2E2E2E2E2E2
310
E2E2E2E2E2E2E2E2E2E2E2E2E2E2E2E2E2E2E2E2E2E2E2F5E2E2E2E2E2E2E2E2E2E2E2F5F5EFF5E2E2E2E2E2E2E2E2E2E2E2F5E2E2E2E2E2E2E2E2E2E2E2E2E2E2E2E2E2E2E2E2E2E2E2E2E2E2E2E2E2E2E2E2E2E2E2E2E2E2E2E2E2E2E2E2E2E2E2E2E2E2E2E2E2E2E2E2E2E2E2E2E2E2E2E2E2E2E2E2E2E2E2E2E2E2E2E2
310
E2E2E2E2E2E2E2E2E2E2E2E2E2E2E2E2E2E2E2E2E2E2E2E2E2E2E2E2E2E2E2E2E2E2E2E2E2E2E2E2E2E2E2E2E2E2E2E2E2E2E2E2E2E2E2E2E2E2E2E2E2E2E2E2E2E2E2E2E2E2E2E2E2E2E2E2F5E2E2E2E2E2E2E2E2E2E2E2F5F5EFF5E2E2E2E2E2E2E2E2E2E2E2F5E2E2E2E2E2E2E2E2E2E2E2E2E2E2E2E2E2E2E2E2E2E2E2
310
E2E2E2E2E2E2E2E2E2E2E2E2E2E2E2E2E2E2E2E2E2E2E2E2E2E2E2E2E2E2E2E2E2E2E2E2E2E2E2E2E2E2E2E2E2E2E2E2E2E2E2E2E2E2E2E2E2E2E2E2E2E2E2E2E2E2E2E2E2E2E2E2E2E2E2E2E2E2E2E2E2E2E2E2E2E2E2E2E2E2E2E2E2E2E2E2E2E2E2E2E2E2E2E2E2E2E2E2E2E2E2E2E2E2E2E2E2E2E2E2E2E2E2E2E2E2E2
310
E2E2F5E2E2E2E2E2E2E2E2E2E2E2F5F5EFF5E2E2E2E2E2E2E2E2E2E2E2F5E2E2E2E2E2E2E2E2E2E2E2E2E2E2E2E2E2E2E2E2E2E2E2E2E2E2E2E2E2E2E2E2E2E2E2E2E2E2E2E2E2E2E2E2E2E2E2E2E2E2E2E2E2E2E2E2E2E2E2E2E2E2E2E2E2E2E2E2E2E2E2E2E2E2E2E2E2E2E2E2E2E2E2E2E2E2E2E2E2E2E2E2E2E2E2E2E2
310
E2E2E2E2E2E2E2E2E2E2E2E2E2E2E2E2E2E2E2E2E2E2E2E2E2E2E2E2E2E2E2E2E2E2E2E2E2E2E2E2E2E2E2E2E2E2E2E2E2E2E2E2E2E2E2F5E2E2E2E2E2E2E2E2E2E2E2F5F5EFF5E2E2E2E2E2E2E2E2E2E2E2F5E2E2E2E2E2E2E2E2E2E2E2E2E2E2E2E2E2E2E2E2E2E2E2E2E2E2E2E2E2E2E2E2E2E2E2E2E2E2E2E2E2E2E2E2
310
E2E2E2E2E2E2E2E2E2E2E2E2E2E2E2E2E2E2E2E2E2E2E2E2E2E2E2E2E2E2E2E2E2E2E2E2E2E2E2E2E2E2E2E2E2E2E2E2E2E2E2E2E2E2E2E2E2E2E2E2E2E2E2E2E2E2E2E2E2E2E2E2E2E2E2E2E2E2E2E2E2E2E2E2E2E2E2E2E2E2E2E2E2E2E2E2E2E2E2E2E2E2E2E2E2E2E2E2F5E2E2E2E2E2E2E2E2E2E2E2F5F5EFF5E2E2E2
310
E2E2E2E2E2E2E2E2F5E2E2E2E2E2E2E2E2E2E2E2E2E2E2E2E2E2E2E2E2E2E2E2E2E2E2E2E2E2E2E2E2E2E2E2E2E2E2E2E2E2E2E2E2E2E2E2E2E2E2E2E2E2E2E2E2E2E2E2E2E2E2E2E2E2E2E2E2E2E2E2E2E2E2E2E2E2E2E2E2E2E2E2E2E2E2E2E2E2E2E2E2E2E2E2E2E2E2E2E2E2E2E2E2E2E2E2E2E2E2E2E2E2E2E2E2E2E2
310
E2E2E2E2E2E2E2E2E2E2E2E2E2E2E2E2E2E2E2E2E2E2E2E2E2E2E2E2E2E2E2E2E2E2F5E2E2E2E2E2E2E2E2E2E2E2F5F5EFF5E2E2E2E2E2E2E2E2E2E2E2F5E2E2E2E2E2E2E2E2E2E2E2E2E2E2E2E2E2E2E2E2E2E2E2E2E2E2E2E2E2E2E2E2E2E2E2E2E2E2E2E2E2E2E2E2E2E2E2E2E2E2E2E2E2E2E2E2E2E2E2E2E2E2E2E2E2
310
E2E2E2E2E2E2E2E2E2E2E2E2E2E2E2E2E2E2E2E2E2E2E2E2E2E2E2E2E2E2E2E2E2E2E2E2E2E2E2E2E2E2E2E2E2E2E2E2E2E2E2E2E2E2E2E2E2E2E2E2E2E2E2E2E2E2E2E2E2E2E2E2E2E2E2E2E2E2E2E2E2E2E2E2E2E2E2F5E2E2E2E2E2E2E2E2E2E2E2F5F5EFF5E2E2E2E2E2E2E2E2E2E2E2E2E2E2E2E2E2E2E2E2E2E2E2E2
310
E2E2E2E2E2E2E2E2E2E2E2E2E2E2E2E2E2E2E2E2E2E2E2E2E2E2E2E2E2E2E2E2E2E2E2E2E2E2E2E2E2E2E2E2E2E2E2E2E2E2E2E2E2E2E2E2E2E2E2E2E2E2E2E2E2E2E2E2E2E2E2E2E2E2E2E2E2E2E2E2E2E2E2E2E2E2E2E2E2E2E2E2E2E2E2E2E2E2E2E2E2E2E2E2E2E2E2E2E2E2E2E2E2E2E2E2E2E2E2E2E2E2E2E2E2E2E2
310
E2E2E2E2E2E2E2E2E2E2E2E2E2E2E2E2E2E2E2E2E2E2E2E2E2F5F5EFF5E2E2E2E2E2E2E2E2E2E2E2E2E2E2E2E2E2E2E2E2E2E2E2E2E2E2E2E2E2E2E2E2E2E2E2E2E2E2E2E2E2E2E2E2E2E2E2E2E2E2E2E2E2E2E2E2E2E2E2E2E2E2E2E2E2E2E2E2E2E2E2E2E2E2E2E2E2E2E2E2E2E2E2E2E2E2E2E2E2E2E2E2E2E2E2E2E2E2
310
E2E2E2E2E2E2E2E2E2E2E2E2E2E2E2E2E2E2E2E2E2E2E2E2E2E2E2E2E2E2E2E2E2E2E2E2E2E2E2E2E2E2E2E2E2E2E2E2E2E2E2E2E2E2E2E2E2E2E2E2E2E2E2E2E2E2E2E2E2E2E2E2E2E2E2E2E2E2F5F5EFF5E2E2E2E2E2E2E2E2E2E2E2E2E2E2E2E2E2E2E2E2E2E2E2E2E2E2E2E2E2E2E2E2E2E2E2E2E2E2E2E2E2E2E2E2E2
310
E2E2E2E2E2E2E2E2E2E2E2E2E2E2E2E2E2E2E2E2E2E2E2E2E2E2E2E2E2E2E2E2E2E2E2E2E2E2E2E2E2E2E2E2E2E2E2E2E2E2E2E2E2E2E2E2E2E2E2E2E2E2E2E2E2E2E2E2E2E2E2E2E2E2E2E2E2E2E2E2E2E2E2E2E2E2E2E2E2E2E2E2E2E2E2E2E2E2E2E2E2E2E2E2E2E2E2E2E2E2E2E2E2E2E2E2E2E2E2E2E2E2E2E2E2E2E2
310
E2E2E2E2F5F5EFF5E2E2E2E2E2E2E2E2E2E2E2E2E2E2E2E2E2E2E2E2E2E2E2E2E2E2E2E2E2E2E2E2E2E2E2E2E2E2E2E2E2E2E2E2E2E2E2E2E2E2E2E2E2E2E2E2E2E2E2E2E2E2E2E2E2E2E2E2E2E2E2E2E2E2E2E2E2E2E2E2E2E2E2E2E2E2E2E2E2E2E2E2E2E2E2E2E2E2E2E2E2E2E2E2E2E2E2E2E2E2E2E2E2E2E2E2E2E2E2
310
E2E2E2E2E2E2E2E2E2E2E2E2E2E2E2E2E2E2E2E2E2E2E2E2E2E2E2E2E2E2E2E2E2E2E2E2E2E2E2E2E2E2E2E2E2E2E2E2E2E2E2E2E2E2E2E2E2F5F5EFF5E2E2E2E2E2E2E2E2E2E2E2E2E2E2E2E2E2E2E2E2E2E2E2E2E2E2E2E2E2E2E2E2E2E2E2E2E2E2E2E2E2E2E2E2E2E2E2E2E2E2E2E2E2E2E2E2E2E2E2E2E2E2E2E2E2E2
310
E2E2E2E2E2E2E2E2E2E2E2E2E2E2E2E2E2E2E2E2E2E2E2E2E2E2E2E2E2E2E2E2E2E2E2E2E2E2E2E2E2E2E2E2E2E2E2E2E2E2E2E2E2E2E2E2E2E2E2E2E2E2E2E2E2E2E2E2E2E2E2E2E2E2E2E2E2E2E2E2E2E2E2E2E2E2E2E2E2E2E2E2E2E2E2E2E2E2E2E2E2E2E2E2E2E2E2E2E2E2F5F5EFF5E2E2E2E2E2E2E2E2E2E2E2E2E2
310
E2E2E2E2E2E2E2E2E2E2E2E2E2E2E2E2E2E2E2E2E2E2E2E2E2E2E2E2E2E2E2E2E2E2E2E2E2E2E2E2E2E2E2E2E2E2E2E2E2E2E2E2E2E2E2E2E2E2E2E2E2E2E2E2E2E2E2E2E2E2E2E2E2E2E2E2E2E2E2E2E2E2E2E2E2E2E2E2E2E2E2E2E2E2E2E2E2E2E2E2E2E2E2E2E2E2E2E2E2E2E2E2E2E2E2E2E2E2E2E2E2E2E2E2E2E2E2
310
E2E2E2E2E2E2E2E2E2E2E2E2E2E2E2E2E2E2E2E2E2E2E2E2E2E2E2E2E2E2E2E2E2E2E2E2F5F5EFF5E2E2E2E2E2E2E2E2E2E2E2E2E2E2E2E2E2E2E2E2E2E2E2E2E2E2E2E2E2E2E2E2E2E2E2E2E2E2E2E2E2E2E2E2E2E2E2E2E2E2E2E2E2E2E2E2E2E2E2E2E2E2E2E2E2E2E2E2E2E2E2E2E2E2E2E2E2E2E2E2E2E2E2E2E2E2E2
310
E2E2E2E2E2E2E2E2E2E2E2E2E2E2E2E2E2E2E2E2E2E2E2E2E2E2E2E2E2E2E2E2E2E2E2E2E2E2E2E2E2E2E2E2E2E2E2E2E2E2E2E2E2E2E2E2E2E2E2E2E2E2E2E2E2E2E2E2E2E2E2E2E2E2E2E2E2E2E2E2E2E2E2E2E2E2E2E2E2F5F5EFF5E2E2E2E2E2E2E2E2E2E2E2E2E2E2E2E2E2E2E2E2E2E2E2E2E2E2E2E2E2E2E2E2E2E2
310
E2E2E2E2E2E2E2E2E2E2E2E2E2E2E2E2E2E2E2E2E2E2E2E2E2E2E2E2E2E2E2E2E2E2E2E2E2E2E2E2E2E2E2E2E2E2E2E2E2E2E2E2E2E2E2E2E2E2E2E2E2E2E2E2E2E2E2E2E2E2E2E2E2E2E2E2E2E2E2E2E2E2E2E2E2E2E2E2E2E2E2E2E2E2E2E2E2E2E2E2E2E2E2E2E2E2E2E2E2E2E2E2E2E2E2E2E2E2E2E2E2E2E2E2E2E2E2
310
E2E2E2E2E2E2E2E2E2E2E2E2E2E2E2F5F5EFF5E2E2E2E2E2E2E2E2E2E2E2F5E2E2E2E2E2E2E2E2E2E2E2E2E2E2E2E2E2E2E2E2E2E2E2E2E2E2E2E2E2E2E2E2E2E2E2E2E2E2E2E2E2E2E2E2E2E2E2E2E2E2E2E2E2E2E2E2E2E2E2E2E2E2E2E2E2E2E2E2E2E2E2E2E2E2E2E2E2E2E2E2E2E2E2E2E2E2E2E2E2E2E2E2E2E2E2E2
310
E2E2E2E2E2E2E2E2E2E2E2E2E2E2E2E2E2E2E2E2E2E2E2E2E2E2E2E2E2E2E2E2E2E2E2E2E2E2E2E2E2E2E2E2E2E2E2E2E2E2E2E2E2E2E2E2F5E2E2E2E2E2E2E2E2E2E2E2F5F5EFF5E2E2E2E2E2E2E2E2E2E2E2F5E2E2E2E2E2E2E2E2E2E2E2E2E2E2E2E2E2E2E2E2E2E2E2E2E2E2E2E2E2E2E2E2E2E2E2E2E2E2E2E2E2E2E2
310
E2E2E2E2E2E2E2E2E2E2E2E2E2E2E2E2E2E2E2E2E2E2E2E2E2E2E2E2E2E2E2E2E2E2E2E2E2E2E2E2E2E2E2E2E2E2E2E2E2E2E2E2E2E2E2E2E2E2E2E2E2E2E2E2E2E2E2E2E2E2E2E2E2E2E2E2E2E2E2E2E2E2E2E2E2E2E2E2E2E2E2E2E2E2E2E2E2E2E2E2E2E2E2E2E2E2E2E2E2F5E2E2E2E2E2E2E2E2E2E2E2F5F5EFF5E2E2
310
E2E2E2E2E2E2E2E2E2F5E2E2E2E2E2E2E2E2E2E2E2E2E2E2E2E2E2E2E2E2E2E2E2E2E2E2E2E2E2E2E2E2E2E2E2E2E2E2E2E2E2E2E2E2E2E2E2E2E2E2E2E2E2E2E2E2E2E2E2E2E2E2E2E2E2E2E2E2E2E2E2E2E2E2E2E2E2E2E2E2E2E2E2E2E2E2E2E2E2E2E2E2E2E2E2E2E2E2E2E2E2E2E2E2E2E2E2E2E2E2E2E2E2E2E2E2E2
310
E2E2E2E2E2E2E2E2E2E2E2E2E2E2E2E2E2E2E2E2E2E2E2E2E2E2E2E2E2E2E2E2E2E2E2F5E2E2E2E2E2E2E2E2E2E2E2F5F5EFF5E2E2E2E2E2E2E2E2E2E2E2F5E2E2E2E2E2E2E2E2E2E2E2E2E2E2E2E2E2E2E2E2E2E2E2E2E2E2E2E2E2E2E2E2E2E2E2E2E2E2E2E2E2E2E2E2E2E2E2E2E2E2E2E2E2E2E2E2E2E2E2E2E2E2E2E2
310
E2E2E2E2E2E2E2E2E2E2E2E2E2E2E2E2E2E2E2E2E2E2E2E2E2E2E2E2E2E2E2E2E2E2E2E2E2E2E2E2E2E2E2E2E2E2E2E2E2E2E2E2E2E2E2E2E2E2E2E2E2E2E2E2E2E2E2E2E2E2E2E2E2E2E2E2E2E2E2E2E2E2E2E2E2E2E2E2F5E2E2E2E2E2E2E2E2E2E2E2F5F5EFF5E2E2E2E2E2E2E2E2E2E2E2F5E2E2E2E2E2E2E2E2E2E2E2
310
E2E2E2E2E2E2E2E2E2E2E2E2E2E2E2E2E2E2E2E2E2E2E2E2E2E2E2E2E2E2E2E2E2E2E2E2E2E2E2E2E2E2E2E2E2E2E2E2E2E2E2E2E2E2E2E2E2E2E2E2E2E2E2E2E2E2E2E2E2E2E2E2E2E2E2E2E2E2E2E2E2E2E2E2E2E2E2E2E2E2E2E2E2E2E2E2E2E2E2E2E2E2E2E2E2E2E2E2E2E2E2E2E2E2E2E2E2E2E2E2E2E2E2E2E2E2E2
310
E2E2E2E2E2E2E2E2E2E2E2E2E2E2F5E2E2E2E2E2E2E2E2E2E2E2F5F5EFF5E2E2E2E2E2E2E2E2E2E2E2F5E2E2E2E2E2E2E2E2E2E2E2E2E2E2E2E2E2E2E2E2E2E2E2E2E2E2E2E2E2E2E2E2E2E2E2E2E2E2E2E2E2E2E2E2E2E2E2E2E2E2E2E2E2E2E2E2E2E2E2E2E2E2E2E2E2E2E2E2E2E2E2E2E2E2E2E2E2E2E2E2E2E2E2E2E2
310
E2E2E2E2E2E2E2E2E2E2E2E2E2E2E2E2E2E2E2E2E2E2E2E2E2E2E2E2E2E2E2E2E2E2E2E2E2E2E2E2E2E2E2E2E2E2E2E2E2E2E2E2E2E2E2E2E2E2E2E2E2E2E2E2E2E2E2F5E2E2E2E2E2E2E2E2E2E2E2F5F5EFF5E2E2E2E2E2E2E2E2E2E2E2F5E2E2E2E2E2E2E2E2E2E2E2E2E2E2E2E2E2E2E2E2E2E2E2E2E2E2E2E2E2E2E2E2
310
E2E2E2E2E2E2E2E2E2E2E2E2E2E2E2E2E2E2E2E2E2E2E2E2E2E2E2E2E2E2E2E2E2E2E2E2E2E2E2E2E2E2E2E2E2E2E2E2E2E2E2E2E2E2E2E2E2E2E2E2E2E2E2E2E2E2E2E2E2E2E2E2E2E2E2E2E2E2E2E2E2E2E2E2E2E2E2E2E2E2E2E2E2E2E2E2E2E2E2E2E2E2E2E2E2E2E2E2E2E2E2E2E2E2E2E2E2E2E2E2F5E2E2E2E2E2E2
310
E2E2E2E2E2F5F5EFF5E2E2E2E2E2E2E2E2E2E2E2F5E2E2E2E2E2E2E2E2E2E2E2E2E2E2E2E2E2E2E2E2E2E2E2E2E2E2E2E2E2E2E2E2E2E2E2E2E2E2E2E2E2E2E2E2E2E2E2E2E2E2E2E2E2E2E2E2E2E2E2E2E2E2E2E2E2E2E2E2E2E2E2E2E2E2E2E2E2E2E2E2E2E2E2E2E2E2E2E2E2E2E2E2E2E2E2E2E2E2E2E2E2E2E2E2E2E2
310
E2E2E2E2E2E2E2E2E2E2E2E2E2E2E2E2E2E2E2E2E2E2E2E2E2E2E2E2E2E2E2E2E2E2E2E2E2E2E2E2E2E2E2E2E2E2F5E2E2E2E2E2E2E2E2E2E2E2F5F5EFF5E2E2E2E2E2E2E2E2E2E2E2F5E2E2E2E2E2E2E2E2E2E2E2E2E2E2E2E2E2E2E2E2E2E2E2E2E2E2E2E2E2E2E2E2E2E2E2E2E2E2E2E2E2E2E2E2E2E2E2E2E2E2E2E2E2
310
E2E2E2E2E2E2E2E2E2E2E2E2E2E2E2E2E2E2E2E2E2E2E2E2E2E2E2E2E2E2E2E2E2E2E2E2E2E2E2E2E2E2E2E2E2E2E2E2E2E2E2E2E2E2E2E2E2E2E2E2E2E2E2E2E2E2E2E2E2E2E2E2E2E2E2E2E2E2E2E2E2E2E2E2E2E2E2E2E2E2E2E2E2E2E2E2E2E2E2F5E2E2E2E2E2E2E2E2E2E2E2F5F5EFF5E2E2E2E2E2E2E2E2E2E2E2F5
310
E2E2E2E2E2E2E2E2E2E2E2E2E2E2E2E2E2E2E2E2E2E2E2E2E2E2E2E2E2E2E2E2E2E2E2E2E2E2E2E2E2E2E2E2E2E2E2E2E2E2E2E2E2E2E2E2E2E2E2E2E2E2E2E2E2E2E2E2E2E2E2E2E2E2E2E2E2E2E2E2E2E2E2E2E2E2E2E2E2E2E2E2E2E2E2E2E2E2E2E2E2E2E2E2E2E2E2E2E2E2E2E2E2E2E2E2E2E2E2E2E2E2E2E2E2E2E2
310
E2E2E2E2E2E2E2E2E2E2E2E2E2E2E2E2E2E2E2E2E2E2E2E2E2F5E2E2E2E2E2E2E2E2E2E2E2F5F5EFF5E2E2E2E2E2E2E2E2E2E2E2F5E2E2E2E2E2E2E2E2E2E2E2E2E2E2E2E2E2E2E2E2E2E2E2E2E2E2E2E2E2E2E2E2E2E2E2E2E2E2E2E2E2E2E2E2E2E2E2E2E2E2E2E2E2E2E2E2E2E2E2E2E2E2E2E2E2E2E2E2E2E2E2E2E2E2
310
E2E2E2E2E2E2E2E2E2E2E2E2E2E2E2E2E2E2E2E2E2E2E2E2E2E2E2E2E2E2E2E2E2E2E2E2E2E2E2E2E2E2E2E2E2E2E2E2E2E2E2E2E2E2E2E2E2E2E2E2E2E2E2E2E2E2E2E2E2E2E2E2E2E2E2E2E2E2F5E2E2E2E2E2E2E2E2E2E2E2F5F5EFF5E2E2E2E2E2E2E2E2E2E2E2F5E2E2E2E2E2E2E2E2E2E2E2E2E2E2E2E2E2E2E2E2E2
310
E2E2E2E2E2E2E2E2E2E2E2E2E2E2E2E2E2E2E2E2E2E2E2E2E2E2E2E2E2E2E2E2E2E2E2E2E2E2E2E2E2E2E2E2E2E2E2E2E2E2E2E2E2E2E2E2E2E2E2E2E2E2E2E2E2E2E2E2E2E2E2E2E2E2E2E2E2E2E2E2E2E2E2E2E2E2E2E2E2E2E2E2E2E2E2E2E2E2E2E2E2E2E2E2E2E2E2E2E2E2E2E2E2E2E2E2E2E2E2E2E2E2E2E2E2E2E2
310
E2E2E2E2F5E2E2E2E2E2E2E2E2E2E2E2F5F5EFF5E2E2E2E2E2E2E2E2E2E2E2F5E2E2E2E2E2E2E2E2E2E2E2E2E2E2E2E2E2E2E2E2E2E2E2E2E2E2E2E2E2E2E2E2E2E2E2E2E2E2E2E2E2E2E2E2E2E2E2E2E2E2E2E2E2E2E2E2E2E2E2E2E2E2E2E2E2E2E2E2E2E2E2E2E2E2E2E2E2E2E2E2E2E2E2E2E2E2E2E2E2E2E2E2E2E2E2
310
E2E2E2E2E2E2E2E2E2E2E2E2E2E2E2E2E2E2E2E2E2E2E2E2E2E2E2E2E2E2E2E2E2E2E2E2E2E2E2E2E2E2E2E2E2E2E2E2E2E2E2E2E2E2E2E2E2F5E2E2E2E2E2E2E2E2E2E2E2F5F5EFF5E2E2E2E2E2E2E2E2E2E2E2F5E2E2E2E2E2E2E2E2E2E2E2E2E2E2E2E2E2E2E2E2E2E2E2E2E2E2E2E2E2E2E2E2E2E2E2E2E2E2E2E2E2E2
310
E2E2E2E2E2E2E2E2E2E2E2E2E2E2E2E2E2E2E2E2E2E2E2E2E2E2E2E2E2E2E2E2E2E2E2E2E2E2E2E2E2E2E2E2E2E2E2E2E2E2E2E2E2E2E2E2E2E2E2E2E2E2E2E2E2E2E2E2E2E2E2E2E2E2E2E2E2E2E2E2E2E2E2E2E2E2E2E2E2E2E2E2E2E2E2E2E2E2E2E2E2E2E2E2E2E2E2E2E2E2F5E2E2E2E2E2E2E2E2E2E2E2F5F5EFF5E2
310
E2E2E2E2E2E2E2E2E2E2F5E2E2E2E2E2E2E2E2E2E2E2E2E2E2E2E2E2E2E2E2E2E2E2E2E2E2E2E2E2E2E2E2E2E2E2E2E2E2E2E2E2E2E2E2E2E2E2E2E2E2E2E2E2E2E2E2E2E2E2E2E2E2E2E2E2E2E2E2E2E2E2E2E2E2E2E2E2E2E2E2E2E2E2E2E2E2E2E2E2E2E2E2E2E2E2E2E2E2E2E2E2E2E2E2E2E2E2E2E2E2E2E2E2E2E2E2
310
E2E2E2E2E2E2E2E2E2E2E2E2E2E2E2E2E2E2E2E2E2E2E2E2E2E2E2E2E2E2E2E2E2E2E2E2F5E2E2E2E2E2E2E2E2E2E2E2F5F5EFF5E2E2E2E2E2E2E2E2E2E2E2E2E2E2E2E2E2E2E2E2E2E2E2E2E2E2E2E2E2E2E2E2E2E2E2E2E2E2E2E2E2E2E2E2E2E2E2E2E2E2E2E2E2E2E2E2E2E2E2E2E2E2E2E2E2E2E2E2E2E2E2E2E2E2E2
310
E2E2E2E2E2E2E2E2E2E2E2E2E2E2E2E2E2E2E2E2E2E2E2E2E2E2E2E2E2E2E2E2E2E2E2E2E2E2E2E2E2E2E2E2E2E2E2E2E2E2E2E2E2E2E2E2E2E2E2E2E2E2E2E2E2E2E2E2E2E2E2E2E2E2E2E2E2E2E2E2E2E2E2E2E2E2E2E2E2E2E2E2E2E2E2E2E2E2E2E2E2F5F5EFF5E2E2E2E2E2E2E2E2E2E2E2E2E2E2E2E2E2E2E2E2E2E2
310
E2E2E2E2E2E2E2E2E2E2E2E2E2E2E2E2E2E2E2E2E2E2E2E2E2E2E2E2E2E2E2E2E2E2E2E2E2E2E2E2E2E2E2E2E2E2E2E2E2E2E2E2E2E2E2E2E2E2E2E2E2E2E2E2E2E2E2E2E2E2E2E2E2E2E2E2E2E2E2E2E2E2E2E2E2E2E2E2E2E2E2E2E2E2E2E2E2E2E2E2E2E2E2E2E2E2E2E2E2E2E2E2E2E2E2E2E2E2E2E2E2E2E2E2E2E2E2
310
E2E2E2E2E2E2E2E2E2E2E2E2E2E2E2E2E2E2E2E2E2E2E2E2E2E2E2F5F5EFF5E2E2E2E2E2E2E2E2E2E2E2E2E2E2E2E2E2E2E2E2E2E2E2E2E2E2E2E2E2E2E2E2E2E2E2E2E2E2E2E2E2E2E2E2E2E2E2E2E2E2E2E2E2E2E2E2E2E2E2E2E2E2E2E2E2E2E2E2E2E2E2E2E2E2E2E2E2E2E2E2E2E2E2E2E2E2E2E2E2E2E2E2E2E2E2E2
310
E2E2E2E2E2E2E2E2E2E2E2E2E2E2E2E2E2E2E2E2E2E2E2E2E2E2E2E2E2E2E2E2E2E2E2E2E2E2E2E2E2E2E2E2E2E2E2E2E2E2E2E2E2E2E2E2E2E2E2E2E2E2E2E2E2E2E2E2E2E2E2E2E2E2E2E2E2E2E2E2F5F5EFF5E2E2E2E2E2E2E2E2E2E2E2E2E2E2E2E2E2E2E2E2E2E2E2E2E2E2E2E2E2E2E2E2E2E2E2E2E2E2E2E2E2E2E2
310
E2E2E2E2E2E2E2E2E2E2E2E2E2E2E2E2E2E2E2E2E2E2E2E2E2E2E2E2E2E2E2E2E2E2E2E2E2E2E2E2E2E2E2E2E2E2E2E2E2E2E2E2E2E2E2E2E2E2E2E2E2E2E2E2E2E2E2E2E2E2E2E2E2E2E2E2E2E2E2E2E2E2E2E2E2E2E2E2E2E2E2E2E2E2E2E2E2E2E2E2E2E2E2E2E2E2E2E2E2E2E2E2E2E2E2E2E2E2E2E2E2E2E2E2E2E2E2
310
E2E2E2E2E2E2F5F5EFF5E2E2E2E2E2E2E2E2E2E2E2E2E2E2E2E2E2E2E2E2E2E2E2E2E2E2E2E2E2E2E2E2E2E2E2E2E2E2E2E2E2E2E2E2E2E2E2E2E2E2E2E2E2E2E2E2E2E2E2E2E2E2E2E2E2E2E2E2E2E2E2E2E2E2E2E2E2E2E2E2E2E2E2E2E2E2E2E2E2E2E2E2E2E2E2E2E2E2E2E2E2E2E2E2E2E2E2E2E2E2E2E2E2E2E2E2E2
310
E2E2E2E2E2E2E2E2E2E2E2E2E2E2E2E2E2E2E2E2E2E2E2E2E2E2E2E2E2E2E2E2E2E2E2E2E2E2E2E2E2E2E2E2E2E2E2E2E2E2E2E2E2E2E2E2E2E2E2F5F5EFF5E2E2E2E2E2E2E2E2E2E2E2E2E2E2E2E2E2E2E2E2E2E2E2E2E2E2E2E2E2E2E2E2E2E2E2E2E2E2E2E2E2E2E2E2E2E2E2E2E2E2E2E2E2E2E2E2E2E2E2E2E2E2E2E2
310
E2E2E2E2E2E2E2E2E2E2E2E2E2E2E2E2E2E2E2E2E2E2E2E2E2E2E2E2E2E2E2E2E2E2E2E2E2E2E2E2E2E2E2E2E2E2E2E2E2E2E2E2E2E2E2E2E2E2E2E2E2E2E2E2E2E2E2E2E2E2E2E2E2E2E2E2E2E2E2E2E2E2E2E2E2E2E2E2E2E2E2E2E2E2E2E2E2E2E2E2E2E2E2E2E2E2E2E2E2E2E2E2F5F5EFF5E2E2E2E2E2E2E2E2E2E2E2
310
E2E2E2E2E2E2E2E2E2E2E2E2E2E2E2E2E2E2E2E2E2E2E2E2E2E2E2E2E2E2E2E2E2E2E2E2E2E2E2E2E2E2E2E2E2E2E2E2E2E2E2E2E2E2E2E2E2E2E2E2E2E2E2E2E2E2E2E2E2E2E2E2E2E2E2E2E2E2E2E2E2E2E2E2E2E2E2E2E2E2E2E2E2E2E2E2E2E2E2E2E2E2E2E2E2E2E2E2E2E2E2E2E2E2E2E2E2E2E2E2E2E2E2E2E2E2E2
310
E2E2E2E2E2E2E2E2E2E2E2E2E2E2E2E2E2E2E2E2E2E2E2E2E2E2E2E2E2E2E2E2E2E2E2E2E2E2F5F5EFF5E2E2E2E2E2E2E2E2E2E2E2E2E2E2E2E2E2E2E2E2E2E2E2E2E2E2E2E2E2E2E2E2E2E2E2E2E2E2E2E2E2E2E2E2E2E2E2E2E2E2E2E2E2E2E2E2E2E2E2E2E2E2E2E2E2E2E2E2E2E2E2E2E2E2E2E2E2E2E2E2E2E2E2E2E2
310
E2E2E2E2E2E2E2E2E2E2E2E2E2E2E2E2E2E2E2E2E2E2E2E2E2E2E2E2E2E2E2E2E2E2E2E2E2E2E2E2E2E2E2E2E2E2E2E2E2E2E2E2E2E2E2E2E2E2E2E2E2E2E2E2E2E2E2E2E2E2E2E2E2E2E2E2E2E2E2E2E2E2E2E2E2E2E2E2E2E2E2F5F5EFF5E2E2E2E2E2E2E2E2E2E2E2F5E2E2E2E2E2E2E2E2E2E2E2E2E2E2E2E2E2E2E2E2
310
E2E2E2E2E2E2E2E2E2E2E2E2E2E2E2E2E2E2E2E2E2E2E2E2E2E2E2E2E2E2E2E2E2E2E2E2E2E2E2E2E2E2E2E2E2E2E2E2E2E2E2E2E2E2E2E2E2E2E2E2E2E2E2E2E2E2E2E2E2E2E2E2E2E2E2E2E2E2E2E2E2E2E2E2E2E2E2E2E2E2E2E2E2E2E2E2E2E2E2E2E2E2E2E2E2E2E2E2E2E2E2E2E2E2E2E2E2E2E2E2E2E2E2E2E2E2E2
310
E2E2E2E2E2F5E2E2E2E2E2E2E2E2E2E2E2F5F5EFF5E2E2E2E2E2E2E2E2E2E2E2F5E2E2E2E2E2E2E2E2E2E2E2E2E2E2E2E2E2E2E2E2E2E2E2E2E2E2E2E2E2E2E2E2E2E2E2E2E2E2E2E2E2E2E2E2E2E2E2E2E2E2E2E2E2E2E2E2E2E2E2E2E2E2E2E2E2E2E2E2E2E2E2E2E2E2E2E2E2E2E2E2E2E2E2E2E2E2E2E2E2E2E2E2E2E2
310
E2E2E2E2E2E2E2E2E2E2E2E2E2E2E2E2E2E2E2E2E2E2E2E2E2E2E2E2E2E2E2E2E2E2E2E2E2E2E2E2E2E2E2E2E2E2E2E2E2E2E2E2E2E2E2E2E2E2F5E2E2E2E2E2E2E2E2E2E2E2F5F5EFF5E2E2E2E2E2E2E2E2E2E2E2F5E2E2E2E2E2E2E2E2E2E2E2E2E2E2E2E2E2E2E2E2E2E2E2E2E2E2E2E2E2E2E2E2E2E2E2E2E2E2E2E2E2
310
E2E2E2E2E2E2E2E2E2E2E2E2E2E2E2E2E2E2E2E2E2E2E2E2E2E2E2E2E2E2E2E2E2E2E2E2E2E2E2E2E2E2E2E2E2E2E2E2E2E2E2E2E2E2E2E2E2E2E2E2E2E2E2E2E2E2E2E2E2E2E2E2E2E2E2E2E2E2E2E2E2E2E2E2E2E2E2E2E2E2E2E2E2E2E2E2E2E2E2E2E2E2E2E2E2E2E2E2E2E2E2F5E2E2E2E2E2E2E2E2E2E2E2F5F5EFF5
310
E2E2E2E2E2E2E2E2E2E2E2F5E2E2E2E2E2E2E2E2E2E2E2E2E2E2E2E2E2E2E2E2E2E2E2E2E2E2E2E2E2E2E2E2E2E2E2E2E2E2E2E2E2E2E2E2E2E2E2E2E2E2E2E2E2E2E2E2E2E2E2E2E2E2E2E2E2E2E2E2E2E2E2E2E2E2E2E2E2E2E2E2E2E2E2E2E2E2E2E2E2E2E2E2E2E2E2E2E2E2E2E2E2E2E2E2E2E2E2E2E2E2E2E2E2E2E2
310
E2E2E2E2E2E2E2E2E2E2E2E2E2E2E2E2E2E2E2E2E2E2E2E2E2E2E2E2E2E2E2E2E2E2E2E2E2F5E2E2E2E2E2E2E2E2E2E2E2F5F5EFF5E2E2E2E2E2E2E2E2E2E2E2F5E2E2E2E2E2E2E2E2E2E2E2E2E2E2E2E2E2E2E2E2E2E2E2E2E2E2E2E2E2E2E2E2E2E2E2E2E2E2E2E2E2E2E2E2E2E2E2E2E2E2E2E2E2E2E2E2E2E2E2E2E2E2
310
E2E2E2E2E2E2E2E2E2E2E2E2E2E2E2E2E2E2E2E2E2E2E2E2E2E2E2E2E2E2E2E2E2E2E2E2E2E2E2E2E2E2E2E2E2E2E2E2E2E2E2E2E2E2E2E2E2E2E2E2E2E2E2E2E2E2E2E2E2E2E2E2E2E2E2E2E2E2E2E2E2E2E2E2E2E2E2E2E2E2F5E2E2E2E2E2E2E2E2E2E2E2F5F5EFF5E2E2E2E2E2E2E2E2E2E2E2F5E2E2E2E2E2E2E2E2E2
310
E2E2E2E2E2E2E2E2E2E2E2E2E2E2E2E2E2E2E2E2E2E2E2E2E2E2E2E2E2E2E2E2E2E2E2E2E2E2E2E2E2E2E2E2E2E2E2E2E2E2E2E2E2E2E2E2E2E2E2E2E2E2E2E2E2E2E2E2E2E2E2E2E2E2E2E2E2E2E2E2E2E2E2E2E2E2E2E2E2E2E2E2E2E2E2E2E2E2E2E2E2E2E2E2E2E2E2E2E2E2E2E2E2E2E2E2E2E2E2E2E2E2E2E2E2E2E2
310
E2E2E2E2E2E2E2E2E2E2E2E2E2E2E2E2F5E2E2E2E2E2E2E2E2E2E2E2F5F5EFF5E2E2E2E2E2E2E2E2E2E2E2F5E2E2E2E2E2E2E2E2E2E2E2E2E2E2E2E2E2E2E2E2E2E2E2E2E2E2E2E2E2E2E2E2E2E2E2E2E2E2E2E2E2E2E2E2E2E2E2E2E2E2E2E2E2E2E2E2E2E2E2E2E2E2E2E2E2E2E2E2E2E2E2E2E2E2E2E2E2E2E2E2E2E2E2
310
E2E2E2E2E2E2E2E2E2E2E2E2E2E2E2E2E2E2E2E2E2E2E2E2E2E2E2E2E2E2E2E2E2E2E2E2E2E2E2E2E2E2E2E2E2E2E2E2E2E2E2E2E2E2E2E2E2E2E2E2E2E2E2E2E2E2E2E2E2F5E2E2E2E2E2E2E2E2E2E2E2F5F5EFF5E2E2E2E2E2E2E2E2E2E2E2F5E2E2E2E2E2E2E2E2E2E2E2E2E2E2E2E2E2E2E2E2E2E2E2E2E2E2E2E2E2E2
310
E2E2E2E2E2E2E2E2E2E2E2E2E2E2E2E2E2E2E2E2E2E2E2E2E2E2E2E2E2E2E2E2E2E2E2E2E2E2E2E2E2E2E2E2E2E2E2E2E2E2E2E2E2E2E2E2E2E2E2E2E2E2E2E2E2E2E2E2E2E2E2E2E2E2E2E2E2E2E2E2E2E2E2E2E2E2E2E2E2E2E2E2E2E2E2E2E2E2E2E2E2E2E2E2E2E2E2E2E2E2E2E2E2E2E2E2E2E2E2E2E2E2F5E2E2E2E2
310
E2E2E2E2E2E2E2F5F5EFF5E2E2E2E2E2E2E2E2E2E2E2F5E2E2E2E2E2E2E2E2E2E2E2E2E2E2E2E2E2E2E2E2E2E2E2E2E2E2E2E2E2E2E2E2E2E2E2E2E2E2E2E2E2E2E2E2E2E2E2E2E2E2E2E2E2E2E2E2E2E2E2E2E2E2E2E2E2E2E2E2E2E2E2E2E2E2E2E2E2E2E2E2E2E2E2E2E2E2E2E2E2E2E2E2E2E2E2E2E2E2E2E2E2E2E2E2
310
E2E2E2E2E2E2E2E2E2E2E2E2E2E2E2E2E2E2E2E2E2E2E2E2E2E2E2E2E2E2E2E2E2E2E2E2E2E2E2E2E2E2E2E2E2E2E2E2F5E2E2E2E2E2E2E2E2E2E2E2F5F5EFF5E2E2E2E2E2E2E2E2E2E2E2F5E2E2E2E2E2E2E2E2E2E2E2E2E2E2E2E2E2E2E2E2E2E2E2E2E2E2E2E2E2E2E2E2E2E2E2E2E2E2E2E2E2E2E2E2E2E2E2E2E2E2E2
310
E2E2E2E2E2E2E2E2E2E2E2E2E2E2E2E2E2E2E2E2E2E2E2E2E2E2E2E2E2E2E2E2E2E2E2E2E2E2E2E2E2E2E2E2E2E2E2E2E2E2E2E2E2E2E2E2E2E2E2E2E2E2E2E2E2E2E2E2E2E2E2E2E2E2E2E2E2E2E2E2E2E2E2E2E2E2E2E2E2E2E2E2E2E2E2E2E2E2E2E2E2F5E2E2E2E2E2E2E2E2E2E2E2F5F5EFF5E2E2E2E2E2E2E2E2E2E2
310
E2F5E2E2E2E2E2E2E2E2E2E2E2E2E2E2E2E2E2E2E2E2E2E2E2E2E2E2E2E2E2E2E2E2E2E2E2E2E2E2E2E2E2E2E2E2E2E2E2E2E2E2E2E2E2E2E2E2E2E2E2E2E2E2E2E2E2E2E2E2E2E2E2E2E2E2E2E2E2E2E2E2E2E2E2E2E2E2E2E2E2E2E2E2E2E2E2E2E2E2E2E2E2E2E2E2E2E2E2E2E2E2E2E2E2E2E2E2E2E2E2E2E2E2E2E2E2
310
E2E2E2E2E2E2E2E2E2E2E2E2E2E2E2E2E2E2E2E2E2E2E2E2E2E2E2F5E2E2E2E2E2E2E2E2E2E2E2F5F5EFF5E2E2E2E2E2E2E2E2E2E2E2F5E2E2E2E2E2E2E2E2E2E2E2E2E2E2E2E2E2E2E2E2E2E2E2E2E2E2E2E2E2E2E2E2E2E2E2E2E2E2E2E2E2E2E2E2E2E2E2E2E2E2E2E2E2E2E2E2E2E2E2E2E2E2E2E2E2E2E2E2E2E2E2E2
310
E2E2E2E2E2E2E2E2E2E2E2E2E2E2E2E2E2E2E2E2E2E2E2E2E2E2E2E2E2E2E2E2E2E2E2E2E2E2E2E2E2E2E2E2E2E2E2E2E2E2E2E2E2E2E2E2E2E2E2E2E2E2E2E2E2E2E2E2E2E2E2E2E2E2E2E2E2E2E2E2F5E2E2E2E2E2E2E2E2E2E2E2F5F5EFF5E2E2E2E2E2E2E2E2E2E2E2F5E2E2E2E2E2E2E2E2E2E2E2E2E2E2E2E2E2E2E2
310
E2E2E2E2E2E2E2E2E2E2E2E2E2E2E2E2E2E2E2E2E2E2E2E2E2E2E2E2E2E2E2E2E2E2E2E2E2E2E2E2E2E2E2E2E2E2E2E2E2E2E2E2E2E2E2E2E2E2E2E2E2E2E2E2E2E2E2E2E2E2E2E2E2E2E2E2E2E2E2E2E2E2E2E2E2E2E2E2E2E2E2E2E2E2E2E2E2E2E2E2E2E2E2E2E2E2E2E2E2E2E2E2E2E2E2E2E2E2E2E2E2E2E2E2E2E2E2
310
E2E2E2E2E2E2F5E2E2E2E2E2E2E2E2E2E2E2F5F5EFF5E2E2E2E2E2E2E2E2E2E2E2F5E2E2E2E2E2E2E2E2E2E2E2E2E2E2E2E2E2E2E2E2E2E2E2E2E2E2E2E2E2E2E2E2E2E2E2E2E2E2E2E2E2E2E2E2E2E2E2E2E2E2E2E2E2E2E2E2E2E2E2E2E2E2E2E2E2E2E2E2E2E2E2E2E2E2E2E2E2E2E2E2E2E2E2E2E2E2E2E2E2E2E2E2E2
310
E2E2E2E2E2E2E2E2E2E2E2E2E2E2E2E2E2E2E2E2E2E2E2E2E2E2E2E2E2E2E2E2E2E2E2E2E2E2E2E2E2E2E2E2E2E2E2E2E2E2E2E2E2E2E2E2E2E2E2F5E2E2E2E2E2E2E2E2E2E2E2F5F5EFF5E2E2E2E2E2E2E2E2E2E2E2F5E2E2E2E2E2E2E2E2E2E2E2E2E2E2E2E2E2E2E2E2E2E2E2E2E2E2E2E2E2E2E2E2E2E2E2E2E2E2E2E2
310
E2E2E2E2E2E2E2E2E2E2E2E2E2E2E2E2E2E2E2E2E2E2E2E2E2E2E2E2E2E2E2E2E2E2E2E2E2E2E2E2E2E2E2E2E2E2E2E2E2E2E2E2E2E2E2E2E2E2E2E2E2E2E2E2E2E2E2E2E2E2E2E2E2E2E2E2E2E2E2E2E2E2E2E2E2E2E2E2E2E2E2E2E2E2E2E2E2E2E2E2E2E2E2E2E2E2E2E2E2E2E2E2F5E2E2E2E2E2E2E2E2E2E2E2F5F5EF
310
F5E2E2E2E2E2E2E2E2E2E2E2E2E2E2E2E2E2E2E2E2E2E2E2E2E2E2E2E2E2E2E2E2E2E2E2E2E2E2E2E2E2E2E2E2E2E2E2E2E2E2E2E2E2E2E2E2E2E2E2E2E2E2E2E2E2E2E2E2E2E2E2E2E2E2E2E2E2E2E2E2E2E2E2E2E2E2E2E2E2E2E2E2E2E2E2E2E2E2E2E2E2E2E2E2E2E2E2E2E2E2E2E2E2E2E2E2E2E2E2E2E2E2E2E2E2E2
310
E2E2E2E2E2E2E2E2E2E2E2E2E2E2E2E2E2E2E2E2E2E2E2E2E2E2E2E2E2E2E2E2E2E2E2E2E2E2E2E2E2E2E2E2E2E2E2E2E2E2F5F5EFF5E2E2E2E2E2E2E2E2E2E2E2E2E2E2E2E2E2E2E2E2E2E2E2E2E2E2E2E2E2E2E2E2E2E2E2E2E2E2E2E2E2E2E2E2E2E2E2E2E2E2E2E2E2E2E2E2E2E2E2E2E2E2E2E2E2E2E2E2E2E2E2E2E2
310
E2E2E2E2E2E2E2E2E2E2E2E2E2E2E2E2E2E2E2E2E2E2E2E2E2E2E2E2E2E2E2E2E2E2E2E2E2E2E2E2E2E2E2E2E2E2E2E2E2E2E2E2E2E2E2E2E2E2E2E2E2E2E2E2E2E2E2E2E2E2E2E2E2E2E2E2E2E2E2E2E2E2E2E2E2E2E2E2E2E2E2E2E2E2E2E2E2E2E2E2E2E2E2F5F5EFF5E2E2E2E2E2E2E2E2E2E2E2E2E2E2E2E2E2E2E2E2
310
E2E2E2E2E2E2E2E2E2E2E2E2E2E2E2E2E2E2E2E2E2E2E2E2E2E2E2E2E2E2E2E2E2E2E2E2E2E2E2E2E2E2E2E2E2E2E2E2E2E2E2E2E2E2E2E2E2E2E2E2E2E2E2E2E2E2E2E2E2E2E2E2E2E2E2E2E2E2E2E2E2E2E2E2E2E2E2E2E2E2E2E2E2E2E2E2E2E2E2E2E2E2E2E2E2E2E2E2E2E2E2E2E2E2E2E2E2E2E2E2E2E2E2E2E2E2E2
310
E2E2E2E2E2E2E2E2E2E2E2E2E2E2E2E2E2E2E2E2E2E2E2E2E2E2E2E2E2F5F5EFF5E2E2E2E2E2E2E2E2E2E2E2E2E2E2E2E2E2E2E2E2E2E2E2E2E2E2E2E2E2E2E2E2E2E2E2E2E2E2E2E2E2E2E2E2E2E2E2E2E2E2E2E2E2E2E2E2E2E2E2E2E2E2E2E2E2E2E2E2E2E2E2E2E2E2E2E2E2E2E2E2E2E2E2E2E2E2E2E2E2E2E2E2E2E2
310
E2E2E2E2E2E2E2E2E2E2E2E2E2E2E2E2E2E2E2E2E2E2E2E2E2E2E2E2E2E2E2E2E2E2E2E2E2E2E2E2E2E2E2E2E2E2E2E2E2E2E2E2E2E2E2E2E2E2E2E2E2E2E2E2E2E2E2E2E2E2E2E2E2E2E2E2E2E2E2E2E2E2F5F5EFF5E2E2E2E2E2E2E2E2E2E2E2E2E2E2E2E2E2E2E2E2E2E2E2E2E2E2E2E2E2E2E2E2E2E2E2E2E2E2E2E2E2
310
E2E2E2E2E2E2E2E2E2E2E2E2E2E2E2E2E2E2E2E2E2E2E2E2E2E2E2E2E2E2E2E2E2E2E2E2E2E2E2E2E2E2E2E2E2E2E2E2E2E2E2E2E2E2E2E2E2E2E2E2E2E2E2E2E2E2E2E2E2E2E2E2E2E2E2E2E2E2E2E2E2E2E2E2E2E2E2E2E2E2E2E2E2E2E2E2E2E2E2E2E2E2E2E2E2E2E2E2E2E2E2E2E2E2E2E2E2E2E2E2E2E2E2E2E2E2E2
310
E2E2E2E2E2E2E2E2F5F5EFF5E2E2E2E2E2E2E2E2E2E2E2E2E2E2E2E2E2E2E2E2E2E2E2E2E2E2E2E2E2E2E2E2E2E2E2E2E2E2E2E2E2E2E2E2E2E2E2E2E2E2E2E2E2E2E2E2E2E2E2E2E2E2E2E2E2E2E2E2E2E2E2E2E2E2E2E2E2E2E2E2E2E2E2E2E2E2E2E2E2E2E2E2E2E2E2E2E2E2E2E2E2E2E2E2E2E2E2E2E2E2E2E2E2E2E2
310
E2E2E2E2E2E2E2E2E2E2E2E2E2E2E2E2E2E2E2E2E2E2E2E2E2E2E2E2E2E2E2E2E2E2E2E2E2E2E2E2E2E2E2E2E2E2E2E2E2E2E2E2E2E2E2E2E2E2E2E2E2F5F5EFF5E2E2E2E2E2E2E2E2E2E2E2E2E2E2E2E2E2E2E2E2E2E2E2E2E2E2E2E2E2E2E2E2E2E2E2E2E2E2E2E2E2E2E2E2E2E2E2E2E2E2E2E2E2E2E2E2E2E2E2E2E2E2
310
E2E2E2E2E2E2E2E2E2E2E2E2E2E2E2E2E2E2E2E2E2E2E2E2E2E2E2E2E2E2E2E2E2E2E2E2E2E2E2E2E2E2E2E2E2E2E2E2E2E2E2E2E2E2E2E2E2E2E2E2E2E2E2E2E2E2E2E2E2E2E2E2E2E2E2E2E2E2E2E2E2E2E2E2E2E2E2E2E2E2E2E2E2E2E2E2E2E2E2E2E2E2E2E2E2E2E2E2E2E2E2E2E2E2F5F5EFF5E2E2E2E2E2E2E2E2E2
310
E2E2E2E2E2E2E2E2E2E2E2E2E2E2E2E2E2E2E2E2E2E2E2E2E2E2E2E2E2E2E2E2E2E2E2E2E2E2E2E2E2E2E2E2E2E2E2E2E2E2E2E2E2E2E2E2E2E2E2E2E2E2E2E2E2E2E2E2E2E2E2E2E2E2E2E2E2E2E2E2E2E2E2E2E2E2E2E2E2E2E2E2E2E2E2E2E2E2E2E2E2E2E2E2E2E2E2E2E2E2E2E2E2E2E2E2E2E2E2E2E2E2E2E2E2E2E2
310
E2E2E2E2E2E2E2E2E2E2E2E2E2E2E2E2E2E2E2E2E2E2E2E2E2E2E2E2E2E2E2E2E2E2E2E2E2E2E2E2F5F5EFF5E2E2E2E2E2E2E2E2E2E2E2E2E2E2E2E2E2E2E2E2E2E2E2E2E2E2E2E2E2E2E2E2E2E2E2E2E2E2E2E2E2E2E2E2E2E2E2E2E2E2E2E2E2E2E2E2E2E2E2E2E2E2E2E2E2E2E2E2E2E2E2E2E2E2E2E2E2E2E2E2E2E2E2
310
E2E2E2E2E2E2E2E2E2E2E2E2E2E2E2E2E2E2E2E2E2E2E2E2E2E2E2E2E2E2E2E2E2E2E2E2E2E2E2E2E2E2E2E2E2E2E2E2E2E2E2E2E2E2E2E2E2E2E2E2E2E2E2E2E2E2E2E2E2E2E2E2E2E2E2E2E2E2E2E2E2E2E2E2E2E2E2E2E2E2E2E2E2F5F5EFF5E2E2E2E2E2E2E2E2E2E2E2F5E2E2E2E2E2E2E2E2E2E2E2E2E2E2E2E2E2E2
310
E2E2E2E2E2E2E2E2E2E2E2E2E2E2E2E2E2E2E2E2E2E2E2E2E2E2E2E2E2E2E2E2E2E2E2E2E2E2E2E2E2E2E2E2E2E2E2E2E2E2E2E2E2E2E2E2E2E2E2E2E2E2E2E2E2E2E2E2E2E2E2E2E2E2E2E2E2E2E2E2E2E2E2E2E2E2E2E2E2E2E2E2E2E2E2E2E2E2E2E2E2E2E2E2E2E2E2E2E2E2E2E2E2E2E2E2E2E2E2E2E2E2E2E2E2E2E2
310
E2E2E2E2E2E2E2F5E2E2E2E2E2E2E2E2E2E2E2F5F5EFF5E2E2E2E2E2E2E2E2E2E2E2F5E2E2E2E2E2E2E2E2E2E2E2E2E2E2E2E2E2E2E2E2E2E2E2E2E2E2E2E2E2E2E2E2E2E2E2E2E2E2E2E2E2E2E2E2E2E2E2E2E2E2E2E2E2E2E2E2E2E2E2E2E2E2E2E2E2E2E2E2E2E2E2E2E2E2E2E2E2E2E2E2E2E2E2E2E2E2E2E2E2E2E2E2
310
E2E2E2E2E2E2E2E2E2E2E2E2E2E2E2E2E2E2E2E2E2E2E2E2E2E2E2E2E2E2E2E2E2E2E2E2E2E2E2E2E2E2E2E2E2E2E2E2E2E2E2E2E2E2E2E2E2E2E2E2F5E2E2E2E2E2E2E2E2E2E2E2F5F5EFF5E2E2E2E2E2E2E2E2E2E2E2F5E2E2E2E2E2E2E2E2E2E2E2E2E2E2E2E2E2E2E2E2E2E2E2E2E2E2E2E2E2E2E2E2E2E2E2E2E2E2E2
310
E2E2E2E2E2E2E2E2E2E2E2E2E2E2E2E2E2E2E2E2E2E2E2E2E2E2E2E2E2E2E2E2E2E2E2E2E2E2E2E2E2E2E2E2E2E2E2E2E2E2E2E2E2E2E2E2E2E2E2E2E2E2E2E2E2E2E2E2E2E2E2E2E2E2E2E2E2E2E2E2E2E2E2E2E2E2E2E2E2E2E2E2E2E2E2E2E2E2E2E2E2E2E2E2E2E2E2E2E2E2E2E2E2F5E2E2E2E2E2E2E2E2E2E2E2F5F5
310
EFF5E2E2E2E2E2E2E2E2E2E2E2F5E2E2E2E2E2E2E2E2E2E2E2E2E2E2E2E2E2E2E2E2E2E2E2E2E2E2E2E2E2E2E2E2E2E2E2E2E2E2E2E2E2E2E2E2E2E2E2E2E2E2E2E2E2E2E2E2E2E2E2E2E2E2E2E2E2E2E2E2E2E2E2E2E2E2E2E2E2E2E2E2E2E2E2E2E2E2E2E2E2E2E2E2E2E2E2E2E2E2E2E2E2E2E2E2E2E2E2E2E2E2E2E2E2
310
E2E2E2E2E2E2E2E2E2E2E2E2E2E2E2E2E2E2E2E2E2E2E2E2E2E2E2E2E2E2E2E2E2E2E2E2E2E2E2F5E2E2E2E2E2E2E2E2E2E2E2F5F5EFF5E2E2E2E2E2E2E2E2E2E2E2F5E2E2E2E2E2E2E2E2E2E2E2E2E2E2E2E2E2E2E2E2E2E2E2E2E2E2E2E2E2E2E2E2E2E2E2E2E2E2E2E2E2E2E2E2E2E2E2E2E2E2E2E2E2E2E2E2E2E2E2E2
310
E2E2E2E2E2E2E2E2E2E2E2E2E2E2E2E2E2E2E2E2E2E2E2E2E2E2E2E2E2E2E2E2E2E2E2E2E2E2E2E2E2E2E2E2E2E2E2E2E2E2E2E2E2E2E2E2E2E2E2E2E2E2E2E2E2E2E2E2E2E2E2E2E2E2E2E2E2E2E2E2E2E2E2E2E2E2E2E2E2E2E2E2F5E2E2E2E2E2E2E2E2E2E2E2F5F5EFF5E2E2E2E2E2E2E2E2E2E2E2F5E2E2E2E2E2E2E2
310
E2E2E2E2E2E2E2E2E2E2E2E2E2E2E2E2E2E2E2E2E2E2E2E2E2E2E2E2E2E2E2E2E2E2E2E2E2E2E2E2E2E2E2E2E2E2E2E2E2E2E2E2E2E2E2E2E2E2E2E2E2E2E2E2E2E2E2E2E2E2E2E2E2E2E2E2E2E2E2E2E2E2E2E2E2E2E2E2E2E2E2E2E2E2E2E2E2E2E2E2E2E2E2E2E2E2E2E2E2E2E2E2E2E2E2E2E2E2E2E2E2E2E2E2E2E2E2
310
E2E2E2E2E2E2E2E2E2E2E2E2E2E2E2E2E2E2F5E2E2E2E2E2E2E2E2E2E2E2F5F5EFF5E2E2E2E2E2E2E2E2E2E2E2F5E2E2E2E2E2E2E2E2E2E2E2E2E2E2E2E2E2E2E2E2E2E2E2E2E2E2E2E2E2E2E2E2E2E2E2E2E2E2E2E2E2E2E2E2E2E2E2E2E2E2E2E2E2E2E2E2E2E2E2E2E2E2E2E2E2E2E2E2E2E2E2E2E2E2E2E2E2E2E2E2E2
310
E2E2E2E2E2E2E2E2E2E2E2E2E2E2E2E2E2E2E2E2E2E2E2E2E2E2E2E2E2E2E2E2E2E2E2E2E2E2E2E2E2E2E2E2E2E2E2E2E2E2E2E2E2E2E2E2E2E2E2E2E2E2E2E2E2E2E2E2E2E2E2F5E2E2E2E2E2E2E2E2E2E2E2F5F5EFF5E2E2E2E2E2E2E2E2E2E2E2F5E2E2E2E2E2E2E2E2E2E2E2E2E2E2E2E2E2E2E2E2E2E2E2E2E2E2E2E2
310
E2E2E2E2E2E2E2E2E2E2E2E2E2E2E2E2E2E2E2E2E2E2E2E2E2E2E2E2E2E2E2E2E2E2E2E2E2E2E2E2E2E2E2E2E2E2E2E2E2E2E2E2E2E2E2E2E2E2E2E2E2E2E2E2E2E2E2E2E2E2E2E2E2E2E2E2E2E2E2E2E2E2E2E2E2E2E2E2E2E2E2E2E2E2E2E2E2E2E2E2E2E2E2E2E2E2E2E2E2E2E2E2E2E2E2E2E2E2E2E2E2E2E2E2F5E2E2
310
E2E2E2E2E2E2E2E2E2F5F5EFF5E2E2E2E2E2E2E2E2E2E2E2F5E2E2E2E2E2E2E2E2E2E2E2E2E2E2E2E2E2E2E2E2E2E2E2E2E2E2E2E2E2E2E2E2E2E2E2E2E2E2E2E2E2E2E2E2E2E2E2E2E2E2E2E2E2E2E2E2E2E2E2E2E2E2E2E2E2E2E2E2E2E2E2E2E2E2E2E2E2E2E2E2E2E2E2E2E2E2E2E2E2E2E2E2E2E2E2E2E2E2E2E2E2E2
310
E2E2E2E2E2E2E2E2E2E2E2E2E2E2E2E2E2E2E2E2E2E2E2E2E2E2E2E2E2E2E2E2E2E2E2E2E2E2E2E2E2E2E2E2E2E2E2E2E2E2F5E2E2E2E2E2E2E2E2E2E2E2F5F5EFF5E2E2E2E2E2E2E2E2E2E2E2F5E2E2E2E2E2E2E2E2E2E2E2E2E2E2E2E2E2E2E2E2E2E2E2E2E2E2E2E2E2E2E2E2E2E2E2E2E2E2E2E2E2E2E2E2E2E2E2E2E2
310
E2E2E2E2E2E2E2E2E2E2E2E2E2E2E2E2E2E2E2E2E2E2E2E2E2E2E2E2E2E2E2E2E2E2E2E2E2E2E2E2E2E2E2E2E2E2E2E2E2E2E2E2E2E2E2E2E2E2E2E2E2E2E2E2E2E2E2E2E2E2E2E2E2E2E2E2E2E2E2E2E2E2E2E2E2E2E2E2E2E2E2E2E2E2E2E2E2E2E2E2E2E2E2F5E2E2E2E2E2E2E2E2E2E2E2F5F5EFF5E2E2E2E2E2E2E2E2
310
E2E2E2F5E2E2E2E2E2E2E2E2E2E2E2E2E2E2E2E2E2E2E2E2E2E2E2E2E2E2E2E2E2E2E2E2E2E2E2E2E2E2E2E2E2E2E2E2E2E2E2E2E2E2E2E2E2E2E2E2E2E2E2E2E2E2E2E2E2E2E2E2E2E2E2E2E2E2E2E2E2E2E2E2E2E2E2E2E2E2E2E2E2E2E2E2E2E2E2E2E2E2E2E2E2E2E2E2E2E2E2E2E2E2E2E2E2E2E2E2E2E2E2E2E2E2E2
310
E2E2E2E2E2E2E2E2E2E2E2E2E2E2E2E2E2E2E2E2E2E2E2E2E2E2E2E2E2F5E2E2E2E2E2E2E2E2E2E2E2F5F5EFF5E2E2E2E2E2E2E2E2E2E2E2F5E2E2E2E2E2E2E2E2E2E2E2E2E2E2E2E2E2E2E2E2E2E2E2E2E2E2E2E2E2E2E2E2E2E2E2E2E2E2E2E2E2E2E2E2E2E2E2E2E2E2E2E2E2E2E2E2E2E2E2E2E2E2E2E2E2E2E2E2E2E2
310
E2E2E2E2E2E2E2E2E2E2E2E2E2E2E2E2E2E2E2E2E2E2E2E2E2E2E2E2E2E2E2E2E2E2E2E2E2E2E2E2E2E2E2E2E2E2E2E2E2E2E2E2E2E2E2E2E2E2E2E2E2E2E2E2E2E2E2E2E2E2E2E2E2E2E2E2E2E2E2E2E2E2F5E2E2E2E2E2E2E2E2E2E2E2F5F5EFF5E2E2E2E2E2E2E2E2E2E2E2F5E2E2E2E2E2E2E2E2E2E2E2E2E2E2E2E2E2
310
E2E2E2E2E2E2E2E2E2E2E2E2E2E2E2E2E2E2E2E2E2E2E2E2E2E2E2E2E2E2E2E2E2E2E2E2E2E2E2E2E2E2E2E2E2E2E2E2E2E2E2E2E2E2E2E2E2E2E2E2E2E2E2E2E2E2E2E2E2E2E2E2E2E2E2E2E2E2E2E2E2E2E2E2E2E2E2E2E2E2E2E2E2E2E2E2E2E2E2E2E2E2E2E2E2E2E2E2E2E2E2E2E2E2E2E2E2E2E2E2E2E2E2E2E2E2E2
310
E2E2E2E2E2E2E2E2F5E2E2E2E2E2E2E2E2E2E2E2F5F5EFF5E2E2E2E2E2E2E2E2E2E2E2F5E2E2E2E2E2E2E2E2E2E2E2E2E2E2E2E2E2E2E2E2E2E2E2E2E2E2E2E2E2E2E2E2E2E2E2E2E2E2E2E2E2E2E2E2E2E2E2E2E2E2E2E2E2E2E2E2E2E2E2E2E2E2E2E2E2E2E2E2E2E2E2E2E2E2E2E2E2E2E2E2E2E2E2E2E2E2E2E2E2E2E2
310
E2E2E2E2E2E2E2E2E2E2E2E2E2E2E2E2E2E2E2E2E2E2E2E2E2E2E2E2E2E2E2E2E2E2E2E2E2E2E2E2E2E2E2E2E2E2E2E2E2E2E2E2E2E2E2E2E2E2E2E2E2F5E2E2E2E2E2E2E2E2E2E2E2F5F5EFF5E2E2E2E2E2E2E2E2E2E2E2F5E2E2E2E2E2E2E2E2E2E2E2E2E2E2E2E2E2E2E2E2E2E2E2E2E2E2E2E2E2E2E2E2E2E2E2E2E2E2
310
E2E2E2E2E2E2E2E2E2E2E2E2E2E2E2E2E2E2E2E2E2E2E2E2E2E2E2E2E2E2E2E2E2E2E2E2E2E2E2E2E2E2E2E2E2E2E2E2E2E2E2E2E2E2E2E2E2E2E2E2E2E2E2E2E2E2E2E2E2E2E2E2E2E2E2E2E2E2E2E2E2E2E2E2E2E2E2E2E2E2E2E2E2E2E2E2E2E2E2E2E2E2E2E2E2E2E2E2E2E2E2E2E2E2F5E2E2E2E2E2E2E2E2E2E2E2F5
310
F5EFF5E2E2E2E2E2E2E2E2E2E2E2E2E2E2E2E2E2E2E2E2E2E2E2E2E2E2E2E2E2E2E2E2E2E2E2E2E2E2E2E2E2E2E2E2E2E2E2E2E2E2E2E2E2E2E2E2E2E2E2E2E2E2E2E2E2E2E2E2E2E2E2E2E2E2E2E2E2E2E2E2E2E2E2E2E2E2E2E2E2E2E2E2E2E2E2E2E2E2E2E2E2E2E2E2E2E2E2E2E2E2E2E2E2E2E2E2E2E2E2E2E2E2E2E2
310
E2E2E2E2E2E2E2E2E2E2E2E2E2E2E2E2E2E2E2E2E2E2E2E2E2E2E2E2E2E2E2E2E2E2E2E2E2E2E2E2E2E2E2E2E2E2E2E2E2E2E2E2F5F5EFF5E2E2E2E2E2E2E2E2E2E2E2E2E2E2E2E2E2E2E2E2E2E2E2E2E2E2E2E2E2E2E2E2E2E2E2E2E2E2E2E2E2E2E2E2E2E2E2E2E2E2E2E2E2E2E2E2E2E2E2E2E2E2E2E2E2E2E2E2E2E2E2
310
E2E2E2E2E2E2E2E2E2E2E2E2E2E2E2E2E2E2E2E2E2E2E2E2E2E2E2E2E2E2E2E2E2E2E2E2E2E2E2E2E2E2E2E2E2E2E2E2E2E2E2E2E2E2E2E2E2E2E2E2E2E2E2E2E2E2E2E2E2E2E2E2E2E2E2E2E2E2E2E2E2E2E2E2E2E2E2E2E2E2E2E2E2E2E2E2E2E2E2E2E2E2E2E2E2F5F5EFF5E2E2E2E2E2E2E2E2E2E2E2E2E2E2E2E2E2E2
310
E2E2E2E2E2E2E2E2E2E2E2E2E2E2E2E2E2E2E2E2E2E2E2E2E2E2E2E2E2E2E2E2E2E2E2E2E2E2E2E2E2E2E2E2E2E2E2E2E2E2E2E2E2E2E2E2E2E2E2E2E2E2E2E2E2E2E2E2E2E2E2E2E2E2E2E2E2E2E2E2E2E2E2E2E2E2E2E2E2E2E2E2E2E2E2E2E2E2E2E2E2E2E2E2E2E2E2E2E2E2E2E2E2E2E2E2E2E2E2E2E2E2E2E2E2E2E2
310
E2E2E2E2E2E2E2E2E2E2E2E2E2E2E2E2E2E2E2E2E2E2E2E2E2E2E2E2E2E2E2F5F5EFF5E2E2E2E2E2E2E2E2E2E2E2E2E2E2E2E2E2E2E2E2E2E2E2E2E2E2E2E2E2E2E2E2E2E2E2E2E2E2E2E2E2E2E2E2E2E2E2E2E2E2E2E2E2E2E2E2E2E2E2E2E2E2E2E2E2E2E2E2E2E2E2E2E2E2E2E2E2E2E2E2E2E2E2E2E2E2E2E2E2E2E2E2
310
E2E2E2E2E2E2E2E2E2E2E2E2E2E2E2E2E2E2E2E2E2E2E2E2E2E2E2E2E2E2E2E2E2E2E2E2E2E2E2E2E2E2E2E2E2E2E2E2E2E2E2E2E2E2E2E2E2E2E2E2E2E2E2E2E2E2E2E2E2E2E2E2E2E2E2E2E2E2E2E2E2E2E2E2F5F5EFF5E2E2E2E2E2E2E2E2E2E2E2E2E2E2E2E2E2E2E2E2E2E2E2E2E2E2E2E2E2E2E2E2E2E2E2E2E2E2E2
310
E2E2E2E2E2E2E2E2E2E2E2E2E2E2E2E2E2E2E2E2E2E2E2E2E2E2E2E2E2E2E2E2E2E2E2E2E2E2E2E2E2E2E2E2E2E2E2E2E2E2E2E2E2E2E2E2E2E2E2E2E2E2E2E2E2E2E2E2E2E2E2E2E2E2E2E2E2E2E2E2E2E2E2E2E2E2E2E2E2E2E2E2E2E2E2E2E2E2E2E2E2E2E2E2E2E2E2E2E2E2E2E2E2E2E2E2E2E2E2E2E2E2E2E2E2E2E2
310
E2E2E2E2E2E2E2E2E2E2F5F5EFF5E2E2E2E2E2E2E2E2E2E2E2E2E2E2E2E2E2E2E2E2E2E2E2E2E2E2E2E2E2E2E2E2E2E2E2E2E2E2E2E2E2E2E2E2E2E2E2E2E2E2E2E2E2E2E2E2E2E2E2E2E2E2E2E2E2E2E2E2E2E2E2E2E2E2E2E2E2E2E2E2E2E2E2E2E2E2E2E2E2E2E2E2E2E2E2E2E2E2E2E2E2E2E2E2E2E2E2E2E2E2E2E2E2
310
E2E2E2E2E2E2E2E2E2E2E2E2E2E2E2E2E2E2E2E2E2E2E2E2E2E2E2E2E2E2E2E2E2E2E2E2E2E2E2E2E2E2E2E2E2E2E2E2E2E2E2E2E2E2E2E2E2E2E2E2E2E2E2F5F5EFF5E2E2E2E2E2E2E2E2E2E2E2E2E2E2E2E2E2E2E2E2E2E2E2E2E2E2E2E2E2E2E2E2E2E2E2E2E2E2E2E2E2E2E2E2E2E2E2E2E2E2E2E2E2E2E2E2E2E2E2E2
310
E2E2E2E2E2E2E2E2E2E2E2E2E2E2E2E2E2E2E2E2E2E2E2E2E2E2E2E2E2E2E2E2E2E2E2E2E2E2E2E2E2E2E2E2E2E2E2E2E2E2E2E2E2E2E2E2E2E2E2E2E2E2E2E2E2E2E2E2E2E2E2E2E2E2E2E2E2E2E2E2E2E2E2E2E2E2E2E2E2E2E2E2E2E2E2E2E2E2E2E2E2E2E2E2E2E2E2E2E2E2E2E2E2E2E2E2F5F5EFF5E2E2E2E2E2E2E2
310
E2E2E2E2E2E2E2E2E2E2E2E2E2E2E2E2E2E2E2E2E2E2E2E2E2E2E2E2E2E2E2E2E2E2E2E2E2E2E2E2E2E2E2E2E2E2E2E2E2E2E2E2E2E2E2E2E2E2E2E2E2E2E2E2E2E2E2E2E2E2E2E2E2E2E2E2E2E2E2E2E2E2E2E2E2E2E2E2E2E2E2E2E2E2E2E2E2E2E2E2E2E2E2E2E2E2E2E2E2E2E2E2E2E2E2E2E2E2E2E2E2E2E2E2E2E2E2
310
E2E2E2E2E2E2E2E2E2E2E2E2E2E2E2E2E2E2E2E2E2E2E2E2E2E2E2E2E2E2E2E2E2E2E2E2E2E2E2E2E2E2F5F5EFF5E2E2E2E2E2E2E2E2E2E2E2F5E2E2E2E2E2E2E2E2E2E2E2E2E2E2E2E2E2E2E2E2E2E2E2E2E2E2E2E2E2E2E2E2E2E2E2E2E2E2E2E2E2E2E2E2E2E2E2E2E2E2E2E2E2E2E2E2E2E2E2E2E2E2E2E2E2E2E2E2E2
310
E2E2E2E2E2E2E2E2E2E2E2E2E2E2E2E2E2E2E2E2E2E2E2E2E2E2E2E2E2E2E2E2E2E2E2E2E2E2E2E2E2E2E2E2E2E2E2E2E2E2E2E2E2E2E2E2E2E2E2E2E2E2E2E2E2E2E2E2E2E2E2E2E2E2E2E2E2E2E2E2E2E2E2F5E2E2E2E2E2E2E2E2E2E2E2F5F5EFF5E2E2E2E2E2E2E2E2E2E2E2F5E2E2E2E2E2E2E2E2E2E2E2E2E2E2E2E2
310
E2E2E2E2E2E2E2E2E2E2E2E2E2E2E2E2E2E2E2E2E2E2E2E2E2E2E2E2E2E2E2E2E2E2E2E2E2E2E2E2E2E2E2E2E2E2E2E2E2E2E2E2E2E2E2E2E2E2E2E2E2E2E2E2E2E2E2E2E2E2E2E2E2E2E2E2E2E2E2E2E2E2E2E2E2E2E2E2E2E2E2E2E2E2E2E2E2E2E2E2E2E2E2E2E2E2E2E2E2E2E2E2E2E2E2E2E2E2E2E2E2E2E2E2E2E2E2
310
E2E2E2E2E2E2E2E2E2F5E2E2E2E2E2E2E2E2E2E2E2F5F5EFF5E2E2E2E2E2E2E2E2E2E2E2F5E2E2E2E2E2E2E2E2E2E2E2E2E2E2E2E2E2E2E2E2E2E2E2E2E2E2E2E2E2E2E2E2E2E2E2E2E2E2E2E2E2E2E2E2E2E2E2E2E2E2E2E2E2E2E2E2E2E2E2E2E2E2E2E2E2E2E2E2E2E2E2E2E2E2E2E2E2E2E2E2E2E2E2E2E2E2E2E2E2E2
310
E2E2E2E2E2E2E2E2E2E2E2E2E2E2E2E2E2E2E2E2E2E2E2E2E2E2E2E2E2E2E2E2E2E2E2E2E2E2E2E2E2E2E2E2E2E2E2E2E2E2E2E2E2E2E2E2E2E2E2E2E2E2F5E2E2E2E2E2E2E2E2E2E2E2F5F5EFF5E2E2E2E2E2E2E2E2E2E2E2F5E2E2E2E2E2E2E2E2E2E2E2E2E2E2E2E2E2E2E2E2E2E2E2E2E2E2E2E2E2E2E2E2E2E2E2E2E2
310
E2E2E2E2E2E2E2E2E2E2E2E2E2E2E2E2E2E2E2E2E2E2E2E2E2E2E2E2E2E2E2E2E2E2E2E2E2E2E2E2E2E2E2E2E2E2E2E2E2E2E2E2E2E2E2E2E2E2E2E2E2E2E2E2E2E2E2E2E2E2E2E2E2E2E2E2E2E2E2E2E2E2E2E2E2E2E2E2E2E2E2E2E2E2E2E2E2E2E2E2E2E2E2E2E2E2E2E2E2E2E2E2E2E2E2F5E2E2E2E2E2E2E2E2E2E2E2
310
F5F5EFF5E2E2E2E2E2E2E2E2E2E2E2F5E2E2E2E2E2E2E2E2E2E2E2E2E2E2E2E2E2E2E2E2E2E2E2E2E2E2E2E2E2E2E2E2E2E2E2E2E2E2E2E2E2E2E2E2E2E2E2E2E2E2E2E2E2E2E2E2E2E2E2E2E2E2E2E2E2E2E2E2E2E2E2E2E2E2E2E2E2E2E2E2E2E2E2E2E2E2E2E2E2E2E2E2E2E2E2E2E2E2E2E2E2E2E2E2E2E2E2E2E2E2E2
310
E2E2E2E2E2E2E2E2E2E2E2E2E2E2E2E2E2E2E2E2E2E2E2E2E2E2E2E2E2E2E2E2E2E2E2E2E2E2E2E2E2F5E2E2E2E2E2E2E2E2E2E2E2F5F5EFF5E2E2E2E2E2E2E2E2E2E2E2F5E2E2E2E2E2E2E2E2E2E2E2E2E2E2E2E2E2E2E2E2E2E2E2E2E2E2E2E2E2E2E2E2E2E2E2E2E2E2E2E2E2E2E2E2E2E2E2E2E2E2E2E2E2E2E2E2E2E2
310
E2E2E2E2E2E2E2E2E2E2E2E2E2E2E2E2E2E2E2E2E2E2E2E2E2E2E2E2E2E2E2E2E2E2E2E2E2E2E2E2E2E2E2E2E2E2E2E2E2E2E2E2E2E2E2E2E2E2E2E2E2E2E2E2E2E2E2E2E2E2E2E2E2E2E2E2E2E2E2E2E2E2E2E2E2E2E2E2E2E2E2E2E2E2F5E2E2E2E2E2E2E2E2E2E2E2F5F5EFF5E2E2E2E2E2E2E2E2E2E2E2F5E2E2E2E2E2
310
E2E2E2E2E2E2E2E2E2E2E2E2E2E2E2E2E2E2E2E2E2E2E2E2E2E2E2E2E2E2E2E2E2E2E2E2E2E2E2E2E2E2E2E2E2E2E2E2E2E2E2E2E2E2E2E2E2E2E2E2E2E2E2E2E2E2E2E2E2E2E2E2E2E2E2E2E2E2E2E2E2E2E2E2E2E2E2E2E2E2E2E2E2E2E2E2E2E2E2E2E2E2E2E2E2E2E2E2E2E2E2E2E2E2E2E2E2E2E2E2E2E2E2E2E2E2E2
310
E2E2E2E2E2E2E2E2E2E2E2E2E2E2E2E2E2E2E2E2F5E2E2E2E2E2E2E2E2E2E2E2F5F5EFF5E2E2E2E2E2E2E2E2E2E2E2F5E2E2E2E2E2E2E2E2E2E2E2E2E2E2E2E2E2E2E2E2E2E2E2E2E2E2E2E2E2E2E2E2E2E2E2E2E2E2E2E2E2E2E2E2E2E2E2E2E2E2E2E2E2E2E2E2E2E2E2E2E2E2E2E2E2E2E2E2E2E2E2E2E2E2E2E2E2E2E2
310
E2E2E2E2E2E2E2E2E2E2E2E2E2E2E2E2E2E2E2E2E2E2E2E2E2E2E2E2E2E2E2E2E2E2E2E2E2E2E2E2E2E2E2E2E2E2E2E2E2E2E2E2E2E2E2E2E2E2E2E2E2E2E2E2E2E2E2E2E2E2E2E2E2F5E2E2E2E2E2E2E2E2E2E2E2F5F5EFF5E2E2E2E2E2E2E2E2E2E2E2F5E2E2E2E2E2E2E2E2E2E2E2E2E2E2E2E2E2E2E2E2E2E2E2E2E2E2
310
E2E2E2E2E2E2E2E2E2E2E2E2E2E2E2E2E2E2E2E2E2E2E2E2E2E2E2E2E2E2E2E2E2E2E2E2E2E2E2E2E2E2E2E2E2E2E2E2E2E2E2E2E2E2E2E2E2E2E2E2E2E2E2E2E2E2E2E2E2E2E2E2E2E2E2E2E2E2E2E2E2E2E2E2E2E2E2E2E2E2E2E2E2E2E2E2E2E2E2E2E2E2E2E2E2E2E2E2E2E2E2E2E2E2E2E2E2E2E2E2E2E2E2E2E2E2F5
310
E2E2E2E2E2E2E2E2E2E2E2F5F5EFF5E2E2E2E2E2E2E2E2E2E2E2F5E2E2E2E2E2E2E2E2E2E2E2E2E2E2E2E2E2E2E2E2E2E2E2E2E2E2E2E2E2E2E2E2E2E2E2E2E2E2E2E2E2E2E2E2E2E2E2E2E2E2E2E2E2E2E2E2E2E2E2E2E2E2E2E2E2E2E2E2E2E2E2E2E2E2E2E2E2E2E2E2E2E2E2E2E2E2E2E2E2E2E2E2E2E2E2E2E2E2E2E2
310
E2E2E2E2E2E2E2E2E2E2E2E2E2E2E2E2E2E2E2E2E2E2E2E2E2E2E2E2E2E2E2E2E2E2E2E2E2E2E2E2E2E2E2E2E2E2E2E2E2E2E2E2F5E2E2E2E2E2E2E2E2E2E2E2F5F5EFF5E2E2E2E2E2E2E2E2E2E2E2F5E2E2E2E2E2E2E2E2E2E2E2E2E2E2E2E2E2E2E2E2E2E2E2E2E2E2E2E2E2E2E2E2E2E2E2E2E2E2E2E2E2E2E2E2E2E2E2
310
E2E2E2E2E2E2E2E2E2E2E2E2E2E2E2E2E2E2E2E2E2E2E2E2E2E2E2E2E2E2E2E2E2E2E2E2E2E2E2E2E2E2E2E2E2E2E2E2E2E2E2E2E2E2E2E2E2E2E2E2E2E2E2E2E2E2E2E2E2E2E2E2E2E2E2E2E2E2E2E2E2E2E2E2E2E2E2E2E2E2E2E2E2E2E2E2E2E2E2E2E2E2E2E2E2F5E2E2E2E2E2E2E2E2E2E2E2F5F5EFF5E2E2E2E2E2E2
310
E2E2E2E2E2F5E2E2E2E2E2E2E2E2E2E2E2E2E2E2E2E2E2E2E2E2E2E2E2E2E2E2E2E2E2E2E2E2E2E2E2E2E2E2E2E2E2E2E2E2E2E2E2E2E2E2E2E2E2E2E2E2E2E2E2E2E2E2E2E2E2E2E2E2E2E2E2E2E2E2E2E2E2E2E2E2E2E2E2E2E2E2E2E2E2E2E2E2E2E2E2E2E2E2E2E2E2E2E2E2E2E2E2E2E2E2E2E2E2E2E2E2E2E2E2E2E2
310
E2E2E2E2E2E2E2E2E2E2E2E2E2E2E2E2E2E2E2E2E2E2E2E2E2E2E2E2E2E2E2F5E2E2E2E2E2E2E2E2E2E2E2F5F5EFF5E2E2E2E2E2E2E2E2E2E2E2F5E2E2E2E2E2E2E2E2E2E2E2E2E2E2E2E2E2E2E2E2E2E2E2E2E2E2E2E2E2E2E2E2E2E2E2E2E2E2E2E2E2E2E2E2E2E2E2E2E2E2E2E2E2E2E2E2E2E2E2E2E2E2E2E2E2E2E2E2
310
E2E2E2E2E2E2E2E2E2E2E2E2E2E2E2E2E2E2E2E2E2E2E2E2E2E2E2E2E2E2E2E2E2E2E2E2E2E2E2E2E2E2E2E2E2E2E2E2E2E2E2E2E2E2E2E2E2E2E2E2E2E2E2E2E2E2E2E2E2E2E2E2E2E2E2E2E2E2E2E2E2E2E2E2F5E2E2E2E2E2E2E2E2E2E2E2F5F5EFF5E2E2E2E2E2E2E2E2E2E2E2F5E2E2E2E2E2E2E2E2E2E2E2E2E2E2E2
310
E2E2E2E2E2E2E2E2E2E2E2E2E2E2E2E2E2E2E2E2E2E2E2E2E2E2E2E2E2E2E2E2E2E2E2E2E2E2E2E2E2E2E2E2E2E2E2E2E2E2E2E2E2E2E2E2E2E2E2E2E2E2E2E2E2E2E2E2E2E2E2E2E2E2E2E2E2E2E2E2E2E2E2E2E2E2E2E2E2E2E2E2E2E2E2E2E2E2E2E2E2E2E2E2E2E2E2E2E2E2E2E2E2E2E2E2E2E2E2E2E2E2E2E2E2E2E2
310
E2E2E2E2E2E2E2E2E2E2F5E2E2E2E2E2E2E2E2E2E2E2F5F5EFF5E2E2E2E2E2E2E2E2E2E2E2F5E2E2E2E2E2E2E2E2E2E2E2E2E2E2E2E2E2E2E2E2E2E2E2E2E2E2E2E2E2E2E2E2E2E2E2E2E2E2E2E2E2E2E2E2E2E2E2E2E2E2E2E2E2E2E2E2E2E2E2E2E2E2E2E2E2E2E2E2E2E2E2E2E2E2E2E2E2E2E2E2E2E2E2E2E2E2E2E2E2
310
E2E2E2E2E2E2E2E2E2E2E2E2E2E2E2E2E2E2E2E2E2E2E2E2E2E2E2E2E2E2E2E2E2E2E2E2E2E2E2E2E2E2E2E2E2E2E2E2E2E2E2E2E2E2E2E2E2E2E2E2E2E2E2F5E2E2E2E2E2E2E2E2E2E2E2F5F5EFF5E2E2E2E2E2E2E2E2E2E2E2E2E2E2E2E2E2E2E2E2E2E2E2E2E2E2E2E2E2E2E2E2E2E2E2E2E2E2E2E2E2E2E2E2E2E2E2E2
310
E2E2E2E2E2E2E2E2E2E2E2E2E2E2E2E2E2E2E2E2E2E2E2E2E2E2E2E2E2E2E2E2E2E2E2E2E2E2E2E2E2E2E2E2E2E2E2E2E2E2E2E2E2E2E2E2E2E2E2E2E2E2E2E2E2E2E2E2E2E2E2E2E2E2E2E2E2E2E2E2E2E2E2E2E2E2E2E2E2E2E2E2E2E2E2E2E2E2E2E2E2E2E2E2E2E2E2E2E2E2E2E2E2E2E2E2E2E2E2E2E2E2E2E2E2E2E2
310
E2F5F5EFF5E2E2E2E2E2E2E2E2E2E2E2E2E2E2E2E2E2E2E2E2E2E2E2E2E2E2E2E2E2E2E2E2E2E2E2E2E2E2E2E2E2E2E2E2E2E2E2E2E2E2E2E2E2E2E2E2E2E2E2E2E2E2E2E2E2E2E2E2E2E2E2E2E2E2E2E2E2E2E2E2E2E2E2E2E2E2E2E2E2E2E2E2E2E2E2E2E2E2E2E2E2E2E2E2E2E2E2E2E2E2E2E2E2E2E2E2E2E2E2E2E2E2
310
E2E2E2E2E2E2E2E2E2E2E2E2E2E2E2E2E2E2E2E2E2E2E2E2E2E2E2E2E2E2E2E2E2E2E2E2E2E2E2E2E2E2E2E2E2E2E2E2E2E2E2E2E2E2F5F5EFF5E2E2E2E2E2E2E2E2E2E2E2E2E2E2E2E2E2E2E2E2E2E2E2E2E2E2E2E2E2E2E2E2E2E2E2E2E2E2E2E2E2E2E2E2E2E2E2E2E2E2E2E2E2E2E2E2E2E2E2E2E2E2E2E2E2E2E2E2E2
310
E2E2E2E2E2E2E2E2E2E2E2E2E2E2E2E2E2E2E2E2E2E2E2E2E2E2E2E2E2E2E2E2E2E2E2E2E2E2E2E2E2E2E2E2E2E2E2E2E2E2E2E2E2E2E2E2E2E2E2E2E2E2E2E2E2E2E2E2E2E2E2E2E2E2E2E2E2E2E2E2E2E2E2E2E2E2E2E2E2E2E2E2E2E2E2E2E2E2E2E2E2E2E2E2E2E2E2F5F5EFF5E2E2E2E2E2E2E2E2E2E2E2E2E2E2E2E2
310
E2E2E2E2E2E2E2E2E2E2E2E2E2E2E2E2E2E2E2E2E2E2E2E2E2E2E2E2E2E2E2E2E2E2E2E2E2E2E2E2E2E2E2E2E2E2E2E2E2E2E2E2E2E2E2E2E2E2E2E2E2E2E2E2E2E2E2E2E2E2E2E2E2E2E2E2E2E2E2E2E2E2E2E2E2E2E2E2E2E2E2E2E2E2E2E2E2E2E2E2E2E2E2E2E2E2E2E2E2E2E2E2E2E2E2E2E2E2E2E2E2E2E2E2E2E2E2
310
E2E2E2E2E2E2E2E2E2E2E2E2E2E2E2E2E2E2E2E2E2E2E2E2E2E2E2E2E2E2E2E2E2F5F5EFF5E2E2E2E2E2E2E2E2E2E2E2E2E2E2E2E2E2E2E2E2E2E2E2E2E2E2E2E2E2E2E2E2E2E2E2E2E2E2E2E2E2E2E2E2E2E2E2E2E2E2E2E2E2E2E2E2E2E2E2E2E2E2E2E2E2E2E2E2E2E2E2E2E2E2E2E2E2E2E2E2E2E2E2E2E2E2E2E2E2E2
310
E2E2E2E2E2E2E2E2E2E2E2E2E2E2E2E2E2E2E2E2E2E2E2E2E2E2E2E2E2E2E2E2E2E2E2E2E2E2E2E2E2E2E2E2E2E2E2E2E2E2E2E2E2E2E2E2E2E2E2E2E2E2E2E2E2E2E2E2E2E2E2E2E2E2E2E2E2E2E2E2E2E2E2E2E2E2F5F5EFF5E2E2E2E2E2E2E2E2E2E2E2E2E2E2E2E2E2E2E2E2E2E2E2E2E2E2E2E2E2E2E2E2E2E2E2E2E2
310
E2E2E2E2E2E2E2E2E2E2E2E2E2E2E2E2E2E2E2E2E2E2E2E2E2E2E2E2E2E2E2E2E2E2E2E2E2E2E2E2E2E2E2E2E2E2E2E2E2E2E2E2E2E2E2E2E2E2E2E2E2E2E2E2E2E2E2E2E2E2E2E2E2E2E2E2E2E2E2E2E2E2E2E2E2E2E2E2E2E2E2E2E2E2E2E2E2E2E2E2E2E2E2E2E2E2E2E2E2E2E2E2E2E2E2E2E2E2E2E2E2E2E2E2E2E2E2
310
E2E2E2E2E2E2E2E2E2E2E2E2F5F5EFF5E2E2E2E2E2E2E2E2E2E2E2E2E2E2E2E2E2E2E2E2E2E2E2E2E2E2E2E2E2E2E2E2E2E2E2E2E2E2E2E2E2E2E2E2E2E2E2E2E2E2E2E2E2E2E2E2E2E2E2E2E2E2E2E2E2E2E2E2E2E2E2E2E2E2E2E2E2E2E2E2E2E2E2E2E2E2E2E2E2E2E2E2E2E2E2E2E2E2E2E2E2E2E2E2E2E2E2E2E2E2E2
310
E2E2E2E2E2E2E2E2E2E2E2E2E2E2E2E2E2E2E2E2E2E2E2E2E2E2E2E2E2E2E2E2E2E2E2E2E2E2E2E2E2E2E2E2E2E2E2E2E2E2E2E2E2E2E2E2E2E2E2E2E2E2E2E2E2F5F5EFF5E2E2E2E2E2E2E2E2E2E2E2E2E2E2E2E2E2E2E2E2E2E2E2E2E2E2E2E2E2E2E2E2E2E2E2E2E2E2E2E2E2E2E2E2E2E2E2E2E2E2E2E2E2E2E2E2E2E2
310
E2E2E2E2E2E2E2E2E2E2E2E2E2E2E2E2E2E2E2E2E2E2E2E2E2E2E2E2E2E2E2E2E2E2E2E2E2E2E2E2E2E2E2E2E2E2E2E2E2E2E2E2E2E2E2E2E2E2E2E2E2E2E2E2E2E2E2E2E2E2E2E2E2E2E2E2E2E2E2E2E2E2E2E2E2E2E2E2E2E2E2E2E2E2E2E2E2E2E2E2E2E2E2E2E2E2E2E2E2E2E2E2E2E2E2E2E2E2F5F5EFF5E2E2E2E2E2
310
E2E2E2E2E2E2F5E2E2E2E2E2E2E2E2E2E2E2E2E2E2E2E2E2E2E2E2E2E2E2E2E2E2E2E2E2E2E2E2E2E2E2E2E2E2E2E2E2E2E2E2E2E2E2E2E2E2E2E2E2E2E2E2E2E2E2E2E2E2E2E2E2E2E2E2E2E2E2E2E2E2E2E2E2E2E2E2E2E2E2E2E2E2E2E2E2E2E2E2E2E2E2E2E2E2E2E2E2E2E2E2E2E2E2E2E2E2E2E2E2E2E2E2E2E2E2E2
310
E2E2E2E2E2E2E2E2E2E2E2E2E2E2E2E2E2E2E2E2E2E2E2E2E2E2E2E2E2E2E2E2F5E2E2E2E2E2E2E2E2E2E2E2F5F5EFF5E2E2E2E2E2E2E2E2E2E2E2F5E2E2E2E2E2E2E2E2E2E2E2E2E2E2E2E2E2E2E2E2E2E2E2E2E2E2E2E2E2E2E2E2E2E2E2E2E2E2E2E2E2E2E2E2E2E2E2E2E2E2E2E2E2E2E2E2E2E2E2E2E2E2E2E2E2E2E2
310
E2E2E2E2E2E2E2E2E2E2E2E2E2E2E2E2E2E2E2E2E2E2E2E2E2E2E2E2E2E2E2E2E2E2E2E2E2E2E2E2E2E2E2E2E2E2E2E2E2E2E2E2E2E2E2E2E2E2E2E2E2E2E2E2E2E2E2E2E2E2E2E2E2E2E2E2E2E2E2E2E2E2E2E2E2F5E2E2E2E2E2E2E2E2E2E2E2F5F5EFF5E2E2E2E2E2E2E2E2E2E2E2F5E2E2E2E2E2E2E2E2E2E2E2E2E2E2
310
E2E2E2E2E2E2E2E2E2E2E2E2E2E2E2E2E2E2E2E2E2E2E2E2E2E2E2E2E2E2E2E2E2E2E2E2E2E2E2E2E2E2E2E2E2E2E2E2E2E2E2E2E2E2E2E2E2E2E2E2E2E2E2E2E2E2E2E2E2E2E2E2E2E2E2E2E2E2E2E2E2E2E2E2E2E2E2E2E2E2E2E2E2E2E2E2E2E2E2E2E2E2E2E2E2E2E2E2E2E2E2E2E2E2E2E2E2E2E2E2E2E2E2E2E2E2E2
310
E2E2E2E2E2E2E2E2E2E2E2F5E2E2E2E2E2E2E2E2E2E2E2F5F5EFF5E2E2E2E2E2E2E2E2E2E2E2F5E2E2E2E2E2E2E2E2E2E2E2E2E2E2E2E2E2E2E2E2E2E2E2E2E2E2E2E2E2E2E2E2E2E2E2E2E2E2E2E2E2E2E2E2E2E2E2E2E2E2E2E2E2E2E2E2E2E2E2E2E2E2E2E2E2E2E2E2E2E2E2E2E2E2E2E2E2E2E2E2E2E2E2E2E2E2E2E2
310
E2E2E2E2E2E2E2E2E2E2E2E2E2E2E2E2E2E2E2E2E2E2E2E2E2E2E2E2E2E2E2E2E2E2E2E2E2E2E2E2E2E2E2E2E2E2E2E2E2E2E2E2E2E2E2E2E2E2E2E2E2E2E2E2F5E2E2E2E2E2E2E2E2E2E2E2F5F5EFF5E2E2E2E2E2E2E2E2E2E2E2F5E2E2E2E2E2E2E2E2E2E2E2E2E2E2E2E2E2E2E2E2E2E2E2E2E2E2E2E2E2E2E2E2E2E2E2
310
E2E2E2E2E2E2E2E2E2E2E2E2E2E2E2E2E2E2E2E2E2E2E2E2E2E2E2E2E2E2E2E2E2E2E2E2E2E2E2E2E2E2E2E2E2E2E2E2E2E2E2E2E2E2E2E2E2E2E2E2E2E2E2E2E2E2E2E2E2E2E2E2E2E2E2E2E2E2E2E2E2E2E2E2E2E2E2E2E2E2E2E2E2E2E2E2E2E2E2E2E2E2E2E2E2E2E2E2E2E2E2E2E2E2E2E2E2F5E2E2E2E2E2E2E2E2E2
310
E2E2F5F5EFF5E2E2E2E2E2E2E2E2E2E2E2F5E2E2E2E2E2E2E2E2E2E2E2E2E2E2E2E2E2E2E2E2E2E2E2E2E2E2E2E2E2E2E2E2E2E2E2E2E2E2E2E2E2E2E2E2E2E2E2E2E2E2E2E2E2E2E2E2E2E2E2E2E2E2E2E2E2E2E2E2E2E2E2E2E2E2E2E2E2E2E2E2E2E2E2E2E2E2E2E2E2E2E2E2E2E2E2E2E2E2E2E2E2E2E2E2E2E2E2E2E2
310
E2E2E2E2E2E2E2E2E2E2E2E2E2E2E2E2E2E2E2E2E2E2E2E2E2E2E2E2E2E2E2E2E2E2E2E2E2E2E2E2E2E2E2F5E2E2E2E2E2E2E2E2E2E2E2F5F5EFF5E2E2E2E2E2E2E2E2E2E2E2F5E2E2E2E2E2E2E2E2E2E2E2E2E2E2E2E2E2E2E2E2E2E2E2E2E2E2E2E2E2E2E2E2E2E2E2E2E2E2E2E2E2E2E2E2E2E2E2E2E2E2E2E2E2E2E2E2
310
E2E2E2E2E2E2E2E2E2E2E2E2E2E2E2E2E2E2E2E2E2E2E2E2E2E2E2E2E2E2E2E2E2E2E2E2E2E2E2E2E2E2E2E2E2E2E2E2E2E2E2E2E2E2E2E2E2E2E2E2E2E2E2E2E2E2E2E2E2E2E2E2E2E2E2E2E2E2E2E2E2E2E2E2E2E2E2E2E2E2E2E2E2E2E2E2F5E2E2E2E2E2E2E2E2E2E2E2F5F5EFF5E2E2E2E2E2E2E2E2E2E2E2F5F5F5F5
310
F5F5F5F5F5E2E2E2E2E2E2E2E2E2F5F5F5F5F5F5F5F5F5F5F5F5F5F5F5F5E2E2E2E2E2E2E2E2E2F5F5F5F5F5F5F5F5F5F5F5F5F5F5F5F5F5E2E2E2E2E2E2E2E2E2F5F5F5F5F5F5F5F5F5F5F5F5F5F5F5F5E2E2E2E2E2E2E2E2E2F5F5F5F5F5F5F5F5F5F5F5F5F5F5F5F5F5E2E2E2E2E2E2E2E2E2F5F5F5F5F5F5F5F5F5F5F5
310
F5F5F5F5F5E2E2E2E2E2E2E2E2E2F5F5F5F5F5F5F5F5F5E2E2E2E2E2E2E2E2E2E2E2F5F5EFF5E2E2E2E2E2E2E2E2E2E2E2E2E2E2E2E2E2E2E2E2E2E2E2E2E2E2E2E2E2E2E2E2E2E2E2E2E2E2E2E2E2E2E2E2E2E2E2E2E2E2E2E2E2E2E2E2E2E2E2E2E2E2E2E2E2E2E2E2E2E2E2E2E2E2E2E2E2E2E2E2E2E2E2E2E2E2E2E2E2
310
E2E2E2E2E2E2E2E2E2E2E2E2E2E2E2E2E2E2E2E2E2E2E2E2E2E2E2E2E2E2E2E2E2E2E2E2E2E2E2E2E2E2E2E2E2E2E2E2E2E2E2E2E2E2E2E2E2E2E2E2E2E2E2E2E2E2E2E2E2E2E2E2E2E2E2E2E2E2E2E2E2E2E2E2E2E2E2F5F5EFF5E2E2E2E2E2E2E2E2E2E2E2E2E2E2E2E2E2E2E2E2E2E2E2E2E2E2E2E2E2E2E2E2E2E2E2E2
310
E2E2E2E2E2E2E2E2E2E2E2E2E2E2E2E2E2E2E2E2E2E2E2E2E2E2E2E2E2E2E2E2E2E2E2E2E2E2E2E2E2E2E2E2E2E2E2E2E2E2E2E2E2E2E2E2E2E2E2E2E2E2E2E2E2E2E2E2E2E2E2E2E2E2E2E2E2E2E2E2E2E2E2E2E2E2E2E2E2E2E2E2E2E2E2E2E2E2E2E2E2E2E2E2E2E2E2E2E2E2E2E2E2E2E2E2E2E2E2E2E2E2E2E2E2E2E2
310
E2E2E2E2E2E2E2E2E2E2E2E2E2F5F5EFF5E2E2E2E2E2E2E2E2E2E2E2E2E2E2E2E2E2E2E2E2E2E2E2E2E2E2E2E2E2E2E2E2E2E2E2E2E2E2E2E2E2E2E2E2E2E2E2E2E2E2E2E2E2E2E2E2E2E2E2E2E2E2E2E2E2E2E2E2E2E2E2E2E2E2E2E2E2E2E2E2E2E2E2E2E2E2E2E2E2E2E2E2E2E2E2E2E2E2E2E2E2E2E2E2E2E2E2E2E2E2
310
E2E2E2E2E2E2E2E2E2E2E2E2E2E2E2E2E2E2E2E2E2E2E2E2E2E2E2E2E2E2E2E2E2E2E2E2E2E2E2E2E2E2E2E2E2E2E2E2E2E2E2E2E2E2E2E2E2E2E2E2E2E2E2E2E2E2F5F5EFF5E2E2E2E2E2E2E2E2E2E2E2E2E2E2E2E2E2E2E2E2E2E2E2E2E2E2E2E2E2E2E2E2E2E2E2E2E2E2E2E2E2E2E2E2E2E2E2E2E2E2E2E2E2E2E2E2E2
310
E2E2E2E2E2E2E2E2E2E2E2E2E2E2E2E2E2E2E2E2E2E2E2E2E2E2E2E2E2E2E2E2E2E2E2E2E2E2E2E2E2E2E2E2E2E2E2E2E2E2E2E2E2E2E2E2E2E2E2E2E2E2E2E2E2E2E2E2E2E2E2E2E2E2E2E2E2E2E2E2E2E2E2E2E2E2E2E2E2E2E2E2E2E2E2E2E2E2E2E2E2E2E2E2E2E2E2E2E2E2E2E2E2E2E2E2E2E2E2F5EFEFF5F5F5F5F5
310
F5F5F5F5F5F5F5F5F5F5F5F5F5F5F5F5F5F5F5F5F5F5F5F5F5F5F5F5F5F5F5F5F5F5F5F5F5F5F5F5F5F5F5F5F5F5F5F5F5F5F5F5F5F5F5F5F5F5F5F5F5F5F5F5F5F5F5F5F5F5F5F5F5F5F5F5F5F5F5F5F5F5F5F5F5F5F5F5F5F5F5F5F5F5F5F5F5F5F5F5F5F5F5F5F5F5F5F5F5F5F5F5F5F5F5F5F5F5F5F5F5F5F5F5F5F5F5
310
F5F5F5F5F5F5F5F5F5F5F5F5F5F5F5F5F5F5F5F5F5F5F5F5F5F5F5F5F5F5F5F5F5F5F5F5F5F5F5F5F5F5F5F5F5F5EFEF
  0
XRECORD
  5
1ADA
102
{ACAD_REACTORS
330
1AD9
102
}
330
1AD9
100
AcDbXrecord
280
     1
102
SHADEPLOT
 70
     0
102
SHADEPLOTRESLEVEL
 70
     2
102
SHADEPLOTCUSTOMDPI
 70
   300
  0
XRECORD
  5
1AE3
102
{ACAD_REACTORS
330
1AE2
102
}
330
1AE2
100
AcDbXrecord
280
     1
102
MATERIAL
148
0.0
149
0.0
149
0.0
 93
        0
 94
       63
282
     0
 72
     1
 77
     1
171
     1
175
     1
179
     1
273
     0
  0
XRECORD
  5
1AE1
102
{ACAD_REACTORS
330
1AE0
102
}
330
1AE0
100
AcDbXrecord
280
     1
102
MATERIAL
148
0.0
149
0.0
149
0.0
 93
        0
 94
       63
282
     0
 72
     1
 77
     1
171
     1
175
     1
179
     1
273
     0
  0
XRECORD
  5
1AE5
102
{ACAD_REACTORS
330
1AE4
102
}
330
1AE4
100
AcDbXrecord
280
     1
102
MATERIAL
148
0.0
149
0.0
149
0.0
 93
        0
 94
       63
282
     0
 72
     1
 77
     1
171
     1
175
     1
179
     1
273
     0
  0
XRECORD
  5
1ADD
102
{ACAD_REACTORS
330
1ADC
102
}
330
1ADC
100
AcDbXrecord
280
     1
102
ACAD_ROUNDTRIP_PRE2007_TABLESTYLE
 90
        4
 91
        0
  1

 92
        4
 93
        0
  2

 94
        4
 95
        0
  3

  0
ENDSEC
  0
EOF
