  0
SECTION
  2
HEADER
  9
$ACADVER
  1
AC1018
  9
$ACADMAINTVER
 70
     0
  9
$DWGCODEPAGE
  3
ANSI_1252
  9
$LASTSAVEDBY
  1
mjones
  9
$INSBASE
 10
0.0
 20
0.0
 30
0.0
  9
$EXTMIN
 10
6.182383471383041
 20
3.441715750874273
 30
0.0
  9
$EXTMAX
 10
49.72653442326406
 20
34.32338697449658
 30
0.0
  9
$LIMMIN
 10
0.0
 20
0.0
  9
$LIMMAX
 10
1219.2
 20
914.4
  9
$ORTHOMODE
 70
     0
  9
$REGENMODE
 70
     1
  9
$FILLMODE
 70
     1
  9
$QTEXTMODE
 70
     0
  9
$MIRRTEXT
 70
     1
  9
$LTSCALE
 40
1.0
  9
$ATTMODE
 70
     1
  9
$TEXTSIZE
 40
3.5
  9
$TRACEWID
 40
1.0
  9
$TEXTSTYLE
  7
Standard
  9
$CLAYER
  8
0
  9
$CELTYPE
  6
ByLayer
  9
$CECOLOR
 62
   256
  9
$CELTSCALE
 40
1.0
  9
$DISPSILH
 70
     0
  9
$DIMSCALE
 40
1.0
  9
$DIMASZ
 40
6.0
  9
$DIMEXO
 40
1.0
  9
$DIMDLI
 40
3.75
  9
$DIMRND
 40
0.0
  9
$DIMDLE
 40
0.0
  9
$DIMEXE
 40
1.0
  9
$DIMTP
 40
0.0
  9
$DIMTM
 40
0.0
  9
$DIMTXT
 40
3.5
  9
$DIMCEN
 40
2.5
  9
$DIMTSZ
 40
0.0
  9
$DIMTOL
 70
     0
  9
$DIMLIM
 70
     0
  9
$DIMTIH
 70
     1
  9
$DIMTOH
 70
     1
  9
$DIMSE1
 70
     0
  9
$DIMSE2
 70
     0
  9
$DIMTAD
 70
     1
  9
$DIMZIN
 70
     0
  9
$DIMBLK
  1

  9
$DIMASO
 70
     1
  9
$DIMSHO
 70
     1
  9
$DIMPOST
  1

  9
$DIMAPOST
  1

  9
$DIMALT
 70
     0
  9
$DIMALTD
 70
     3
  9
$DIMALTF
 40
0.0393700787
  9
$DIMLFAC
 40
1.0
  9
$DIMTOFL
 70
     1
  9
$DIMTVP
 40
0.0
  9
$DIMTIX
 70
     0
  9
$DIMSOXD
 70
     0
  9
$DIMSAH
 70
     0
  9
$DIMBLK1
  1

  9
$DIMBLK2
  1

  9
$DIMSTYLE
  2
ISO-25
  9
$DIMCLRD
 70
     0
  9
$DIMCLRE
 70
     0
  9
$DIMCLRT
 70
     0
  9
$DIMTFAC
 40
1.0
  9
$DIMGAP
 40
1.524
  9
$DIMJUST
 70
     0
  9
$DIMSD1
 70
     0
  9
$DIMSD2
 70
     0
  9
$DIMTOLJ
 70
     0
  9
$DIMTZIN
 70
     0
  9
$DIMALTZ
 70
     0
  9
$DIMALTTZ
 70
     0
  9
$DIMUPT
 70
     0
  9
$DIMDEC
 70
     2
  9
$DIMTDEC
 70
     2
  9
$DIMALTU
 70
     2
  9
$DIMALTTD
 70
     3
  9
$DIMTXSTY
  7
Standard
  9
$DIMAUNIT
 70
     0
  9
$DIMADEC
 70
     0
  9
$DIMALTRND
 40
0.0
  9
$DIMAZIN
 70
     0
  9
$DIMDSEP
 70
    44
  9
$DIMATFIT
 70
     3
  9
$DIMFRAC
 70
     0
  9
$DIMLDRBLK
  1

  9
$DIMLUNIT
 70
     2
  9
$DIMLWD
 70
    -2
  9
$DIMLWE
 70
    -2
  9
$DIMTMOVE
 70
     0
  9
$LUNITS
 70
     2
  9
$LUPREC
 70
     2
  9
$SKETCHINC
 40
1.0
  9
$FILLETRAD
 40
10.0
  9
$AUNITS
 70
     0
  9
$AUPREC
 70
     0
  9
$MENU
  1
.
  9
$ELEVATION
 40
0.0
  9
$PELEVATION
 40
0.0
  9
$THICKNESS
 40
0.0
  9
$LIMCHECK
 70
     0
  9
$CHAMFERA
 40
10.0
  9
$CHAMFERB
 40
10.0
  9
$CHAMFERC
 40
20.0
  9
$CHAMFERD
 40
0.0
  9
$SKPOLY
 70
     0
  9
$TDCREATE
 40
2453353.550459155
  9
$TDUCREATE
 40
2453353.717125822
  9
$TDUPDATE
 40
2454965.610724896
  9
$TDUUPDATE
 40
2454965.777391563
  9
$TDINDWG
 40
0.0530787153
  9
$TDUSRTIMER
 40
0.0530671412
  9
$USRTIMER
 70
     1
  9
$ANGBASE
 50
0.0
  9
$ANGDIR
 70
     0
  9
$PDMODE
 70
     0
  9
$PDSIZE
 40
-1.0
  9
$PLINEWID
 40
0.0
  9
$SPLFRAME
 70
     0
  9
$SPLINETYPE
 70
     6
  9
$SPLINESEGS
 70
     8
  9
$HANDSEED
  5
189
  9
$SURFTAB1
 70
     6
  9
$SURFTAB2
 70
     6
  9
$SURFTYPE
 70
     6
  9
$SURFU
 70
     6
  9
$SURFV
 70
     6
  9
$UCSBASE
  2

  9
$UCSNAME
  2

  9
$UCSORG
 10
0.0
 20
0.0
 30
0.0
  9
$UCSXDIR
 10
1.0
 20
0.0
 30
0.0
  9
$UCSYDIR
 10
0.0
 20
1.0
 30
0.0
  9
$UCSORTHOREF
  2

  9
$UCSORTHOVIEW
 70
     0
  9
$UCSORGTOP
 10
0.0
 20
0.0
 30
0.0
  9
$UCSORGBOTTOM
 10
0.0
 20
0.0
 30
0.0
  9
$UCSORGLEFT
 10
0.0
 20
0.0
 30
0.0
  9
$UCSORGRIGHT
 10
0.0
 20
0.0
 30
0.0
  9
$UCSORGFRONT
 10
0.0
 20
0.0
 30
0.0
  9
$UCSORGBACK
 10
0.0
 20
0.0
 30
0.0
  9
$PUCSBASE
  2

  9
$PUCSNAME
  2

  9
$PUCSORG
 10
0.0
 20
0.0
 30
0.0
  9
$PUCSXDIR
 10
1.0
 20
0.0
 30
0.0
  9
$PUCSYDIR
 10
0.0
 20
1.0
 30
0.0
  9
$PUCSORTHOREF
  2

  9
$PUCSORTHOVIEW
 70
     0
  9
$PUCSORGTOP
 10
0.0
 20
0.0
 30
0.0
  9
$PUCSORGBOTTOM
 10
0.0
 20
0.0
 30
0.0
  9
$PUCSORGLEFT
 10
0.0
 20
0.0
 30
0.0
  9
$PUCSORGRIGHT
 10
0.0
 20
0.0
 30
0.0
  9
$PUCSORGFRONT
 10
0.0
 20
0.0
 30
0.0
  9
$PUCSORGBACK
 10
0.0
 20
0.0
 30
0.0
  9
$USERI1
 70
     0
  9
$USERI2
 70
     0
  9
$USERI3
 70
     0
  9
$USERI4
 70
     0
  9
$USERI5
 70
     0
  9
$USERR1
 40
0.0
  9
$USERR2
 40
0.0
  9
$USERR3
 40
0.0
  9
$USERR4
 40
0.0
  9
$USERR5
 40
0.0
  9
$WORLDVIEW
 70
     1
  9
$SHADEDGE
 70
     3
  9
$SHADEDIF
 70
    70
  9
$TILEMODE
 70
     1
  9
$MAXACTVP
 70
    64
  9
$PINSBASE
 10
0.0
 20
0.0
 30
0.0
  9
$PLIMCHECK
 70
     0
  9
$PEXTMIN
 10
1.000000000000000E+20
 20
1.000000000000000E+20
 30
1.000000000000000E+20
  9
$PEXTMAX
 10
-1.000000000000000E+20
 20
-1.000000000000000E+20
 30
-1.000000000000000E+20
  9
$PLIMMIN
 10
0.0
 20
0.0
  9
$PLIMMAX
 10
420.0
 20
297.0
  9
$UNITMODE
 70
     0
  9
$VISRETAIN
 70
     1
  9
$PLINEGEN
 70
     0
  9
$PSLTSCALE
 70
     1
  9
$TREEDEPTH
 70
  3020
  9
$CMLSTYLE
  2
Standard
  9
$CMLJUST
 70
     0
  9
$CMLSCALE
 40
20.0
  9
$PROXYGRAPHICS
 70
     1
  9
$MEASUREMENT
 70
     1
  9
$CELWEIGHT
370
    -1
  9
$ENDCAPS
280
     0
  9
$JOINSTYLE
280
     0
  9
$LWDISPLAY
290
     1
  9
$INSUNITS
 70
     4
  9
$HYPERLINKBASE
  1

  9
$STYLESHEET
  1

  9
$XEDIT
290
     0
  9
$CEPSNTYPE
380
     0
  9
$PSTYLEMODE
290
     1
  9
$FINGERPRINTGUID
  2
{4CCD7B69-531A-400A-8FFF-F27DD16DEFC6}
  9
$VERSIONGUID
  2
{FAEB1C32-E019-11D5-929B-00C0DF256EC4}
  9
$EXTNAMES
290
     1
  9
$PSVPSCALE
 40
0.0
  9
$OLESTARTUP
290
     0
  9
$SORTENTS
280
   127
  9
$INDEXCTL
280
     0
  9
$HIDETEXT
280
     1
  9
$XCLIPFRAME
290
     0
  9
$HALOGAP
280
     0
  9
$OBSCOLOR
 70
   257
  9
$OBSLTYPE
280
     0
  9
$INTERSECTIONDISPLAY
280
     0
  9
$INTERSECTIONCOLOR
 70
   257
  9
$DIMASSOC
280
     2
  9
$PROJECTNAME
  1

  0
ENDSEC
  0
SECTION
  2
CLASSES
  0
CLASS
  1
ACDBDICTIONARYWDFLT
  2
AcDbDictionaryWithDefault
  3
ObjectDBX Classes
 90
        0
 91
        3
280
     0
281
     0
  0
CLASS
  1
ACDBPLACEHOLDER
  2
AcDbPlaceHolder
  3
ObjectDBX Classes
 90
        0
 91
        1
280
     0
281
     0
  0
CLASS
  1
LAYOUT
  2
AcDbLayout
  3
ObjectDBX Classes
 90
        0
 91
        1
280
     0
281
     0
  0
CLASS
  1
DICTIONARYVAR
  2
AcDbDictionaryVar
  3
ObjectDBX Classes
 90
        0
 91
        3
280
     0
281
     0
  0
CLASS
  1
TABLESTYLE
  2
AcDbTableStyle
  3
ObjectDBX Classes
 90
     4095
 91
        3
280
     0
281
     0
  0
CLASS
  1
SCALE
  2
AcDbScale
  3
ObjectDBX Classes
 90
     1153
 91
        3
280
     0
281
     0
  0
CLASS
  1
VISUALSTYLE
  2
AcDbVisualStyle
  3
ObjectDBX Classes
 90
     4095
 91
        3
280
     0
281
     0
  0
ENDSEC
  0
SECTION
  2
TABLES
  0
TABLE
  2
VPORT
  5
8
330
0
100
AcDbSymbolTable
 70
     2
  0
VPORT
  5
97
330
8
100
AcDbSymbolTableRecord
100
AcDbViewportTableRecord
  2
*Active
 70
     0
 10
0.0
 20
0.0
 11
1.0
 21
1.0
 12
27.95445894732355
 22
18.88255136268543
 13
0.0
 23
0.0
 14
10.0
 24
10.0
 15
10.0
 25
10.0
 16
0.0
 26
0.0
 36
1.0
 17
0.0
 27
0.0
 37
0.0
 40
31.49930464809475
 41
1.3333333333
 42
50.0
 43
0.0
 44
0.0
 50
0.0
 51
0.0
 71
    16
 72
  2000
 73
     1
 74
     3
 75
     0
 76
     0
 77
     0
 78
     1
281
     0
 65
     0
110
0.0
120
0.0
130
0.0
111
1.0
121
0.0
131
0.0
112
0.0
122
1.0
132
0.0
 79
     0
146
0.0
  0
ENDTAB
  0
TABLE
  2
LTYPE
  5
5
330
0
100
AcDbSymbolTable
 70
     6
  0
LTYPE
  5
14
330
5
100
AcDbSymbolTableRecord
100
AcDbLinetypeTableRecord
  2
ByBlock
 70
     0
  3

 72
    65
 73
     0
 40
0.0
  0
LTYPE
  5
15
330
5
100
AcDbSymbolTableRecord
100
AcDbLinetypeTableRecord
  2
ByLayer
 70
     0
  3

 72
    65
 73
     0
 40
0.0
  0
LTYPE
  5
16
330
5
100
AcDbSymbolTableRecord
100
AcDbLinetypeTableRecord
  2
Continuous
 70
     0
  3
Solid line
 72
    65
 73
     0
 40
0.0
  0
LTYPE
  5
178
330
5
100
AcDbSymbolTableRecord
100
AcDbLinetypeTableRecord
  2
HIDDEN
 70
     0
  3
Hidden __ __ __ __ __ __ __ __ __ __ __ __ __ __
 72
    65
 73
     2
 40
1.905
 49
1.27
 74
     4
 75
     0
340
0
 46
1.0
 50
0.0
 44
0.0
 45
0.0
 49
-0.635
 74
     4
 75
     0
340
0
 46
1.0
 50
0.0
 44
0.0
 45
0.0
  0
LTYPE
  5
179
330
5
100
AcDbSymbolTableRecord
100
AcDbLinetypeTableRecord
  2
PHANTOM
 70
     0
  3
Phantom ______  __  __  ______  __  __  ______
 72
    65
 73
     6
 40
12.7
 49
6.35
 74
     4
 75
     0
340
0
 46
1.0
 50
0.0
 44
0.0
 45
0.0
 49
-1.27
 74
     4
 75
     0
340
0
 46
1.0
 50
0.0
 44
0.0
 45
0.0
 49
1.27
 74
     4
 75
     0
340
0
 46
1.0
 50
0.0
 44
0.0
 45
0.0
 49
-1.27
 74
     4
 75
     0
340
0
 46
1.0
 50
0.0
 44
0.0
 45
0.0
 49
1.27
 74
     4
 75
     0
340
0
 46
1.0
 50
0.0
 44
0.0
 45
0.0
 49
-1.27
 74
     4
 75
     0
340
0
 46
1.0
 50
0.0
 44
0.0
 45
0.0
  0
LTYPE
  5
17A
330
5
100
AcDbSymbolTableRecord
100
AcDbLinetypeTableRecord
  2
CENTER
 70
     0
  3
Center ____ _ ____ _ ____ _ ____ _ ____ _ ____
 72
    65
 73
     4
 40
10.16
 49
6.35
 74
     4
 75
     0
340
0
 46
1.0
 50
0.0
 44
0.0
 45
0.0
 49
-1.27
 74
     4
 75
     0
340
0
 46
1.0
 50
0.0
 44
0.0
 45
0.0
 49
1.27
 74
     4
 75
     0
340
0
 46
1.0
 50
0.0
 44
0.0
 45
0.0
 49
-1.27
 74
     4
 75
     0
340
0
 46
1.0
 50
0.0
 44
0.0
 45
0.0
  0
LTYPE
  5
17B
330
5
100
AcDbSymbolTableRecord
100
AcDbLinetypeTableRecord
  2
CENTERX2
 70
     0
  3
Center (2x) ________  __  ________  __  _____
 72
    65
 73
     4
 40
20.32
 49
12.7
 74
     4
 75
     0
340
0
 46
1.0
 50
0.0
 44
0.0
 45
0.0
 49
-2.54
 74
     4
 75
     0
340
0
 46
1.0
 50
0.0
 44
0.0
 45
0.0
 49
2.54
 74
     4
 75
     0
340
0
 46
1.0
 50
0.0
 44
0.0
 45
0.0
 49
-2.54
 74
     4
 75
     0
340
0
 46
1.0
 50
0.0
 44
0.0
 45
0.0
  0
LTYPE
  5
17C
330
5
100
AcDbSymbolTableRecord
100
AcDbLinetypeTableRecord
  2
DOT2
 70
     0
  3
Dot (.5x) ........................................
 72
    65
 73
     2
 40
0.635
 49
0.0
 74
     4
 75
     0
340
0
 46
1.0
 50
0.0
 44
0.0
 45
0.0
 49
-0.635
 74
     4
 75
     0
340
0
 46
1.0
 50
0.0
 44
0.0
 45
0.0
  0
ENDTAB
  0
TABLE
  2
LAYER
  5
2
330
0
100
AcDbSymbolTable
 70
     2
  0
LAYER
  5
10
330
2
100
AcDbSymbolTableRecord
100
AcDbLayerTableRecord
  2
0
 70
     0
 62
     7
  6
Continuous
370
    -3
390
F
  0
LAYER
  5
62
330
2
100
AcDbSymbolTableRecord
100
AcDbLayerTableRecord
  2
FORMAT
 70
     0
 62
     7
  6
Continuous
370
    -3
390
F
  0
ENDTAB
  0
TABLE
  2
STYLE
  5
3
330
0
100
AcDbSymbolTable
 70
     1
  0
STYLE
  5
11
330
3
100
AcDbSymbolTableRecord
100
AcDbTextStyleTableRecord
  2
Standard
 70
     0
 40
0.0
 41
1.0
 50
0.0
 71
     0
 42
2.5
  3
txt
  4

  0
ENDTAB
  0
TABLE
  2
VIEW
  5
6
330
0
100
AcDbSymbolTable
 70
     0
  0
ENDTAB
  0
TABLE
  2
UCS
  5
7
330
0
100
AcDbSymbolTable
 70
     0
  0
ENDTAB
  0
TABLE
  2
APPID
  5
9
330
0
100
AcDbSymbolTable
 70
     1
  0
APPID
  5
12
330
9
100
AcDbSymbolTableRecord
100
AcDbRegAppTableRecord
  2
ACAD
 70
     0
  0
ENDTAB
  0
TABLE
  2
DIMSTYLE
  5
A
330
0
100
AcDbSymbolTable
 70
     2
100
AcDbDimStyleTable
  0
DIMSTYLE
105
27
330
A
100
AcDbSymbolTableRecord
100
AcDbDimStyleTableRecord
  2
Standard
 70
     0
278
     0
340
11
  0
DIMSTYLE
105
17D
330
A
100
AcDbSymbolTableRecord
100
AcDbDimStyleTableRecord
  2
ISO-25
 70
     0
 41
2.5
 42
0.625
 43
3.75
 44
1.25
 73
     0
 74
     0
 77
     1
 78
     8
140
2.5
141
2.5
143
0.0393700787
147
0.625
171
     3
172
     1
271
     2
272
     2
274
     3
278
    44
283
     0
284
     8
340
11
  0
ENDTAB
  0
TABLE
  2
BLOCK_RECORD
  5
1
330
0
100
AcDbSymbolTable
 70
     2
  0
BLOCK_RECORD
  5
1F
330
1
100
AcDbSymbolTableRecord
100
AcDbBlockTableRecord
  2
*Model_Space
340
22
  0
BLOCK_RECORD
  5
73
330
1
100
AcDbSymbolTableRecord
100
AcDbBlockTableRecord
  2
*Paper_Space
340
74
  0
BLOCK_RECORD
  5
23
330
1
100
AcDbSymbolTableRecord
100
AcDbBlockTableRecord
  2
*Paper_Space0
340
26
  0
BLOCK_RECORD
  5
D0
330
1
100
AcDbSymbolTableRecord
100
AcDbBlockTableRecord
  2
SW_CENTERMARKSYMBOL_0
340
0
  0
ENDTAB
  0
ENDSEC
  0
SECTION
  2
BLOCKS
  0
BLOCK
  5
20
330
1F
100
AcDbEntity
  8
0
100
AcDbBlockBegin
  2
*Model_Space
 70
     0
 10
0.0
 20
0.0
 30
0.0
  3
*Model_Space
  1

  0
ENDBLK
  5
21
330
1F
100
AcDbEntity
  8
0
100
AcDbBlockEnd
  0
BLOCK
  5
75
330
73
100
AcDbEntity
 67
     1
  8
0
100
AcDbBlockBegin
  2
*Paper_Space
 70
     0
 10
0.0
 20
0.0
 30
0.0
  3
*Paper_Space
  1

  0
ENDBLK
  5
76
330
73
100
AcDbEntity
 67
     1
  8
0
100
AcDbBlockEnd
  0
BLOCK
  5
180
330
23
100
AcDbEntity
  8
0
100
AcDbBlockBegin
  2
*Paper_Space0
 70
     0
 10
0.0
 20
0.0
 30
0.0
  3
*Paper_Space0
  1

  0
ENDBLK
  5
181
330
23
100
AcDbEntity
  8
0
100
AcDbBlockEnd
  0
BLOCK
  5
182
330
D0
100
AcDbEntity
  8
0
100
AcDbBlockBegin
  2
SW_CENTERMARKSYMBOL_0
 70
     0
 10
0.0
 20
0.0
 30
0.0
  3
SW_CENTERMARKSYMBOL_0
  1

  0
LINE
  5
D3
330
D0
100
AcDbEntity
  8
0
  6
Continuous
 62
     0
370
     0
100
AcDbLine
 10
0.0
 20
0.0
 30
0.0
 11
-2.5
 21
0.0
 31
0.0
  0
LINE
  5
D4
330
D0
100
AcDbEntity
  8
0
  6
Continuous
 62
     0
370
     0
100
AcDbLine
 10
0.0
 20
0.0
 30
0.0
 11
0.0
 21
-2.5
 31
0.0
  0
LINE
  5
D5
330
D0
100
AcDbEntity
  8
0
  6
Continuous
 62
     0
370
     0
100
AcDbLine
 10
0.0
 20
0.0
 30
0.0
 11
2.5
 21
0.0
 31
0.0
  0
LINE
  5
D6
330
D0
100
AcDbEntity
  8
0
  6
Continuous
 62
     0
370
     0
100
AcDbLine
 10
0.0
 20
0.0
 30
0.0
 11
0.0
 21
2.5
 31
0.0
  0
LINE
  5
D7
330
D0
100
AcDbEntity
  8
0
  6
Continuous
 62
     0
370
     0
100
AcDbLine
 10
-5.0
 20
0.0
 30
0.0
 11
-24.725
 21
0.0
 31
0.0
  0
LINE
  5
D8
330
D0
100
AcDbEntity
  8
0
  6
Continuous
 62
     0
370
     0
100
AcDbLine
 10
0.0
 20
-5.0
 30
0.0
 11
0.0
 21
-24.725
 31
0.0
  0
LINE
  5
D9
330
D0
100
AcDbEntity
  8
0
  6
Continuous
 62
     0
370
     0
100
AcDbLine
 10
5.0
 20
0.0
 30
0.0
 11
24.725
 21
0.0
 31
0.0
  0
LINE
  5
DA
330
D0
100
AcDbEntity
  8
0
  6
Continuous
 62
     0
370
     0
100
AcDbLine
 10
0.0
 20
5.0
 30
0.0
 11
0.0
 21
24.725
 31
0.0
  0
ENDBLK
  5
183
330
D0
100
AcDbEntity
  8
0
100
AcDbBlockEnd
  0
ENDSEC
  0
SECTION
  2
ENTITIES
  0
SPLINE
  5
64
330
1F
100
AcDbEntity
  8
0
  6
Continuous
 62
     7
370
    15
100
AcDbSpline
210
0.0
220
0.0
230
1.0
 70
    24
 71
     1
 72
     4
 73
     2
 74
     0
 42
0.00000001
 43
0.00000001
 40
0.0
 40
0.0
 40
1.0
 40
1.0
 10
21.13853972990276
 20
33.68533212777225
 30
0.0
 10
21.13334809359372
 20
33.68711087699977
 30
0.0
  0
SPLINE
  5
65
330
1F
100
AcDbEntity
  8
0
  6
Continuous
 62
     7
370
    15
100
AcDbSpline
210
0.0
220
0.0
230
1.0
 70
     8
 71
     3
 72
     9
 73
     5
 74
     0
 42
0.00000001
 43
0.00000001
 40
0.0
 40
0.0
 40
0.0
 40
0.0
 40
0.2555245399220507
 40
1.0
 40
1.0
 40
1.0
 40
1.0
 10
13.20336812157393
 20
33.68823139514769
 30
0.0
 10
13.20292566441179
 20
33.68809318797567
 30
0.0
 10
13.20119410014689
 20
33.68755231165878
 30
0.0
 10
13.19949035085406
 20
33.68692833084167
 30
0.0
 10
13.19822195131542
 20
33.68646379243577
 30
0.0
  0
SPLINE
  5
66
330
1F
100
AcDbEntity
  8
0
  6
Continuous
 62
     7
370
    15
100
AcDbSpline
210
0.0
220
0.0
230
1.0
 70
     8
 71
     3
 72
    36
 73
    32
 74
     0
 42
0.00000001
 43
0.00000001
 40
0.0
 40
0.0
 40
0.0
 40
0.0
 40
0.0510699717090375
 40
0.099262503451342
 40
0.1446109459028489
 40
0.1871906955933175
 40
0.2270926713216813
 40
0.2643784990171594
 40
0.2990975511859166
 40
0.3312948212954221
 40
0.36101202343362
 40
0.3882855374697455
 40
0.4131424179648961
 40
0.4356103958383611
 40
0.455719098091479
 40
0.4747119165478313
 40
0.4962281076330697
 40
0.5204573464739113
 40
0.5473314482618149
 40
0.5767757268721426
 40
0.6087093019021503
 40
0.6430441141759449
 40
0.6796872651518864
 40
0.7135731267369071
 40
0.7491187593519979
 40
0.7863185597286213
 40
0.8251970305012245
 40
0.8658212628687433
 40
0.9083548456048127
 40
0.9530195763708006
 40
1.0
 40
1.0
 40
1.0
 40
1.0
 10
17.16857385132677
 20
17.84120727580036
 30
0.0
 10
16.95892670504333
 20
17.84355618207687
 30
0.0
 10
16.55144458032066
 20
17.84812164999423
 30
0.0
 10
15.95886839975716
 20
17.88766586157899
 30
0.0
 10
15.40350405106041
 20
17.95082590603926
 30
0.0
 10
14.88582747670716
 20
18.03812076465706
 30
0.0
 10
14.40610106108993
 20
18.14664981168785
 30
0.0
 10
13.96377659145143
 20
18.2712557963473
 30
0.0
 10
13.55810454464756
 20
18.40731543510822
 30
0.0
 10
13.18811595923131
 20
18.5506539158302
 30
0.0
 10
12.85265908872519
 20
18.69751660808966
 30
0.0
 10
12.55047792152506
 20
18.84452881061969
 30
0.0
 10
12.28025225116266
 20
18.98868035417342
 30
0.0
 10
12.04061469291587
 20
19.12730682942809
 30
0.0
 10
11.82591741381984
 20
19.26070187426537
 30
0.0
 10
11.61850379080593
 20
19.39820439426308
 30
0.0
 10
11.40165448902262
 20
19.55187973241075
 30
0.0
 10
11.16474472281526
 20
19.73290757277979
 30
0.0
 10
10.91049622465053
 20
19.94442951508499
 30
0.0
 10
10.64303796868408
 20
20.18896286344673
 30
0.0
 10
10.36709243445426
 20
20.46888664096132
 30
0.0
 10
10.08815627025513
 20
20.78645678744203
 30
0.0
 10
9.825020002897617
 20
21.12751102211794
 30
0.0
 10
9.582085168378228
 20
21.48919651428617
 30
0.0
 10
9.36276706131384
 20
21.8683890178282
 30
0.0
 10
9.162699356284577
 20
22.28107525699455
 30
0.0
 10
8.988230199764729
 20
22.72777832914273
 30
0.0
 10
8.846571936574769
 20
23.20898393383112
 30
0.0
 10
8.744279754410442
 20
23.72416116859829
 30
0.0
 10
8.679944276567348
 20
24.27201595414792
 30
0.0
 10
8.672424480789665
 20
24.64829974167042
 30
0.0
 10
8.668569577673708
 20
24.84119561117136
 30
0.0
  0
SPLINE
  5
67
330
1F
100
AcDbEntity
  8
0
  6
Continuous
 62
     7
370
    15
100
AcDbSpline
210
0.0
220
0.0
230
1.0
 70
     8
 71
     3
 72
    37
 73
    33
 74
     0
 42
0.00000001
 43
0.00000001
 40
0.0
 40
0.0
 40
0.0
 40
0.0
 40
0.0410120321282251
 40
0.0797591960729561
 40
0.1163596777753121
 40
0.1509473241969289
 40
0.1836451579675581
 40
0.2145107762187537
 40
0.2435606337742167
 40
0.2707899817722177
 40
0.2996538088893089
 40
0.3260690796661561
 40
0.3499740462622978
 40
0.3713043368186398
 40
0.3900015885551212
 40
0.4086043818892102
 40
0.4295878807661431
 40
0.4529981631253113
 40
0.4788857945031348
 40
0.5073034514897209
 40
0.5383009601996014
 40
0.571923938758115
 40
0.6082109061525032
 40
0.6471905942541795
 40
0.6835303141478195
 40
0.7219892109045662
 40
0.7626070105950334
 40
0.8054268346446399
 40
0.8505014946112749
 40
0.8979166259004835
 40
0.9477425433421436
 40
1.0
 40
1.0
 40
1.0
 40
1.0
 10
8.668569577673708
 20
24.84119561117136
 30
0.0
 10
8.671506949403913
 20
25.00957678630228
 30
0.0
 10
8.677219478035404
 20
25.33704037358012
 30
0.0
 10
8.725256012137791
 20
25.81279616976158
 30
0.0
 10
8.800284317764302
 20
26.25810209607065
 30
0.0
 10
8.902064226467054
 20
26.67263518010997
 30
0.0
 10
9.026713582108684
 20
27.0561128629234
 30
0.0
 10
9.168655665944804
 20
27.40906907816429
 30
0.0
 10
9.322602449057271
 20
27.73219469151167
 30
0.0
 10
9.490688594461247
 20
28.03880723411005
 30
0.0
 10
9.669697292940299
 20
28.32652771206381
 30
0.0
 10
9.855770527958441
 20
28.59319286276329
 30
0.0
 10
10.03517340939328
 20
28.82636899569836
 30
0.0
 10
10.20359537715204
 20
29.027707208416
 30
0.0
 10
10.3644728635782
 20
29.20675741395866
 30
0.0
 10
10.53008197526023
 20
29.37947106037967
 30
0.0
 10
10.71531125408669
 20
29.55998851890189
 30
0.0
 10
10.92934917446611
 20
29.75352807953829
 30
0.0
 10
11.17459275906856
 20
29.9576916697383
 30
0.0
 10
11.45340096232052
 20
30.16971998950788
 30
0.0
 10
11.76792522734094
 20
30.38659642794563
 30
0.0
 10
12.12017211869292
 20
30.60484538712647
 30
0.0
 10
12.51189472049178
 20
30.82052893428686
 30
0.0
 10
12.92474102561917
 20
31.01965800621872
 30
0.0
 10
13.35570983034252
 20
31.20013349595728
 30
0.0
 10
13.80178753901491
 20
31.36036995373968
 30
0.0
 10
14.28138107721243
 20
31.50391259726701
 30
0.0
 10
14.79475332793589
 20
31.62653128317364
 30
0.0
 10
15.34201791869454
 20
31.72332284455669
 30
0.0
 10
15.92241431569688
 20
31.79182085274092
 30
0.0
 10
16.53497260348649
 20
31.83391618455335
 30
0.0
 10
16.95404611045026
 20
31.83872319292796
 30
0.0
 10
17.16857385132673
 20
31.8411839465424
 30
0.0
  0
SPLINE
  5
68
330
1F
100
AcDbEntity
  8
0
  6
Continuous
 62
     7
370
    15
100
AcDbSpline
210
0.0
220
0.0
230
1.0
 70
     8
 71
     3
 72
    37
 73
    33
 74
     0
 42
0.00000001
 43
0.00000001
 40
0.0
 40
0.0
 40
0.0
 40
0.0
 40
0.0410120321282251
 40
0.0797591960729561
 40
0.1163596777753121
 40
0.1509473241969289
 40
0.1836451579675581
 40
0.2145107762187537
 40
0.2435606337742167
 40
0.2707899817722177
 40
0.2996538088893089
 40
0.3260690796661561
 40
0.3499740462622978
 40
0.3713043368186398
 40
0.3900015885551212
 40
0.4086043818892102
 40
0.4295878807661431
 40
0.4529981631253113
 40
0.4788857945031348
 40
0.5073034514897209
 40
0.5383009601996014
 40
0.571923938758115
 40
0.6082109061525032
 40
0.6471905942541795
 40
0.6835303141478195
 40
0.7219892109045662
 40
0.7626070105950334
 40
0.8054268346446399
 40
0.8505014946112749
 40
0.8979166259004835
 40
0.9477425433421436
 40
1.0
 40
1.0
 40
1.0
 40
1.0
 10
25.66857812497979
 20
24.84119561117141
 30
0.0
 10
25.66564075324958
 20
24.67281443604048
 30
0.0
 10
25.65992822461808
 20
24.34535084876265
 30
0.0
 10
25.61189169051569
 20
23.86959505258118
 30
0.0
 10
25.53686338488919
 20
23.42428912627211
 30
0.0
 10
25.43508347618643
 20
23.0097560422328
 30
0.0
 10
25.31043412054481
 20
22.62627835941937
 30
0.0
 10
25.16849203670868
 20
22.27332214417847
 30
0.0
 10
25.01454525359622
 20
21.95019653083109
 30
0.0
 10
24.84645910819224
 20
21.64358398823271
 30
0.0
 10
24.66745040971318
 20
21.35586351027895
 30
0.0
 10
24.48137717469506
 20
21.08919835957948
 30
0.0
 10
24.30197429326022
 20
20.85602222664441
 30
0.0
 10
24.13355232550144
 20
20.65468401392676
 30
0.0
 10
23.9726748390753
 20
20.47563380838411
 30
0.0
 10
23.80706572739327
 20
20.3029201619631
 30
0.0
 10
23.62183644856681
 20
20.12240270344088
 30
0.0
 10
23.40779852818739
 20
19.92886314280448
 30
0.0
 10
23.16255494358494
 20
19.72469955260446
 30
0.0
 10
22.88374674033298
 20
19.5126712328349
 30
0.0
 10
22.56922247531254
 20
19.29579479439714
 30
0.0
 10
22.21697558396056
 20
19.07754583521631
 30
0.0
 10
21.8252529821617
 20
18.86186228805591
 30
0.0
 10
21.41240667703431
 20
18.66273321612405
 30
0.0
 10
20.98143787231096
 20
18.48225772638548
 30
0.0
 10
20.53536016363859
 20
18.32202126860309
 30
0.0
 10
20.05576662544107
 20
18.17847862507575
 30
0.0
 10
19.5423943747176
 20
18.05585993916913
 30
0.0
 10
18.99512978395894
 20
17.95906837778608
 30
0.0
 10
18.4147333869566
 20
17.89057036960185
 30
0.0
 10
17.802175099167
 20
17.84847503778941
 30
0.0
 10
17.38310159220323
 20
17.84366802941481
 30
0.0
 10
17.16857385132677
 20
17.84120727580036
 30
0.0
  0
SPLINE
  5
69
330
1F
100
AcDbEntity
  8
0
  6
Continuous
 62
     7
370
    15
100
AcDbSpline
210
0.0
220
0.0
230
1.0
 70
     8
 71
     3
 72
    36
 73
    32
 74
     0
 42
0.00000001
 43
0.00000001
 40
0.0
 40
0.0
 40
0.0
 40
0.0
 40
0.0510699717090375
 40
0.099262503451342
 40
0.1446109459028489
 40
0.1871906955933175
 40
0.2270926713216813
 40
0.2643784990171594
 40
0.2990975511859166
 40
0.3312948212954221
 40
0.36101202343362
 40
0.3882855374697455
 40
0.4131424179648961
 40
0.4356103958383611
 40
0.455719098091479
 40
0.4747119165478313
 40
0.4962281076330697
 40
0.5204573464739113
 40
0.5473314482618149
 40
0.5767757268721426
 40
0.6087093019021503
 40
0.6430441141759449
 40
0.6796872651518864
 40
0.7135731267369071
 40
0.7491187593519979
 40
0.7863185597286213
 40
0.8251970305012245
 40
0.8658212628687433
 40
0.9083548456048127
 40
0.9530195763708006
 40
1.0
 40
1.0
 40
1.0
 40
1.0
 10
17.16857385132673
 20
31.8411839465424
 30
0.0
 10
17.37822099761017
 20
31.83883504026591
 30
0.0
 10
17.78570312233283
 20
31.83426957234854
 30
0.0
 10
18.37827930289632
 20
31.79472536076378
 30
0.0
 10
18.93364365159309
 20
31.7315653163035
 30
0.0
 10
19.45132022594633
 20
31.64427045768571
 30
0.0
 10
19.93104664156357
 20
31.53574141065492
 30
0.0
 10
20.37337111120206
 20
31.41113542599546
 30
0.0
 10
20.77904315800592
 20
31.27507578723455
 30
0.0
 10
21.14903174342219
 20
31.13173730651257
 30
0.0
 10
21.48448861392831
 20
30.9848746142531
 30
0.0
 10
21.78666978112844
 20
30.83786241172309
 30
0.0
 10
22.05689545149083
 20
30.69371086816935
 30
0.0
 10
22.29653300973763
 20
30.55508439291469
 30
0.0
 10
22.51123028883366
 20
30.4216893480774
 30
0.0
 10
22.71864391184756
 20
30.28418682807968
 30
0.0
 10
22.93549321363088
 20
30.13051148993202
 30
0.0
 10
23.17240297983824
 20
29.94948364956299
 30
0.0
 10
23.42665147800295
 20
29.73796170725777
 30
0.0
 10
23.69410973396941
 20
29.49342835889604
 30
0.0
 10
23.97005526819923
 20
29.21350458138144
 30
0.0
 10
24.24899143239837
 20
28.89593443490073
 30
0.0
 10
24.51212769975588
 20
28.55488020022483
 30
0.0
 10
24.75506253427525
 20
28.19319470805659
 30
0.0
 10
24.97438064133965
 20
27.81400220451456
 30
0.0
 10
25.17444834636892
 20
27.40131596534822
 30
0.0
 10
25.34891750288877
 20
26.95461289320004
 30
0.0
 10
25.49057576607872
 20
26.47340728851165
 30
0.0
 10
25.59286794824305
 20
25.95823005374447
 30
0.0
 10
25.65720342608614
 20
25.41037526819485
 30
0.0
 10
25.66472322186382
 20
25.03409148067234
 30
0.0
 10
25.66857812497979
 20
24.84119561117141
 30
0.0
  0
SPLINE
  5
6A
330
1F
100
AcDbEntity
  8
0
  6
Continuous
 62
     7
370
    15
100
AcDbSpline
210
0.0
220
0.0
230
1.0
 70
     8
 71
     3
 72
    50
 73
    46
 74
     0
 42
0.00000001
 43
0.00000001
 40
0.0
 40
0.0
 40
0.0
 40
0.0
 40
0.0624999999999996
 40
0.0624999999999996
 40
0.1249999999999991
 40
0.1249999999999991
 40
0.1874999999999987
 40
0.1874999999999987
 40
0.2499999999999983
 40
0.2499999999999983
 40
0.2656249999999982
 40
0.2656249999999982
 40
0.2812499999999982
 40
0.2812499999999982
 40
0.3124999999999981
 40
0.3124999999999981
 40
0.3749999999999978
 40
0.3749999999999978
 40
0.4374999999999977
 40
0.4374999999999977
 40
0.4687499999999976
 40
0.4687499999999976
 40
0.4999999999999974
 40
0.4999999999999974
 40
0.5624999999999976
 40
0.5624999999999976
 40
0.6249999999999977
 40
0.6249999999999977
 40
0.6562499999999977
 40
0.6562499999999977
 40
0.6874999999999977
 40
0.6874999999999977
 40
0.7499999999999979
 40
0.7499999999999979
 40
0.8124999999999982
 40
0.8124999999999982
 40
0.8437499999999983
 40
0.8437499999999983
 40
0.8593749999999984
 40
0.8593749999999984
 40
0.8749999999999986
 40
0.8749999999999986
 40
0.9374999999999992
 40
0.9374999999999992
 40
1.0
 40
1.0
 40
1.0
 40
1.0
 10
17.16857385132677
 20
15.35500223122769
 30
0.0
 10
16.83115048545201
 20
15.35500223122768
 30
0.0
 10
16.49596349581411
 20
15.36841937274389
 30
0.0
 10
15.82993701516936
 20
15.42133647993277
 30
0.0
 10
15.49909761183045
 20
15.46083697156611
 30
0.0
 10
14.84175075260279
 20
15.56582748116643
 30
0.0
 10
14.51524269088691
 20
15.631313864477
 30
0.0
 10
13.86665637842115
 20
15.78886329108876
 30
0.0
 10
13.54457997431273
 20
15.88093741330682
 30
0.0
 10
13.14491370537432
 20
16.01360402551256
 30
0.0
 10
13.06504133907815
 20
16.04104935869523
 30
0.0
 10
12.90617855451583
 20
16.09752147942398
 30
0.0
 10
12.82716093660783
 20
16.12655497065783
 30
0.0
 10
12.59134835734278
 20
16.21604571598529
 30
0.0
 10
12.43579309726543
 20
16.27889213706715
 30
0.0
 10
11.97409899070712
 20
16.47701286875548
 30
0.0
 10
11.67292911871763
 20
16.62186344590654
 30
0.0
 10
11.08408234095006
 20
16.93756840491778
 30
0.0
 10
10.79638013775401
 20
17.10837403327307
 30
0.0
 10
10.37539661999152
 20
17.38495269485835
 30
0.0
 10
10.23683543412608
 20
17.48055029743828
 30
0.0
 10
9.963396333600969
 20
17.67884394660019
 30
0.0
 10
9.829368814577705
 20
17.78092809295268
 30
0.0
 10
9.435931479324296
 20
18.09575319260411
 30
0.0
 10
9.18501895257912
 20
18.31727528741529
 30
0.0
 10
8.706434174134543
 20
18.78409008586578
 30
0.0
 10
8.478698621161605
 20
19.02931804374344
 30
0.0
 10
8.155318920433174
 20
19.41579946532075
 30
0.0
 10
8.050527156150274
 20
19.54780252826395
 30
0.0
 10
7.847497910425197
 20
19.81807925895276
 30
0.0
 10
7.749995449346784
 20
19.95536950422284
 30
0.0
 10
7.469633166594029
 20
20.37375413440057
 30
0.0
 10
7.298902127331729
 20
20.66135366161179
 30
0.0
 10
6.99068422145146
 20
21.25438287163896
 30
0.0
 10
6.853190373192454
 20
21.55980880992726
 30
0.0
 10
6.673281611892747
 20
22.03207060953905
 30
0.0
 10
6.617639427096002
 20
22.1921176652593
 30
0.0
 10
6.541560176312061
 20
22.43405111793023
 30
0.0
 10
6.517407171112964
 20
22.51505827000186
 30
0.0
 10
6.471531044676667
 20
22.67780283675176
 30
0.0
 10
6.44979413700549
 20
22.75959654518645
 30
0.0
 10
6.347406140854055
 20
23.16973218274786
 30
0.0
 10
6.285845712354217
 20
23.50041395843961
 30
0.0
 10
6.203334617415827
 20
24.16691263857378
 30
0.0
 10
6.182383471383041
 20
24.50272948237145
 30
0.0
 10
6.182383471383048
 20
24.84119561117135
 30
0.0
  0
SPLINE
  5
6E
330
1F
100
AcDbEntity
  8
0
  6
Continuous
 62
     7
370
    15
100
AcDbSpline
210
0.0
220
0.0
230
1.0
 70
     8
 71
     3
 72
    18
 73
    14
 74
     0
 42
0.00000001
 43
0.00000001
 40
0.0
 40
0.0
 40
0.0
 40
0.0
 40
0.1250000000000001
 40
0.1250000000000001
 40
0.2500000000000002
 40
0.2500000000000002
 40
0.3750000000000002
 40
0.3750000000000002
 40
0.5000000000000002
 40
0.5000000000000002
 40
0.7500000000000001
 40
0.7500000000000001
 40
1.0
 40
1.0
 40
1.0
 40
1.0
 10
17.16857385132671
 20
34.32338697449658
 30
0.0
 10
17.33106350511217
 20
34.32338697449658
 30
0.0
 10
17.49355805651838
 20
34.32026692600233
 30
0.0
 10
17.81812229428571
 20
34.30780413474032
 30
0.0
 10
17.98023052473727
 20
34.29846273183713
 30
0.0
 10
18.30409866358377
 20
34.27355016062002
 30
0.0
 10
18.46593123190601
 20
34.25796469698095
 30
0.0
 10
18.78804137630317
 20
34.22068119524494
 30
0.0
 10
18.94846227967903
 20
34.19897537544587
 30
0.0
 10
19.42782976435025
 20
34.12470088835627
 30
0.0
 10
19.74488511341372
 20
34.06299448715369
 30
0.0
 10
20.37389568512252
 20
33.91493976198417
 30
0.0
 10
20.6858497227105
 20
33.82858571226624
 30
0.0
 10
20.99514301075902
 20
33.72937590567545
 30
0.0
  0
SPLINE
  5
6F
330
1F
100
AcDbEntity
  8
0
  6
Continuous
 62
     7
370
    15
100
AcDbSpline
210
0.0
220
0.0
230
1.0
 70
     8
 71
     3
 72
    14
 73
    10
 74
     0
 42
0.00000001
 43
0.00000001
 40
0.0
 40
0.0
 40
0.0
 40
0.0
 40
0.1250000000000117
 40
0.1250000000000117
 40
0.2500000000000235
 40
0.2500000000000235
 40
0.5000000000000239
 40
0.5000000000000239
 40
1.0
 40
1.0
 40
1.0
 40
1.0
 10
21.09222064117019
 20
33.7004396936223
 30
0.0
 10
21.0886749953017
 20
33.70128950535013
 30
0.0
 10
21.08489045090123
 20
33.70226807296793
 30
0.0
 10
21.07711961195092
 20
33.70435633842464
 30
0.0
 10
21.07312451854295
 20
33.70546946762266
 30
0.0
 10
21.06095100896388
 20
33.70894111816779
 30
0.0
 10
21.05271322395593
 20
33.71139316138298
 30
0.0
 10
21.02808927417968
 20
33.71887888568178
 30
0.0
 10
21.01162613914647
 20
33.72408872990242
 30
0.0
 10
20.99514301075902
 20
33.72937590567545
 30
0.0
  0
SPLINE
  5
70
330
1F
100
AcDbEntity
  8
0
  6
Continuous
 62
     7
370
    15
100
AcDbSpline
210
0.0
220
0.0
230
1.0
 70
    24
 71
     1
 72
     4
 73
     2
 74
     0
 42
0.00000001
 43
0.00000001
 40
0.0
 40
0.0
 40
1.0
 40
1.0
 10
21.09222067762376
 20
33.70043976303187
 30
0.0
 10
21.13357190389395
 20
33.68776441480962
 30
0.0
  0
SPLINE
  5
71
330
1F
100
AcDbEntity
  8
0
  6
Continuous
 62
     7
370
    15
100
AcDbSpline
210
0.0
220
0.0
230
1.0
 70
     8
 71
     3
 72
    52
 73
    48
 74
     0
 42
0.00000001
 43
0.00000001
 40
0.0
 40
0.0
 40
0.0
 40
0.0
 40
0.03125
 40
0.03125
 40
0.0625000000000001
 40
0.0625000000000001
 40
0.1250000000000001
 40
0.1250000000000001
 40
0.1875000000000002
 40
0.1875000000000002
 40
0.2500000000000003
 40
0.2500000000000003
 40
0.2812500000000003
 40
0.2812500000000003
 40
0.2968750000000003
 40
0.2968750000000003
 40
0.3125000000000003
 40
0.3125000000000003
 40
0.3750000000000003
 40
0.3750000000000003
 40
0.4375000000000004
 40
0.4375000000000004
 40
0.5000000000000004
 40
0.5000000000000004
 40
0.5312500000000004
 40
0.5312500000000004
 40
0.5468750000000004
 40
0.5468750000000004
 40
0.5625000000000006
 40
0.5625000000000006
 40
0.6250000000000001
 40
0.6250000000000001
 40
0.6874999999999998
 40
0.6874999999999998
 40
0.7499999999999993
 40
0.7499999999999993
 40
0.7656249999999994
 40
0.7656249999999994
 40
0.7812499999999994
 40
0.7812499999999994
 40
0.8124999999999994
 40
0.8124999999999994
 40
0.8749999999999997
 40
0.8749999999999997
 40
0.9374999999999998
 40
0.9374999999999998
 40
1.0
 40
1.0
 40
1.0
 40
1.0
 10
21.15198570896686
 20
33.68207087347218
 30
0.0
 10
21.27172354431875
 20
33.64186280782505
 30
0.0
 10
21.39079790037795
 20
33.59977868856413
 30
0.0
 10
21.62690603686342
 20
33.51210308950503
 30
0.0
 10
21.74403416689083
 20
33.466480810883
 30
0.0
 10
22.09263899164353
 20
33.32425716377558
 30
0.0
 10
22.3213390315198
 20
33.22230459316004
 30
0.0
 10
22.77125406909647
 20
33.00397418983749
 30
0.0
 10
22.99246753105193
 20
32.88759339741141
 30
0.0
 10
23.42728414307309
 20
32.64016512912488
 30
0.0
 10
23.64088919009129
 20
32.50912130910056
 30
0.0
 10
23.95535359891011
 20
32.30110184726095
 30
0.0
 10
24.05918289333792
 20
32.22984989486437
 30
0.0
 10
24.21339238704807
 20
32.12001475999664
 30
0.0
 10
24.26457950501369
 20
32.0828798260433
 30
0.0
 10
24.36612108505172
 20
32.00783900082396
 30
0.0
 10
24.41649944863198
 20
31.96991720675948
 30
0.0
 10
24.66642153329875
 20
31.77829355466995
 30
0.0
 10
24.86006108649883
 20
31.61855279797803
 30
0.0
 10
25.23439474317949
 20
31.28583042488213
 30
0.0
 10
25.41512209369809
 20
31.11288281420548
 30
0.0
 10
25.76348939682984
 20
30.75360154571992
 30
0.0
 10
25.93113148019772
 20
30.56727006728865
 30
0.0
 10
26.17235044082307
 20
30.27729491741712
 30
0.0
 10
26.25104635856931
 20
30.17888710095377
 30
0.0
 10
26.36643967003882
 20
30.02856432625266
 30
0.0
 10
26.40448323686154
 20
29.97797397579556
 30
0.0
 10
26.47937525814498
 20
29.87627860917534
 30
0.0
 10
26.51625874720902
 20
29.82512922345219
 30
0.0
 10
26.69785596477342
 20
29.56786969593423
 30
0.0
 10
26.83410568065466
 20
29.35721997177519
 30
0.0
 10
27.08825747398726
 20
28.92607996437867
 30
0.0
 10
27.20616748982805
 20
28.70559393880364
 30
0.0
 10
27.42312892041934
 20
28.25450727907042
 30
0.0
 10
27.52218228523574
 20
28.02390769080917
 30
0.0
 10
27.63368027763268
 20
27.72905119533662
 30
0.0
 10
27.65536304999384
 20
27.66974906815834
 30
0.0
 10
27.69747784799348
 20
27.5504739891864
 30
0.0
 10
27.71789860931554
 20
27.49052675476374
 30
0.0
 10
27.77698609429437
 20
27.31053957955876
 30
0.0
 10
27.81358109782808
 20
27.19007402413752
 30
0.0
 10
27.91504357455477
 20
26.82726647236829
 30
0.0
 10
27.97159845109341
 20
26.58351527513259
 30
0.0
 10
28.06252340244559
 20
26.09225198088559
 30
0.0
 10
28.09689362654375
 20
25.84473990918183
 30
0.0
 10
28.14301335553199
 20
25.34588096661735
 30
0.0
 10
28.15476423127043
 20
25.09453432815091
 30
0.0
 10
28.15476423127045
 20
24.84119561117142
 30
0.0
  0
SPLINE
  5
184
330
1F
100
AcDbEntity
  8
0
  6
Continuous
 62
     7
370
    15
100
AcDbSpline
210
0.0
220
0.0
230
1.0
 70
     8
 71
     3
 72
    58
 73
    54
 74
     0
 42
0.00000001
 43
0.00000001
 40
0.0
 40
0.0
 40
0.0
 40
0.0
 40
0.0624999999999998
 40
0.0624999999999998
 40
0.1249999999999996
 40
0.1249999999999996
 40
0.1562499999999995
 40
0.1562499999999995
 40
0.1718749999999995
 40
0.1718749999999995
 40
0.1874999999999995
 40
0.1874999999999995
 40
0.2499999999999997
 40
0.2499999999999997
 40
0.3124999999999999
 40
0.3124999999999999
 40
0.34375
 40
0.34375
 40
0.359375
 40
0.359375
 40
0.375
 40
0.375
 40
0.4374999999999998
 40
0.4374999999999998
 40
0.4999999999999997
 40
0.4999999999999997
 40
0.5312499999999997
 40
0.5312499999999997
 40
0.5624999999999998
 40
0.5624999999999998
 40
0.6249999999999998
 40
0.6249999999999998
 40
0.6874999999999998
 40
0.6874999999999998
 40
0.7187499999999998
 40
0.7187499999999998
 40
0.7343749999999997
 40
0.7343749999999997
 40
0.7499999999999997
 40
0.7499999999999997
 40
0.7812499999999997
 40
0.7812499999999997
 40
0.8124999999999997
 40
0.8124999999999997
 40
0.8749999999999997
 40
0.8749999999999997
 40
0.9374999999999998
 40
0.9374999999999998
 40
0.9531249999999998
 40
0.9531249999999998
 40
0.9687499999999999
 40
0.9687499999999999
 40
1.0
 40
1.0
 40
1.0
 40
1.0
 10
28.15476423127043
 20
24.84119561117142
 30
0.0
 10
28.15476423127045
 20
24.50291245807178
 30
0.0
 10
28.13383887209628
 20
24.1681766966163
 30
0.0
 10
28.05205791951794
 20
23.50547438500389
 30
0.0
 10
27.99119827929157
 20
23.17750852088798
 30
0.0
 10
27.87035150815093
 20
22.69057045609682
 30
0.0
 10
27.82513261418799
 20
22.52909465592737
 30
0.0
 10
27.74985338916267
 20
22.28814407390406
 30
0.0
 10
27.72351765722864
 20
22.20803787582982
 30
0.0
 10
27.66833929647446
 20
22.04825046376213
 30
0.0
 10
27.63961647241257
 20
21.96891793069121
 30
0.0
 10
27.49053886112425
 20
21.5753003355132
 30
0.0
 10
27.35373064498059
 20
21.26981693676452
 30
0.0
 10
27.0469151261903
 20
20.67665611341085
 30
0.0
 10
26.87690081750125
 20
20.38898244642169
 30
0.0
 10
26.59764703022395
 20
19.97046869305238
 30
0.0
 10
26.5005184072098
 20
19.83313307923509
 30
0.0
 10
26.34881644610296
 20
19.63035253544741
 30
0.0
 10
26.29735456111726
 20
19.56344398716431
 30
0.0
 10
26.19296106144708
 20
19.43133516939768
 30
0.0
 10
26.13998609353013
 20
19.36607673722703
 30
0.0
 10
25.87130013553725
 20
19.04368266300298
 30
0.0
 10
25.64420489039846
 20
18.79819106022985
 30
0.0
 10
25.16692688563559
 20
18.33082221706162
 30
0.0
 10
24.91668491640064
 20
18.10900553739563
 30
0.0
 10
24.52426750298163
 20
17.79372415346267
 30
0.0
 10
24.3906340246146
 20
17.69152255911043
 30
0.0
 10
24.11778020172373
 20
17.4928337266382
 30
0.0
 10
23.97945905915525
 20
17.39700204419187
 30
0.0
 10
23.55927334878434
 20
17.11977606050156
 30
0.0
 10
23.27210388153047
 20
16.94853721829527
 30
0.0
 10
22.68433728067286
 20
16.63193749188168
 30
0.0
 10
22.38371540254178
 20
16.48662429564332
 30
0.0
 10
21.92285629598904
 20
16.28778456381085
 30
0.0
 10
21.76758167027862
 20
16.22469404143943
 30
0.0
 10
21.53219411679889
 20
16.13482929226531
 30
0.0
 10
21.45331885362199
 20
16.10566982360147
 30
0.0
 10
21.29474224729952
 20
16.04894291736767
 30
0.0
 10
21.21500633600549
 20
16.02136485074676
 30
0.0
 10
20.97511995393282
 20
15.94120635123267
 30
0.0
 10
20.81413599358631
 20
15.89114161194205
 30
0.0
 10
20.49007740202688
 20
15.79766914031194
 30
0.0
 10
20.32725586092216
 20
15.75433906585329
 30
0.0
 10
19.83743434605667
 20
15.63458906933331
 30
0.0
 10
19.50868172857888
 20
15.568256189338
 30
0.0
 10
18.84687150079681
 20
15.46194911389408
 30
0.0
 10
18.51381318912577
 20
15.42197921278066
 30
0.0
 10
18.09479161262844
 20
15.38854040221041
 30
0.0
 10
18.01085209538746
 20
15.38268045682877
 30
0.0
 10
17.84270140869269
 20
15.37262384279682
 30
0.0
 10
17.75846049404394
 20
15.36842654878897
 30
0.0
 10
17.50575903293162
 20
15.35835881505371
 30
0.0
 10
17.33720810328148
 20
15.35500223122769
 30
0.0
 10
17.16857385132678
 20
15.35500223122768
 30
0.0
  0
SPLINE
  5
77
330
1F
100
AcDbEntity
  8
0
  6
Continuous
 62
     7
370
    15
100
AcDbSpline
210
0.0
220
0.0
230
1.0
 70
     8
 71
     3
 72
    50
 73
    46
 74
     0
 42
0.00000001
 43
0.00000001
 40
0.0
 40
0.0
 40
0.0
 40
0.0
 40
0.0625000000000002
 40
0.0625000000000002
 40
0.1250000000000003
 40
0.1250000000000003
 40
0.1875000000000005
 40
0.1875000000000005
 40
0.2187500000000006
 40
0.2187500000000006
 40
0.2343750000000006
 40
0.2343750000000006
 40
0.2500000000000006
 40
0.2500000000000006
 40
0.3125000000000005
 40
0.3125000000000005
 40
0.3750000000000004
 40
0.3750000000000004
 40
0.4375000000000006
 40
0.4375000000000006
 40
0.4531250000000006
 40
0.4531250000000006
 40
0.4687500000000006
 40
0.4687500000000006
 40
0.5000000000000007
 40
0.5000000000000007
 40
0.5625000000000007
 40
0.5625000000000007
 40
0.6250000000000008
 40
0.6250000000000008
 40
0.6875000000000008
 40
0.6875000000000008
 40
0.7187500000000008
 40
0.7187500000000008
 40
0.7500000000000008
 40
0.7500000000000008
 40
0.7812500000000008
 40
0.7812500000000008
 40
0.8125000000000007
 40
0.8125000000000007
 40
0.8750000000000006
 40
0.8750000000000006
 40
0.9375000000000003
 40
0.9375000000000003
 40
1.0
 40
1.0
 40
1.0
 40
1.0
 10
6.182383471383041
 20
24.84119561117135
 30
0.0
 10
6.182383471383041
 20
25.09420516664493
 30
0.0
 10
6.194103881490335
 20
25.34522780832087
 30
0.0
 10
6.240104887208965
 20
25.84344855454989
 30
0.0
 10
6.274386846430289
 20
26.09064642793578
 30
0.0
 10
6.365078325948147
 20
26.58129097870767
 30
0.0
 10
6.421487997627686
 20
26.82473763043039
 30
0.0
 10
6.522688962882093
 20
27.18709577292343
 30
0.0
 10
6.559189525769121
 20
27.30741275773268
 30
0.0
 10
6.618123964129374
 20
27.4871790071825
 30
0.0
 10
6.638491088891897
 20
27.54705113167916
 30
0.0
 10
6.680502466027193
 20
27.66619735769236
 30
0.0
 10
6.702132078258039
 20
27.72543583592134
 30
0.0
 10
6.813357106940963
 20
28.019977928479
 30
0.0
 10
6.912169235813046
 20
28.25033825779131
 30
0.0
 10
7.128603699721623
 20
28.70097026393154
 30
0.0
 10
7.246227978398636
 20
28.9212408983087
 30
0.0
 10
7.499763696477096
 20
29.35197404453712
 30
0.0
 10
7.635682789925283
 20
29.56243245123001
 30
0.0
 10
7.816839080307851
 20
29.8194676612353
 30
0.0
 10
7.853632993899787
 20
29.87057292898666
 30
0.0
 10
7.928343020677765
 20
29.97218158477681
 30
0.0
 10
7.966296560601101
 20
30.0227327472096
 30
0.0
 10
8.081436648056567
 20
30.17296585970806
 30
0.0
 10
8.159960418101925
 20
30.27131730908899
 30
0.0
 10
8.40065267866958
 20
30.56113384872788
 30
0.0
 10
8.56792998671758
 20
30.74737354025583
 30
0.0
 10
8.915538256268519
 20
31.10650139066432
 30
0.0
 10
9.09587135420007
 20
31.27938736436386
 30
0.0
 10
9.469383672619777
 20
31.61202004582976
 30
0.0
 10
9.662597128326851
 20
31.77173173713908
 30
0.0
 10
9.961843983745794
 20
32.00165748931474
 30
0.0
 10
10.06326350654578
 20
32.07676172786485
 30
0.0
 10
10.2687095844706
 20
32.22341151293593
 30
0.0
 10
10.37267607924339
 20
32.29492053268969
 30
0.0
 10
10.58305131802599
 20
32.43437204906242
 30
0.0
 10
10.68948329480057
 20
32.5023242705109
 30
0.0
 10
10.9040890581466
 20
32.63430768436282
 30
0.0
 10
11.01234335742028
 20
32.69839389420403
 30
0.0
 10
11.33990691555496
 20
32.88504336739184
 30
0.0
 10
11.56201195835874
 20
33.00200724078066
 30
0.0
 10
12.01353709279907
 20
33.22128442381995
 30
0.0
 10
12.24295585009884
 20
33.32360040589225
 30
0.0
 10
12.70900650666137
 20
33.51378590530344
 30
0.0
 10
12.94588901782028
 20
33.6017228072745
 30
0.0
 10
13.18516199368656
 20
33.68207087347215
 30
0.0
  0
SPLINE
  5
78
330
1F
100
AcDbEntity
  8
0
  6
Continuous
 62
     7
370
    15
100
AcDbSpline
210
0.0
220
0.0
230
1.0
 70
    24
 71
     1
 72
     4
 73
     2
 74
     0
 42
0.00000001
 43
0.00000001
 40
0.0
 40
0.0
 40
1.0
 40
1.0
 10
13.20352153282822
 20
33.68774740170682
 30
0.0
 10
13.24492702502967
 20
33.70043976303185
 30
0.0
  0
SPLINE
  5
79
330
1F
100
AcDbEntity
  8
0
  6
Continuous
 62
     7
370
    15
100
AcDbSpline
210
0.0
220
0.0
230
1.0
 70
     8
 71
     3
 72
    14
 73
    10
 74
     0
 42
0.00000001
 43
0.00000001
 40
0.0
 40
0.0
 40
0.0
 40
0.0
 40
0.4999999999999964
 40
0.4999999999999964
 40
0.7499999999999871
 40
0.7499999999999871
 40
0.8749999999999936
 40
0.8749999999999936
 40
1.0
 40
1.0
 40
1.0
 40
1.0
 10
13.34200469189553
 20
33.72937590567566
 30
0.0
 10
13.32553175077585
 20
33.72409199760001
 30
0.0
 10
13.30906601906162
 20
33.71888093838036
 30
0.0
 10
13.28438812024243
 20
33.71137919608728
 30
0.0
 10
13.27616411426953
 20
33.70893201669741
 30
0.0
 10
13.26407205270436
 20
33.70548330961078
 30
0.0
 10
13.26007688960817
 20
33.70436949238547
 30
0.0
 10
13.25221996620184
 20
33.70225801306155
 30
0.0
 10
13.24842336432779
 20
33.70127767893484
 30
0.0
 10
13.24492706148322
 20
33.70043969362226
 30
0.0
  0
SPLINE
  5
7A
330
1F
100
AcDbEntity
  8
0
  6
Continuous
 62
     7
370
    15
100
AcDbSpline
210
0.0
220
0.0
230
1.0
 70
     8
 71
     3
 72
    20
 73
    16
 74
     0
 42
0.00000001
 43
0.00000001
 40
0.0
 40
0.0
 40
0.0
 40
0.0
 40
0.1249999999999998
 40
0.1249999999999998
 40
0.2499999999999996
 40
0.2499999999999996
 40
0.3124999999999997
 40
0.3124999999999997
 40
0.3749999999999998
 40
0.3749999999999998
 40
0.4999999999999999
 40
0.4999999999999999
 40
0.7499999999999999
 40
0.7499999999999999
 40
1.0
 40
1.0
 40
1.0
 40
1.0
 10
13.34200469189557
 20
33.7293759056758
 30
0.0
 10
13.49672811345992
 20
33.77900543635624
 30
0.0
 10
13.65243843047935
 20
33.82551282509911
 30
0.0
 10
13.96540904695895
 20
33.91226024230299
 30
0.0
 10
14.12271934039883
 20
33.95251692733918
 30
0.0
 10
14.35990762442145
 20
34.00828171065243
 30
0.0
 10
14.43920667036762
 20
34.02610631860353
 30
0.0
 10
14.59792991733704
 20
34.06015993966908
 30
0.0
 10
14.67737884879125
 20
34.07639540634282
 30
0.0
 10
14.91598524004657
 20
34.12274886645067
 30
0.0
 10
15.07540216031498
 20
34.15051515650628
 30
0.0
 10
15.5546774024133
 20
34.22452831109827
 30
0.0
 10
15.87555822992005
 20
34.26150736669113
 30
0.0
 10
16.52002607524832
 20
34.31093705226074
 30
0.0
 10
16.84361317115393
 20
34.32338697449658
 30
0.0
 10
17.16857385132671
 20
34.32338697449658
 30
0.0
  0
SPLINE
  5
7C
330
1F
100
AcDbEntity
  8
0
  6
Continuous
 62
     7
370
    15
100
AcDbSpline
210
0.0
220
0.0
230
1.0
 70
     8
 71
     3
 72
    15
 73
    11
 74
     0
 42
0.00000001
 43
0.00000001
 40
0.0
 40
0.0
 40
0.0
 40
0.0
 40
0.1420717547158853
 40
0.29139546611054
 40
0.4428076275613093
 40
0.59091822013981
 40
0.7022595134179194
 40
0.807738479425148
 40
0.9079329703475932
 40
1.0
 40
1.0
 40
1.0
 40
1.0
 10
17.16857385132677
 20
17.13254961117138
 30
0.0
 10
16.54079747878603
 20
17.16364014709107
 30
0.0
 10
15.2532003131459
 20
17.22740821431922
 30
0.0
 10
13.35436249654829
 20
17.75891980798919
 30
0.0
 10
11.56272479290449
 20
18.63882956231841
 30
0.0
 10
10.12905301131842
 20
19.78387901370542
 30
0.0
 10
9.094860812810893
 20
21.0487493128407
 30
0.0
 10
8.432377957640647
 20
22.28274592768233
 30
0.0
 10
8.022308311078874
 20
23.61566629070239
 30
0.0
 10
7.980128989825502
 20
24.4443629884983
 30
0.0
 10
7.959930851326746
 20
24.84119561117135
 30
0.0
  0
SPLINE
  5
81
330
1F
100
AcDbEntity
  8
0
  6
Continuous
 62
     7
370
    15
100
AcDbSpline
210
0.0
220
0.0
230
1.0
 70
     8
 71
     3
 72
    15
 73
    11
 74
     0
 42
0.00000001
 43
0.00000001
 40
0.0
 40
0.0
 40
0.0
 40
0.0
 40
0.1420717547158853
 40
0.29139546611054
 40
0.4428076275613093
 40
0.59091822013981
 40
0.7022595134179194
 40
0.807738479425148
 40
0.9079329703475932
 40
1.0
 40
1.0
 40
1.0
 40
1.0
 10
17.16857385132671
 20
32.54984161117139
 30
0.0
 10
16.54079747878598
 20
32.51875107525169
 30
0.0
 10
15.25320031314585
 20
32.45498300802354
 30
0.0
 10
13.35436249654823
 20
31.92347141435356
 30
0.0
 10
11.56272479290445
 20
31.04356166002432
 30
0.0
 10
10.12905301131838
 20
29.8985122086373
 30
0.0
 10
9.094860812810865
 20
28.63364190950201
 30
0.0
 10
8.432377957640632
 20
27.39964529466037
 30
0.0
 10
8.02230831107886
 20
26.06672493164032
 30
0.0
 10
7.980128989825495
 20
25.2380282338444
 30
0.0
 10
7.959930851326746
 20
24.84119561117135
 30
0.0
  0
SPLINE
  5
85
330
1F
100
AcDbEntity
  8
0
  6
Continuous
 62
     7
370
    15
100
AcDbSpline
210
0.0
220
0.0
230
1.0
 70
     8
 71
     3
 72
    15
 73
    11
 74
     0
 42
0.00000001
 43
0.00000001
 40
0.0
 40
0.0
 40
0.0
 40
0.0
 40
0.1420717547158853
 40
0.29139546611054
 40
0.4428076275613093
 40
0.59091822013981
 40
0.7022595134179194
 40
0.807738479425148
 40
0.9079329703475932
 40
1.0
 40
1.0
 40
1.0
 40
1.0
 10
17.16857385132677
 20
17.36876961117139
 30
0.0
 10
16.5542795977934
 20
17.39918425459744
 30
0.0
 10
15.29433485581879
 20
17.46156603636288
 30
0.0
 10
13.43783095038985
 20
17.98157843325019
 30
0.0
 10
11.68969258256902
 20
18.83958630626038
 30
0.0
 10
10.29435048503028
 20
19.95692844950323
 30
0.0
 10
9.293238378054937
 20
21.1755149857208
 30
0.0
 10
8.647692734944364
 20
22.39512887581279
 30
0.0
 10
8.269754418812347
 20
23.59076645867742
 30
0.0
 10
8.219984060565864
 20
24.43630029633619
 30
0.0
 10
8.196150851326742
 20
24.84119561117135
 30
0.0
  0
SPLINE
  5
87
330
1F
100
AcDbEntity
  8
0
  6
Continuous
 62
     7
370
    15
100
AcDbSpline
210
0.0
220
0.0
230
1.0
 70
     8
 71
     3
 72
    15
 73
    11
 74
     0
 42
0.00000001
 43
0.00000001
 40
0.0
 40
0.0
 40
0.0
 40
0.0
 40
0.1420717547158853
 40
0.29139546611054
 40
0.4428076275613093
 40
0.59091822013981
 40
0.7022595134179194
 40
0.807738479425148
 40
0.9079329703475932
 40
1.0
 40
1.0
 40
1.0
 40
1.0
 10
17.16857385132673
 20
32.31362161117138
 30
0.0
 10
16.55427959779334
 20
32.28320696774533
 30
0.0
 10
15.29433485581873
 20
32.22082518597987
 30
0.0
 10
13.43783095038981
 20
31.70081278909255
 30
0.0
 10
11.68969258256898
 20
30.84280491608235
 30
0.0
 10
10.29435048503024
 20
29.72546277283949
 30
0.0
 10
9.293238378054909
 20
28.50687623662192
 30
0.0
 10
8.647692734944343
 20
27.28726234652992
 30
0.0
 10
8.26975441881234
 20
26.09162476366528
 30
0.0
 10
8.219984060565857
 20
25.24609092600652
 30
0.0
 10
8.196150851326742
 20
24.84119561117136
 30
0.0
  0
SPLINE
  5
8A
330
1F
100
AcDbEntity
  8
0
  6
Continuous
 62
     7
370
    15
100
AcDbSpline
210
0.0
220
0.0
230
1.0
 70
     8
 71
     3
 72
    15
 73
    11
 74
     0
 42
0.00000001
 43
0.00000001
 40
0.0
 40
0.0
 40
0.0
 40
0.0
 40
0.1420717547158853
 40
0.29139546611054
 40
0.4428076275613093
 40
0.59091822013981
 40
0.7022595134179194
 40
0.807738479425148
 40
0.9079329703475932
 40
1.0
 40
1.0
 40
1.0
 40
1.0
 10
17.16857385132671
 20
32.54984161117139
 30
0.0
 10
17.79635022386746
 20
32.5187510752517
 30
0.0
 10
19.08394738950759
 20
32.45498300802355
 30
0.0
 10
20.98278520610521
 20
31.92347141435358
 30
0.0
 10
22.77442290974901
 20
31.04356166002436
 30
0.0
 10
24.20809469133508
 20
29.89851220863735
 30
0.0
 10
25.2422868898426
 20
28.63364190950207
 30
0.0
 10
25.90476974501284
 20
27.39964529466043
 30
0.0
 10
26.31483939157462
 20
26.06672493164037
 30
0.0
 10
26.35701871282799
 20
25.23802823384447
 30
0.0
 10
26.37721685132675
 20
24.84119561117141
 30
0.0
  0
SPLINE
  5
8E
330
1F
100
AcDbEntity
  8
0
  6
Continuous
 62
     7
370
    15
100
AcDbSpline
210
0.0
220
0.0
230
1.0
 70
     8
 71
     3
 72
    15
 73
    11
 74
     0
 42
0.00000001
 43
0.00000001
 40
0.0
 40
0.0
 40
0.0
 40
0.0
 40
0.1420717547158853
 40
0.29139546611054
 40
0.4428076275613093
 40
0.59091822013981
 40
0.7022595134179194
 40
0.807738479425148
 40
0.9079329703475932
 40
1.0
 40
1.0
 40
1.0
 40
1.0
 10
17.16857385132677
 20
17.13254961117138
 30
0.0
 10
17.79635022386751
 20
17.16364014709107
 30
0.0
 10
19.08394738950764
 20
17.22740821431923
 30
0.0
 10
20.98278520610525
 20
17.75891980798921
 30
0.0
 10
22.77442290974903
 20
18.63882956231845
 30
0.0
 10
24.20809469133511
 20
19.78387901370547
 30
0.0
 10
25.24228688984262
 20
21.04874931284076
 30
0.0
 10
25.90476974501286
 20
22.2827459276824
 30
0.0
 10
26.31483939157464
 20
23.61566629070246
 30
0.0
 10
26.35701871282799
 20
24.44436298849836
 30
0.0
 10
26.37721685132675
 20
24.84119561117141
 30
0.0
  0
SPLINE
  5
8F
330
1F
100
AcDbEntity
  8
0
  6
Continuous
 62
     7
370
    15
100
AcDbSpline
210
0.0
220
0.0
230
1.0
 70
     8
 71
     3
 72
    15
 73
    11
 74
     0
 42
0.00000001
 43
0.00000001
 40
0.0
 40
0.0
 40
0.0
 40
0.0
 40
0.1420717547158853
 40
0.29139546611054
 40
0.4428076275613093
 40
0.59091822013981
 40
0.7022595134179194
 40
0.807738479425148
 40
0.9079329703475932
 40
1.0
 40
1.0
 40
1.0
 40
1.0
 10
17.16857385132677
 20
17.36876961117139
 30
0.0
 10
17.78286810486016
 20
17.39918425459744
 30
0.0
 10
19.04281284683475
 20
17.4615660363629
 30
0.0
 10
20.89931675226369
 20
17.98157843325022
 30
0.0
 10
22.6474551200845
 20
18.83958630626042
 30
0.0
 10
24.04279721762325
 20
19.95692844950327
 30
0.0
 10
25.04390932459857
 20
21.17551498572085
 30
0.0
 10
25.68945496770914
 20
22.39512887581284
 30
0.0
 10
26.06739328384116
 20
23.59076645867749
 30
0.0
 10
26.11716364208763
 20
24.43630029633625
 30
0.0
 10
26.14099685132675
 20
24.84119561117141
 30
0.0
  0
SPLINE
  5
185
330
1F
100
AcDbEntity
  8
0
  6
Continuous
 62
     7
370
    15
100
AcDbSpline
210
0.0
220
0.0
230
1.0
 70
     8
 71
     3
 72
    15
 73
    11
 74
     0
 42
0.00000001
 43
0.00000001
 40
0.0
 40
0.0
 40
0.0
 40
0.0
 40
0.1420717547158853
 40
0.29139546611054
 40
0.4428076275613093
 40
0.59091822013981
 40
0.7022595134179194
 40
0.807738479425148
 40
0.9079329703475932
 40
1.0
 40
1.0
 40
1.0
 40
1.0
 10
17.16857385132673
 20
32.31362161117138
 30
0.0
 10
17.7828681048601
 20
32.28320696774533
 30
0.0
 10
19.04281284683471
 20
32.22082518597988
 30
0.0
 10
20.89931675226363
 20
31.70081278909257
 30
0.0
 10
22.64745512008447
 20
30.84280491608239
 30
0.0
 10
24.04279721762322
 20
29.72546277283954
 30
0.0
 10
25.04390932459856
 20
28.50687623662196
 30
0.0
 10
25.68945496770912
 20
27.28726234652998
 30
0.0
 10
26.06739328384114
 20
26.09162476366534
 30
0.0
 10
26.11716364208763
 20
25.24609092600659
 30
0.0
 10
26.14099685132675
 20
24.84119561117141
 30
0.0
  0
SPLINE
  5
96
330
1F
100
AcDbEntity
  8
0
  6
Continuous
 62
     7
370
    15
100
AcDbSpline
210
0.0
220
0.0
230
1.0
 70
     8
 71
     3
 72
    15
 73
    11
 74
     0
 42
0.00000001
 43
0.00000001
 40
0.0
 40
0.0
 40
0.0
 40
0.0
 40
0.1373534835939344
 40
0.2823937464424917
 40
0.4309363782482779
 40
0.5784654913069882
 40
0.6912358353490375
 40
0.7996062017435948
 40
0.921479511757764
 40
1.0
 40
1.0
 40
1.0
 40
1.0
 10
17.16857385132677
 20
16.77821961117138
 30
0.0
 10
16.5201115941918
 20
16.81036241848336
 30
0.0
 10
15.18689687384098
 20
16.87644685653699
 30
0.0
 10
13.21920558088901
 20
17.42930089637775
 30
0.0
 10
11.35930479210496
 20
18.34258365978891
 30
0.0
 10
9.868294828112795
 20
19.54635940257127
 30
0.0
 10
8.796631440956212
 20
20.83797681131529
 30
0.0
 10
8.048776100839568
 20
22.30241129782865
 30
0.0
 10
7.701523650669202
 20
23.35230148517777
 30
0.0
 10
7.632605222929513
 20
24.42203926324228
 30
0.0
 10
7.605600851326741
 20
24.84119561117135
 30
0.0
  0
SPLINE
  5
186
330
1F
100
AcDbEntity
  8
0
  6
Continuous
 62
     7
370
    15
100
AcDbSpline
210
0.0
220
0.0
230
1.0
 70
     8
 71
     3
 72
    15
 73
    11
 74
     0
 42
0.00000001
 43
0.00000001
 40
0.0
 40
0.0
 40
0.0
 40
0.0
 40
0.1373534835939344
 40
0.2823937464424917
 40
0.4309363782482779
 40
0.5784654913069882
 40
0.6912358353490375
 40
0.7996062017435948
 40
0.921479511757764
 40
1.0
 40
1.0
 40
1.0
 40
1.0
 10
17.16857385132671
 20
32.90417161117139
 30
0.0
 10
16.52011159419175
 20
32.87202880385939
 30
0.0
 10
15.18689687384092
 20
32.80594436580576
 30
0.0
 10
13.21920558088897
 20
32.25309032596498
 30
0.0
 10
11.35930479210492
 20
31.33980756255382
 30
0.0
 10
9.868294828112766
 20
30.13603181977146
 30
0.0
 10
8.796631440956183
 20
28.84441441102742
 30
0.0
 10
8.048776100839554
 20
27.37997992451405
 30
0.0
 10
7.701523650669188
 20
26.33008973716493
 30
0.0
 10
7.632605222929513
 20
25.26035195910043
 30
0.0
 10
7.605600851326741
 20
24.84119561117135
 30
0.0
  0
SPLINE
  5
9F
330
1F
100
AcDbEntity
  8
0
  6
Continuous
 62
     7
370
    15
100
AcDbSpline
210
0.0
220
0.0
230
1.0
 70
     8
 71
     3
 72
    15
 73
    11
 74
     0
 42
0.00000001
 43
0.00000001
 40
0.0
 40
0.0
 40
0.0
 40
0.0
 40
0.1373534835939344
 40
0.2823937464424917
 40
0.4309363782482779
 40
0.5784654913069882
 40
0.6912358353490375
 40
0.7996062017435948
 40
0.921479511757764
 40
1.0
 40
1.0
 40
1.0
 40
1.0
 10
17.16857385132677
 20
16.77821961117138
 30
0.0
 10
17.81703610846174
 20
16.81036241848337
 30
0.0
 10
19.15025082881257
 20
16.87644685653701
 30
0.0
 10
21.11794212176453
 20
17.42930089637778
 30
0.0
 10
22.97784291054856
 20
18.34258365978895
 30
0.0
 10
24.46885287454073
 20
19.54635940257131
 30
0.0
 10
25.54051626169731
 20
20.83797681131534
 30
0.0
 10
26.28837160181394
 20
22.30241129782872
 30
0.0
 10
26.63562405198431
 20
23.35230148517783
 30
0.0
 10
26.70454247972398
 20
24.42203926324235
 30
0.0
 10
26.73154685132675
 20
24.84119561117141
 30
0.0
  0
SPLINE
  5
A0
330
1F
100
AcDbEntity
  8
0
  6
Continuous
 62
     7
370
    15
100
AcDbSpline
210
0.0
220
0.0
230
1.0
 70
     8
 71
     3
 72
    15
 73
    11
 74
     0
 42
0.00000001
 43
0.00000001
 40
0.0
 40
0.0
 40
0.0
 40
0.0
 40
0.1373534835939344
 40
0.2823937464424917
 40
0.4309363782482779
 40
0.5784654913069882
 40
0.6912358353490375
 40
0.7996062017435948
 40
0.921479511757764
 40
1.0
 40
1.0
 40
1.0
 40
1.0
 10
17.16857385132671
 20
32.90417161117139
 30
0.0
 10
17.81703610846169
 20
32.8720288038594
 30
0.0
 10
19.1502508288125
 20
32.80594436580578
 30
0.0
 10
21.11794212176447
 20
32.25309032596501
 30
0.0
 10
22.97784291054852
 20
31.33980756255386
 30
0.0
 10
24.46885287454069
 20
30.1360318197715
 30
0.0
 10
25.54051626169728
 20
28.84441441102748
 30
0.0
 10
26.28837160181392
 20
27.37997992451411
 30
0.0
 10
26.63562405198429
 20
26.330089737165
 30
0.0
 10
26.70454247972398
 20
25.26035195910049
 30
0.0
 10
26.73154685132675
 20
24.84119561117141
 30
0.0
  0
SPLINE
  5
B4
330
1F
100
AcDbEntity
  8
0
  6
Continuous
 62
     7
370
    15
100
AcDbSpline
210
0.0
220
0.0
230
1.0
 70
     8
 71
     3
 72
    14
 73
    10
 74
     0
 42
0.00000001
 43
0.00000001
 40
0.0
 40
0.0
 40
0.0
 40
0.0
 40
0.4999999999999998
 40
0.4999999999999998
 40
0.7499999999999997
 40
0.7499999999999997
 40
0.8749999999999998
 40
0.8749999999999998
 40
1.0
 40
1.0
 40
1.0
 40
1.0
 10
18.04357210132673
 20
24.84119561117139
 30
0.0
 10
18.04357210132673
 20
24.90501891145993
 30
0.0
 10
18.03667331037163
 20
24.96759545514144
 30
0.0
 10
18.01643555119806
 20
25.05969135221915
 30
0.0
 10
18.00802639127008
 20
25.09009241304236
 30
0.0
 10
17.99283981216945
 20
25.13523578720699
 30
0.0
 10
17.987331787191
 20
25.15024182478756
 30
0.0
 10
17.97557859978828
 20
25.17974760961727
 30
0.0
 10
17.9693233657935
 20
25.19428374872069
 30
0.0
 10
17.9626963891141
 20
25.20860727740043
 30
0.0
  0
SPLINE
  5
B5
330
1F
100
AcDbEntity
  8
0
  6
Continuous
 62
     7
370
    15
100
AcDbSpline
210
0.0
220
0.0
230
1.0
 70
     8
 71
     3
 72
    38
 73
    34
 74
     0
 42
0.00000001
 43
0.00000001
 40
0.0
 40
0.0
 40
0.0
 40
0.0
 40
0.0078125000000009
 40
0.0078125000000009
 40
0.0156250000000019
 40
0.0156250000000019
 40
0.0312500000000019
 40
0.0312500000000019
 40
0.0625000000000017
 40
0.0625000000000017
 40
0.1250000000000019
 40
0.1250000000000019
 40
0.2500000000000019
 40
0.2500000000000019
 40
0.3750000000000019
 40
0.3750000000000019
 40
0.500000000000002
 40
0.500000000000002
 40
0.6250000000000018
 40
0.6250000000000018
 40
0.7500000000000016
 40
0.7500000000000016
 40
0.8750000000000013
 40
0.8750000000000013
 40
0.9375000000000014
 40
0.9375000000000014
 40
0.9687500000000014
 40
0.9687500000000014
 40
0.9843750000000014
 40
0.9843750000000014
 40
0.9921875000000008
 40
0.9921875000000008
 40
1.0
 40
1.0
 40
1.0
 40
1.0
 10
17.96269638911414
 20
25.20860727740033
 30
0.0
 10
17.96287356751168
 20
25.20822432451227
 30
0.0
 10
17.96275160273653
 20
25.20854718674948
 30
0.0
 10
17.96211278772988
 20
25.21010301646842
 30
0.0
 10
17.96163725174085
 20
25.21123832053481
 30
0.0
 10
17.96010217940588
 20
25.21486115816196
 30
0.0
 10
17.95889920405654
 20
25.21764917558373
 30
0.0
 10
17.95522084737921
 20
25.22602785981429
 30
0.0
 10
17.95256289106541
 20
25.23189641048959
 30
0.0
 10
17.94434185871104
 20
25.24947267491499
 30
0.0
 10
17.93850726551088
 20
25.26121828236828
 30
0.0
 10
17.92007051699548
 20
25.29616735370313
 30
0.0
 10
17.90646368856058
 20
25.3191861548955
 30
0.0
 10
17.87727706818669
 20
25.36336230097692
 30
0.0
 10
17.86164773412811
 20
25.38463627317646
 30
0.0
 10
17.82831752202893
 20
25.42553442395899
 30
0.0
 10
17.81061662122794
 20
25.44515910421705
 30
0.0
 10
17.77309576262807
 20
25.48271658154079
 30
0.0
 10
17.75317028890599
 20
25.50072449910594
 30
0.0
 10
17.71192827140996
 20
25.53434458713633
 30
0.0
 10
17.69056209584207
 20
25.55002452667084
 30
0.0
 10
17.64641332812546
 20
25.57917739585866
 30
0.0
 10
17.62357879056914
 20
25.59267666129433
 30
0.0
 10
17.58851107332219
 20
25.61117315134749
 30
0.0
 10
17.57673727632802
 20
25.61701896911334
 30
0.0
 10
17.55916021153696
 20
25.62523706306063
 30
0.0
 10
17.55333525119616
 20
25.62787437825983
 30
0.0
 10
17.54495764265837
 20
25.63155125518173
 30
0.0
 10
17.54218523713374
 20
25.6327471997969
 30
0.0
 10
17.53856364411135
 20
25.63428127258408
 30
0.0
 10
17.53744851284077
 20
25.63474816464862
 30
0.0
 10
17.5359153553942
 20
25.63537732036389
 30
0.0
 10
17.53560981356206
 20
25.63549197355605
 30
0.0
 10
17.53598551755566
 20
25.6353181489588
 30
0.0
  0
SPLINE
  5
B6
330
1F
100
AcDbEntity
  8
0
  6
Continuous
 62
     7
370
    15
100
AcDbSpline
210
0.0
220
0.0
230
1.0
 70
     8
 71
     3
 72
    12
 73
     8
 74
     0
 42
0.00000001
 43
0.00000001
 40
0.0
 40
0.0
 40
0.0
 40
0.0
 40
0.5000000000000001
 40
0.5000000000000001
 40
0.75
 40
0.75
 40
1.0
 40
1.0
 40
1.0
 40
1.0
 10
17.53598551755579
 20
25.63531814895875
 30
0.0
 10
17.47894640826561
 20
25.66170807392287
 30
0.0
 10
17.41944499727683
 20
25.68186522466086
 30
0.0
 10
17.32635198891421
 20
25.70243770556496
 30
0.0
 10
17.29499820749206
 20
25.70759098387708
 30
0.0
 10
17.23205948981641
 20
25.71446168367346
 30
0.0
 10
17.2004092443745
 20
25.71619386117138
 30
0.0
 10
17.16857385132673
 20
25.71619386117138
 30
0.0
  0
SPLINE
  5
BA
330
1F
100
AcDbEntity
  8
0
  6
Continuous
 62
     7
370
    15
100
AcDbSpline
210
0.0
220
0.0
230
1.0
 70
     8
 71
     3
 72
    14
 73
    10
 74
     0
 42
0.00000001
 43
0.00000001
 40
0.0
 40
0.0
 40
0.0
 40
0.0
 40
0.5
 40
0.5
 40
0.75
 40
0.75
 40
0.875
 40
0.875
 40
1.0
 40
1.0
 40
1.0
 40
1.0
 10
16.29357560132672
 20
24.84119561117138
 30
0.0
 10
16.29357560132672
 20
24.77737231088283
 30
0.0
 10
16.30047439228183
 20
24.71479576720131
 30
0.0
 10
16.32071215145541
 20
24.62269987012357
 30
0.0
 10
16.32912131138339
 20
24.59229880930036
 30
0.0
 10
16.34430789048402
 20
24.54715543513572
 30
0.0
 10
16.34981591546249
 20
24.53214939755515
 30
0.0
 10
16.3615691028652
 20
24.50264361272544
 30
0.0
 10
16.36782433685998
 20
24.48810747362202
 30
0.0
 10
16.37445131353938
 20
24.47378394494227
 30
0.0
  0
SPLINE
  5
BB
330
1F
100
AcDbEntity
  8
0
  6
Continuous
 62
     7
370
    15
100
AcDbSpline
210
0.0
220
0.0
230
1.0
 70
     8
 71
     3
 72
    38
 73
    34
 74
     0
 42
0.00000001
 43
0.00000001
 40
0.0
 40
0.0
 40
0.0
 40
0.0
 40
0.0078125000000003
 40
0.0078125000000003
 40
0.0156250000000005
 40
0.0156250000000005
 40
0.0312500000000007
 40
0.0312500000000007
 40
0.0625000000000009
 40
0.0625000000000009
 40
0.125000000000001
 40
0.125000000000001
 40
0.2500000000000006
 40
0.2500000000000006
 40
0.3750000000000001
 40
0.3750000000000001
 40
0.4999999999999997
 40
0.4999999999999997
 40
0.6249999999999996
 40
0.6249999999999996
 40
0.7499999999999992
 40
0.7499999999999992
 40
0.874999999999999
 40
0.874999999999999
 40
0.9374999999999988
 40
0.9374999999999988
 40
0.968749999999999
 40
0.968749999999999
 40
0.9843749999999988
 40
0.9843749999999988
 40
0.9921874999999994
 40
0.9921874999999994
 40
1.0
 40
1.0
 40
1.0
 40
1.0
 10
16.37445131353941
 20
24.47378394494221
 30
0.0
 10
16.37427413514189
 20
24.47416689783024
 30
0.0
 10
16.37439609991691
 20
24.47384403559332
 30
0.0
 10
16.37503491492357
 20
24.47228820587438
 30
0.0
 10
16.3755104509126
 20
24.47115290180795
 30
0.0
 10
16.3770455232476
 20
24.46753006418078
 30
0.0
 10
16.37824849859696
 20
24.46474204675894
 30
0.0
 10
16.38192685527429
 20
24.45636336252838
 30
0.0
 10
16.38458481158808
 20
24.4504948118531
 30
0.0
 10
16.39280584394245
 20
24.43291854742771
 30
0.0
 10
16.3986404371426
 20
24.42117293997441
 30
0.0
 10
16.41707718565802
 20
24.38622386863958
 30
0.0
 10
16.4306840140929
 20
24.36320506744723
 30
0.0
 10
16.45987063446678
 20
24.31902892136584
 30
0.0
 10
16.47549996852534
 20
24.29775494916631
 30
0.0
 10
16.50883018062451
 20
24.25685679838379
 30
0.0
 10
16.5265310814255
 20
24.23723211812574
 30
0.0
 10
16.56405194002535
 20
24.19967464080199
 30
0.0
 10
16.58397741374743
 20
24.18166672323687
 30
0.0
 10
16.62521943124344
 20
24.14804663520648
 30
0.0
 10
16.6465856068113
 20
24.13236669567199
 30
0.0
 10
16.69073437452788
 20
24.10321382648419
 30
0.0
 10
16.71356891208416
 20
24.08971456104852
 30
0.0
 10
16.7486366293311
 20
24.07121807099536
 30
0.0
 10
16.76041042632525
 20
24.06537225322952
 30
0.0
 10
16.77798749111629
 20
24.05715415928223
 30
0.0
 10
16.78381245145711
 20
24.05451684408302
 30
0.0
 10
16.79219005999484
 20
24.05083996716115
 30
0.0
 10
16.79496246551962
 20
24.04964402254591
 30
0.0
 10
16.79858405854202
 20
24.04810994975873
 30
0.0
 10
16.79969918981259
 20
24.0476430576942
 30
0.0
 10
16.80123234725924
 20
24.04701390197888
 30
0.0
 10
16.80153788909112
 20
24.04689924878682
 30
0.0
 10
16.80116218509752
 20
24.04707307338407
 30
0.0
  0
SPLINE
  5
BC
330
1F
100
AcDbEntity
  8
0
  6
Continuous
 62
     7
370
    15
100
AcDbSpline
210
0.0
220
0.0
230
1.0
 70
     8
 71
     3
 72
    12
 73
     8
 74
     0
 42
0.00000001
 43
0.00000001
 40
0.0
 40
0.0
 40
0.0
 40
0.0
 40
0.5
 40
0.5
 40
0.75
 40
0.75
 40
1.0
 40
1.0
 40
1.0
 40
1.0
 10
16.80116218509764
 20
24.04707307338403
 30
0.0
 10
16.85820129438783
 20
24.02068314841991
 30
0.0
 10
16.9177027053766
 20
24.00052599768191
 30
0.0
 10
17.01079571373923
 20
23.9799535167778
 30
0.0
 10
17.0421494951614
 20
23.9748002384657
 30
0.0
 10
17.10508821283703
 20
23.9679295386693
 30
0.0
 10
17.13673845827896
 20
23.96619736117138
 30
0.0
 10
17.16857385132673
 20
23.96619736117138
 30
0.0
  0
SPLINE
  5
BE
330
1F
100
AcDbEntity
  8
0
  6
Continuous
 62
     7
370
    15
100
AcDbSpline
210
0.0
220
0.0
230
1.0
 70
     8
 71
     3
 72
    14
 73
    10
 74
     0
 42
0.00000001
 43
0.00000001
 40
0.0
 40
0.0
 40
0.0
 40
0.0
 40
0.5000000000000001
 40
0.5000000000000001
 40
0.75
 40
0.75
 40
0.8750000000000001
 40
0.8750000000000001
 40
1.0
 40
1.0
 40
1.0
 40
1.0
 10
17.16857385132673
 20
25.71619386117138
 30
0.0
 10
17.10475055103818
 20
25.71619386117138
 30
0.0
 10
17.04217400735666
 20
25.70929507021628
 30
0.0
 10
16.95007811027894
 20
25.68905731104271
 30
0.0
 10
16.91967704945571
 20
25.68064815111473
 30
0.0
 10
16.87453367529109
 20
25.6654615720141
 30
0.0
 10
16.85952763771053
 20
25.65995354703563
 30
0.0
 10
16.8300218528808
 20
25.64820035963292
 30
0.0
 10
16.81548571377739
 20
25.64194512563814
 30
0.0
 10
16.80116218509764
 20
25.63531814895875
 30
0.0
  0
SPLINE
  5
BF
330
1F
100
AcDbEntity
  8
0
  6
Continuous
 62
     7
370
    15
100
AcDbSpline
210
0.0
220
0.0
230
1.0
 70
     8
 71
     3
 72
    38
 73
    34
 74
     0
 42
0.00000001
 43
0.00000001
 40
0.0
 40
0.0
 40
0.0
 40
0.0
 40
0.0078124999999991
 40
0.0078124999999991
 40
0.0156249999999982
 40
0.0156249999999982
 40
0.0312499999999976
 40
0.0312499999999976
 40
0.0624999999999973
 40
0.0624999999999973
 40
0.1249999999999975
 40
0.1249999999999975
 40
0.2499999999999979
 40
0.2499999999999979
 40
0.3749999999999984
 40
0.3749999999999984
 40
0.4999999999999988
 40
0.4999999999999988
 40
0.6249999999999987
 40
0.6249999999999987
 40
0.7499999999999987
 40
0.7499999999999987
 40
0.8749999999999986
 40
0.8749999999999986
 40
0.9374999999999988
 40
0.9374999999999988
 40
0.9687499999999991
 40
0.9687499999999991
 40
0.9843749999999994
 40
0.9843749999999994
 40
0.9921874999999998
 40
0.9921874999999998
 40
1.0
 40
1.0
 40
1.0
 40
1.0
 10
16.80116218509767
 20
25.63531814895875
 30
0.0
 10
16.80154513798573
 20
25.63549532735628
 30
0.0
 10
16.80122227574854
 20
25.63537336258116
 30
0.0
 10
16.79966644602962
 20
25.6347345475745
 30
0.0
 10
16.79853114196324
 20
25.63425901158548
 30
0.0
 10
16.79490830433609
 20
25.6327239392505
 30
0.0
 10
16.7921202869143
 20
25.63152096390116
 30
0.0
 10
16.78374160268375
 20
25.62784260722383
 30
0.0
 10
16.77787305200845
 20
25.62518465091003
 30
0.0
 10
16.76029678758307
 20
25.61696361855567
 30
0.0
 10
16.74855118012979
 20
25.61112902535551
 30
0.0
 10
16.71360210879494
 20
25.5926922768401
 30
0.0
 10
16.69058330760259
 20
25.57908544840522
 30
0.0
 10
16.64640716152128
 20
25.5498988280314
 30
0.0
 10
16.62513318932177
 20
25.53426949397285
 30
0.0
 10
16.58423503853923
 20
25.50093928187367
 30
0.0
 10
16.56461035828116
 20
25.48323838107269
 30
0.0
 10
16.52705288095737
 20
25.44571752247278
 30
0.0
 10
16.50904496339221
 20
25.42579204875069
 30
0.0
 10
16.47542487536191
 20
25.38455003125478
 30
0.0
 10
16.45974493582746
 20
25.36318385568697
 30
0.0
 10
16.43059206663972
 20
25.31903508797053
 30
0.0
 10
16.41709280120412
 20
25.29620055041441
 30
0.0
 10
16.39859631115091
 20
25.26113283316742
 30
0.0
 10
16.39275049338507
 20
25.24935903617325
 30
0.0
 10
16.38453239943779
 20
25.23178197138228
 30
0.0
 10
16.38189508423852
 20
25.22595701104135
 30
0.0
 10
16.37821820731672
 20
25.21757940250381
 30
0.0
 10
16.37702226270142
 20
25.21480699697886
 30
0.0
 10
16.37548818991419
 20
25.21118540395636
 30
0.0
 10
16.3750212978497
 20
25.21007027268592
 30
0.0
 10
16.37439214213423
 20
25.20853711523889
 30
0.0
 10
16.37427748894211
 20
25.20823157340686
 30
0.0
 10
16.37445131353938
 20
25.20860727740048
 30
0.0
  0
SPLINE
  5
C0
330
1F
100
AcDbEntity
  8
0
  6
Continuous
 62
     7
370
    15
100
AcDbSpline
210
0.0
220
0.0
230
1.0
 70
     8
 71
     3
 72
    12
 73
     8
 74
     0
 42
0.00000001
 43
0.00000001
 40
0.0
 40
0.0
 40
0.0
 40
0.0
 40
0.5
 40
0.5
 40
0.75
 40
0.75
 40
1.0
 40
1.0
 40
1.0
 40
1.0
 10
16.37445131353938
 20
25.2086072774005
 30
0.0
 10
16.34806138857526
 20
25.15156816811031
 30
0.0
 10
16.32790423783726
 20
25.09206675712153
 30
0.0
 10
16.30733175693315
 20
24.99897374875889
 30
0.0
 10
16.30217847862103
 20
24.96761996733672
 30
0.0
 10
16.29530777882465
 20
24.90468124966108
 30
0.0
 10
16.29357560132672
 20
24.87303100421916
 30
0.0
 10
16.29357560132672
 20
24.84119561117138
 30
0.0
  0
SPLINE
  5
C1
330
1F
100
AcDbEntity
  8
0
  6
Continuous
 62
     7
370
    15
100
AcDbSpline
210
0.0
220
0.0
230
1.0
 70
     8
 71
     3
 72
    12
 73
     8
 74
     0
 42
0.00000001
 43
0.00000001
 40
0.0
 40
0.0
 40
0.0
 40
0.0
 40
0.2499999999999999
 40
0.2499999999999999
 40
0.4999999999999999
 40
0.4999999999999999
 40
1.0
 40
1.0
 40
1.0
 40
1.0
 10
17.16857385132673
 20
23.96619736117138
 30
0.0
 10
17.20031055521174
 20
23.96619736117138
 30
0.0
 10
17.23188132075393
 20
23.96791886945365
 30
0.0
 10
17.29469755979878
 20
23.97475870436762
 30
0.0
 10
17.32605973840042
 20
23.97990559950978
 30
0.0
 10
17.41871983148225
 20
24.00033276185256
 30
0.0
 10
17.47840128026971
 20
24.02043093748802
 30
0.0
 10
17.53598551755579
 20
24.04707307338401
 30
0.0
  0
SPLINE
  5
C2
330
1F
100
AcDbEntity
  8
0
  6
Continuous
 62
     7
370
    15
100
AcDbSpline
210
0.0
220
0.0
230
1.0
 70
     8
 71
     3
 72
    38
 73
    34
 74
     0
 42
0.00000001
 43
0.00000001
 40
0.0
 40
0.0
 40
0.0
 40
0.0
 40
0.0078125
 40
0.0078125
 40
0.015625
 40
0.015625
 40
0.03125
 40
0.03125
 40
0.0624999999999996
 40
0.0624999999999996
 40
0.1249999999999992
 40
0.1249999999999992
 40
0.2499999999999987
 40
0.2499999999999987
 40
0.3749999999999982
 40
0.3749999999999982
 40
0.4999999999999978
 40
0.4999999999999978
 40
0.6249999999999976
 40
0.6249999999999976
 40
0.7499999999999972
 40
0.7499999999999972
 40
0.874999999999997
 40
0.874999999999997
 40
0.9374999999999967
 40
0.9374999999999967
 40
0.968749999999997
 40
0.968749999999997
 40
0.9843749999999978
 40
0.9843749999999978
 40
0.9921874999999989
 40
0.9921874999999989
 40
1.0
 40
1.0
 40
1.0
 40
1.0
 10
17.53598551755583
 20
24.04707307338403
 30
0.0
 10
17.53560256466777
 20
24.0468958949865
 30
0.0
 10
17.5359254269047
 20
24.04701785976152
 30
0.0
 10
17.53748125662374
 20
24.04765667476823
 30
0.0
 10
17.53861656069039
 20
24.04813221075734
 30
0.0
 10
17.54223939831762
 20
24.04966728309238
 30
0.0
 10
17.54502741574012
 20
24.05087025844197
 30
0.0
 10
17.55340609997049
 20
24.05454861511922
 30
0.0
 10
17.55927465064518
 20
24.05720657143282
 30
0.0
 10
17.57685091507055
 20
24.06542760378719
 30
0.0
 10
17.58859652252384
 20
24.07126219698734
 30
0.0
 10
17.62354559385867
 20
24.08969894550275
 30
0.0
 10
17.646564395051
 20
24.10330577393763
 30
0.0
 10
17.69074054113233
 20
24.13249239431148
 30
0.0
 10
17.71201451333184
 20
24.14812172837002
 30
0.0
 10
17.75291266411435
 20
24.18145194046919
 30
0.0
 10
17.7725373443724
 20
24.19915284127017
 30
0.0
 10
17.81009482169613
 20
24.23667369987002
 30
0.0
 10
17.82810273926127
 20
24.2565991735921
 30
0.0
 10
17.86172282729159
 20
24.29784119108804
 30
0.0
 10
17.87740276682607
 20
24.31920736665587
 30
0.0
 10
17.90655563601382
 20
24.36335613437237
 30
0.0
 10
17.92005490144945
 20
24.38619067192855
 30
0.0
 10
17.93855139150263
 20
24.42125838917551
 30
0.0
 10
17.94439720926847
 20
24.43303218616966
 30
0.0
 10
17.95261530321575
 20
24.45060925096067
 30
0.0
 10
17.95525261841499
 20
24.45643421130154
 30
0.0
 10
17.95892949533683
 20
24.46481181983921
 30
0.0
 10
17.96012543995197
 20
24.46758422536369
 30
0.0
 10
17.96165951273917
 20
24.47120581838616
 30
0.0
 10
17.9621264048038
 20
24.47232094965693
 30
0.0
 10
17.96275556051918
 20
24.47385410710379
 30
0.0
 10
17.96287021371134
 20
24.47415964893591
 30
0.0
 10
17.96269638911409
 20
24.4737839449423
 30
0.0
  0
SPLINE
  5
C3
330
1F
100
AcDbEntity
  8
0
  6
Continuous
 62
     7
370
    15
100
AcDbSpline
210
0.0
220
0.0
230
1.0
 70
     8
 71
     3
 72
    12
 73
     8
 74
     0
 42
0.00000001
 43
0.00000001
 40
0.0
 40
0.0
 40
0.0
 40
0.0
 40
0.4999999999999999
 40
0.4999999999999999
 40
0.7499999999999999
 40
0.7499999999999999
 40
1.0
 40
1.0
 40
1.0
 40
1.0
 10
17.9626963891141
 20
24.47378394494234
 30
0.0
 10
17.98936428847955
 20
24.53142386731853
 30
0.0
 10
18.00938728122135
 20
24.5909736162611
 30
0.0
 10
18.02974562698201
 20
24.68310009068129
 30
0.0
 10
18.0349072119723
 20
24.71430142163393
 30
0.0
 10
18.0418385479328
 20
24.77760003925543
 30
0.0
 10
18.04357210132673
 20
24.80934806958361
 30
0.0
 10
18.04357210132673
 20
24.84119561117139
 30
0.0
  0
SPLINE
  5
C4
330
1F
100
AcDbEntity
  8
0
  6
Continuous
 62
     7
370
    15
100
AcDbSpline
210
0.0
220
0.0
230
1.0
 70
     8
 71
     3
 72
    42
 73
    38
 74
     0
 42
0.00000001
 43
0.00000001
 40
0.0
 40
0.0
 40
0.0
 40
0.0
 40
0.1249999999999999
 40
0.1249999999999999
 40
0.2499999999999998
 40
0.2499999999999998
 40
0.3124999999999996
 40
0.3124999999999996
 40
0.3749999999999994
 40
0.3749999999999994
 40
0.4062499999999997
 40
0.4062499999999997
 40
0.4375000000000001
 40
0.4375000000000001
 40
0.4687500000000003
 40
0.4687500000000003
 40
0.5000000000000007
 40
0.5000000000000007
 40
0.531250000000001
 40
0.531250000000001
 40
0.5625000000000012
 40
0.5625000000000012
 40
0.5937500000000016
 40
0.5937500000000016
 40
0.6250000000000019
 40
0.6250000000000019
 40
0.6562500000000022
 40
0.6562500000000022
 40
0.6875000000000024
 40
0.6875000000000024
 40
0.7500000000000017
 40
0.7500000000000017
 40
0.8125000000000008
 40
0.8125000000000008
 40
0.875
 40
0.875
 40
1.0
 40
1.0
 40
1.0
 40
1.0
 10
17.9626963891141
 20
25.20860727740043
 30
0.0
 10
17.95817301703188
 20
25.21838408104458
 30
0.0
 10
17.95273264546468
 20
25.22973086802314
 30
0.0
 10
17.9384040553458
 20
25.25740002876049
 30
0.0
 10
17.92950575711467
 20
25.27381398329308
 30
0.0
 10
17.91123566028584
 20
25.30402808186322
 30
0.0
 10
17.90423492010706
 20
25.31515279844221
 30
0.0
 10
17.88810986991653
 20
25.33929253089345
 30
0.0
 10
17.87898078215555
 20
25.35233514787866
 30
0.0
 10
17.86287532318622
 20
25.37378112321596
 30
0.0
 10
17.85708521059523
 20
25.38125908131272
 30
0.0
 10
17.84491628572323
 20
25.39642291152457
 30
0.0
 10
17.83849793856922
 20
25.40416312131614
 30
0.0
 10
17.82488973644138
 20
25.41997031612352
 30
0.0
 10
17.81765245947972
 20
25.42808297817901
 30
0.0
 10
17.80289006174719
 20
25.44400799186108
 30
0.0
 10
17.7953064131172
 20
25.45189178834758
 30
0.0
 10
17.77971793025779
 20
25.46749141956672
 30
0.0
 10
17.77163725037394
 20
25.47527392556194
 30
0.0
 10
17.75565325283139
 20
25.49010126562329
 30
0.0
 10
17.74770053405106
 20
25.49720108241709
 30
0.0
 10
17.7318864979519
 20
25.51082965682598
 30
0.0
 10
17.7239921565599
 20
25.51738169636531
 30
0.0
 10
17.70877747528586
 20
25.52959749979416
 30
0.0
 10
17.70139797384698
 20
25.5353142979388
 30
0.0
 10
17.68706516655439
 20
25.54608500170915
 30
0.0
 10
17.68009645108329
 20
25.55114783391998
 30
0.0
 10
17.66686754403132
 20
25.56049452293075
 30
0.0
 10
17.66056226910335
 20
25.56481293787843
 30
0.0
 10
17.64245110114177
 20
25.57690825517483
 30
0.0
 10
17.63140277151277
 20
25.58386028190033
 30
0.0
 10
17.61118943041603
 20
25.59608161028445
 30
0.0
 10
17.60212932621624
 20
25.60128875924861
 30
0.0
 10
17.5855467469939
 20
25.61051059727236
 30
0.0
 10
17.57802911501383
 20
25.61451897720885
 30
0.0
 10
17.55727559104638
 20
25.62527195357185
 30
0.0
 10
17.54580098687677
 20
25.63077688767169
 30
0.0
 10
17.53598551755579
 20
25.63531814895875
 30
0.0
  0
SPLINE
  5
C5
330
1F
100
AcDbEntity
  8
0
  6
Continuous
 62
     7
370
    15
100
AcDbSpline
210
0.0
220
0.0
230
1.0
 70
     8
 71
     3
 72
    42
 73
    38
 74
     0
 42
0.00000001
 43
0.00000001
 40
0.0
 40
0.0
 40
0.0
 40
0.0
 40
0.125000000000001
 40
0.125000000000001
 40
0.2500000000000021
 40
0.2500000000000021
 40
0.3125000000000025
 40
0.3125000000000025
 40
0.3750000000000029
 40
0.3750000000000029
 40
0.4062500000000029
 40
0.4062500000000029
 40
0.4375000000000028
 40
0.4375000000000028
 40
0.4687500000000027
 40
0.4687500000000027
 40
0.5000000000000027
 40
0.5000000000000027
 40
0.5312500000000026
 40
0.5312500000000026
 40
0.5625000000000026
 40
0.5625000000000026
 40
0.5937500000000024
 40
0.5937500000000024
 40
0.6250000000000023
 40
0.6250000000000023
 40
0.6562500000000023
 40
0.6562500000000023
 40
0.6875000000000022
 40
0.6875000000000022
 40
0.750000000000002
 40
0.750000000000002
 40
0.8125000000000019
 40
0.8125000000000019
 40
0.8750000000000018
 40
0.8750000000000018
 40
1.0
 40
1.0
 40
1.0
 40
1.0
 10
16.37445131353938
 20
24.47378394494227
 30
0.0
 10
16.3789746856216
 20
24.46400714129813
 30
0.0
 10
16.38441505718882
 20
24.45266035431955
 30
0.0
 10
16.3987436473077
 20
24.42499119358219
 30
0.0
 10
16.40764194553881
 20
24.40857723904962
 30
0.0
 10
16.42591204236766
 20
24.37836314047949
 30
0.0
 10
16.43291278254644
 20
24.36723842390051
 30
0.0
 10
16.44903783273695
 20
24.34309869144926
 30
0.0
 10
16.45816692049793
 20
24.33005607446405
 30
0.0
 10
16.47427237946725
 20
24.30861009912678
 30
0.0
 10
16.48006249205824
 20
24.30113214103001
 30
0.0
 10
16.49223141693025
 20
24.28596831081816
 30
0.0
 10
16.49864976408425
 20
24.2782281010266
 30
0.0
 10
16.51225796621209
 20
24.26242090621923
 30
0.0
 10
16.51949524317376
 20
24.25430824416374
 30
0.0
 10
16.53425764090628
 20
24.23838323048168
 30
0.0
 10
16.54184128953626
 20
24.23049943399517
 30
0.0
 10
16.55742977239566
 20
24.21489980277604
 30
0.0
 10
16.56551045227951
 20
24.20711729678083
 30
0.0
 10
16.58149444982206
 20
24.19228995671948
 30
0.0
 10
16.58944716860238
 20
24.18519013992567
 30
0.0
 10
16.60526120470153
 20
24.1715615655168
 30
0.0
 10
16.61315554609354
 20
24.16500952597746
 30
0.0
 10
16.6283702273676
 20
24.15279372254861
 30
0.0
 10
16.63574972880645
 20
24.14707692440398
 30
0.0
 10
16.65008253609905
 20
24.13630622063363
 30
0.0
 10
16.65705125157015
 20
24.1312433884228
 30
0.0
 10
16.67028015862211
 20
24.12189669941204
 30
0.0
 10
16.67658543355009
 20
24.11757828446435
 30
0.0
 10
16.69469660151165
 20
24.10548296716795
 30
0.0
 10
16.70574493114066
 20
24.09853094044246
 30
0.0
 10
16.72595827223739
 20
24.08630961205833
 30
0.0
 10
16.73501837643718
 20
24.08110246309418
 30
0.0
 10
16.75160095565953
 20
24.07188062507043
 30
0.0
 10
16.75911858763961
 20
24.06787224513393
 30
0.0
 10
16.77987211160705
 20
24.05711926877094
 30
0.0
 10
16.79134671577665
 20
24.0516143346711
 30
0.0
 10
16.80116218509764
 20
24.04707307338403
 30
0.0
  0
SPLINE
  5
C6
330
1F
100
AcDbEntity
  8
0
  6
Continuous
 62
     7
370
    15
100
AcDbSpline
210
0.0
220
0.0
230
1.0
 70
     8
 71
     3
 72
    42
 73
    38
 74
     0
 42
0.00000001
 43
0.00000001
 40
0.0
 40
0.0
 40
0.0
 40
0.0
 40
0.1249999999999994
 40
0.1249999999999994
 40
0.2499999999999989
 40
0.2499999999999989
 40
0.3124999999999987
 40
0.3124999999999987
 40
0.3749999999999984
 40
0.3749999999999984
 40
0.4062499999999982
 40
0.4062499999999982
 40
0.4374999999999981
 40
0.4374999999999981
 40
0.4687499999999979
 40
0.4687499999999979
 40
0.4999999999999977
 40
0.4999999999999977
 40
0.5312499999999974
 40
0.5312499999999974
 40
0.5624999999999972
 40
0.5624999999999972
 40
0.5937499999999969
 40
0.5937499999999969
 40
0.6249999999999967
 40
0.6249999999999967
 40
0.6562499999999964
 40
0.6562499999999964
 40
0.6874999999999962
 40
0.6874999999999962
 40
0.7499999999999969
 40
0.7499999999999969
 40
0.8124999999999977
 40
0.8124999999999977
 40
0.8749999999999986
 40
0.8749999999999986
 40
1.0
 40
1.0
 40
1.0
 40
1.0
 10
17.53598551755579
 20
24.04707307338401
 30
0.0
 10
17.54576232119992
 20
24.05159644546623
 30
0.0
 10
17.55710910817848
 20
24.05703681703344
 30
0.0
 10
17.58477826891584
 20
24.07136540715231
 30
0.0
 10
17.60119222344844
 20
24.08026370538344
 30
0.0
 10
17.63140632201858
 20
24.09853380221229
 30
0.0
 10
17.64253103859754
 20
24.10553454239106
 30
0.0
 10
17.66667077104879
 20
24.12165959258157
 30
0.0
 10
17.67971338803402
 20
24.13078868034256
 30
0.0
 10
17.70115936337129
 20
24.14689413931189
 30
0.0
 10
17.70863732146806
 20
24.15268425190287
 30
0.0
 10
17.72380115167991
 20
24.16485317677488
 30
0.0
 10
17.73154136147147
 20
24.17127152392888
 30
0.0
 10
17.74734855627885
 20
24.18487972605672
 30
0.0
 10
17.75546121833435
 20
24.19211700301839
 30
0.0
 10
17.77138623201641
 20
24.20687940075091
 30
0.0
 10
17.77927002850292
 20
24.2144630493809
 30
0.0
 10
17.79486965972205
 20
24.23005153224031
 30
0.0
 10
17.80265216571728
 20
24.23813221212416
 30
0.0
 10
17.81747950577862
 20
24.2541162096667
 30
0.0
 10
17.82457932257243
 20
24.26206892844704
 30
0.0
 10
17.83820789698132
 20
24.2778829645462
 30
0.0
 10
17.84475993652065
 20
24.2857773059382
 30
0.0
 10
17.8569757399495
 20
24.30099198721226
 30
0.0
 10
17.86269253809415
 20
24.30837148865113
 30
0.0
 10
17.8734632418645
 20
24.32270429594373
 30
0.0
 10
17.87852607407531
 20
24.32967301141482
 30
0.0
 10
17.88787276308608
 20
24.34290191846679
 30
0.0
 10
17.89219117803378
 20
24.34920719339476
 30
0.0
 10
17.90428649533018
 20
24.36731836135635
 30
0.0
 10
17.91123852205568
 20
24.37836669098537
 30
0.0
 10
17.92345985043981
 20
24.39858003208209
 30
0.0
 10
17.92866699940396
 20
24.40764013628188
 30
0.0
 10
17.93788883742771
 20
24.42422271550422
 30
0.0
 10
17.9418972173642
 20
24.4317403474843
 30
0.0
 10
17.95265019372719
 20
24.45249387145174
 30
0.0
 10
17.95815512782704
 20
24.46396847562136
 30
0.0
 10
17.9626963891141
 20
24.47378394494234
 30
0.0
  0
SPLINE
  5
C7
330
1F
100
AcDbEntity
  8
0
  6
Continuous
 62
     7
370
    15
100
AcDbSpline
210
0.0
220
0.0
230
1.0
 70
     8
 71
     3
 72
    42
 73
    38
 74
     0
 42
0.00000001
 43
0.00000001
 40
0.0
 40
0.0
 40
0.0
 40
0.0
 40
0.1250000000000002
 40
0.1250000000000002
 40
0.2500000000000003
 40
0.2500000000000003
 40
0.3125000000000004
 40
0.3125000000000004
 40
0.3750000000000005
 40
0.3750000000000005
 40
0.4062500000000004
 40
0.4062500000000004
 40
0.4375000000000002
 40
0.4375000000000002
 40
0.4687500000000001
 40
0.4687500000000001
 40
0.5
 40
0.5
 40
0.5312499999999999
 40
0.5312499999999999
 40
0.5624999999999999
 40
0.5624999999999999
 40
0.5937499999999998
 40
0.5937499999999998
 40
0.6249999999999997
 40
0.6249999999999997
 40
0.6562499999999997
 40
0.6562499999999997
 40
0.6874999999999996
 40
0.6874999999999996
 40
0.7499999999999993
 40
0.7499999999999993
 40
0.8124999999999991
 40
0.8124999999999991
 40
0.8749999999999988
 40
0.8749999999999988
 40
1.0
 40
1.0
 40
1.0
 40
1.0
 10
16.80116218509764
 20
25.63531814895875
 30
0.0
 10
16.79138538145351
 20
25.63079477687652
 30
0.0
 10
16.78003859447493
 20
25.62535440530931
 30
0.0
 10
16.75236943373757
 20
25.61102581519043
 30
0.0
 10
16.73595547920497
 20
25.60212751695931
 30
0.0
 10
16.70574138063486
 20
25.58385742013047
 30
0.0
 10
16.69461666405587
 20
25.5768566799517
 30
0.0
 10
16.67047693160464
 20
25.56073162976118
 30
0.0
 10
16.65743431461944
 20
25.5516025420002
 30
0.0
 10
16.63598833928215
 20
25.53549708303088
 30
0.0
 10
16.62851038118539
 20
25.52970697043989
 30
0.0
 10
16.61334655097355
 20
25.51753804556789
 30
0.0
 10
16.60560634118198
 20
25.51111969841389
 30
0.0
 10
16.5897991463746
 20
25.49751149628606
 30
0.0
 10
16.58168648431912
 20
25.49027421932439
 30
0.0
 10
16.56576147063706
 20
25.47551182159189
 30
0.0
 10
16.55787767415056
 20
25.46792817296188
 30
0.0
 10
16.54227804293141
 20
25.45233969010248
 30
0.0
 10
16.53449553693621
 20
25.44425901021863
 30
0.0
 10
16.51966819687485
 20
25.4282750126761
 30
0.0
 10
16.51256838008105
 20
25.42032229389577
 30
0.0
 10
16.49893980567217
 20
25.40450825779661
 30
0.0
 10
16.49238776613284
 20
25.3966139164046
 30
0.0
 10
16.48017196270398
 20
25.38139923513055
 30
0.0
 10
16.47445516455934
 20
25.3740197336917
 30
0.0
 10
16.463684460789
 20
25.3596869263991
 30
0.0
 10
16.45862162857816
 20
25.35271821092799
 30
0.0
 10
16.4492749395674
 20
25.33948930387602
 30
0.0
 10
16.44495652461973
 20
25.33318402894807
 30
0.0
 10
16.43286120732331
 20
25.3150728609865
 30
0.0
 10
16.42590918059781
 20
25.30402453135747
 30
0.0
 10
16.41368785221368
 20
25.28381119026075
 30
0.0
 10
16.40848070324954
 20
25.27475108606096
 30
0.0
 10
16.39925886522579
 20
25.25816850683863
 30
0.0
 10
16.3952504852893
 20
25.25065087485854
 30
0.0
 10
16.3844975089263
 20
25.2298973508911
 30
0.0
 10
16.37899257482646
 20
25.21842274672148
 30
0.0
 10
16.37445131353938
 20
25.2086072774005
 30
0.0
  0
SPLINE
  5
DC
330
1F
100
AcDbEntity
  8
0
  6
Continuous
 62
     7
370
    15
100
AcDbSpline
210
0.0
220
0.0
230
1.0
 70
    24
 71
     1
 72
     4
 73
     2
 74
     0
 42
0.00000001
 43
0.00000001
 40
0.0
 40
0.0
 40
1.0
 40
1.0
 10
15.56348147038581
 20
4.086334618578473
 30
0.0
 10
15.60087465696247
 20
3.551586692209163
 30
0.0
  0
SPLINE
  5
DD
330
1F
100
AcDbEntity
  8
0
  6
Continuous
 62
     7
370
    15
100
AcDbSpline
210
0.0
220
0.0
230
1.0
 70
    24
 71
     1
 72
     4
 73
     2
 74
     0
 42
0.00000001
 43
0.00000001
 40
0.0
 40
0.0
 40
1.0
 40
1.0
 10
18.73627304569098
 20
3.551586692209149
 30
0.0
 10
18.77366623226764
 20
4.086334618578459
 30
0.0
  0
ARC
  5
DE
330
1F
100
AcDbEntity
  8
0
  6
Continuous
 62
     7
370
    15
100
AcDbCircle
 10
18.61845078437048
 20
3.559825750874285
 30
0.0
 40
0.11811
100
AcDbArc
 50
270.0
 51
355.9999999922
  0
ARC
  5
DF
330
1F
100
AcDbEntity
  8
0
  6
Continuous
 62
     7
370
    15
100
AcDbCircle
 10
15.71869691828351
 20
3.559825750874285
 30
0.0
 40
0.1181100000000021
100
AcDbArc
 50
184.0000000078
 51
270.0
  0
SPLINE
  5
E1
330
1F
100
AcDbEntity
  8
0
  6
Continuous
 62
     7
370
    15
100
AcDbSpline
210
0.0
220
0.0
230
1.0
 70
     8
 71
     3
 72
    14
 73
    10
 74
     0
 42
0.00000001
 43
0.00000001
 40
0.0
 40
0.0
 40
0.0
 40
0.0
 40
0.25
 40
0.25
 40
0.5
 40
0.5
 40
0.75
 40
0.75
 40
1.0
 40
1.0
 40
1.0
 40
1.0
 10
6.182383471383041
 20
9.28098228798084
 30
0.0
 10
6.180613695087466
 20
9.314751631383452
 30
0.0
 10
6.185788804933964
 20
9.348869757873771
 30
0.0
 10
6.209197176809973
 20
9.412320926295116
 30
0.0
 10
6.22741994307188
 20
9.441625518203153
 30
0.0
 10
6.27397430831018
 20
9.490683583036343
 30
0.0
 10
6.302285033395769
 20
9.51041505947024
 30
0.0
 10
6.36442414466979
 20
9.537112128560203
 30
0.0
 10
6.398224669131039
 20
9.5440657508736
 30
0.0
 10
6.432040355756918
 20
9.5440657508736
 30
0.0
  0
SPLINE
  5
E2
330
1F
100
AcDbEntity
  8
0
  6
Continuous
 62
     7
370
    15
100
AcDbSpline
210
0.0
220
0.0
230
1.0
 70
    24
 71
     3
 72
    52
 73
    48
 74
     0
 42
0.00000001
 43
0.00000001
 40
0.0
 40
0.0
 40
0.0
 40
0.0
 40
0.0625000000000001
 40
0.0625000000000001
 40
0.1250000000000002
 40
0.1250000000000002
 40
0.1562500000000002
 40
0.1562500000000002
 40
0.1718750000000001
 40
0.1718750000000001
 40
0.1875000000000001
 40
0.1875000000000001
 40
0.25
 40
0.25
 40
0.3124999999999999
 40
0.3124999999999999
 40
0.3437499999999998
 40
0.3437499999999998
 40
0.3749999999999997
 40
0.3749999999999997
 40
0.4374999999999996
 40
0.4374999999999996
 40
0.4999999999999994
 40
0.4999999999999994
 40
0.5156249999999994
 40
0.5156249999999994
 40
0.5312499999999994
 40
0.5312499999999994
 40
0.5624999999999996
 40
0.5624999999999996
 40
0.6249999999999996
 40
0.6249999999999996
 40
0.6874999999999997
 40
0.6874999999999997
 40
0.7187499999999997
 40
0.7187499999999997
 40
0.7343749999999997
 40
0.7343749999999997
 40
0.7499999999999997
 40
0.7499999999999997
 40
0.8124999999999998
 40
0.8124999999999998
 40
0.8749999999999999
 40
0.8749999999999999
 40
0.9374999999999999
 40
0.9374999999999999
 40
1.0
 40
1.0
 40
1.0
 40
1.0
 10
6.432040355756918
 20
9.5440657508736
 30
0.0
 10
6.432040355756918
 20
9.5440657508736
 30
0.0
 10
6.452657206265393
 20
9.5440657508736
 30
0.0
 10
6.533213020651694
 20
9.5440657508736
 30
0.0
 10
6.593155919955429
 20
9.544065750873607
 30
0.0
 10
6.712168682332987
 20
9.544065750873607
 30
0.0
 10
6.756699597673084
 20
9.544065750873607
 30
0.0
 10
6.83083118103265
 20
9.544065750873607
 30
0.0
 10
6.856779206133588
 20
9.544065750873614
 30
0.0
 10
6.911085506174302
 20
9.544065750873614
 30
0.0
 10
6.939338831821978
 20
9.544065750873607
 30
0.0
 10
7.086004321026095
 20
9.544065750873607
 30
0.0
 10
7.220569832605094
 20
9.5440657508736
 30
0.0
 10
7.522290948549227
 20
9.5440657508736
 30
0.0
 10
7.689453669770451
 20
9.544065750873607
 30
0.0
 10
7.963972923153484
 20
9.544065750873607
 30
0.0
 10
8.059454691422587
 20
9.544065750873607
 30
0.0
 10
8.258235180650566
 20
9.544065750873607
 30
0.0
 10
8.360738817753017
 20
9.544065750873614
 30
0.0
 10
8.677180575076278
 20
9.544065750873614
 30
0.0
 10
8.900013328635161
 20
9.544065750873607
 30
0.0
 10
9.368263743574595
 20
9.544065750873607
 30
0.0
 10
9.613748933099089
 20
9.544065750873614
 30
0.0
 10
9.934487848717353
 20
9.544065750873614
 30
0.0
 10
9.999326692587687
 20
9.544065750873614
 30
0.0
 10
10.13037629065421
 20
9.544065750873614
 30
0.0
 10
10.19663873422725
 20
9.544065750873614
 30
0.0
 10
10.39712328932826
 20
9.544065750873614
 30
0.0
 10
10.53257344845609
 20
9.544065750873614
 30
0.0
 10
10.94408611301044
 20
9.544065750873614
 30
0.0
 10
11.22529111265325
 20
9.544065750873614
 30
0.0
 10
11.80079728135949
 20
9.544065750873614
 30
0.0
 10
12.09512393232741
 20
9.544065750873614
 30
0.0
 10
12.54629419477847
 20
9.544065750873614
 30
0.0
 10
12.69829839542022
 20
9.54406575087362
 30
0.0
 10
12.92871955367295
 20
9.54406575087362
 30
0.0
 10
13.00592922178861
 20
9.544065750873628
 30
0.0
 10
13.16115440998047
 20
9.544065750873628
 30
0.0
 10
13.23916744061661
 20
9.544065750873607
 30
0.0
 10
13.62951632129599
 20
9.544065750873607
 30
0.0
 10
13.94407437464777
 20
9.544065750873614
 30
0.0
 10
14.57750167590699
 20
9.544065750873614
 30
0.0
 10
14.8963691967234
 20
9.544065750873614
 30
0.0
 10
15.53831601254701
 20
9.544065750873614
 30
0.0
 10
15.86139586255246
 20
9.544065750873614
 30
0.0
 10
16.51178361314896
 20
9.544065750873614
 30
0.0
 10
16.83909143286226
 20
9.544065750873607
 30
0.0
 10
17.16857385132677
 20
9.544065750873607
 30
0.0
  0
ARC
  5
E5
330
1F
100
AcDbEntity
  8
0
  6
Continuous
 62
     7
370
    15
100
AcDbCircle
 10
27.65876687947772
 20
7.339345628831225
 30
0.0
 40
0.3936999332903774
100
AcDbArc
 50
270.0000709564
 51
357.0000135474
  0
SPLINE
  5
E6
330
1F
100
AcDbEntity
  8
0
  6
Continuous
 62
     7
370
    15
100
AcDbSpline
210
0.0
220
0.0
230
1.0
 70
    24
 71
     3
 72
    54
 73
    50
 74
     0
 42
0.00000001
 43
0.00000001
 40
0.0
 40
0.0
 40
0.0
 40
0.0
 40
0.0625000000000005
 40
0.0625000000000005
 40
0.0781250000000006
 40
0.0781250000000006
 40
0.0937500000000007
 40
0.0937500000000007
 40
0.1250000000000009
 40
0.1250000000000009
 40
0.1875000000000013
 40
0.1875000000000013
 40
0.2500000000000016
 40
0.2500000000000016
 40
0.2656250000000017
 40
0.2656250000000017
 40
0.2812500000000017
 40
0.2812500000000017
 40
0.3125000000000018
 40
0.3125000000000018
 40
0.3750000000000021
 40
0.3750000000000021
 40
0.4375000000000023
 40
0.4375000000000023
 40
0.4687500000000024
 40
0.4687500000000024
 40
0.4843750000000024
 40
0.4843750000000024
 40
0.5000000000000023
 40
0.5000000000000023
 40
0.5625000000000022
 40
0.5625000000000022
 40
0.625000000000002
 40
0.625000000000002
 40
0.6875000000000018
 40
0.6875000000000018
 40
0.7187500000000017
 40
0.7187500000000017
 40
0.7343750000000017
 40
0.7343750000000017
 40
0.7500000000000017
 40
0.7500000000000017
 40
0.8125000000000013
 40
0.8125000000000013
 40
0.8750000000000009
 40
0.8750000000000009
 40
0.9375000000000004
 40
0.9375000000000004
 40
1.0
 40
1.0
 40
1.0
 40
1.0
 10
27.65876707956645
 20
6.945645750873602
 30
0.0
 10
27.65876707956645
 20
6.945645750873602
 30
0.0
 10
27.6379947528675
 20
6.945645750873616
 30
0.0
 10
27.58649070070499
 20
6.945645750873624
 30
0.0
 10
27.57489284414714
 20
6.945645750873602
 30
0.0
 10
27.54928121525776
 20
6.945645750873609
 30
0.0
 10
27.53525941539833
 20
6.945645750873631
 30
0.0
 10
27.48962647431679
 20
6.945645750873638
 30
0.0
 10
27.45445092832473
 20
6.945645750873602
 30
0.0
 10
27.33518573463392
 20
6.945645750873602
 30
0.0
 10
27.23741795273479
 20
6.945645750873638
 30
0.0
 10
27.00687389471669
 20
6.945645750873638
 30
0.0
 10
26.87407242526243
 20
6.945645750873609
 30
0.0
 10
26.68635755258681
 20
6.945645750873616
 30
0.0
 10
26.64772653175753
 20
6.945645750873638
 30
0.0
 10
26.56828380579874
 20
6.945645750873638
 30
0.0
 10
26.52741525092213
 20
6.945645750873631
 30
0.0
 10
26.40234045515737
 20
6.945645750873631
 30
0.0
 10
26.31547542664559
 20
6.945645750873616
 30
0.0
 10
26.04492173461821
 20
6.945645750873616
 30
0.0
 10
25.85133729633155
 20
6.945645750873631
 30
0.0
 10
25.43962538701848
 20
6.945645750873631
 30
0.0
 10
25.22148682095153
 20
6.945645750873638
 30
0.0
 10
24.87626973932994
 20
6.945645750873645
 30
0.0
 10
24.75818651250877
 20
6.945645750873652
 30
0.0
 10
24.57651608462984
 20
6.945645750873652
 30
0.0
 10
24.51517045592338
 20
6.945645750873645
 30
0.0
 10
24.3916737850645
 20
6.945645750873645
 30
0.0
 10
24.3294391243198
 20
6.945645750873638
 30
0.0
 10
24.01590204392583
 20
6.945645750873638
 30
0.0
 10
23.75754072822883
 20
6.945645750873652
 30
0.0
 10
23.22692945781822
 20
6.945645750873659
 30
0.0
 10
22.95467363812082
 20
6.945645750873659
 30
0.0
 10
22.39672453238944
 20
6.945645750873659
 30
0.0
 10
22.11100751870582
 20
6.945645750873659
 30
0.0
 10
21.67236734033877
 20
6.945645750873659
 30
0.0
 10
21.5244756578502
 20
6.945645750873666
 30
0.0
 10
21.30010894485611
 20
6.945645750873666
 30
0.0
 10
21.22489835440817
 20
6.945645750873666
 30
0.0
 10
21.07362995395273
 20
6.945645750873666
 30
0.0
 10
20.99767723229851
 20
6.945645750873666
 30
0.0
 10
20.61757447829577
 20
6.945645750873666
 30
0.0
 10
20.31123269772591
 20
6.945645750873652
 30
0.0
 10
19.6942443658419
 20
6.945645750873652
 30
0.0
 10
19.38359963827703
 20
6.945645750873666
 30
0.0
 10
18.75807377843935
 20
6.945645750873673
 30
0.0
 10
18.44319218283128
 20
6.945645750873666
 30
0.0
 10
17.80914052108429
 20
6.945645750873666
 30
0.0
 10
17.48997070289201
 20
6.945645750873666
 30
0.0
 10
17.16857385132677
 20
6.945645750873666
 30
0.0
  0
SPLINE
  5
E8
330
1F
100
AcDbEntity
  8
0
  6
Continuous
 62
     7
370
    15
100
AcDbSpline
210
0.0
220
0.0
230
1.0
 70
    24
 71
     3
 72
    52
 73
    48
 74
     0
 42
0.00000001
 43
0.00000001
 40
0.0
 40
0.0
 40
0.0
 40
0.0
 40
0.0624999999999998
 40
0.0624999999999998
 40
0.1249999999999996
 40
0.1249999999999996
 40
0.1874999999999993
 40
0.1874999999999993
 40
0.2499999999999991
 40
0.2499999999999991
 40
0.2656249999999991
 40
0.2656249999999991
 40
0.281249999999999
 40
0.281249999999999
 40
0.3124999999999989
 40
0.3124999999999989
 40
0.3749999999999987
 40
0.3749999999999987
 40
0.4374999999999984
 40
0.4374999999999984
 40
0.4687499999999984
 40
0.4687499999999984
 40
0.4843749999999983
 40
0.4843749999999983
 40
0.4999999999999982
 40
0.4999999999999982
 40
0.5624999999999982
 40
0.5624999999999982
 40
0.6249999999999982
 40
0.6249999999999982
 40
0.6562499999999982
 40
0.6562499999999982
 40
0.6874999999999983
 40
0.6874999999999983
 40
0.7499999999999984
 40
0.7499999999999984
 40
0.8124999999999984
 40
0.8124999999999984
 40
0.8281249999999986
 40
0.8281249999999986
 40
0.8437499999999988
 40
0.8437499999999988
 40
0.874999999999999
 40
0.874999999999999
 40
0.9374999999999996
 40
0.9374999999999996
 40
1.0
 40
1.0
 40
1.0
 40
1.0
 10
17.16857385132677
 20
9.544065750873607
 30
0.0
 10
17.49805626979129
 20
9.544065750873607
 30
0.0
 10
17.82536408950459
 20
9.5440657508736
 30
0.0
 10
18.4757518401011
 20
9.5440657508736
 30
0.0
 10
18.79883169010654
 20
9.544065750873607
 30
0.0
 10
19.44077850593015
 20
9.544065750873607
 30
0.0
 10
19.75964602674657
 20
9.5440657508736
 30
0.0
 10
20.39307332800578
 20
9.5440657508736
 30
0.0
 10
20.70763138135756
 20
9.5440657508736
 30
0.0
 10
21.09798026203694
 20
9.5440657508736
 30
0.0
 10
21.17599329267308
 20
9.544065750873592
 30
0.0
 10
21.33121848086495
 20
9.544065750873592
 30
0.0
 10
21.4084281489806
 20
9.5440657508736
 30
0.0
 10
21.63884930723331
 20
9.5440657508736
 30
0.0
 10
21.79085350787508
 20
9.5440657508736
 30
0.0
 10
22.24202377032614
 20
9.5440657508736
 30
0.0
 10
22.53635042129406
 20
9.5440657508736
 30
0.0
 10
23.1118565900003
 20
9.5440657508736
 30
0.0
 10
23.39306158964311
 20
9.544065750873585
 30
0.0
 10
23.80457425419745
 20
9.544065750873578
 30
0.0
 10
23.94002441332528
 20
9.544065750873585
 30
0.0
 10
24.14050896842629
 20
9.544065750873585
 30
0.0
 10
24.20677141199933
 20
9.544065750873578
 30
0.0
 10
24.33782101006585
 20
9.544065750873578
 30
0.0
 10
24.40265985393619
 20
9.544065750873592
 30
0.0
 10
24.72339876955445
 20
9.544065750873592
 30
0.0
 10
24.96888395907894
 20
9.544065750873585
 30
0.0
 10
25.43713437401837
 20
9.544065750873578
 30
0.0
 10
25.65996712757725
 20
9.544065750873578
 30
0.0
 10
25.97640888490052
 20
9.544065750873578
 30
0.0
 10
26.07891252200297
 20
9.544065750873578
 30
0.0
 10
26.27769301123094
 20
9.544065750873578
 30
0.0
 10
26.37317477950005
 20
9.544065750873578
 30
0.0
 10
26.64769403288307
 20
9.544065750873571
 30
0.0
 10
26.8148567541043
 20
9.544065750873557
 30
0.0
 10
27.11657787004842
 20
9.544065750873557
 30
0.0
 10
27.25114338162741
 20
9.544065750873564
 30
0.0
 10
27.39780887083154
 20
9.544065750873564
 30
0.0
 10
27.42606219647921
 20
9.544065750873564
 30
0.0
 10
27.48036849651992
 20
9.544065750873564
 30
0.0
 10
27.50631652162086
 20
9.544065750873564
 30
0.0
 10
27.58044810498042
 20
9.544065750873564
 30
0.0
 10
27.62497902032051
 20
9.544065750873571
 30
0.0
 10
27.74399178269807
 20
9.544065750873571
 30
0.0
 10
27.80393468200181
 20
9.544065750873557
 30
0.0
 10
27.8844904963881
 20
9.544065750873557
 30
0.0
 10
27.90510734689657
 20
9.544065750873557
 30
0.0
 10
27.90510734689657
 20
9.544065750873557
 30
0.0
  0
SPLINE
  5
E9
330
1F
100
AcDbEntity
  8
0
  6
Continuous
 62
     7
370
    15
100
AcDbSpline
210
0.0
220
0.0
230
1.0
 70
     8
 71
     3
 72
    14
 73
    10
 74
     0
 42
0.00000001
 43
0.00000001
 40
0.0
 40
0.0
 40
0.0
 40
0.0
 40
0.2500000000000003
 40
0.2500000000000003
 40
0.5000000000000001
 40
0.5000000000000001
 40
0.75
 40
0.75
 40
1.0
 40
1.0
 40
1.0
 40
1.0
 10
27.90510734689657
 20
9.544065750873557
 30
0.0
 10
27.93892303352246
 20
9.544065750873557
 30
0.0
 10
27.9727235579837
 20
9.537112128560153
 30
0.0
 10
28.03486266925772
 20
9.51041505947019
 30
0.0
 10
28.06317339434331
 20
9.4906835830363
 30
0.0
 10
28.1097277595816
 20
9.441625518203104
 30
0.0
 10
28.12795052584352
 20
9.412320926295067
 30
0.0
 10
28.15135889771953
 20
9.348869757873729
 30
0.0
 10
28.15653400756602
 20
9.314751631383409
 30
0.0
 10
28.15476423127043
 20
9.280982287980798
 30
0.0
  0
SPLINE
  5
EC
330
1F
100
AcDbEntity
  8
0
  6
Continuous
 62
     7
370
    15
100
AcDbSpline
210
0.0
220
0.0
230
1.0
 70
    24
 71
     3
 72
    56
 73
    52
 74
     0
 42
0.00000001
 43
0.00000001
 40
0.0
 40
0.0
 40
0.0
 40
0.0
 40
0.015625
 40
0.015625
 40
0.03125
 40
0.03125
 40
0.0625
 40
0.0625
 40
0.1250000000000001
 40
0.1250000000000001
 40
0.1875000000000001
 40
0.1875000000000001
 40
0.2500000000000001
 40
0.2500000000000001
 40
0.2812500000000001
 40
0.2812500000000001
 40
0.3125000000000001
 40
0.3125000000000001
 40
0.3749999999999999
 40
0.3749999999999999
 40
0.4374999999999997
 40
0.4374999999999997
 40
0.4687499999999996
 40
0.4687499999999996
 40
0.4843749999999994
 40
0.4843749999999994
 40
0.4999999999999993
 40
0.4999999999999993
 40
0.5624999999999991
 40
0.5624999999999991
 40
0.624999999999999
 40
0.624999999999999
 40
0.6562499999999989
 40
0.6562499999999989
 40
0.6718749999999989
 40
0.6718749999999989
 40
0.6874999999999989
 40
0.6874999999999989
 40
0.7499999999999993
 40
0.7499999999999993
 40
0.8124999999999998
 40
0.8124999999999998
 40
0.8281249999999999
 40
0.8281249999999999
 40
0.84375
 40
0.84375
 40
0.875
 40
0.875
 40
0.9375000000000001
 40
0.9375000000000001
 40
1.0
 40
1.0
 40
1.0
 40
1.0
 10
17.16857385132677
 20
6.945645750873666
 30
0.0
 10
17.08836052522948
 20
6.945645750873666
 30
0.0
 10
17.00815978660684
 20
6.945645750873673
 30
0.0
 10
16.84778342155197
 20
6.945645750873673
 30
0.0
 10
16.767570151187
 20
6.945645750873666
 30
0.0
 10
16.5274821870196
 20
6.945645750873666
 30
0.0
 10
16.36803077760526
 20
6.945645750873652
 30
0.0
 10
15.89146584276722
 20
6.945645750873659
 30
0.0
 10
15.57613772410771
 20
6.945645750873673
 30
0.0
 10
14.95016848872099
 20
6.945645750873673
 30
0.0
 10
14.63952693482032
 20
6.94564575087368
 30
0.0
 10
14.02298178007818
 20
6.94564575087368
 30
0.0
 10
13.71708033431399
 20
6.945645750873673
 30
0.0
 10
13.26194556332698
 20
6.945645750873673
 30
0.0
 10
13.11059566234647
 20
6.945645750873673
 30
0.0
 10
12.81151636395845
 20
6.945645750873673
 30
0.0
 10
12.66356660726242
 20
6.945645750873673
 30
0.0
 10
12.22448313402138
 20
6.945645750873673
 30
0.0
 10
11.93811189805133
 20
6.945645750873666
 30
0.0
 10
11.37823232564276
 20
6.945645750873659
 30
0.0
 10
11.10470077257756
 20
6.945645750873659
 30
0.0
 10
10.70442995650355
 20
6.945645750873652
 30
0.0
 10
10.57268217309716
 20
6.945645750873652
 30
0.0
 10
10.3776740964811
 20
6.945645750873652
 30
0.0
 10
10.31303446761622
 20
6.945645750873666
 30
0.0
 10
10.18509554272281
 20
6.945645750873666
 30
0.0
 10
10.1217907128553
 20
6.945645750873659
 30
0.0
 10
9.808611780295323
 20
6.945645750873659
 30
0.0
 10
9.568816921672038
 20
6.945645750873645
 30
0.0
 10
9.111180763614882
 20
6.945645750873638
 30
0.0
 10
8.893276860869342
 20
6.945645750873652
 30
0.0
 10
8.583617232934884
 20
6.945645750873645
 30
0.0
 10
8.483272098494105
 20
6.945645750873638
 30
0.0
 10
8.337261540777874
 20
6.945645750873638
 30
0.0
 10
8.289297531779368
 20
6.945645750873631
 30
0.0
 10
8.19538269516324
 20
6.945645750873631
 30
0.0
 10
8.149381505732244
 20
6.945645750873645
 30
0.0
 10
7.924189007367644
 20
6.945645750873645
 30
0.0
 10
7.75941364652477
 20
6.945645750873638
 30
0.0
 10
7.46161160923517
 20
6.945645750873631
 30
0.0
 10
7.328577321017839
 20
6.945645750873638
 30
0.0
 10
7.18336176590828
 20
6.945645750873638
 30
0.0
 10
7.15537530730743
 20
6.945645750873631
 30
0.0
 10
7.101558664197903
 20
6.945645750873631
 30
0.0
 10
7.075738628695142
 20
6.945645750873645
 30
0.0
 10
7.002036547045996
 20
6.945645750873645
 30
0.0
 10
6.957729095866334
 20
6.945645750873631
 30
0.0
 10
6.839239370209512
 20
6.945645750873624
 30
0.0
 10
6.779448849806855
 20
6.945645750873631
 30
0.0
 10
6.699021790142289
 20
6.945645750873624
 30
0.0
 10
6.67838062308703
 20
6.945645750873616
 30
0.0
 10
6.678380623087023
 20
6.945645750873609
 30
0.0
  0
ARC
  5
ED
330
1F
100
AcDbEntity
  8
0
  6
Continuous
 62
     7
370
    15
100
AcDbCircle
 10
6.678380823176269
 20
7.339345628831225
 30
0.0
 40
0.393699933290376
100
AcDbArc
 50
182.9999864527
 51
269.9999290436
  0
LINE
  5
EE
330
1F
100
AcDbEntity
  8
0
  6
Continuous
 62
     7
370
    15
100
AcDbLine
 10
6.285220437089166
 20
7.318741059308159
 30
0.0
 11
6.182383857408411
 21
9.280982320128814
 31
0.0
  0
LINE
  5
F0
330
1F
100
AcDbEntity
  8
0
  6
Continuous
 62
     7
370
    15
100
AcDbLine
 10
28.05192726556483
 20
7.318741059308159
 30
0.0
 11
28.1547638452456
 21
9.280982320128814
 31
0.0
  0
LWPOLYLINE
  5
F2
330
1F
100
AcDbEntity
  8
0
  6
Continuous
 62
     7
370
    15
100
AcDbPolyline
 90
        3
 70
   128
 43
0.0
 10
7.664699715566037
 20
6.945645695539753
 10
7.746991507001809
 20
6.931713724348633
 10
7.820110889416299
 20
6.891470549728844
  0
LWPOLYLINE
  5
F5
330
1F
100
AcDbEntity
  8
0
  6
Continuous
 62
     7
370
    15
100
AcDbPolyline
 90
        3
 70
   128
 43
0.0
 10
26.67244798708796
 20
6.945645695539753
 10
26.59015619564825
 20
6.931713724348633
 10
26.51703681323771
 20
6.891470549728844
  0
LWPOLYLINE
  5
F6
330
1F
100
AcDbEntity
  8
0
  6
Continuous
 62
     7
370
    15
100
AcDbPolyline
 90
        2
 70
   128
 43
0.0
 10
17.168573851327
 20
9.74091578705925
 10
17.168573851327
 20
9.74091578705925
  0
SPLINE
  5
F7
330
1F
100
AcDbEntity
  8
0
  6
Continuous
 62
     7
370
    15
100
AcDbSpline
210
0.0
220
0.0
230
1.0
 70
    24
 71
     3
 72
    15
 73
    11
 74
     0
 42
0.00000001
 43
0.00000001
 40
0.0
 40
0.0
 40
0.0
 40
0.0
 40
0.1373534835939344
 40
0.2823937464424917
 40
0.4309363782482779
 40
0.5784654913069882
 40
0.6912358353490375
 40
0.7996062017435948
 40
0.921479511757764
 40
1.0
 40
1.0
 40
1.0
 40
1.0
 10
17.16857385132677
 20
9.740915750873604
 30
0.0
 10
16.5201115941918
 20
9.740915750873604
 30
0.0
 10
15.18689687384098
 20
9.740915750873604
 30
0.0
 10
13.21920558088901
 20
9.740915750873633
 30
0.0
 10
11.35930479210496
 20
9.740915750873612
 30
0.0
 10
9.868294828112795
 20
9.740915750873619
 30
0.0
 10
8.796631440956212
 20
9.740915750873633
 30
0.0
 10
8.048776100839568
 20
9.740915750873604
 30
0.0
 10
7.701523650669202
 20
9.740915750873626
 30
0.0
 10
7.632605222929513
 20
9.740915750873612
 30
0.0
 10
7.605600851326741
 20
9.740915750873604
 30
0.0
  0
SPLINE
  5
F8
330
1F
100
AcDbEntity
  8
0
  6
Continuous
 62
     7
370
    15
100
AcDbSpline
210
0.0
220
0.0
230
1.0
 70
    24
 71
     3
 72
    15
 73
    11
 74
     0
 42
0.00000001
 43
0.00000001
 40
0.0
 40
0.0
 40
0.0
 40
0.0
 40
0.1373534835939344
 40
0.2823937464424917
 40
0.4309363782482779
 40
0.5784654913069882
 40
0.6912358353490375
 40
0.7996062017435948
 40
0.921479511757764
 40
1.0
 40
1.0
 40
1.0
 40
1.0
 10
17.16857385132677
 20
9.740915750873604
 30
0.0
 10
17.81703610846174
 20
9.740915750873604
 30
0.0
 10
19.15025082881257
 20
9.740915750873597
 30
0.0
 10
21.11794212176453
 20
9.740915750873604
 30
0.0
 10
22.97784291054856
 20
9.740915750873576
 30
0.0
 10
24.46885287454073
 20
9.740915750873569
 30
0.0
 10
25.54051626169731
 20
9.740915750873576
 30
0.0
 10
26.28837160181394
 20
9.74091575087354
 30
0.0
 10
26.63562405198431
 20
9.740915750873555
 30
0.0
 10
26.70454247972398
 20
9.740915750873548
 30
0.0
 10
26.73154685132675
 20
9.74091575087354
 30
0.0
  0
LINE
  5
F9
330
1F
100
AcDbEntity
  8
0
  6
Continuous
 62
     7
370
    15
100
AcDbLine
 10
7.605600889811171
 20
9.544065681461042
 30
0.0
 11
7.605600889811171
 21
9.74091578705925
 31
0.0
  0
LINE
  5
FB
330
1F
100
AcDbEntity
  8
0
  6
Continuous
 62
     7
370
    15
100
AcDbLine
 10
26.73154681284282
 20
9.544065681461042
 30
0.0
 11
26.73154681284282
 21
9.74091578705925
 31
0.0
  0
SPLINE
  5
FC
330
1F
100
AcDbEntity
  8
0
  6
Continuous
 62
     7
370
    15
100
AcDbSpline
210
0.0
220
0.0
230
1.0
 70
     8
 71
     3
 72
    14
 73
    10
 74
     0
 42
0.00000001
 43
0.00000001
 40
0.0376382664565235
 40
0.0376382664565235
 40
0.0376382664565235
 40
0.0376382664565235
 40
0.1859403158890898
 40
0.4938881548891808
 40
0.5520763159082854
 40
0.743850191616597
 40
0.780911774290517
 40
0.898720408183945
 40
0.9933107453807474
 40
0.9933107453807474
 40
0.9933107453807474
 40
0.9933107453807474
 10
18.92694507469071
 20
4.852909378351484
 30
0.0
 10
19.22257985701916
 20
4.879269072961112
 30
0.0
 10
20.11287489044358
 20
4.960638549454075
 30
0.0
 10
20.78729952171977
 20
5.057083064346159
 30
0.0
 10
22.07879465600062
 20
5.267506136520264
 30
0.0
 10
23.20690424519613
 20
5.512984446648922
 30
0.0
 10
24.27908884810655
 20
5.823464366642092
 30
0.0
 10
25.27479295557721
 20
6.160509589869172
 30
0.0
 10
26.19878305088453
 20
6.638931769223003
 30
0.0
 10
26.51703337517492
 20
6.891474749354849
 30
0.0
  0
SPLINE
  5
FD
330
1F
100
AcDbEntity
  8
0
  6
Continuous
 62
     7
370
    15
100
AcDbSpline
210
0.0
220
0.0
230
1.0
 70
     8
 71
     3
 72
    54
 73
    50
 74
     0
 42
0.00000001
 43
0.00000001
 40
0.0
 40
0.0
 40
0.0
 40
0.0
 40
0.00390625
 40
0.00390625
 40
0.0078125
 40
0.015625
 40
0.0312500000000001
 40
0.0312500000000001
 40
0.0625000000000001
 40
0.0625000000000001
 40
0.1250000000000002
 40
0.1250000000000002
 40
0.1875000000000004
 40
0.1875000000000004
 40
0.2187500000000005
 40
0.2187500000000005
 40
0.2500000000000006
 40
0.2500000000000006
 40
0.3750000000000004
 40
0.3750000000000004
 40
0.4062500000000004
 40
0.4062500000000004
 40
0.4375000000000004
 40
0.4375000000000004
 40
0.5000000000000006
 40
0.5000000000000006
 40
0.6250000000000009
 40
0.6250000000000009
 40
0.6562500000000009
 40
0.6562500000000009
 40
0.6875000000000008
 40
0.6875000000000008
 40
0.7500000000000006
 40
0.7500000000000006
 40
0.8125000000000004
 40
0.8125000000000004
 40
0.8437500000000003
 40
0.8437500000000003
 40
0.8750000000000003
 40
0.8750000000000003
 40
0.9375000000000001
 40
0.9375000000000001
 40
0.96875
 40
0.96875
 40
0.984375
 40
0.9921875
 40
0.99609375
 40
0.99609375
 40
1.0
 40
1.0
 40
1.0
 40
1.0
 10
17.16857385132674
 20
4.865894422657774
 30
0.0
 10
17.17214729840293
 20
4.865894422364441
 30
0.0
 10
17.17582117428526
 20
4.865894290134481
 30
0.0
 10
17.18306283613903
 20
4.865893764120266
 30
0.0
 10
17.19391963973196
 20
4.865892583610094
 30
0.0
 10
17.21921247536889
 20
4.865887129861516
 30
0.0
 10
17.24082437058873
 20
4.865877963719154
 30
0.0
 10
17.28395880059473
 20
4.865853951956826
 30
0.0
 10
17.31259599503674
 20
4.865830388067742
 30
0.0
 10
17.39815525288975
 20
4.865738852653415
 30
0.0
 10
17.45472581660502
 20
4.865650237782599
 30
0.0
 10
17.56693493380708
 20
4.865421870694988
 30
0.0
 10
17.62257352523707
 20
4.865281991049454
 30
0.0
 10
17.70531658451165
 20
4.865032755802325
 30
0.0
 10
17.73282559225122
 20
4.864942941889641
 30
0.0
 10
17.78738764846152
 20
4.864750555214112
 30
0.0
 10
17.81431843254238
 20
4.864648437430965
 30
0.0
 10
17.94725645388483
 20
4.864108245644907
 30
0.0
 10
18.04816472275105
 20
4.863582577931989
 30
0.0
 10
18.16755555079399
 20
4.862795268136697
 30
0.0
 10
18.19109346418225
 20
4.862631207185412
 30
0.0
 10
18.23747786511167
 20
4.86228977765219
 30
0.0
 10
18.26038321800624
 20
4.862111916734513
 30
0.0
 10
18.32757518421614
 20
4.861562691617706
 30
0.0
 10
18.37021871659549
 20
4.861176745606947
 30
0.0
 10
18.49189477404239
 20
4.859977691493427
 30
0.0
 10
18.56473209071338
 20
4.859121075809199
 30
0.0
 10
18.64517312861602
 20
4.858024128432675
 30
0.0
 10
18.66076615991062
 20
4.85780313019325
 30
0.0
 10
18.69058818264492
 20
4.857365566932931
 30
0.0
 10
18.7048323024117
 20
4.857148886729405
 30
0.0
 10
18.74560032316907
 20
4.85650888726348
 30
0.0
 10
18.77016453796877
 20
4.856095443844548
 30
0.0
 10
18.81413983274579
 20
4.85531445578863
 30
0.0
 10
18.83355091308458
 20
4.854946873822495
 30
0.0
 10
18.85874705422653
 20
4.854446283469048
 30
0.0
 10
18.86649119067316
 20
4.854287900494505
 30
0.0
 10
18.88064628980207
 20
4.853991196498665
 30
0.0
 10
18.88706491109504
 20
4.853852708854298
 30
0.0
 10
18.90413308752518
 20
4.853475966308835
 30
0.0
 10
18.91265951254117
 20
4.853275139725366
 30
0.0
 10
18.92121353645528
 20
4.853067400953147
 30
0.0
 10
18.92335763614568
 20
4.853013762214331
 30
0.0
 10
18.92550653621721
 20
4.85295921985184
 30
0.0
 10
18.92631405122623
 20
4.852938430577094
 30
0.0
 10
18.92678629763746
 20
4.852926101578522
 30
0.0
 10
18.92688762795294
 20
4.852923437823371
 30
0.0
 10
18.92693267902889
 20
4.852922251495045
 30
0.0
 10
18.92694395110018
 20
4.852921952867327
 30
0.0
 10
18.92694395348968
 20
4.852921953080582
 30
0.0
  0
SPLINE
  5
FF
330
1F
100
AcDbEntity
  8
0
  6
Continuous
 62
     7
370
    15
100
AcDbSpline
210
0.0
220
0.0
230
1.0
 70
     8
 71
     3
 72
    52
 73
    48
 74
     0
 42
0.00000001
 43
0.00000001
 40
0.0
 40
0.0
 40
0.0
 40
0.0
 40
0.0078125
 40
0.0078125
 40
0.015625
 40
0.0312499999999999
 40
0.0312499999999999
 40
0.0624999999999998
 40
0.0624999999999998
 40
0.1249999999999996
 40
0.1249999999999996
 40
0.1562499999999995
 40
0.1562499999999995
 40
0.1874999999999994
 40
0.1874999999999994
 40
0.2499999999999991
 40
0.2499999999999991
 40
0.3124999999999988
 40
0.3124999999999988
 40
0.3437499999999988
 40
0.3437499999999988
 40
0.3749999999999988
 40
0.3749999999999988
 40
0.4999999999999991
 40
0.4999999999999991
 40
0.5624999999999991
 40
0.5624999999999991
 40
0.5937499999999991
 40
0.5937499999999991
 40
0.6249999999999991
 40
0.6249999999999991
 40
0.7499999999999991
 40
0.7499999999999991
 40
0.7812499999999991
 40
0.7812499999999991
 40
0.8124999999999992
 40
0.8124999999999992
 40
0.8749999999999994
 40
0.8749999999999994
 40
0.9374999999999998
 40
0.9374999999999998
 40
0.9687499999999999
 40
0.9687499999999999
 40
0.9843749999999999
 40
0.9921875
 40
0.9921875
 40
1.0
 40
1.0
 40
1.0
 40
1.0
 10
15.41020374916377
 20
4.852921953080596
 30
0.0
 10
15.41020375398141
 20
4.852921952650625
 30
0.0
 10
15.41024884606045
 20
4.852923146710246
 30
0.0
 10
15.41042886758919
 20
4.852927862831642
 30
0.0
 10
15.41083365196552
 20
4.852938430591063
 30
0.0
 10
15.41164116718876
 20
4.852959219871114
 30
0.0
 10
15.41379006767293
 20
4.853013762243595
 30
0.0
 10
15.41593416761739
 20
4.85306740098823
 30
0.0
 10
15.42448819223412
 20
4.85327513977569
 30
0.0
 10
15.43301461763946
 20
4.853475966366371
 30
0.0
 10
15.45008279454456
 20
4.853852708919177
 30
0.0
 10
15.45650141597112
 20
4.853991196565261
 30
0.0
 10
15.4706565153098
 20
4.854287900563119
 30
0.0
 10
15.47840065184073
 20
4.854446283538131
 30
0.0
 10
15.50359679317739
 20
4.854946873891706
 30
0.0
 10
15.52300787356882
 20
4.855314455856185
 30
0.0
 10
15.56698316830925
 20
4.856095443906412
 30
0.0
 10
15.59154738301969
 20
4.856508887321297
 30
0.0
 10
15.63231540353986
 20
4.857148886780045
 30
0.0
 10
15.6465595232103
 20
4.857365566980985
 30
0.0
 10
15.67638154571713
 20
4.85780313023584
 30
0.0
 10
15.69197457686587
 20
4.858024128472167
 30
0.0
 10
15.77241561395363
 20
4.859121075833006
 30
0.0
 10
15.845252929731
 20
4.859977691504476
 30
0.0
 10
15.966928985498
 20
4.861176745601441
 30
0.0
 10
16.00957251725997
 20
4.861562691607066
 30
0.0
 10
16.07676448245287
 20
4.862111916717097
 30
0.0
 10
16.09966983500883
 20
4.862289777632792
 30
0.0
 10
16.14605423524054
 20
4.862631207162405
 30
0.0
 10
16.16959214827068
 20
4.862795268112059
 30
0.0
 10
16.28898297447722
 20
4.863582577900125
 30
0.0
 10
16.38989124173047
 20
4.864108245609842
 30
0.0
 10
16.52282926085822
 20
4.864648437394983
 30
0.0
 10
16.54976004448606
 20
4.864750555178112
 30
0.0
 10
16.60432209976885
 20
4.864942941853933
 30
0.0
 10
16.63183110713173
 20
4.865032755767249
 30
0.0
 10
16.71457416516498
 20
4.865281991016385
 30
0.0
 10
16.77021275575552
 20
4.865421870663912
 30
0.0
 10
16.88242187125358
 20
4.865650237756931
 30
0.0
 10
16.93899243410434
 20
4.865738852631178
 30
0.0
 10
17.02455169063978
 20
4.865830388052327
 30
0.0
 10
17.05318888463913
 20
4.865853951943965
 30
0.0
 10
17.09632331397557
 20
4.86587796371067
 30
0.0
 10
17.11793520885924
 20
4.865887129855352
 30
0.0
 10
17.13961478166217
 20
4.865891804584184
 30
0.0
 10
17.15408295679325
 20
4.865893892642308
 30
0.0
 10
17.16136917455069
 20
4.865894422067608
 30
0.0
 10
17.16857385132674
 20
4.865894422657774
 30
0.0
  0
SPLINE
  5
100
330
1F
100
AcDbEntity
  8
0
  6
Continuous
 62
     7
370
    15
100
AcDbSpline
210
0.0
220
0.0
230
1.0
 70
     8
 71
     3
 72
    14
 73
    10
 74
     0
 42
0.00000001
 43
0.00000001
 40
0.0376382664835939
 40
0.0376382664835939
 40
0.0376382664835939
 40
0.0376382664835939
 40
0.1859403158890898
 40
0.4938881548891808
 40
0.5520763159082854
 40
0.743850191616597
 40
0.780911774290517
 40
0.898720408183945
 40
0.9933107453807415
 40
0.9933107453807415
 40
0.9933107453807415
 40
0.9933107453807415
 10
15.41020262780086
 20
4.852909378365933
 30
0.0
 10
15.11456784552865
 20
4.879269072970779
 30
0.0
 10
14.22427281217439
 20
4.960638549459176
 30
0.0
 10
13.54984818093368
 20
5.057083064346187
 30
0.0
 10
12.25835304665283
 20
5.267506136520296
 30
0.0
 10
11.13024345745733
 20
5.512984446648968
 30
0.0
 10
10.05805885454691
 20
5.823464366642142
 30
0.0
 10
9.062354747076277
 20
6.160509589869225
 30
0.0
 10
8.138364651768995
 20
6.638931769223039
 30
0.0
 10
7.820114327478613
 20
6.89147474935487
 30
0.0
  0
SPLINE
  5
103
330
1F
100
AcDbEntity
  8
0
  6
Continuous
 62
     7
370
    15
100
AcDbSpline
210
0.0
220
0.0
230
1.0
 70
     8
 71
     3
 72
    14
 73
    10
 74
     0
 42
0.00000001
 43
0.00000001
 40
0.0
 40
0.0
 40
0.0
 40
0.0
 40
0.25
 40
0.25
 40
0.5
 40
0.5
 40
0.75
 40
0.75
 40
1.0
 40
1.0
 40
1.0
 40
1.0
 10
15.41020374916377
 20
4.852921953080596
 30
0.0
 10
15.42404605048688
 20
4.851686550208477
 30
0.0
 10
15.43766451100035
 20
4.847983296253187
 30
0.0
 10
15.46278796959396
 20
4.836094060239081
 30
0.0
 10
15.47428650498891
 20
4.827911136532656
 30
0.0
 10
15.49375071184431
 20
4.808069595357779
 30
0.0
 10
15.50171137638898
 20
4.796416081869495
 30
0.0
 10
15.51311609633836
 20
4.771069001809252
 30
0.0
 10
15.51655721802621
 20
4.757381955446228
 30
0.0
 10
15.5175266461235
 20
4.743518487794148
 30
0.0
  0
SPLINE
  5
104
330
1F
100
AcDbEntity
  8
0
  6
Continuous
 62
     7
370
    15
100
AcDbSpline
210
0.0
220
0.0
230
1.0
 70
     8
 71
     3
 72
    14
 73
    10
 74
     0
 42
0.00000001
 43
0.00000001
 40
0.0
 40
0.0
 40
0.0
 40
0.0
 40
0.25
 40
0.25
 40
0.5
 40
0.5
 40
0.75
 40
0.75
 40
1.0
 40
1.0
 40
1.0
 40
1.0
 10
18.92694395365157
 20
4.852921953095034
 30
0.0
 10
18.91310165232714
 20
4.851686550222787
 30
0.0
 10
18.89948319181239
 20
4.847983296266886
 30
0.0
 10
18.87435973321678
 20
4.836094060250769
 30
0.0
 10
18.8628611978211
 20
4.827911136542941
 30
0.0
 10
18.8433969909652
 20
4.808069595364827
 30
0.0
 10
18.83543632642075
 20
4.796416081874707
 30
0.0
 10
18.82403160647286
 20
4.771069001810869
 30
0.0
 10
18.82059048478632
 20
4.757381955446068
 30
0.0
 10
18.81962105669082
 20
4.743518487792528
 30
0.0
  0
LINE
  5
106
330
1F
100
AcDbEntity
  8
0
  6
Continuous
 62
     7
370
    15
100
AcDbLine
 10
18.81962111614713
 20
4.743518512350168
 30
0.0
 11
18.7736729788428
 21
4.086430243950595
 31
0.0
  0
LINE
  5
107
330
1F
100
AcDbEntity
  8
0
  6
Continuous
 62
     7
370
    15
100
AcDbLine
 10
15.5634747238112
 20
4.086430243950595
 30
0.0
 11
15.51752658650294
 21
4.743518512350168
 31
0.0
  0
LINE
  5
108
330
1F
100
AcDbEntity
  8
0
  6
Continuous
 62
     7
370
    15
100
AcDbLine
 10
15.71869684688996
 20
3.441715781193121
 30
0.0
 11
18.61845085576404
 21
3.441715781193121
 31
0.0
  0
LWPOLYLINE
  5
109
330
1F
100
AcDbEntity
  8
0
  6
Continuous
 62
     7
370
    15
100
AcDbPolyline
 90
        2
 70
   128
 43
0.0
 10
17.168573851327
 20
9.74091578705925
 10
17.168573851327
 20
9.74091578705925
  0
LWPOLYLINE
  5
10A
330
1F
100
AcDbEntity
  8
0
  6
Continuous
 62
     7
370
    15
100
AcDbPolyline
 90
        2
 70
   128
 43
0.0
 10
17.168573851327
 20
9.74091578705925
 10
17.168573851327
 20
9.74091578705925
  0
SPLINE
  5
10C
330
1F
100
AcDbEntity
  8
0
  6
Continuous
 62
     7
370
    15
100
AcDbSpline
210
0.0
220
0.0
230
1.0
 70
     8
 71
     3
 72
     9
 73
     5
 74
     0
 42
0.00000001
 43
0.00000001
 40
0.0
 40
0.0
 40
0.0
 40
0.0
 40
0.7547058746095385
 40
1.0
 40
1.0
 40
1.0
 40
1.0
 10
49.00020679948946
 20
7.315389844725644
 30
0.0
 10
49.02930982775061
 20
7.799650900671359
 30
0.0
 10
49.06787190768165
 20
8.44130624249079
 30
0.0
 10
49.10057202415474
 20
9.08330887682196
 30
0.0
 10
49.10859317062518
 20
9.240788351508591
 30
0.0
  0
ARC
  5
10D
330
1F
100
AcDbEntity
  8
0
  6
Continuous
 62
     7
370
    15
100
AcDbCircle
 10
48.60742063507855
 20
7.339346223581998
 30
0.0
 40
0.3937005280431571
100
AcDbArc
 50
269.9998245147
 51
356.5155886292
  0
SPLINE
  5
10E
330
1F
100
AcDbEntity
  8
0
  6
Continuous
 62
     7
370
    15
100
AcDbSpline
210
0.0
220
0.0
230
1.0
 70
     8
 71
     3
 72
    12
 73
     8
 74
     0
 42
0.00000001
 43
0.00000001
 40
0.0
 40
0.0
 40
0.0
 40
0.0
 40
0.1327463758566771
 40
0.3869152034822492
 40
0.6488165261690227
 40
0.8880402401441114
 40
1.0
 40
1.0
 40
1.0
 40
1.0
 10
49.1091299633505
 20
9.238388037371251
 30
0.0
 10
49.10906070108051
 20
9.23811060417981
 30
0.0
 10
49.1088588226856
 20
9.237301971032359
 30
0.0
 10
49.11376202587064
 20
9.248805804550706
 30
0.0
 10
49.1287755337592
 20
9.26289715205096
 30
0.0
 10
49.14514922589245
 20
9.268368725959192
 30
0.0
 10
49.14804900633347
 20
9.268320343324874
 30
0.0
 10
49.14897347672003
 20
9.268304918600982
 30
0.0
  0
SPLINE
  5
10F
330
1F
100
AcDbEntity
  8
0
  6
Continuous
 62
     7
370
    15
100
AcDbSpline
210
0.0
220
0.0
230
1.0
 70
    24
 71
     1
 72
     4
 73
     2
 74
     0
 42
0.00000001
 43
0.00000001
 40
0.0
 40
0.0
 40
1.0
 40
1.0
 10
38.59235860781838
 20
4.756920730720076
 30
0.0
 10
38.67664386557509
 20
3.551586692209156
 30
0.0
  0
ARC
  5
110
330
1F
100
AcDbEntity
  8
0
  6
Continuous
 62
     7
370
    15
100
AcDbCircle
 10
41.69421999298386
 20
3.559825750874285
 30
0.0
 40
0.11811
100
AcDbArc
 50
270.0
 51
339.1412905801
  0
ARC
  5
111
330
1F
100
AcDbEntity
  8
0
  6
Continuous
 62
     7
370
    15
100
AcDbCircle
 10
38.79446612689689
 20
3.559825750874285
 30
0.0
 40
0.1181100000000044
100
AcDbArc
 50
184.0000000078
 51
270.0
  0
SPLINE
  5
112
330
1F
100
AcDbEntity
  8
0
  6
Continuous
 62
     7
370
    15
100
AcDbSpline
210
0.0
220
0.0
230
1.0
 70
    24
 71
     1
 72
     4
 73
     2
 74
     0
 42
0.00000001
 43
0.00000001
 40
0.0
 40
0.0
 40
1.0
 40
1.0
 10
49.50247172607205
 20
8.831543150978902
 30
0.0
 10
49.52491200862548
 20
9.152712471789485
 30
0.0
  0
SPLINE
  5
113
330
1F
100
AcDbEntity
  8
0
  6
Continuous
 62
     7
370
    15
100
AcDbSpline
210
0.0
220
0.0
230
1.0
 70
    24
 71
     1
 72
     4
 73
     2
 74
     0
 42
0.00000001
 43
0.00000001
 40
0.0
 40
0.0
 40
1.0
 40
1.0
 10
49.36749504862448
 20
6.90155286642424
 30
0.0
 10
49.38519336877486
 20
7.154461512311165
 30
0.0
  0
SPLINE
  5
116
330
1F
100
AcDbEntity
  8
0
  6
Continuous
 62
     7
370
    15
100
AcDbSpline
210
0.0
220
0.0
230
1.0
 70
    24
 71
     3
 72
    54
 73
    50
 74
     0
 42
0.00000001
 43
0.00000001
 40
0.0
 40
0.0
 40
0.0
 40
0.0
 40
0.0625000000000005
 40
0.0625000000000005
 40
0.0781250000000006
 40
0.0781250000000006
 40
0.0937500000000007
 40
0.0937500000000007
 40
0.1250000000000009
 40
0.1250000000000009
 40
0.1875000000000013
 40
0.1875000000000013
 40
0.2500000000000016
 40
0.2500000000000016
 40
0.2656250000000017
 40
0.2656250000000017
 40
0.2812500000000017
 40
0.2812500000000017
 40
0.3125000000000018
 40
0.3125000000000018
 40
0.3750000000000021
 40
0.3750000000000021
 40
0.4375000000000023
 40
0.4375000000000023
 40
0.4687500000000024
 40
0.4687500000000024
 40
0.4843750000000024
 40
0.4843750000000024
 40
0.5000000000000023
 40
0.5000000000000023
 40
0.5625000000000022
 40
0.5625000000000022
 40
0.625000000000002
 40
0.625000000000002
 40
0.6875000000000018
 40
0.6875000000000018
 40
0.7187500000000017
 40
0.7187500000000017
 40
0.7343750000000017
 40
0.7343750000000017
 40
0.7500000000000017
 40
0.7500000000000017
 40
0.8125000000000013
 40
0.8125000000000013
 40
0.8750000000000009
 40
0.8750000000000009
 40
0.9375000000000004
 40
0.9375000000000004
 40
1.0
 40
1.0
 40
1.0
 40
1.0
 10
40.24434305993934
 20
6.945645750873638
 30
0.0
 10
39.9214244831366
 20
6.945645750873638
 30
0.0
 10
39.60001047707055
 20
6.945645750873652
 30
0.0
 10
39.20009277171073
 20
6.945645750873652
 30
0.0
 10
39.12011445895277
 20
6.945645750873638
 30
0.0
 10
38.96119091125792
 20
6.945645750873638
 30
0.0
 10
38.88216102402575
 20
6.945645750873666
 30
0.0
 10
38.64633846093584
 20
6.945645750873666
 30
0.0
 10
38.49081176959801
 20
6.945645750873631
 30
0.0
 10
38.02911127576228
 20
6.945645750873638
 30
0.0
 10
37.72779559328069
 20
6.945645750873666
 30
0.0
 10
37.13759834133458
 20
6.945645750873666
 30
0.0
 10
36.84872571989213
 20
6.945645750873638
 30
0.0
 10
36.49534685266461
 20
6.945645750873638
 30
0.0
 10
36.4250575251629
 20
6.945645750873652
 30
0.0
 10
36.28525339290452
 20
6.945645750873652
 30
0.0
 10
36.21565030144609
 20
6.945645750873645
 30
0.0
 10
36.00931803578987
 20
6.945645750873652
 30
0.0
 10
35.87470270384121
 20
6.945645750873638
 30
0.0
 10
35.47926419207367
 20
6.945645750873638
 30
0.0
 10
35.22679545109104
 20
6.945645750873645
 30
0.0
 10
34.7425782533505
 20
6.945645750873645
 30
0.0
 10
34.51083916350316
 20
6.945645750873645
 30
0.0
 10
34.1784346976898
 20
6.945645750873652
 30
0.0
 10
34.07017511194465
 20
6.945645750873659
 30
0.0
 10
33.91162331399663
 20
6.945645750873659
 30
0.0
 10
33.85939387461711
 20
6.945645750873652
 30
0.0
 10
33.75678805657299
 20
6.945645750873652
 30
0.0
 10
33.70633576224142
 20
6.945645750873638
 30
0.0
 10
33.45820869012637
 20
6.945645750873638
 30
0.0
 10
33.27288038185331
 20
6.945645750873652
 30
0.0
 10
32.92651590064975
 20
6.945645750873652
 30
0.0
 10
32.76548998595835
 20
6.945645750873652
 30
0.0
 10
32.466941161479
 20
6.945645750873652
 30
0.0
 10
32.32945975289756
 20
6.945645750873645
 30
0.0
 10
32.14084138292442
 20
6.945645750873645
 30
0.0
 10
32.08090403106209
 20
6.945645750873652
 30
0.0
 10
31.99542172021937
 20
6.945645750873652
 30
0.0
 10
31.96766517312192
 20
6.945645750873652
 30
0.0
 10
31.91363392118534
 20
6.945645750873652
 30
0.0
 10
31.88739868012763
 20
6.945645750873652
 30
0.0
 10
31.76050382125531
 20
6.945645750873652
 30
0.0
 10
31.67223584980279
 20
6.945645750873638
 30
0.0
 10
31.52093880356495
 20
6.945645750873631
 30
0.0
 10
31.45789903612649
 20
6.945645750873645
 30
0.0
 10
31.35665756743576
 20
6.945645750873645
 30
0.0
 10
31.31845858272099
 20
6.945645750873638
 30
0.0
 10
31.26720394170923
 20
6.945645750873638
 30
0.0
 10
31.25414683169961
 20
6.945645750873638
 30
0.0
 10
31.2541468316996
 20
6.945645750873638
 30
0.0
  0
ARC
  5
117
330
1F
100
AcDbEntity
  8
0
  6
Continuous
 62
     7
370
    15
100
AcDbCircle
 10
31.25414721123812
 20
7.339346262050427
 30
0.0
 40
0.3937005665111726
100
AcDbArc
 50
183.0000739031
 51
269.9999269706
  0
SPLINE
  5
11D
330
1F
100
AcDbEntity
  8
0
  6
Continuous
 62
     7
370
    15
100
AcDbSpline
210
0.0
220
0.0
230
1.0
 70
    24
 71
     3
 72
    52
 73
    48
 74
     0
 42
0.00000001
 43
0.00000001
 40
0.0
 40
0.0
 40
0.0
 40
0.0
 40
0.0625
 40
0.0625
 40
0.125
 40
0.125
 40
0.1562500000000001
 40
0.1562500000000001
 40
0.1718750000000002
 40
0.1718750000000002
 40
0.1875000000000002
 40
0.1875000000000002
 40
0.2500000000000005
 40
0.2500000000000005
 40
0.3125000000000008
 40
0.3125000000000008
 40
0.3437500000000009
 40
0.3437500000000009
 40
0.3750000000000009
 40
0.3750000000000009
 40
0.4375000000000013
 40
0.4375000000000013
 40
0.5000000000000017
 40
0.5000000000000017
 40
0.5156250000000017
 40
0.5156250000000017
 40
0.5312500000000017
 40
0.5312500000000017
 40
0.5625000000000018
 40
0.5625000000000018
 40
0.6250000000000018
 40
0.6250000000000018
 40
0.6875000000000018
 40
0.6875000000000018
 40
0.7187500000000018
 40
0.7187500000000018
 40
0.7343750000000018
 40
0.7343750000000018
 40
0.7500000000000017
 40
0.7500000000000017
 40
0.8125000000000012
 40
0.8125000000000012
 40
0.8750000000000008
 40
0.8750000000000008
 40
0.9375000000000003
 40
0.9375000000000003
 40
1.0
 40
1.0
 40
1.0
 40
1.0
 10
40.24434305993934
 20
9.544065750873592
 30
0.0
 10
40.57496401660075
 20
9.544065750873592
 30
0.0
 10
40.90208908550639
 20
9.544065750873592
 30
0.0
 10
41.54967158537744
 20
9.544065750873592
 30
0.0
 10
41.87012834903396
 20
9.5440657508736
 30
0.0
 10
42.34587943404468
 20
9.544065750873592
 30
0.0
 10
42.50363904607664
 20
9.544065750873592
 30
0.0
 10
42.73903467220616
 20
9.544065750873592
 30
0.0
 10
42.8173322783346
 20
9.5440657508736
 30
0.0
 10
42.97334193847897
 20
9.5440657508736
 30
0.0
 10
43.05075659409805
 20
9.544065750873592
 30
0.0
 10
43.43493372567039
 20
9.544065750873592
 30
0.0
 10
43.73303095482285
 20
9.544065750873578
 30
0.0
 10
44.31174289514701
 20
9.544065750873578
 30
0.0
 10
44.59235378857677
 20
9.544065750873592
 30
0.0
 10
45.00051625695843
 20
9.544065750873592
 30
0.0
 10
45.13445632246777
 20
9.544065750873592
 30
0.0
 10
45.39806908065069
 20
9.544065750873592
 30
0.0
 10
45.52669058135449
 20
9.544065750873592
 30
0.0
 10
45.90341917831917
 20
9.544065750873592
 30
0.0
 10
46.14242741358218
 20
9.544065750873578
 30
0.0
 10
46.5973404093376
 20
9.544065750873578
 30
0.0
 10
46.81317609118769
 20
9.544065750873592
 30
0.0
 10
47.06876951348896
 20
9.544065750873592
 30
0.0
 10
47.11918126991335
 20
9.544065750873592
 30
0.0
 10
47.21860137231432
 20
9.544065750873592
 30
0.0
 10
47.26764688049816
 20
9.544065750873585
 30
0.0
 10
47.41243503277119
 20
9.544065750873585
 30
0.0
 10
47.5055029772669
 20
9.544065750873585
 30
0.0
 10
47.77475680451502
 20
9.544065750873585
 30
0.0
 10
47.94103063878043
 20
9.544065750873578
 30
0.0
 10
48.24833571863131
 20
9.544065750873578
 30
0.0
 10
48.38931784838654
 20
9.544065750873585
 30
0.0
 10
48.5821324971551
 20
9.544065750873585
 30
0.0
 10
48.64329287788114
 20
9.544065750873571
 30
0.0
 10
48.73037886278271
 20
9.544065750873571
 30
0.0
 10
48.75863149184383
 20
9.544065750873592
 30
0.0
 10
48.81358348741088
 20
9.544065750873592
 30
0.0
 10
48.84027930886481
 20
9.544065750873585
 30
0.0
 10
48.96932047042768
 20
9.544065750873578
 30
0.0
 10
49.05887797864168
 20
9.544065750873578
 30
0.0
 10
49.21212255844371
 20
9.544065750873578
 30
0.0
 10
49.27581999388772
 20
9.544065750873592
 30
0.0
 10
49.37794102573197
 20
9.544065750873592
 30
0.0
 10
49.416361291722
 20
9.544065750873564
 30
0.0
 10
49.46783031394671
 20
9.544065750873564
 30
0.0
 10
49.48087955550919
 20
9.544065750873578
 30
0.0
 10
49.48087955550919
 20
9.544065750873578
 30
0.0
  0
ARC
  5
11E
330
1F
100
AcDbEntity
  8
0
  6
Continuous
 62
     7
370
    15
100
AcDbCircle
 10
49.48087955550761
 20
9.294066250874288
 30
0.0
 40
0.2499994999999999
100
AcDbArc
 50
10.6973334972
 51
90.0
  0
SPLINE
  5
11F
330
1F
100
AcDbEntity
  8
0
  6
Continuous
 62
     7
370
    15
100
AcDbSpline
210
0.0
220
0.0
230
1.0
 70
    24
 71
     3
 72
    52
 73
    48
 74
     0
 42
0.00000001
 43
0.00000001
 40
0.0
 40
0.0
 40
0.0
 40
0.0
 40
0.0624999999999998
 40
0.0624999999999998
 40
0.1249999999999996
 40
0.1249999999999996
 40
0.1874999999999993
 40
0.1874999999999993
 40
0.2499999999999991
 40
0.2499999999999991
 40
0.2656249999999991
 40
0.2656249999999991
 40
0.281249999999999
 40
0.281249999999999
 40
0.3124999999999989
 40
0.3124999999999989
 40
0.3749999999999987
 40
0.3749999999999987
 40
0.4374999999999984
 40
0.4374999999999984
 40
0.4687499999999984
 40
0.4687499999999984
 40
0.4843749999999983
 40
0.4843749999999983
 40
0.4999999999999982
 40
0.4999999999999982
 40
0.5624999999999982
 40
0.5624999999999982
 40
0.6249999999999982
 40
0.6249999999999982
 40
0.6562499999999982
 40
0.6562499999999982
 40
0.6874999999999983
 40
0.6874999999999983
 40
0.7499999999999984
 40
0.7499999999999984
 40
0.8124999999999984
 40
0.8124999999999984
 40
0.8281249999999986
 40
0.8281249999999986
 40
0.8437499999999988
 40
0.8437499999999988
 40
0.874999999999999
 40
0.874999999999999
 40
0.9374999999999996
 40
0.9374999999999996
 40
1.0
 40
1.0
 40
1.0
 40
1.0
 10
31.00780656436952
 20
9.544065750873578
 30
0.0
 10
31.00780656436952
 20
9.544065750873578
 30
0.0
 10
31.020855805932
 20
9.544065750873571
 30
0.0
 10
31.07232482815668
 20
9.544065750873571
 30
0.0
 10
31.11074509414669
 20
9.544065750873578
 30
0.0
 10
31.21286612599097
 20
9.544065750873578
 30
0.0
 10
31.27656356143495
 20
9.544065750873578
 30
0.0
 10
31.429808141237
 20
9.544065750873578
 30
0.0
 10
31.51936564945103
 20
9.544065750873578
 30
0.0
 10
31.64840681101388
 20
9.544065750873578
 30
0.0
 10
31.6751026324678
 20
9.544065750873571
 30
0.0
 10
31.73005462803485
 20
9.544065750873571
 30
0.0
 10
31.75830725709596
 20
9.544065750873585
 30
0.0
 10
31.84539324199754
 20
9.544065750873585
 30
0.0
 10
31.90655362272358
 20
9.544065750873592
 30
0.0
 10
32.09936827149212
 20
9.544065750873592
 30
0.0
 10
32.24035040124737
 20
9.544065750873592
 30
0.0
 10
32.54765548109825
 20
9.544065750873592
 30
0.0
 10
32.71392931536366
 20
9.544065750873578
 30
0.0
 10
32.98318314261176
 20
9.544065750873578
 30
0.0
 10
33.07625108710751
 20
9.544065750873585
 30
0.0
 10
33.22103923938053
 20
9.544065750873585
 30
0.0
 10
33.27008474756435
 20
9.544065750873578
 30
0.0
 10
33.36950484996532
 20
9.544065750873578
 30
0.0
 10
33.41991660638973
 20
9.544065750873592
 30
0.0
 10
33.67551002869097
 20
9.544065750873592
 30
0.0
 10
33.89134571054107
 20
9.544065750873592
 30
0.0
 10
34.34625870629651
 20
9.544065750873592
 30
0.0
 10
34.58526694155948
 20
9.544065750873592
 30
0.0
 10
34.96199553852416
 20
9.544065750873592
 30
0.0
 10
35.09061703922801
 20
9.544065750873592
 30
0.0
 10
35.35422979741091
 20
9.544065750873592
 30
0.0
 10
35.48816986292023
 20
9.544065750873592
 30
0.0
 10
35.89633233130189
 20
9.544065750873592
 30
0.0
 10
36.17694322473166
 20
9.544065750873578
 30
0.0
 10
36.75565516505584
 20
9.544065750873578
 30
0.0
 10
37.05375239420829
 20
9.544065750873592
 30
0.0
 10
37.43792952578063
 20
9.544065750873592
 30
0.0
 10
37.51534418139971
 20
9.544065750873592
 30
0.0
 10
37.67135384154408
 20
9.544065750873592
 30
0.0
 10
37.74965144767252
 20
9.544065750873592
 30
0.0
 10
37.98504707380202
 20
9.544065750873592
 30
0.0
 10
38.14280668583402
 20
9.5440657508736
 30
0.0
 10
38.61855777084472
 20
9.5440657508736
 30
0.0
 10
38.93901453450125
 20
9.544065750873592
 30
0.0
 10
39.58659703437229
 20
9.544065750873592
 30
0.0
 10
39.91372210327793
 20
9.544065750873592
 30
0.0
 10
40.24434305993934
 20
9.544065750873592
 30
0.0
  0
SPLINE
  5
121
330
1F
100
AcDbEntity
  8
0
  6
Continuous
 62
     7
370
    15
100
AcDbSpline
210
0.0
220
0.0
230
1.0
 70
     8
 71
     3
 72
    14
 73
    10
 74
     0
 42
0.00000001
 43
0.00000001
 40
0.0
 40
0.0
 40
0.0
 40
0.0
 40
0.2500000000000003
 40
0.2500000000000003
 40
0.5000000000000002
 40
0.5000000000000002
 40
0.7500000000000001
 40
0.7500000000000001
 40
1.0
 40
1.0
 40
1.0
 40
1.0
 10
31.00780656436952
 20
9.544065750873578
 30
0.0
 10
30.97399087774365
 20
9.544065750873578
 30
0.0
 10
30.94019035328239
 20
9.537112128560175
 30
0.0
 10
30.87805124200837
 20
9.510415059470212
 30
0.0
 10
30.84974051692279
 20
9.490683583036322
 30
0.0
 10
30.80318615168449
 20
9.441625518203125
 30
0.0
 10
30.78496338542257
 20
9.412320926295088
 30
0.0
 10
30.76155501354656
 20
9.348869757873743
 30
0.0
 10
30.75637990370006
 20
9.314751631383423
 30
0.0
 10
30.75814967999564
 20
9.280982287980812
 30
0.0
  0
SPLINE
  5
124
330
1F
100
AcDbEntity
  8
0
  6
Continuous
 62
     7
370
    15
100
AcDbSpline
210
0.0
220
0.0
230
1.0
 70
    24
 71
     3
 72
    50
 73
    46
 74
     0
 42
0.00000001
 43
0.00000001
 40
0.0
 40
0.0
 40
0.0
 40
0.0
 40
0.0312500000000003
 40
0.0312500000000003
 40
0.0625000000000006
 40
0.0625000000000006
 40
0.1250000000000012
 40
0.1250000000000012
 40
0.1875000000000019
 40
0.1875000000000019
 40
0.2500000000000026
 40
0.2500000000000026
 40
0.2812500000000027
 40
0.2812500000000027
 40
0.2968750000000028
 40
0.2968750000000028
 40
0.3125000000000029
 40
0.3125000000000029
 40
0.3750000000000028
 40
0.3750000000000028
 40
0.4375000000000027
 40
0.4375000000000027
 40
0.5000000000000026
 40
0.5000000000000026
 40
0.5312500000000024
 40
0.5312500000000024
 40
0.5625000000000024
 40
0.5625000000000024
 40
0.6250000000000021
 40
0.6250000000000021
 40
0.6875000000000018
 40
0.6875000000000018
 40
0.7500000000000014
 40
0.7500000000000014
 40
0.7656250000000013
 40
0.7656250000000013
 40
0.7812500000000012
 40
0.7812500000000012
 40
0.8125000000000011
 40
0.8125000000000011
 40
0.8750000000000008
 40
0.8750000000000008
 40
0.9375000000000004
 40
0.9375000000000004
 40
1.0
 40
1.0
 40
1.0
 40
1.0
 10
48.60173279339347
 20
6.945645750873588
 30
0.0
 10
48.56312389106651
 20
6.945645750873588
 30
0.0
 10
48.52272265808355
 20
6.945645750873595
 30
0.0
 10
48.43865542876796
 20
6.945645750873595
 30
0.0
 10
48.39496423723365
 20
6.945645750873602
 30
0.0
 10
48.25892581731726
 20
6.945645750873602
 30
0.0
 10
48.1616191378764
 20
6.945645750873595
 30
0.0
 10
47.95368943784995
 20
6.945645750873595
 30
0.0
 10
47.84306502733291
 20
6.945645750873595
 30
0.0
 10
47.60832272634444
 20
6.945645750873595
 30
0.0
 10
47.48420739409944
 20
6.945645750873595
 30
0.0
 10
47.2875276444947
 20
6.945645750873595
 30
0.0
 10
47.22021373027307
 20
6.945645750873602
 30
0.0
 10
47.11653462230886
 20
6.945645750873602
 30
0.0
 10
47.08152333525366
 20
6.945645750873595
 30
0.0
 10
47.01058202368638
 20
6.945645750873595
 30
0.0
 10
46.974668863541
 20
6.945645750873602
 30
0.0
 10
46.79338618308196
 20
6.945645750873602
 30
0.0
 10
46.64242351601652
 20
6.945645750873616
 30
0.0
 10
46.32830912434935
 20
6.945645750873624
 30
0.0
 10
46.16518769337496
 20
6.945645750873609
 30
0.0
 10
45.82662335551841
 20
6.945645750873609
 30
0.0
 10
45.65118240630829
 20
6.945645750873602
 30
0.0
 10
45.37837858901288
 20
6.945645750873602
 30
0.0
 10
45.2858340570922
 20
6.945645750873609
 30
0.0
 10
45.09741898413058
 20
6.945645750873609
 30
0.0
 10
45.00136599603856
 20
6.945645750873616
 30
0.0
 10
44.71007593948593
 20
6.945645750873616
 30
0.0
 10
44.51136239719547
 20
6.945645750873609
 30
0.0
 10
44.1047185142273
 20
6.945645750873609
 30
0.0
 10
43.89679239550306
 20
6.945645750873609
 30
0.0
 10
43.47143185935275
 20
6.945645750873609
 30
0.0
 10
43.25399850834907
 20
6.945645750873624
 30
0.0
 10
42.97596924724137
 20
6.945645750873631
 30
0.0
 10
42.92005104309837
 20
6.945645750873631
 30
0.0
 10
42.8075805395339
 20
6.945645750873631
 30
0.0
 10
42.75095911383666
 20
6.945645750873638
 30
0.0
 10
42.58076313058393
 20
6.945645750873645
 30
0.0
 10
42.46684364385968
 20
6.945645750873624
 30
0.0
 10
42.12372677562696
 20
6.945645750873631
 30
0.0
 10
41.8931725493067
 20
6.945645750873645
 30
0.0
 10
41.42842621307771
 20
6.945645750873645
 30
0.0
 10
41.19423415275979
 20
6.945645750873631
 30
0.0
 10
40.72212370939057
 20
6.945645750873631
 30
0.0
 10
40.4842055766308
 20
6.945645750873638
 30
0.0
 10
40.24434305993934
 20
6.945645750873638
 30
0.0
  0
LINE
  5
127
330
1F
100
AcDbEntity
  8
0
  6
Continuous
 62
     7
370
    15
100
AcDbLine
 10
30.8609862242467
 20
7.318741059308159
 30
0.0
 11
30.75814964456595
 21
9.280982320128814
 31
0.0
  0
LWPOLYLINE
  5
129
330
1F
100
AcDbEntity
  8
0
  6
Continuous
 62
     7
370
    15
100
AcDbPolyline
 90
        3
 70
   128
 43
0.0
 10
32.15637618897733
 20
6.945645695539753
 10
32.24262910006566
 20
6.930295330236603
 10
32.31828930137881
 20
6.886129315446766
  0
SPLINE
  5
12B
330
1F
100
AcDbEntity
  8
0
  6
Continuous
 62
     7
370
    15
100
AcDbSpline
210
0.0
220
0.0
230
1.0
 70
     8
 71
     3
 72
    10
 73
     6
 74
     0
 42
0.00000001
 43
0.00000001
 40
0.0
 40
0.0
 40
0.0
 40
0.0
 40
0.5
 40
0.5
 40
1.0
 40
1.0
 40
1.0
 40
1.0
 10
48.00117302197947
 20
6.886290676861712
 30
0.0
 10
48.02369251752661
 20
6.905484106963996
 30
0.0
 10
48.04883271748021
 20
6.920159072635869
 30
0.0
 10
48.10431470532896
 20
6.940542847566661
 30
0.0
 10
48.13305777811128
 20
6.945645750873602
 30
0.0
 10
48.16265702901806
 20
6.945645750873588
 30
0.0
  0
LWPOLYLINE
  5
12D
330
1F
100
AcDbEntity
  8
0
  6
Continuous
 62
     7
370
    15
100
AcDbPolyline
 90
        2
 70
   128
 43
0.0
 10
40.24434305994038
 20
9.74091578705925
 10
40.24434305994038
 20
9.74091578705925
  0
SPLINE
  5
12E
330
1F
100
AcDbEntity
  8
0
  6
Continuous
 62
     7
370
    15
100
AcDbSpline
210
0.0
220
0.0
230
1.0
 70
    24
 71
     3
 72
    15
 73
    11
 74
     0
 42
0.00000001
 43
0.00000001
 40
0.0
 40
0.0
 40
0.0
 40
0.0
 40
0.1373534835939344
 40
0.2823937464424917
 40
0.4309363782482779
 40
0.5784654913069882
 40
0.6912358353490375
 40
0.7996062017435948
 40
0.921479511757764
 40
1.0
 40
1.0
 40
1.0
 40
1.0
 10
32.18136705993933
 20
9.740915750873576
 30
0.0
 10
32.21350986725133
 20
9.740915750873576
 30
0.0
 10
32.27959430530495
 20
9.740915750873576
 30
0.0
 10
32.83244834514572
 20
9.740915750873597
 30
0.0
 10
33.74573110855688
 20
9.740915750873576
 30
0.0
 10
34.94950685133925
 20
9.740915750873576
 30
0.0
 10
36.24112426008328
 20
9.74091575087359
 30
0.0
 10
37.70555874659665
 20
9.740915750873562
 30
0.0
 10
38.75544893394576
 20
9.740915750873583
 30
0.0
 10
39.82518671201026
 20
9.740915750873576
 30
0.0
 10
40.24434305993934
 20
9.740915750873576
 30
0.0
  0
SPLINE
  5
12F
330
1F
100
AcDbEntity
  8
0
  6
Continuous
 62
     7
370
    15
100
AcDbSpline
210
0.0
220
0.0
230
1.0
 70
    24
 71
     3
 72
    15
 73
    11
 74
     0
 42
0.00000001
 43
0.00000001
 40
0.0
 40
0.0
 40
0.0
 40
0.0
 40
0.1373534835939344
 40
0.2823937464424917
 40
0.4309363782482779
 40
0.5784654913069882
 40
0.6912358353490375
 40
0.7996062017435948
 40
0.921479511757764
 40
1.0
 40
1.0
 40
1.0
 40
1.0
 10
48.30731905993932
 20
9.740915750873576
 30
0.0
 10
48.27517625262735
 20
9.740915750873576
 30
0.0
 10
48.20909181457374
 20
9.740915750873576
 30
0.0
 10
47.65623777473296
 20
9.740915750873597
 30
0.0
 10
46.7429550113218
 20
9.740915750873576
 30
0.0
 10
45.53917926853943
 20
9.740915750873576
 30
0.0
 10
44.2475618597954
 20
9.74091575087359
 30
0.0
 10
42.78312737328204
 20
9.740915750873562
 30
0.0
 10
41.73323718593292
 20
9.740915750873583
 30
0.0
 10
40.66349940786841
 20
9.740915750873576
 30
0.0
 10
40.24434305993934
 20
9.740915750873576
 30
0.0
  0
LINE
  5
131
330
1F
100
AcDbEntity
  8
0
  6
Continuous
 62
     7
370
    15
100
AcDbLine
 10
48.30731885625183
 20
9.74091578705925
 30
0.0
 11
48.30731885625183
 21
9.544065681461042
 31
0.0
  0
LINE
  5
132
330
1F
100
AcDbEntity
  8
0
  6
Continuous
 62
     7
370
    15
100
AcDbLine
 10
32.18136726362894
 20
9.74091578705925
 30
0.0
 11
32.18136726362894
 21
9.544065681461042
 31
0.0
  0
SPLINE
  5
134
330
1F
100
AcDbEntity
  8
0
  6
Continuous
 62
     7
370
    15
100
AcDbSpline
210
0.0
220
0.0
230
1.0
 70
     8
 71
     3
 72
    54
 73
    50
 74
     0
 42
0.00000001
 43
0.00000001
 40
0.0
 40
0.0
 40
0.0
 40
0.0
 40
0.00390625
 40
0.00390625
 40
0.0078125
 40
0.015625
 40
0.0312500000000001
 40
0.0312500000000001
 40
0.0625000000000001
 40
0.0625000000000001
 40
0.1250000000000002
 40
0.1250000000000002
 40
0.1875000000000004
 40
0.1875000000000004
 40
0.2187500000000005
 40
0.2187500000000005
 40
0.2500000000000006
 40
0.2500000000000006
 40
0.3750000000000004
 40
0.3750000000000004
 40
0.4062500000000004
 40
0.4062500000000004
 40
0.4375000000000004
 40
0.4375000000000004
 40
0.5000000000000006
 40
0.5000000000000006
 40
0.6250000000000009
 40
0.6250000000000009
 40
0.6562500000000009
 40
0.6562500000000009
 40
0.6875000000000008
 40
0.6875000000000008
 40
0.7500000000000006
 40
0.7500000000000006
 40
0.8125000000000004
 40
0.8125000000000004
 40
0.8437500000000003
 40
0.8437500000000003
 40
0.8750000000000003
 40
0.8750000000000003
 40
0.9375000000000001
 40
0.9375000000000001
 40
0.96875
 40
0.96875
 40
0.984375
 40
0.9921875
 40
0.99609375
 40
0.99609375
 40
1.0
 40
1.0
 40
1.0
 40
1.0
 10
38.48906832127551
 20
4.865894422657771
 30
0.0
 10
38.48906832364152
 20
4.865894422364438
 30
0.0
 10
38.48907951940873
 20
4.865894290134477
 30
0.0
 10
38.48912424327644
 20
4.865893764120262
 30
0.0
 10
38.48922482097598
 20
4.865892583610091
 30
0.0
 10
38.48969324986221
 20
4.865887129861513
 30
0.0
 10
38.49049317933229
 20
4.865877963719146
 30
0.0
 10
38.4926191024573
 20
4.865853951956822
 30
0.0
 10
38.49473747970781
 20
4.865830388067739
 30
0.0
 10
38.50316676467484
 20
4.865738852653411
 30
0.0
 10
38.5115469657779
 20
4.865650237782592
 30
0.0
 10
38.53379418798886
 20
4.865421870694984
 30
0.0
 10
38.54766098439509
 20
4.86528199104945
 30
0.0
 10
38.57266942681137
 20
4.865032755802321
 30
0.0
 10
38.58172530917065
 20
4.864942941889637
 30
0.0
 10
38.60119767113267
 20
4.864750555214108
 30
0.0
 10
38.61156767782846
 20
4.864648437430962
 30
0.0
 10
38.6665229147486
 20
4.864108245644907
 30
0.0
 10
38.72033557617908
 20
4.863582577931989
 30
0.0
 10
38.79980656992282
 20
4.86279526813669
 30
0.0
 10
38.81631650419747
 20
4.862631207185412
 30
0.0
 10
38.85058760866968
 20
4.86228977765219
 30
0.0
 10
38.86839789360425
 20
4.862111916734513
 30
0.0
 10
38.92336579346393
 20
4.861562691617706
 30
0.0
 10
38.96193265041518
 20
4.861176745606947
 30
0.0
 10
39.08322056545335
 20
4.859977691493427
 30
0.0
 10
39.1714759396953
 20
4.859121075809199
 30
0.0
 10
39.29126984583868
 20
4.858024128432675
 30
0.0
 10
39.31577626700421
 20
4.857803130193254
 30
0.0
 10
39.36531177941526
 20
4.857365566932934
 30
0.0
 10
39.39035502092908
 20
4.857148886729409
 30
0.0
 10
39.46629621891361
 20
4.856508887263484
 30
0.0
 10
39.51800372591387
 20
4.856095443844548
 30
0.0
 10
39.62354765374073
 20
4.855314455788633
 30
0.0
 10
39.6773840741504
 20
4.854946873822499
 30
0.0
 10
39.75975848555245
 20
4.854446283469052
 30
0.0
 10
39.78748706709605
 20
4.854287900494509
 30
0.0
 10
39.84349506276153
 20
4.853991196498669
 30
0.0
 10
39.87182530017132
 20
4.853852708854308
 30
0.0
 10
39.95691060883559
 20
4.853475966308842
 30
0.0
 10
40.01395338012298
 20
4.853275139725369
 30
0.0
 10
40.09999162982133
 20
4.853067400953154
 30
0.0
 10
40.12875020801829
 20
4.853013762214339
 30
0.0
 10
40.17200753879187
 20
4.852959219851847
 30
0.0
 10
40.19366608377831
 20
4.852938430577105
 30
0.0
 10
40.21898698115643
 20
4.852926101578529
 30
0.0
 10
40.2298501070987
 20
4.852923437823375
 30
0.0
 10
40.23709471000484
 20
4.852922251495052
 30
0.0
 10
40.24076961286315
 20
4.85292195286733
 30
0.0
 10
40.24434305993934
 20
4.852921953080589
 30
0.0
  0
SPLINE
  5
135
330
1F
100
AcDbEntity
  8
0
  6
Continuous
 62
     7
370
    15
100
AcDbSpline
210
0.0
220
0.0
230
1.0
 70
     8
 71
     3
 72
    14
 73
    10
 74
     0
 42
0.00000001
 43
0.00000001
 40
0.0260810614045992
 40
0.0260810614045992
 40
0.0260810614045992
 40
0.0260810614045992
 40
0.125260021504811
 40
0.3293010896857151
 40
0.3866518662863203
 40
0.6640882407081365
 40
0.7135379535527855
 40
0.8464694479300828
 40
0.9839718525474127
 40
0.9839718525474127
 40
0.9839718525474127
 40
0.9839718525474127
 10
38.48906804241996
 20
4.865892173181834
 30
0.0
 10
38.21512295693182
 20
4.899851687086223
 30
0.0
 10
37.35835988030024
 20
5.013218017890484
 30
0.0
 10
36.00377870004738
 20
5.314632299193999
 30
0.0
 10
34.85653089380584
 20
5.598756821829831
 30
0.0
 10
34.20906908811762
 20
5.832175794996999
 30
0.0
 10
33.28627976640868
 20
6.252212906178748
 30
0.0
 10
32.84628336058934
 20
6.498520199274768
 30
0.0
 10
32.51133856054049
 20
6.722024066535656
 30
0.0
 10
32.31828844690745
 20
6.886128053140936
 30
0.0
  0
SPLINE
  5
136
330
1F
100
AcDbEntity
  8
0
  6
Continuous
 62
     7
370
    15
100
AcDbSpline
210
0.0
220
0.0
230
1.0
 70
     8
 71
     3
 72
    42
 73
    38
 74
     0
 42
0.00000001
 43
0.00000001
 40
0.0
 40
0.0
 40
0.0
 40
0.0
 40
0.1250000000000002
 40
0.1250000000000002
 40
0.1875000000000003
 40
0.1875000000000003
 40
0.2500000000000004
 40
0.2500000000000004
 40
0.3750000000000008
 40
0.3750000000000008
 40
0.4375000000000009
 40
0.4375000000000009
 40
0.500000000000001
 40
0.500000000000001
 40
0.5625000000000011
 40
0.5625000000000011
 40
0.6250000000000012
 40
0.6250000000000012
 40
0.6875000000000013
 40
0.6875000000000013
 40
0.7500000000000014
 40
0.7500000000000014
 40
0.7812500000000012
 40
0.7812500000000012
 40
0.8125000000000011
 40
0.8125000000000011
 40
0.8437500000000009
 40
0.8437500000000009
 40
0.8750000000000008
 40
0.8750000000000008
 40
0.9062500000000006
 40
0.9062500000000006
 40
0.9375000000000004
 40
0.9375000000000004
 40
0.9687500000000002
 40
0.9687500000000002
 40
1.0
 40
1.0
 40
1.0
 40
1.0
 10
40.24434305993934
 20
4.852921953095038
 30
0.0
 10
40.58427521557812
 20
4.852921953095038
 30
0.0
 10
40.92380160424953
 20
4.864370949730954
 30
0.0
 10
41.43237732697781
 20
4.896462766870489
 30
0.0
 10
41.60189035297105
 20
4.909643622250677
 30
0.0
 10
41.94004057088021
 20
4.94128509008226
 30
0.0
 10
42.10869333870497
 20
4.959829178059234
 30
0.0
 10
42.61332746123452
 20
5.023956139974743
 30
0.0
 10
42.94805256283972
 20
5.077604897553975
 30
0.0
 10
43.44855775236358
 20
5.168247007431873
 30
0.0
 10
43.61513094434621
 20
5.200143986418492
 30
0.0
 10
43.94784800188113
 20
5.266699746766164
 30
0.0
 10
44.11405588448913
 20
5.301352477047928
 30
0.0
 10
44.44570745021026
 20
5.3730785937334
 30
0.0
 10
44.61115705915917
 20
5.410182472450124
 30
0.0
 10
44.94006066314462
 20
5.490907736973682
 30
0.0
 10
45.10356179055675
 20
5.534367519685851
 30
0.0
 10
45.42826887472944
 20
5.628758343564922
 30
0.0
 10
45.58946341329337
 20
5.679727326739624
 30
0.0
 10
45.90936356789553
 20
5.789763240093961
 30
0.0
 10
46.06806932490409
 20
5.848830864729241
 30
0.0
 10
46.30444050830553
 20
5.942922950713122
 30
0.0
 10
46.38295854733785
 20
5.975172800360856
 30
0.0
 10
46.53953302856507
 20
6.041175357353147
 30
0.0
 10
46.61762297754777
 20
6.074937241262354
 30
0.0
 10
46.77274350831888
 20
6.144055097867348
 30
0.0
 10
46.84980045954244
 20
6.179482663501368
 30
0.0
 10
47.00232558882074
 20
6.253065100501377
 30
0.0
 10
47.07784379766898
 20
6.291133829398746
 30
0.0
 10
47.22714720349862
 20
6.370246699364348
 30
0.0
 10
47.30091062566474
 20
6.411326389913352
 30
0.0
 10
47.44688474468107
 20
6.49614577375743
 30
0.0
 10
47.51921944757068
 20
6.539675004863113
 30
0.0
 10
47.66165691965993
 20
6.630575982744151
 30
0.0
 10
47.73168630725696
 20
6.678071160672648
 30
0.0
 10
47.86868375455063
 20
6.778313705697684
 30
0.0
 10
47.93566445052578
 20
6.831039747391131
 30
0.0
 10
48.00117302197944
 20
6.886290676861712
 30
0.0
  0
SPLINE
  5
138
330
1F
100
AcDbEntity
  8
0
  6
Continuous
 62
     7
370
    15
100
AcDbSpline
210
0.0
220
0.0
230
1.0
 70
     8
 71
     3
 72
    10
 73
     6
 74
     0
 42
0.00000001
 43
0.00000001
 40
0.0
 40
0.0
 40
0.0
 40
0.0
 40
0.5
 40
0.5
 40
1.0
 40
1.0
 40
1.0
 40
1.0
 10
49.63053271783727
 20
9.269164205529428
 30
0.0
 10
49.65130982137022
 20
9.271417403874736
 30
0.0
 10
49.67144810832211
 20
9.279308128687973
 30
0.0
 10
49.70500247201743
 20
9.304231298891864
 30
0.0
 10
49.71837473613985
 20
9.321231201587928
 30
0.0
 10
49.72653442326406
 20
9.34047137934273
 30
0.0
  0
SPLINE
  5
139
330
1F
100
AcDbEntity
  8
0
  6
Continuous
 62
     7
370
    15
100
AcDbSpline
210
0.0
220
0.0
230
1.0
 70
     8
 71
     3
 72
    10
 73
     6
 74
     0
 42
0.00000001
 43
0.00000001
 40
0.0
 40
0.0
 40
0.0
 40
0.0
 40
0.5
 40
0.5
 40
1.0
 40
1.0
 40
1.0
 40
1.0
 10
49.53805654645234
 20
9.269167733946887
 30
0.0
 10
49.56888868437838
 20
9.26916799038667
 30
0.0
 10
49.59201644451524
 20
9.269168181902835
 30
0.0
 10
49.62285361031603
 20
9.269167315991751
 30
0.0
 10
49.63054882006648
 20
9.269165951755177
 30
0.0
 10
49.63053271684936
 20
9.269164205422285
 30
0.0
  0
SPLINE
  5
13A
330
1F
100
AcDbEntity
  8
0
  6
Continuous
 62
     7
370
    15
100
AcDbSpline
210
0.0
220
0.0
230
1.0
 70
     8
 71
     3
 72
    10
 73
     6
 74
     0
 42
0.00000001
 43
0.00000001
 40
0.0
 40
0.0
 40
0.0
 40
0.0
 40
0.5
 40
0.5
 40
1.0
 40
1.0
 40
1.0
 40
1.0
 10
49.50209942074382
 20
9.268475750873577
 30
0.0
 10
49.51044428936306
 20
9.268475750873577
 30
0.0
 10
49.51757842689705
 20
9.268693821550904
 30
0.0
 10
49.52954200164949
 20
9.269038846147446
 30
0.0
 10
49.53437110657745
 20
9.269167703294023
 30
0.0
 10
49.53805654645234
 20
9.269167733946887
 30
0.0
  0
SPLINE
  5
13B
330
1F
100
AcDbEntity
  8
0
  6
Continuous
 62
     7
370
    15
100
AcDbSpline
210
0.0
220
0.0
230
1.0
 70
    24
 71
     3
 72
    10
 73
     6
 74
     0
 42
0.00000001
 43
0.00000001
 40
0.0
 40
0.0
 40
0.0
 40
0.0
 40
0.5
 40
0.5
 40
1.0
 40
1.0
 40
1.0
 40
1.0
 10
49.50209942074382
 20
9.268475750873577
 30
0.0
 10
49.4631827144344
 20
9.268475750873577
 30
0.0
 10
49.41449111442047
 20
9.26847575087357
 30
0.0
 10
49.29725996720457
 20
9.26847575087357
 30
0.0
 10
49.22873220345797
 20
9.268475750873577
 30
0.0
 10
49.14988009779155
 20
9.268475750873577
 30
0.0
  0
SPLINE
  5
147
330
1F
100
AcDbEntity
  8
0
  6
Continuous
 62
     7
370
    15
100
AcDbSpline
210
0.0
220
0.0
230
1.0
 70
     8
 71
     3
 72
    14
 73
    10
 74
     0
 42
0.00000001
 43
0.00000001
 40
0.0
 40
0.0
 40
0.0
 40
0.0
 40
0.25
 40
0.25
 40
0.5
 40
0.5
 40
0.75
 40
0.75
 40
1.0
 40
1.0
 40
1.0
 40
1.0
 10
41.19655799491495
 20
3.737162659424978
 30
0.0
 10
41.23254444858226
 20
3.727828298819933
 30
0.0
 10
41.26764895445025
 20
3.718870632443753
 30
0.0
 10
41.33645085180792
 20
3.702737068655082
 30
0.0
 10
41.37015210425938
 20
3.695567293942663
 30
0.0
 10
41.43665818973803
 20
3.683977344190939
 30
0.0
 10
41.46956211038705
 20
3.679556220083263
 30
0.0
 10
41.53431839080159
 20
3.674245781052456
 30
0.0
 10
41.56621561964148
 20
3.673333628027741
 30
0.0
 10
41.59774787326486
 20
3.674372706832404
 30
0.0
  0
SPLINE
  5
148
330
1F
100
AcDbEntity
  8
0
  6
Continuous
 62
     7
370
    15
100
AcDbSpline
210
0.0
220
0.0
230
1.0
 70
     8
 71
     3
 72
    22
 73
    18
 74
     0
 42
0.00000001
 43
0.00000001
 40
0.0
 40
0.0
 40
0.0
 40
0.0
 40
0.2500000000000001
 40
0.2500000000000001
 40
0.5000000000000001
 40
0.5000000000000001
 40
0.6250000000000001
 40
0.6250000000000001
 40
0.7500000000000002
 40
0.7500000000000002
 40
0.8750000000000002
 40
0.8750000000000002
 40
0.9375000000000004
 40
0.9375000000000004
 40
0.9687500000000002
 40
0.9687500000000002
 40
1.0
 40
1.0
 40
1.0
 40
1.0
 10
41.19655799491497
 20
3.737162659424978
 30
0.0
 10
41.11910323638043
 20
3.757253292790022
 30
0.0
 10
41.04106613942621
 20
3.78075487042474
 30
0.0
 10
40.88375518537121
 20
3.832530702218083
 30
0.0
 10
40.80448534285627
 20
3.860837299869683
 30
0.0
 10
40.68460209287065
 20
3.90601156709392
 30
0.0
 10
40.64453946140237
 20
3.921503022015184
 30
0.0
 10
40.56453675752097
 20
3.953081677857504
 30
0.0
 10
40.52454364869128
 20
3.969188708644566
 30
0.0
 10
40.44453844686237
 20
4.001920364822279
 30
0.0
 10
40.40452633828163
 20
4.018544982431294
 30
0.0
 10
40.34446884786745
 20
4.043793949824444
 30
0.0
 10
40.32444165933963
 20
4.052263042812353
 30
0.0
 10
40.29439278751897
 20
4.065034628731564
 30
0.0
 10
40.2843784685292
 20
4.069301745270678
 30
0.0
 10
40.26435324665337
 20
4.077854522051613
 30
0.0
 10
40.25428823519714
 20
4.082162904033126
 30
0.0
 10
40.2443430599394
 20
4.086430163377134
 30
0.0
  0
SPLINE
  5
14F
330
1F
100
AcDbEntity
  8
0
  6
Continuous
 62
     7
370
    15
100
AcDbSpline
210
0.0
220
0.0
230
1.0
 70
     8
 71
     3
 72
    14
 73
    10
 74
     0
 42
0.00000001
 43
0.00000001
 40
0.0
 40
0.0
 40
0.0
 40
0.0
 40
0.25
 40
0.25
 40
0.5
 40
0.5
 40
0.75
 40
0.75
 40
1.0
 40
1.0
 40
1.0
 40
1.0
 10
38.48906832127551
 20
4.865894422657771
 30
0.0
 10
38.50252465376413
 20
4.864226116271187
 30
0.0
 10
38.51568775299438
 20
4.860218327838208
 30
0.0
 10
38.53989340891358
 20
4.847990869292097
 30
0.0
 10
38.55093032135275
 20
4.839774050365094
 30
0.0
 10
38.56958603279867
 20
4.820091851518864
 30
0.0
 10
38.57720048168595
 20
4.808631061074397
 30
0.0
 10
38.58811514989459
 20
4.783805780836882
 30
0.0
 10
38.59141282414492
 20
4.770447079776993
 30
0.0
 10
38.59235867699499
 20
4.756920753866755
 30
0.0
  0
SPLINE
  5
155
330
1F
100
AcDbEntity
  8
0
  6
Continuous
 62
     7
370
    15
100
AcDbSpline
210
0.0
220
0.0
230
1.0
 70
     8
 71
     3
 72
    78
 73
    74
 74
     0
 42
0.00000001
 43
0.00000001
 40
0.0
 40
0.0
 40
0.0
 40
0.0
 40
0.0624999999999994
 40
0.0624999999999994
 40
0.0937499999999992
 40
0.0937499999999992
 40
0.1093749999999991
 40
0.1093749999999991
 40
0.124999999999999
 40
0.124999999999999
 40
0.1874999999999986
 40
0.1874999999999986
 40
0.2187499999999983
 40
0.2187499999999983
 40
0.2499999999999981
 40
0.2499999999999981
 40
0.2812499999999979
 40
0.2812499999999979
 40
0.3124999999999977
 40
0.3124999999999977
 40
0.3437499999999974
 40
0.3437499999999974
 40
0.3593749999999974
 40
0.3593749999999974
 40
0.3749999999999975
 40
0.3749999999999975
 40
0.4062499999999971
 40
0.4062499999999971
 40
0.4374999999999966
 40
0.4374999999999966
 40
0.4687499999999962
 40
0.4687499999999962
 40
0.4999999999999958
 40
0.4999999999999958
 40
0.5312499999999953
 40
0.5312499999999953
 40
0.562499999999995
 40
0.562499999999995
 40
0.6249999999999947
 40
0.6249999999999947
 40
0.6562499999999944
 40
0.6562499999999944
 40
0.6874999999999943
 40
0.6874999999999943
 40
0.7187499999999941
 40
0.7187499999999941
 40
0.7343749999999941
 40
0.7343749999999941
 40
0.7421874999999942
 40
0.7421874999999942
 40
0.7499999999999942
 40
0.7499999999999942
 40
0.7656249999999942
 40
0.7656249999999942
 40
0.7812499999999941
 40
0.7812499999999941
 40
0.7968749999999941
 40
0.7968749999999941
 40
0.8124999999999941
 40
0.8124999999999941
 40
0.843749999999994
 40
0.843749999999994
 40
0.8593749999999943
 40
0.8593749999999943
 40
0.8671874999999947
 40
0.8671874999999947
 40
0.8749999999999949
 40
0.8749999999999949
 40
0.9062499999999961
 40
0.9062499999999961
 40
0.9374999999999974
 40
0.9374999999999974
 40
1.0
 40
1.0
 40
1.0
 40
1.0
 10
42.00792879023504
 20
3.676934863118326
 30
0.0
 10
42.17403390956227
 20
3.697205098440435
 30
0.0
 10
42.34573565419612
 20
3.718467020515448
 30
0.0
 10
42.61761560438507
 20
3.755777931502152
 30
0.0
 10
42.71063086615733
 20
3.769122987724352
 30
0.0
 10
42.85442436045216
 20
3.791004181925071
 30
0.0
 10
42.90306665287994
 20
3.798608346723093
 30
0.0
 10
43.0018845900027
 20
3.814518813476752
 30
0.0
 10
43.05219274209546
 20
3.822850934261499
 30
0.0
 10
43.30598928079526
 20
3.866110597313888
 30
0.0
 10
43.51571808131079
 20
3.905581012587355
 30
0.0
 10
43.82813704430548
 20
3.96794048791061
 30
0.0
 10
43.93187763146665
 20
3.989251519209251
 30
0.0
 10
44.13686055016086
 20
4.032331702846701
 30
0.0
 10
44.23810249911715
 20
4.054100904922464
 30
0.0
 10
44.43525179367974
 20
4.097287601143609
 30
0.0
 10
44.5311872238255
 20
4.118711226972348
 30
0.0
 10
44.71630176507831
 20
4.160742900599299
 30
0.0
 10
44.80541099242781
 20
4.181337607046544
 30
0.0
 10
44.9730151226448
 20
4.220612430293841
 30
0.0
 10
45.05162936854913
 20
4.239308084285788
 30
0.0
 10
45.16345885066342
 20
4.266391860363502
 30
0.0
 10
45.19967793601228
 20
4.275247924139158
 30
0.0
 10
45.27089521142425
 20
4.292868394252412
 30
0.0
 10
45.30586243260636
 20
4.30162635259363
 30
0.0
 10
45.40969129474728
 20
4.328014545980118
 30
0.0
 10
45.47753002477273
 20
4.345785000507213
 30
0.0
 10
45.61090679496995
 20
4.38189539908274
 30
0.0
 10
45.67651595172532
 20
4.400251084228614
 30
0.0
 10
45.80642527620985
 20
4.437836573955604
 30
0.0
 10
45.870775317146
 20
4.457078331535428
 30
0.0
 10
45.99872699862307
 20
4.496620672153316
 30
0.0
 10
46.0622872636265
 20
4.516909951835014
 30
0.0
 10
46.18873113929301
 20
4.558593960923975
 30
0.0
 10
46.25162314078679
 20
4.579995622899975
 30
0.0
 10
46.37656170942505
 20
4.623826534732181
 30
0.0
 10
46.43864775701732
 20
4.646266652346462
 30
0.0
 10
46.62399680573238
 20
4.715160969654644
 30
0.0
 10
46.74611779036842
 20
4.763094195337757
 30
0.0
 10
46.93141444634547
 20
4.8393194586323
 30
0.0
 10
46.99360065173234
 20
4.865473066966228
 30
0.0
 10
47.11924187065443
 20
4.919364017581056
 30
0.0
 10
47.18251820086061
 20
4.947017740590514
 30
0.0
 10
47.31003000790406
 20
5.003792702755899
 30
0.0
 10
47.37406115905571
 20
5.032824385207011
 30
0.0
 10
47.46982532503452
 20
5.077241088118431
 30
0.0
 10
47.50165495148879
 20
5.092175766920619
 30
0.0
 10
47.54900576435371
 20
5.114712506586116
 30
0.0
 10
47.56476503820483
 20
5.122267724922629
 30
0.0
 10
47.5959062172692
 20
5.137315748143696
 30
0.0
 10
47.61127902162872
 20
5.144802971032355
 30
0.0
 10
47.65683357988816
 20
5.167162291641326
 30
0.0
 10
47.68645213709601
 20
5.181932651102926
 30
0.0
 10
47.74432578977
 20
5.211229195144195
 30
0.0
 10
47.77255597860113
 20
5.225739681828227
 30
0.0
 10
47.82815051672679
 20
5.254738139529547
 30
0.0
 10
47.85546541807156
 20
5.269202953857469
 30
0.0
 10
47.90918449833381
 20
5.298078072725119
 30
0.0
 10
47.93561638703336
 20
5.312505148933006
 30
0.0
 10
48.01324976794416
 20
5.355502047470548
 30
0.0
 10
48.06282101197723
 20
5.383797410299355
 30
0.0
 10
48.13454566438681
 20
5.425731607811169
 30
0.0
 10
48.15803447259921
 20
5.439636892585668
 30
0.0
 10
48.19270084914027
 20
5.460383728266716
 30
0.0
 10
48.20416193791665
 20
5.467280852193397
 30
0.0
 10
48.22690730112879
 20
5.481038424004296
 30
0.0
 10
48.23817110424393
 20
5.487885163258216
 30
0.0
 10
48.29507287692812
 20
5.522653708749974
 30
0.0
 10
48.34164162220434
 20
5.55169313930061
 30
0.0
 10
48.43708006535006
 20
5.613093426874752
 30
0.0
 10
48.48613081114719
 20
5.645582327507771
 30
0.0
 10
48.63664919798863
 20
5.749330969619933
 30
0.0
 10
48.74133368565055
 20
5.82691096759816
 30
0.0
 10
48.84853018174957
 20
5.914037988754821
 30
0.0
  0
SPLINE
  5
156
330
1F
100
AcDbEntity
  8
0
  6
Continuous
 62
     7
370
    15
100
AcDbSpline
210
0.0
220
0.0
230
1.0
 70
     8
 71
     3
 72
    26
 73
    22
 74
     0
 42
0.00000001
 43
0.00000001
 40
0.0
 40
0.0
 40
0.0
 40
0.0
 40
0.2499999999999994
 40
0.2499999999999994
 40
0.374999999999999
 40
0.374999999999999
 40
0.4374999999999989
 40
0.4374999999999989
 40
0.4999999999999988
 40
0.4999999999999988
 40
0.7499999999999994
 40
0.7499999999999994
 40
0.8749999999999997
 40
0.8749999999999997
 40
0.9374999999999998
 40
0.9374999999999998
 40
0.9687499999999999
 40
0.9843749999999999
 40
0.9921874999999999
 40
0.9921874999999999
 40
1.0
 40
1.0
 40
1.0
 40
1.0
 10
41.59774787326481
 20
3.674372706832397
 30
0.0
 10
41.66402748739146
 20
3.67480892889315
 30
0.0
 10
41.72239244198745
 20
3.675178478018648
 30
0.0
 10
41.79857620197092
 20
3.675645829301587
 30
0.0
 10
41.82206559168834
 20
3.675787690467992
 30
0.0
 10
41.85440659581319
 20
3.675981901325688
 30
0.0
 10
41.8647040729315
 20
3.676043537277529
 30
0.0
 10
41.88431891843763
 20
3.676160900414139
 30
0.0
 10
41.89365755942751
 20
3.676216756495144
 30
0.0
 10
41.93755955869665
 20
3.676480005904281
 30
0.0
 10
41.96373140316912
 20
3.676639968587217
 30
0.0
 10
41.99011949799345
 20
3.676809916245052
 30
0.0
 10
41.99675782320664
 20
3.676854723227059
 30
0.0
 10
42.00343615139376
 20
3.676901561056773
 30
0.0
 10
42.0051149676454
 20
3.676913746799702
 30
0.0
 10
42.0067996998591
 20
3.676926234454967
 30
0.0
 10
42.00743361487125
 20
3.676931026822835
 30
0.0
 10
42.0078047911295
 20
3.676933893539086
 30
0.0
 10
42.00788448249055
 20
3.676934515693144
 30
0.0
 10
42.0079199182114
 20
3.67693479309445
 30
0.0
 10
42.00792878995964
 20
3.676934862393825
 30
0.0
 10
42.00792879023498
 20
3.676934863118319
 30
0.0
  0
LINE
  5
157
330
1F
100
AcDbEntity
  8
0
  6
Continuous
 62
     7
370
    15
100
AcDbLine
 10
41.69422006437742
 20
3.441715781193121
 30
0.0
 11
38.79446605550334
 21
3.441715781193121
 31
0.0
  0
SPLINE
  5
15B
330
1F
100
AcDbEntity
  8
0
  6
Continuous
 62
     7
370
    15
100
AcDbSpline
210
0.0
220
0.0
230
1.0
 70
     8
 71
     3
 72
    14
 73
    10
 74
     0
 42
0.00000001
 43
0.00000001
 40
0.0
 40
0.0
 40
0.0
 40
0.0
 40
0.25
 40
0.25
 40
0.5
 40
0.5
 40
0.75
 40
0.75
 40
1.0
 40
1.0
 40
1.0
 40
1.0
 10
49.52544434957852
 20
9.159981597084915
 30
0.0
 10
49.52640072475025
 20
9.17365839967836
 30
0.0
 10
49.52976204561625
 20
9.187163682767277
 30
0.0
 10
49.54089423008881
 20
9.212222669115071
 30
0.0
 10
49.54866238079543
 20
9.223770265529296
 30
0.0
 10
49.56767757696548
 20
9.243526293430477
 30
0.0
 10
49.5789199884486
 20
9.251729910397337
 30
0.0
 10
49.60353541572044
 20
9.263811262161603
 30
0.0
 10
49.6169024327593
 20
9.267686052748196
 30
0.0
 10
49.63053271684936
 20
9.269164205422285
 30
0.0
  0
LWPOLYLINE
  5
15D
330
1F
100
AcDbEntity
  8
0
  6
Continuous
 62
     7
370
    15
100
AcDbPolyline
 90
        4
 70
   128
 43
0.0
 10
49.52544410807911
 20
9.15998161327638
 10
49.50247759265791
 20
8.831542784316767
 10
49.38520451529115
 20
7.154460778987492
 10
49.36846127552967
 20
6.915022697211064
  0
ARC
  5
15E
330
1F
100
AcDbEntity
  8
0
  6
Continuous
 62
     7
370
    15
100
AcDbCircle
 10
47.95459414773808
 20
7.013889396166249
 30
0.0
 40
1.417319610819904
100
AcDbArc
 50
309.1034879972
 51
356.0000210428
  0
ARC
  5
160
330
1F
100
AcDbEntity
  8
0
  6
Continuous
 62
     7
370
    15
100
AcDbCircle
 10
42.03821232165137
 20
3.428776126013428
 30
0.0
 40
0.2499996748243921
100
AcDbArc
 50
96.9575737852
 51
159.1448058213
  0
SPLINE
  5
161
330
1F
100
AcDbEntity
  8
0
  6
Continuous
 62
     7
370
    15
100
AcDbSpline
210
0.0
220
0.0
230
1.0
 70
    24
 71
     3
 72
     9
 73
     5
 74
     0
 42
0.00000001
 43
0.00000001
 40
0.0
 40
0.0
 40
0.0
 40
0.0
 40
0.9765842951032743
 40
1.0
 40
1.0
 40
1.0
 40
1.0
 10
49.16277755631231
 20
9.268475782952073
 30
0.0
 10
49.16270375828529
 20
9.268475782952073
 30
0.0
 10
49.16262819079216
 20
9.268475782952073
 30
0.0
 10
49.15017154556523
 20
9.268475782952073
 30
0.0
 10
49.14987986443658
 20
9.268475782952073
 30
0.0
  0
LWPOLYLINE
  5
162
330
1F
100
AcDbEntity
  8
0
  6
Continuous
 62
     7
370
    15
100
AcDbPolyline
 90
        2
 70
   128
 43
0.0
 10
40.24434305994038
 20
9.74091578705925
 10
40.24434305994038
 20
9.74091578705925
  0
LWPOLYLINE
  5
163
330
1F
100
AcDbEntity
  8
0
  6
Continuous
 62
     7
370
    15
100
AcDbPolyline
 90
        2
 70
   128
 43
0.0
 10
40.24434305994038
 20
9.74091578705925
 10
40.24434305994038
 20
9.74091578705925
  0
SPLINE
  5
16A
330
1F
100
AcDbEntity
  8
0
  6
Continuous
 62
     7
370
    15
100
AcDbSpline
210
0.0
220
0.0
230
1.0
 70
     8
 71
     3
 72
    10
 73
     6
 74
     0
 42
0.00000001
 43
0.00000001
 40
0.0
 40
0.0
 40
0.0
 40
0.0
 40
0.0000048043771327
 40
0.5886094265906112
 40
1.0
 40
1.0
 40
1.0
 40
1.0
 10
49.36846127553005
 20
6.915022697212912
 30
0.0
 10
49.36846127553005
 20
6.915022697212912
 30
0.0
 10
49.36846127643906
 20
6.915022697119674
 30
0.0
 10
49.36793356477946
 20
6.915075071874725
 30
0.0
 10
49.35951833841003
 20
6.915353760675977
 30
0.0
 10
49.35605637697596
 20
6.91546841117254
 30
0.0
  0
ELLIPSE
  5
174
330
1F
100
AcDbEntity
  8
0
  6
HIDDEN
 48
20.0
100
AcDbEllipse
 10
17.17090175927967
 20
24.81473134062438
 30
0.0
 11
10.15780815477964
 21
0.0
 31
0.0
210
0.0
220
0.0
230
1.0
 40
0.8447307429498052
 41
0.0
 42
6.283185307179586
  0
ENDSEC
  0
SECTION
  2
OBJECTS
  0
DICTIONARY
  5
C
330
0
100
AcDbDictionary
281
     1
  3
ACAD_COLOR
350
6C
  3
ACAD_GROUP
350
D
  3
ACAD_LAYOUT
350
1A
  3
ACAD_MATERIAL
350
6B
  3
ACAD_MLEADERSTYLE
350
16E
  3
ACAD_MLINESTYLE
350
17
  3
ACAD_PLOTSETTINGS
350
19
  3
ACAD_PLOTSTYLENAME
350
E
  3
ACAD_SCALELIST
350
3B
  3
ACAD_TABLESTYLE
350
92
  3
ACAD_VISUALSTYLE
350
2A
  3
AcDbVariableDictionary
350
59
  0
DICTIONARY
  5
6C
102
{ACAD_REACTORS
330
C
102
}
330
C
100
AcDbDictionary
281
     1
  0
DICTIONARY
  5
D
102
{ACAD_REACTORS
330
C
102
}
330
C
100
AcDbDictionary
281
     1
  0
DICTIONARY
  5
1A
102
{ACAD_REACTORS
330
C
102
}
330
C
100
AcDbDictionary
281
     1
  3
Layout1
350
74
  3
Layout2
350
26
  3
Model
350
22
  0
DICTIONARY
  5
6B
102
{ACAD_REACTORS
330
C
102
}
330
C
100
AcDbDictionary
281
     1
  0
DICTIONARY
  5
16E
102
{ACAD_REACTORS
330
C
102
}
330
C
100
AcDbDictionary
281
     1
  0
DICTIONARY
  5
17
102
{ACAD_REACTORS
330
C
102
}
330
C
100
AcDbDictionary
281
     1
  3
Standard
350
18
  0
DICTIONARY
  5
19
102
{ACAD_REACTORS
330
C
102
}
330
C
100
AcDbDictionary
281
     1
  0
ACDBDICTIONARYWDFLT
  5
E
102
{ACAD_REACTORS
330
C
102
}
330
C
100
AcDbDictionary
281
     1
  3
Normal
350
F
100
AcDbDictionaryWithDefault
340
F
  0
DICTIONARY
  5
3B
102
{ACAD_REACTORS
330
C
102
}
330
C
100
AcDbDictionary
281
     1
  3
A0
350
3C
  3
A1
350
3D
  3
A2
350
3E
  3
A3
350
3F
  3
A4
350
40
  3
A5
350
41
  3
A6
350
42
  3
A7
350
43
  3
A8
350
44
  3
A9
350
45
  3
B0
350
46
  3
B1
350
47
  3
B2
350
48
  3
B3
350
49
  3
B4
350
4A
  3
B5
350
4B
  3
B6
350
4C
  3
B7
350
4D
  3
B8
350
4E
  3
B9
350
4F
  3
C0
350
50
  3
C1
350
51
  3
C2
350
52
  3
C3
350
53
  3
C4
350
54
  3
C5
350
55
  3
C6
350
56
  3
C7
350
57
  3
C8
350
58
  3
C9
350
17E
  3
D0
350
17F
  3
D1
350
5B
  3
D2
350
5C
  0
DICTIONARY
  5
92
102
{ACAD_REACTORS
330
C
102
}
330
C
100
AcDbDictionary
281
     1
  3
Standard
350
93
  0
DICTIONARY
  5
2A
102
{ACAD_REACTORS
330
C
102
}
330
C
100
AcDbDictionary
281
     1
  3
2DWIREFRAME
350
2F
  3
3D HIDDEN
350
31
  3
3DWIREFRAME
350
30
  3
BASIC
350
32
  3
BRIGHTEN
350
36
  3
COLORCHANGE
350
3A
  3
CONCEPTUAL
350
34
  3
DIM
350
35
  3
FACEPATTERN
350
39
  3
FLAT
350
2B
  3
FLATWITHEDGES
350
2C
  3
GOURAUD
350
2D
  3
GOURAUDWITHEDGES
350
2E
  3
LINEPATTERN
350
38
  3
REALISTIC
350
33
  3
THICKEN
350
37
  0
DICTIONARY
  5
59
102
{ACAD_REACTORS
330
C
102
}
330
C
100
AcDbDictionary
281
     1
  3
CTABLESTYLE
350
98
  3
DIMASSOC
350
172
  3
HIDETEXT
350
5E
  0
LAYOUT
  5
74
102
{ACAD_REACTORS
330
1A
102
}
330
1A
100
AcDbPlotSettings
  1

  2
none_device
  4
ISO_C5_(229.00_x_162.00_MM)
  6

 40
0.0
 41
0.0
 42
0.0
 43
0.0
 44
229.0
 45
162.0
 46
0.0
 47
0.0
 48
0.0
 49
0.0
140
0.0
141
0.0
142
1.0
143
1.0
 70
   688
 72
     1
 73
     0
 74
     5
  7

 75
    16
 76
     0
 77
     2
 78
   300
147
1.0
148
0.0
149
0.0
100
AcDbLayout
  1
Layout1
 70
     1
 71
     1
 10
0.0
 20
0.0
 11
420.0
 21
297.0
 12
0.0
 22
0.0
 32
0.0
 14
1.000000000000000E+20
 24
1.000000000000000E+20
 34
1.000000000000000E+20
 15
-1.000000000000000E+20
 25
-1.000000000000000E+20
 35
-1.000000000000000E+20
146
0.0
 13
0.0
 23
0.0
 33
0.0
 16
1.0
 26
0.0
 36
0.0
 17
0.0
 27
1.0
 37
0.0
 76
     0
330
73
  0
LAYOUT
  5
26
102
{ACAD_REACTORS
330
1A
102
}
330
1A
100
AcDbPlotSettings
  1

  2
none_device
  4
ISO_C5_(229.00_x_162.00_MM)
  6

 40
0.0
 41
0.0
 42
0.0
 43
0.0
 44
229.0
 45
162.0
 46
0.0
 47
0.0
 48
0.0
 49
0.0
140
0.0
141
0.0
142
1.0
143
1.0
 70
   688
 72
     1
 73
     0
 74
     5
  7

 75
    16
 76
     0
 77
     2
 78
   300
147
1.0
148
0.0
149
0.0
100
AcDbLayout
  1
Layout2
 70
     1
 71
     2
 10
0.0
 20
0.0
 11
0.0
 21
0.0
 12
0.0
 22
0.0
 32
0.0
 14
0.0
 24
0.0
 34
0.0
 15
0.0
 25
0.0
 35
0.0
146
0.0
 13
0.0
 23
0.0
 33
0.0
 16
1.0
 26
0.0
 36
0.0
 17
0.0
 27
1.0
 37
0.0
 76
     0
330
23
  0
LAYOUT
  5
22
102
{ACAD_REACTORS
330
1A
102
}
330
1A
100
AcDbPlotSettings
  1

  2
none_device
  4
ISO_C5_(229.00_x_162.00_MM)
  6

 40
0.0
 41
0.0
 42
0.0
 43
0.0
 44
229.0
 45
162.0
 46
0.0
 47
0.0
 48
0.0
 49
0.0
140
0.0
141
0.0
142
1.0
143
0.2581910217056947
 70
 11952
 72
     1
 73
     0
 74
     0
  7

 75
     0
 76
     0
 77
     2
 78
   300
147
3.873101370425941
148
0.0
149
0.0
100
AcDbLayout
  1
Model
 70
     1
 71
     0
 10
0.0
 20
0.0
 11
1219.2
 21
914.4
 12
0.0
 22
0.0
 32
0.0
 14
6.182383471383041
 24
3.441715750874273
 34
0.0
 15
49.72653442326406
 25
34.32338697449658
 35
0.0
146
0.0
 13
0.0
 23
0.0
 33
0.0
 16
1.0
 26
0.0
 36
0.0
 17
0.0
 27
1.0
 37
0.0
 76
     0
330
1F
331
97
  0
MLINESTYLE
  5
18
102
{ACAD_REACTORS
330
17
102
}
330
17
100
AcDbMlineStyle
  2
Standard
 70
     0
  3

 62
   256
 51
90.0
 52
90.0
 71
     2
 49
0.5
 62
   256
  6
BYLAYER
 49
-0.5
 62
   256
  6
BYLAYER
  0
ACDBPLACEHOLDER
  5
F
102
{ACAD_REACTORS
330
E
102
}
330
E
  0
SCALE
  5
3C
102
{ACAD_REACTORS
330
3B
102
}
330
3B
100
AcDbScale
 70
     0
300
1:1
140
1.0
141
1.0
290
     1
  0
SCALE
  5
3D
102
{ACAD_REACTORS
330
3B
102
}
330
3B
100
AcDbScale
 70
     0
300
1:2
140
1.0
141
2.0
290
     1
  0
SCALE
  5
3E
102
{ACAD_REACTORS
330
3B
102
}
330
3B
100
AcDbScale
 70
     0
300
1:4
140
1.0
141
4.0
290
     1
  0
SCALE
  5
3F
102
{ACAD_REACTORS
330
3B
102
}
330
3B
100
AcDbScale
 70
     0
300
1:5
140
1.0
141
5.0
290
     1
  0
SCALE
  5
40
102
{ACAD_REACTORS
330
3B
102
}
330
3B
100
AcDbScale
 70
     0
300
1:8
140
1.0
141
8.0
290
     1
  0
SCALE
  5
41
102
{ACAD_REACTORS
330
3B
102
}
330
3B
100
AcDbScale
 70
     0
300
1:10
140
1.0
141
10.0
290
     1
  0
SCALE
  5
42
102
{ACAD_REACTORS
330
3B
102
}
330
3B
100
AcDbScale
 70
     0
300
1:16
140
1.0
141
16.0
290
     1
  0
SCALE
  5
43
102
{ACAD_REACTORS
330
3B
102
}
330
3B
100
AcDbScale
 70
     0
300
1:20
140
1.0
141
20.0
290
     1
  0
SCALE
  5
44
102
{ACAD_REACTORS
330
3B
102
}
330
3B
100
AcDbScale
 70
     0
300
1:30
140
1.0
141
30.0
290
     1
  0
SCALE
  5
45
102
{ACAD_REACTORS
330
3B
102
}
330
3B
100
AcDbScale
 70
     0
300
1:40
140
1.0
141
40.0
290
     1
  0
SCALE
  5
46
102
{ACAD_REACTORS
330
3B
102
}
330
3B
100
AcDbScale
 70
     0
300
1:50
140
1.0
141
50.0
290
     1
  0
SCALE
  5
47
102
{ACAD_REACTORS
330
3B
102
}
330
3B
100
AcDbScale
 70
     0
300
1:100
140
1.0
141
100.0
290
     1
  0
SCALE
  5
48
102
{ACAD_REACTORS
330
3B
102
}
330
3B
100
AcDbScale
 70
     0
300
2:1
140
2.0
141
1.0
290
     1
  0
SCALE
  5
49
102
{ACAD_REACTORS
330
3B
102
}
330
3B
100
AcDbScale
 70
     0
300
4:1
140
4.0
141
1.0
290
     1
  0
SCALE
  5
4A
102
{ACAD_REACTORS
330
3B
102
}
330
3B
100
AcDbScale
 70
     0
300
8:1
140
8.0
141
1.0
290
     1
  0
SCALE
  5
4B
102
{ACAD_REACTORS
330
3B
102
}
330
3B
100
AcDbScale
 70
     0
300
10:1
140
10.0
141
1.0
290
     1
  0
SCALE
  5
4C
102
{ACAD_REACTORS
330
3B
102
}
330
3B
100
AcDbScale
 70
     0
300
100:1
140
100.0
141
1.0
290
     1
  0
SCALE
  5
4D
102
{ACAD_REACTORS
330
3B
102
}
330
3B
100
AcDbScale
 70
     0
300
1/128" = 1'-0"
140
0.0078125
141
12.0
290
     1
  0
SCALE
  5
4E
102
{ACAD_REACTORS
330
3B
102
}
330
3B
100
AcDbScale
 70
     0
300
1/64" = 1'-0"
140
0.015625
141
12.0
290
     1
  0
SCALE
  5
4F
102
{ACAD_REACTORS
330
3B
102
}
330
3B
100
AcDbScale
 70
     0
300
1/32" = 1'-0"
140
0.03125
141
12.0
290
     1
  0
SCALE
  5
50
102
{ACAD_REACTORS
330
3B
102
}
330
3B
100
AcDbScale
 70
     0
300
1/16" = 1'-0"
140
0.0625
141
12.0
290
     1
  0
SCALE
  5
51
102
{ACAD_REACTORS
330
3B
102
}
330
3B
100
AcDbScale
 70
     0
300
3/32" = 1'-0"
140
0.09375
141
12.0
290
     1
  0
SCALE
  5
52
102
{ACAD_REACTORS
330
3B
102
}
330
3B
100
AcDbScale
 70
     0
300
1/8" = 1'-0"
140
0.125
141
12.0
290
     1
  0
SCALE
  5
53
102
{ACAD_REACTORS
330
3B
102
}
330
3B
100
AcDbScale
 70
     0
300
3/16" = 1'-0"
140
0.1875
141
12.0
290
     1
  0
SCALE
  5
54
102
{ACAD_REACTORS
330
3B
102
}
330
3B
100
AcDbScale
 70
     0
300
1/4" = 1'-0"
140
0.25
141
12.0
290
     1
  0
SCALE
  5
55
102
{ACAD_REACTORS
330
3B
102
}
330
3B
100
AcDbScale
 70
     0
300
3/8" = 1'-0"
140
0.375
141
12.0
290
     1
  0
SCALE
  5
56
102
{ACAD_REACTORS
330
3B
102
}
330
3B
100
AcDbScale
 70
     0
300
1/2" = 1'-0"
140
0.5
141
12.0
290
     1
  0
SCALE
  5
57
102
{ACAD_REACTORS
330
3B
102
}
330
3B
100
AcDbScale
 70
     0
300
3/4" = 1'-0"
140
0.75
141
12.0
290
     1
  0
SCALE
  5
58
102
{ACAD_REACTORS
330
3B
102
}
330
3B
100
AcDbScale
 70
     0
300
1" = 1'-0"
140
1.0
141
12.0
290
     1
  0
SCALE
  5
17E
102
{ACAD_REACTORS
330
3B
102
}
330
3B
100
AcDbScale
 70
     0
300
1-1/2" = 1'-0"
140
1.5
141
12.0
290
     1
  0
SCALE
  5
17F
102
{ACAD_REACTORS
330
3B
102
}
330
3B
100
AcDbScale
 70
     0
300
3" = 1'-0"
140
3.0
141
12.0
290
     1
  0
SCALE
  5
5B
102
{ACAD_REACTORS
330
3B
102
}
330
3B
100
AcDbScale
 70
     0
300
6" = 1'-0"
140
6.0
141
12.0
290
     1
  0
SCALE
  5
5C
102
{ACAD_REACTORS
330
3B
102
}
330
3B
100
AcDbScale
 70
     0
300
1'-0" = 1'-0"
140
12.0
141
12.0
290
     1
  0
TABLESTYLE
  5
93
102
{ACAD_REACTORS
330
92
102
}
102
{ACAD_XDICTIONARY
360
187
102
}
330
92
100
AcDbTableStyle
  3
Standard
 70
     0
 71
     0
 40
0.06
 41
0.06
280
     0
281
     0
  7
Standard
140
0.18
170
     2
 62
     0
 63
     7
283
     0
274
    -2
284
     1
 64
     0
275
    -2
285
     1
 65
     0
276
    -2
286
     1
 66
     0
277
    -2
287
     1
 67
     0
278
    -2
288
     1
 68
     0
279
    -2
289
     1
 69
     0
  7
Standard
140
0.25
170
     5
 62
     0
 63
     7
283
     0
274
    -2
284
     1
 64
     0
275
    -2
285
     1
 65
     0
276
    -2
286
     1
 66
     0
277
    -2
287
     1
 67
     0
278
    -2
288
     1
 68
     0
279
    -2
289
     1
 69
     0
  7
Standard
140
0.18
170
     5
 62
     0
 63
     7
283
     0
274
    -2
284
     1
 64
     0
275
    -2
285
     1
 65
     0
276
    -2
286
     1
 66
     0
277
    -2
287
     1
 67
     0
278
    -2
288
     1
 68
     0
279
    -2
289
     1
 69
     0
  0
VISUALSTYLE
  5
2F
102
{ACAD_REACTORS
330
2A
102
}
330
2A
100
AcDbVisualStyle
  2
2dWireframe
 70
     4
 71
     0
 72
     2
 73
     0
 90
        0
 40
-0.6
 41
-30.0
 62
     5
 63
     7
 74
     1
 91
        4
 64
     7
 65
   257
 75
     1
175
     1
 42
1.0
 92
        0
 66
   257
 43
1.0
 76
     1
 77
     6
 78
     2
 67
     7
 79
     5
170
     0
171
     0
290
     1
174
     0
 93
        1
 44
0.0
173
     0
291
     1
 45
0.0
1001
ACAD
1000
AcDbSavedByObjectVersion
1070
     0
  0
VISUALSTYLE
  5
31
102
{ACAD_REACTORS
330
2A
102
}
330
2A
100
AcDbVisualStyle
  2
3D Hidden
 70
     6
 71
     1
 72
     2
 73
     2
 90
        0
 40
-0.6
 41
-30.0
 62
     5
 63
     7
 74
     2
 91
        2
 64
     7
 65
   257
 75
     2
175
     1
 42
40.0
 92
        0
 66
   257
 43
1.0
 76
     1
 77
     6
 78
     2
 67
     7
 79
     3
170
     0
171
     0
290
     1
174
     0
 93
        1
 44
0.0
173
     0
291
     1
 45
0.0
1001
ACAD
1000
AcDbSavedByObjectVersion
1070
     0
  0
VISUALSTYLE
  5
30
102
{ACAD_REACTORS
330
2A
102
}
330
2A
100
AcDbVisualStyle
  2
3dWireframe
 70
     5
 71
     0
 72
     2
 73
     0
 90
        0
 40
-0.6
 41
-30.0
 62
     5
 63
     7
 74
     1
 91
        4
 64
     7
 65
   257
 75
     1
175
     1
 42
1.0
 92
        0
 66
   257
 43
1.0
 76
     1
 77
     6
 78
     2
 67
     7
 79
     5
170
     0
171
     0
290
     1
174
     0
 93
        1
 44
0.0
173
     0
291
     1
 45
0.0
1001
ACAD
1000
AcDbSavedByObjectVersion
1070
     0
  0
VISUALSTYLE
  5
32
102
{ACAD_REACTORS
330
2A
102
}
330
2A
100
AcDbVisualStyle
  2
Basic
 70
     7
 71
     1
 72
     0
 73
     1
 90
        0
 40
-0.6
 41
-30.0
 62
     5
 63
     7
 74
     0
 91
        4
 64
     7
 65
   257
 75
     1
175
     1
 42
1.0
 92
        8
 66
     7
 43
1.0
 76
     1
 77
     6
 78
     2
 67
     7
 79
     5
170
     0
171
     0
290
     1
174
     0
 93
        1
 44
0.0
173
     0
291
     1
 45
0.0
1001
ACAD
1000
AcDbSavedByObjectVersion
1070
     0
  0
VISUALSTYLE
  5
36
102
{ACAD_REACTORS
330
2A
102
}
330
2A
100
AcDbVisualStyle
  2
Brighten
 70
    12
 71
     2
 72
     2
 73
     0
 90
        0
 40
-0.6
 41
-30.0
 62
     5
 63
     7
 74
     1
 91
        4
 64
     7
 65
   257
 75
     1
175
     1
 42
1.0
 92
        8
 66
     7
 43
1.0
 76
     1
 77
     6
 78
     2
 67
     7
 79
     5
170
     0
171
     0
290
     1
174
     0
 93
        1
 44
50.0
173
     0
291
     1
 45
0.0
1001
ACAD
1000
AcDbSavedByObjectVersion
1070
     0
  0
VISUALSTYLE
  5
3A
102
{ACAD_REACTORS
330
2A
102
}
330
2A
100
AcDbVisualStyle
  2
ColorChange
 70
    16
 71
     2
 72
     2
 73
     3
 90
        0
 40
-0.6
 41
-30.0
 62
     5
 63
     8
 74
     1
 91
        4
 64
     7
 65
   257
 75
     1
175
     1
 42
1.0
 92
        8
 66
     8
 43
1.0
 76
     1
 77
     6
 78
     2
 67
     7
 79
     5
170
     0
171
     0
290
     1
174
     0
 93
        1
 44
0.0
173
     0
291
     1
 45
0.0
1001
ACAD
1000
AcDbSavedByObjectVersion
1070
     0
  0
VISUALSTYLE
  5
34
102
{ACAD_REACTORS
330
2A
102
}
330
2A
100
AcDbVisualStyle
  2
Conceptual
 70
     9
 71
     3
 72
     2
 73
     0
 90
        0
 40
-0.6
 41
-30.0
 62
     5
 63
     7
 74
     2
 91
        2
 64
     7
 65
   257
 75
     1
175
     1
 42
40.0
 92
        8
 66
     7
 43
1.0
 76
     1
 77
     6
 78
     2
 67
     7
 79
     3
170
     0
171
     0
290
     1
174
     0
 93
        1
 44
0.0
173
     0
291
     1
 45
0.0
1001
ACAD
1000
AcDbSavedByObjectVersion
1070
     0
  0
VISUALSTYLE
  5
35
102
{ACAD_REACTORS
330
2A
102
}
330
2A
100
AcDbVisualStyle
  2
Dim
 70
    11
 71
     2
 72
     2
 73
     0
 90
        0
 40
-0.6
 41
-30.0
 62
     5
 63
     7
 74
     1
 91
        4
 64
     7
 65
   257
 75
     1
175
     1
 42
1.0
 92
        8
 66
     7
 43
1.0
 76
     1
 77
     6
 78
     2
 67
     7
 79
     5
170
     0
171
     0
290
     1
174
     0
 93
        1
 44
-50.0
173
     0
291
     1
 45
0.0
1001
ACAD
1000
AcDbSavedByObjectVersion
1070
     0
  0
VISUALSTYLE
  5
39
102
{ACAD_REACTORS
330
2A
102
}
330
2A
100
AcDbVisualStyle
  2
Facepattern
 70
    15
 71
     2
 72
     2
 73
     0
 90
        0
 40
-0.6
 41
-30.0
 62
     5
 63
     7
 74
     1
 91
        4
 64
     7
 65
   257
 75
     1
175
     1
 42
1.0
 92
        8
 66
     7
 43
1.0
 76
     1
 77
     6
 78
     2
 67
     7
 79
     5
170
     0
171
     0
290
     1
174
     0
 93
        1
 44
0.0
173
     0
291
     1
 45
0.0
1001
ACAD
1000
AcDbSavedByObjectVersion
1070
     0
  0
VISUALSTYLE
  5
2B
102
{ACAD_REACTORS
330
2A
102
}
330
2A
100
AcDbVisualStyle
  2
Flat
 70
     0
 71
     2
 72
     1
 73
     1
 90
        2
 40
-0.6
 41
30.0
 62
     5
 63
     7
 74
     0
 91
        4
 64
     7
 65
   257
 75
     1
175
     1
 42
1.0
 92
        8
 66
     7
 43
1.0
 76
     1
 77
     6
 78
     2
 67
     7
 79
     5
170
     0
171
     0
290
     1
174
     0
 93
       13
 44
0.0
173
     0
291
     1
 45
0.0
1001
ACAD
1000
AcDbSavedByObjectVersion
1070
     0
  0
VISUALSTYLE
  5
2C
102
{ACAD_REACTORS
330
2A
102
}
330
2A
100
AcDbVisualStyle
  2
FlatWithEdges
 70
     1
 71
     2
 72
     1
 73
     1
 90
        2
 40
-0.6
 41
30.0
 62
     5
 63
     7
 74
     1
 91
        4
 64
     7
 65
   257
 75
     1
175
     1
 42
1.0
 92
        0
 66
   257
 43
1.0
 76
     1
 77
     6
 78
     2
 67
     7
 79
     5
170
     0
171
     0
290
     1
174
     0
 93
       13
 44
0.0
173
     0
291
     1
 45
0.0
1001
ACAD
1000
AcDbSavedByObjectVersion
1070
     0
  0
VISUALSTYLE
  5
2D
102
{ACAD_REACTORS
330
2A
102
}
330
2A
100
AcDbVisualStyle
  2
Gouraud
 70
     2
 71
     2
 72
     2
 73
     1
 90
        2
 40
-0.6
 41
30.0
 62
     5
 63
     7
 74
     0
 91
        4
 64
     7
 65
   257
 75
     1
175
     1
 42
1.0
 92
        0
 66
     7
 43
1.0
 76
     1
 77
     6
 78
     2
 67
     7
 79
     5
170
     0
171
     0
290
     1
174
     0
 93
       13
 44
0.0
173
     0
291
     1
 45
0.0
1001
ACAD
1000
AcDbSavedByObjectVersion
1070
     0
  0
VISUALSTYLE
  5
2E
102
{ACAD_REACTORS
330
2A
102
}
330
2A
100
AcDbVisualStyle
  2
GouraudWithEdges
 70
     3
 71
     2
 72
     2
 73
     1
 90
        2
 40
-0.6
 41
30.0
 62
     5
 63
     7
 74
     1
 91
        4
 64
     7
 65
   257
 75
     1
175
     1
 42
1.0
 92
        0
 66
   257
 43
1.0
 76
     1
 77
     6
 78
     2
 67
     7
 79
     5
170
     0
171
     0
290
     1
174
     0
 93
       13
 44
0.0
173
     0
291
     1
 45
0.0
1001
ACAD
1000
AcDbSavedByObjectVersion
1070
     0
  0
VISUALSTYLE
  5
38
102
{ACAD_REACTORS
330
2A
102
}
330
2A
100
AcDbVisualStyle
  2
Linepattern
 70
    14
 71
     2
 72
     2
 73
     0
 90
        0
 40
-0.6
 41
-30.0
 62
     5
 63
     7
 74
     1
 91
        4
 64
     7
 65
   257
 75
     7
175
     7
 42
1.0
 92
        8
 66
     7
 43
1.0
 76
     1
 77
     6
 78
     2
 67
     7
 79
     5
170
     0
171
     0
290
     1
174
     0
 93
        1
 44
0.0
173
     0
291
     1
 45
0.0
1001
ACAD
1000
AcDbSavedByObjectVersion
1070
     0
  0
VISUALSTYLE
  5
33
102
{ACAD_REACTORS
330
2A
102
}
330
2A
100
AcDbVisualStyle
  2
Realistic
 70
     8
 71
     2
 72
     2
 73
     0
 90
        0
 40
-0.6
 41
-30.0
 62
     5
 63
     7
 74
     1
 91
        0
 64
     7
 65
   257
 75
     1
175
     1
 42
1.0
 92
        8
 66
     8
 43
1.0
 76
     1
 77
     6
 78
     2
 67
     7
 79
     5
170
     0
171
     0
290
     1
174
     0
 93
       13
 44
0.0
173
     0
291
     1
 45
0.0
1001
ACAD
1000
AcDbSavedByObjectVersion
1070
     0
  0
VISUALSTYLE
  5
37
102
{ACAD_REACTORS
330
2A
102
}
330
2A
100
AcDbVisualStyle
  2
Thicken
 70
    13
 71
     2
 72
     2
 73
     0
 90
        0
 40
-0.6
 41
-30.0
 62
     5
 63
     7
 74
     1
 91
        4
 64
     7
 65
   257
 75
     1
175
     1
 42
1.0
 92
       12
 66
     7
 43
1.0
 76
     1
 77
     6
 78
     2
 67
     7
 79
     5
170
     0
171
     0
290
     1
174
     0
 93
        1
 44
0.0
173
     0
291
     1
 45
0.0
1001
ACAD
1000
AcDbSavedByObjectVersion
1070
     0
  0
DICTIONARYVAR
  5
98
102
{ACAD_REACTORS
330
59
102
}
330
59
100
DictionaryVariables
280
     0
  1
Standard
  0
DICTIONARYVAR
  5
172
102
{ACAD_REACTORS
330
59
102
}
330
59
100
DictionaryVariables
280
     0
  1
2
  0
DICTIONARYVAR
  5
5E
102
{ACAD_REACTORS
330
59
102
}
330
59
100
DictionaryVariables
280
     0
  1
1
  0
DICTIONARY
  5
187
330
93
100
AcDbDictionary
280
     1
281
     1
  3
ACAD_XREC_ROUNDTRIP
360
188
  0
XRECORD
  5
188
102
{ACAD_REACTORS
330
187
102
}
330
187
100
AcDbXrecord
280
     1
102
ACAD_ROUNDTRIP_PRE2007_TABLESTYLE
 90
      512
 91
        0
  1

 92
      512
 93
        0
  2

 94
      512
 95
        0
  3

  0
ENDSEC
  0
EOF
