  0
SECTION
  2
HEADER
  9
$ACADVER
  1
AC1018
  9
$ACADMAINTVER
 70
   104
  9
$DWGCODEPAGE
  3
ANSI_1252
  9
$LASTSAVEDBY
  1
jgayle
  9
$INSBASE
 10
0.0
 20
0.0
 30
0.0
  9
$EXTMIN
 10
5.422494541788864
 20
0.6290329480533308
 30
-0.0000000000000324
  9
$EXTMAX
 10
48.80834475399645
 20
36.02174015082342
 30
0.0000000000000324
  9
$LIMMIN
 10
0.0
 20
0.0
  9
$LIMMAX
 10
12.0
 20
9.0
  9
$ORTHOMODE
 70
     0
  9
$REGENMODE
 70
     1
  9
$FILLMODE
 70
     1
  9
$QTEXTMODE
 70
     0
  9
$MIRRTEXT
 70
     0
  9
$LTSCALE
 40
1.0
  9
$ATTMODE
 70
     1
  9
$TEXTSIZE
 40
0.2
  9
$TRACEWID
 40
0.05
  9
$TEXTSTYLE
  7
Standard
  9
$CLAYER
  8
0
  9
$CELTYPE
  6
ByLayer
  9
$CECOLOR
 62
   256
  9
$CELTSCALE
 40
1.0
  9
$DISPSILH
 70
     0
  9
$DIMSCALE
 40
1.0
  9
$DIMASZ
 40
0.18
  9
$DIMEXO
 40
0.0625
  9
$DIMDLI
 40
0.38
  9
$DIMRND
 40
0.0
  9
$DIMDLE
 40
0.0
  9
$DIMEXE
 40
0.18
  9
$DIMTP
 40
0.0
  9
$DIMTM
 40
0.0
  9
$DIMTXT
 40
0.18
  9
$DIMCEN
 40
0.09
  9
$DIMTSZ
 40
0.0
  9
$DIMTOL
 70
     0
  9
$DIMLIM
 70
     0
  9
$DIMTIH
 70
     1
  9
$DIMTOH
 70
     1
  9
$DIMSE1
 70
     0
  9
$DIMSE2
 70
     0
  9
$DIMTAD
 70
     0
  9
$DIMZIN
 70
     0
  9
$DIMBLK
  1

  9
$DIMASO
 70
     1
  9
$DIMSHO
 70
     1
  9
$DIMPOST
  1

  9
$DIMAPOST
  1

  9
$DIMALT
 70
     1
  9
$DIMALTD
 70
     2
  9
$DIMALTF
 40
25.4
  9
$DIMLFAC
 40
1.0
  9
$DIMTOFL
 70
     0
  9
$DIMTVP
 40
0.0
  9
$DIMTIX
 70
     0
  9
$DIMSOXD
 70
     0
  9
$DIMSAH
 70
     0
  9
$DIMBLK1
  1

  9
$DIMBLK2
  1

  9
$DIMSTYLE
  2
Standard
  9
$DIMCLRD
 70
     0
  9
$DIMCLRE
 70
     0
  9
$DIMCLRT
 70
     0
  9
$DIMTFAC
 40
1.0
  9
$DIMGAP
 40
0.09
  9
$DIMJUST
 70
     0
  9
$DIMSD1
 70
     0
  9
$DIMSD2
 70
     0
  9
$DIMTOLJ
 70
     1
  9
$DIMTZIN
 70
     0
  9
$DIMALTZ
 70
     0
  9
$DIMALTTZ
 70
     0
  9
$DIMUPT
 70
     0
  9
$DIMDEC
 70
     4
  9
$DIMTDEC
 70
     4
  9
$DIMALTU
 70
     2
  9
$DIMALTTD
 70
     2
  9
$DIMTXSTY
  7
Standard
  9
$DIMAUNIT
 70
     0
  9
$DIMADEC
 70
     0
  9
$DIMALTRND
 40
0.0
  9
$DIMAZIN
 70
     0
  9
$DIMDSEP
 70
    46
  9
$DIMATFIT
 70
     3
  9
$DIMFRAC
 70
     0
  9
$DIMLDRBLK
  1

  9
$DIMLUNIT
 70
     4
  9
$DIMLWD
 70
    -2
  9
$DIMLWE
 70
    -2
  9
$DIMTMOVE
 70
     0
  9
$LUNITS
 70
     2
  9
$LUPREC
 70
     4
  9
$SKETCHINC
 40
0.1
  9
$FILLETRAD
 40
0.0
  9
$AUNITS
 70
     0
  9
$AUPREC
 70
     0
  9
$MENU
  1
.
  9
$ELEVATION
 40
0.0
  9
$PELEVATION
 40
0.0
  9
$THICKNESS
 40
0.0
  9
$LIMCHECK
 70
     0
  9
$CHAMFERA
 40
0.0
  9
$CHAMFERB
 40
0.0
  9
$CHAMFERC
 40
0.0
  9
$CHAMFERD
 40
0.0
  9
$SKPOLY
 70
     0
  9
$TDCREATE
 40
2456483.476160833
  9
$TDUCREATE
 40
2456483.642827500
  9
$TDUPDATE
 40
2456483.479467176
  9
$TDUUPDATE
 40
2456483.646133842
  9
$TDINDWG
 40
0.0023410185
  9
$TDUSRTIMER
 40
0.0023409606
  9
$USRTIMER
 70
     1
  9
$ANGBASE
 50
0.0
  9
$ANGDIR
 70
     0
  9
$PDMODE
 70
     0
  9
$PDSIZE
 40
0.0
  9
$PLINEWID
 40
0.0
  9
$SPLFRAME
 70
     0
  9
$SPLINETYPE
 70
     6
  9
$SPLINESEGS
 70
     8
  9
$HANDSEED
  5
488
  9
$SURFTAB1
 70
     6
  9
$SURFTAB2
 70
     6
  9
$SURFTYPE
 70
     6
  9
$SURFU
 70
     6
  9
$SURFV
 70
     6
  9
$UCSBASE
  2

  9
$UCSNAME
  2

  9
$UCSORG
 10
0.0
 20
0.0
 30
0.0
  9
$UCSXDIR
 10
1.0
 20
0.0
 30
0.0
  9
$UCSYDIR
 10
0.0
 20
1.0
 30
0.0
  9
$UCSORTHOREF
  2

  9
$UCSORTHOVIEW
 70
     0
  9
$UCSORGTOP
 10
0.0
 20
0.0
 30
0.0
  9
$UCSORGBOTTOM
 10
0.0
 20
0.0
 30
0.0
  9
$UCSORGLEFT
 10
0.0
 20
0.0
 30
0.0
  9
$UCSORGRIGHT
 10
0.0
 20
0.0
 30
0.0
  9
$UCSORGFRONT
 10
0.0
 20
0.0
 30
0.0
  9
$UCSORGBACK
 10
0.0
 20
0.0
 30
0.0
  9
$PUCSBASE
  2

  9
$PUCSNAME
  2

  9
$PUCSORG
 10
0.0
 20
0.0
 30
0.0
  9
$PUCSXDIR
 10
1.0
 20
0.0
 30
0.0
  9
$PUCSYDIR
 10
0.0
 20
1.0
 30
0.0
  9
$PUCSORTHOREF
  2

  9
$PUCSORTHOVIEW
 70
     0
  9
$PUCSORGTOP
 10
0.0
 20
0.0
 30
0.0
  9
$PUCSORGBOTTOM
 10
0.0
 20
0.0
 30
0.0
  9
$PUCSORGLEFT
 10
0.0
 20
0.0
 30
0.0
  9
$PUCSORGRIGHT
 10
0.0
 20
0.0
 30
0.0
  9
$PUCSORGFRONT
 10
0.0
 20
0.0
 30
0.0
  9
$PUCSORGBACK
 10
0.0
 20
0.0
 30
0.0
  9
$USERI1
 70
     0
  9
$USERI2
 70
     0
  9
$USERI3
 70
     0
  9
$USERI4
 70
     0
  9
$USERI5
 70
     0
  9
$USERR1
 40
0.0
  9
$USERR2
 40
0.0
  9
$USERR3
 40
0.0
  9
$USERR4
 40
0.0
  9
$USERR5
 40
0.0
  9
$WORLDVIEW
 70
     1
  9
$SHADEDGE
 70
     3
  9
$SHADEDIF
 70
    70
  9
$TILEMODE
 70
     1
  9
$MAXACTVP
 70
    64
  9
$PINSBASE
 10
0.0
 20
0.0
 30
0.0
  9
$PLIMCHECK
 70
     0
  9
$PEXTMIN
 10
0.0
 20
0.0
 30
0.0
  9
$PEXTMAX
 10
0.0
 20
0.0
 30
0.0
  9
$PLIMMIN
 10
0.0
 20
0.0
  9
$PLIMMAX
 10
12.0
 20
9.0
  9
$UNITMODE
 70
     0
  9
$VISRETAIN
 70
     1
  9
$PLINEGEN
 70
     0
  9
$PSLTSCALE
 70
     1
  9
$TREEDEPTH
 70
  3020
  9
$CMLSTYLE
  2
Standard
  9
$CMLJUST
 70
     0
  9
$CMLSCALE
 40
1.0
  9
$PROXYGRAPHICS
 70
     1
  9
$MEASUREMENT
 70
     0
  9
$CELWEIGHT
370
    -1
  9
$ENDCAPS
280
     0
  9
$JOINSTYLE
280
     0
  9
$LWDISPLAY
290
     0
  9
$INSUNITS
 70
     1
  9
$HYPERLINKBASE
  1

  9
$STYLESHEET
  1

  9
$XEDIT
290
     1
  9
$CEPSNTYPE
380
     0
  9
$PSTYLEMODE
290
     1
  9
$FINGERPRINTGUID
  2
{5635C64A-1795-4DAD-8E12-F5A0FF28A4B8}
  9
$VERSIONGUID
  2
{3902107C-B6D9-4328-B915-6F6F6420D431}
  9
$EXTNAMES
290
     1
  9
$PSVPSCALE
 40
0.0
  9
$OLESTARTUP
290
     0
  9
$SORTENTS
280
   127
  9
$INDEXCTL
280
     0
  9
$HIDETEXT
280
     1
  9
$XCLIPFRAME
290
     0
  9
$HALOGAP
280
     0
  9
$OBSCOLOR
 70
   257
  9
$OBSLTYPE
280
     0
  9
$INTERSECTIONDISPLAY
280
     0
  9
$INTERSECTIONCOLOR
 70
   257
  9
$DIMASSOC
280
     2
  9
$PROJECTNAME
  1

  0
ENDSEC
  0
SECTION
  2
CLASSES
  0
CLASS
  1
ACDBDICTIONARYWDFLT
  2
AcDbDictionaryWithDefault
  3
ObjectDBX Classes
 90
        0
 91
        1
280
     0
281
     0
  0
CLASS
  1
DICTIONARYVAR
  2
AcDbDictionaryVar
  3
ObjectDBX Classes
 90
        0
 91
       11
280
     0
281
     0
  0
CLASS
  1
TABLESTYLE
  2
AcDbTableStyle
  3
ObjectDBX Classes
 90
     4095
 91
        1
280
     0
281
     0
  0
CLASS
  1
MATERIAL
  2
AcDbMaterial
  3
ObjectDBX Classes
 90
     1153
 91
        3
280
     0
281
     0
  0
CLASS
  1
VISUALSTYLE
  2
AcDbVisualStyle
  3
ObjectDBX Classes
 90
     4095
 91
       24
280
     0
281
     0
  0
CLASS
  1
SCALE
  2
AcDbScale
  3
ObjectDBX Classes
 90
     1153
 91
       33
280
     0
281
     0
  0
CLASS
  1
MLEADERSTYLE
  2
AcDbMLeaderStyle
  3
ACDB_MLEADERSTYLE_CLASS
 90
     4095
 91
        2
280
     0
281
     0
  0
CLASS
  1
CELLSTYLEMAP
  2
AcDbCellStyleMap
  3
ObjectDBX Classes
 90
     1152
 91
        2
280
     0
281
     0
  0
CLASS
  1
EXACXREFPANELOBJECT
  2
ExAcXREFPanelObject
  3
EXAC_ESW
 90
     1025
 91
        0
280
     0
281
     0
  0
CLASS
  1
NPOCOLLECTION
  2
AcDbImpNonPersistentObjectsCollection
  3
ObjectDBX Classes
 90
     1153
 91
        0
280
     0
281
     0
  0
CLASS
  1
LAYER_INDEX
  2
AcDbLayerIndex
  3
ObjectDBX Classes
 90
        0
 91
        0
280
     0
281
     0
  0
CLASS
  1
SPATIAL_INDEX
  2
AcDbSpatialIndex
  3
ObjectDBX Classes
 90
        0
 91
        0
280
     0
281
     0
  0
CLASS
  1
IDBUFFER
  2
AcDbIdBuffer
  3
ObjectDBX Classes
 90
        0
 91
        0
280
     0
281
     0
  0
CLASS
  1
DIMASSOC
  2
AcDbDimAssoc
  3
"AcDbDimAssoc|Product Desc:     AcDim ARX App For Dimension|Company:          Autodesk, Inc.|WEB Address:      www.autodesk.com"
 90
        0
 91
        0
280
     0
281
     0
  0
CLASS
  1
SORTENTSTABLE
  2
AcDbSortentsTable
  3
ObjectDBX Classes
 90
        0
 91
        0
280
     0
281
     0
  0
ENDSEC
  0
SECTION
  2
TABLES
  0
TABLE
  2
VPORT
  5
8
330
0
100
AcDbSymbolTable
 70
     1
  0
VPORT
  5
94
330
8
100
AcDbSymbolTableRecord
100
AcDbViewportTableRecord
  2
*Active
 70
     0
 10
0.0
 20
0.0
 11
1.0
 21
1.0
 12
27.11508519680621
 22
18.32554371672083
 13
0.0
 23
0.0
 14
0.5
 24
0.5
 15
0.5
 25
0.5
 16
0.0
 26
0.0
 36
1.0
 17
0.0
 27
0.0
 37
0.0
 40
35.66616138522582
 41
1.973111395646606
 42
50.0
 43
0.0
 44
0.0
 50
0.0
 51
0.0
 71
     0
 72
  1000
 73
     1
 74
     3
 75
     0
 76
     1
 77
     0
 78
     0
281
     0
 65
     1
110
0.0
120
0.0
130
0.0
111
1.0
121
0.0
131
0.0
112
0.0
122
1.0
132
0.0
 79
     0
146
0.0
1001
ACAD_NAV_VCDISPLAY
1070
     3
  0
ENDTAB
  0
TABLE
  2
LTYPE
  5
5
330
0
100
AcDbSymbolTable
 70
     2
  0
LTYPE
  5
14
330
5
100
AcDbSymbolTableRecord
100
AcDbLinetypeTableRecord
  2
ByBlock
 70
     0
  3

 72
    65
 73
     0
 40
0.0
  0
LTYPE
  5
15
330
5
100
AcDbSymbolTableRecord
100
AcDbLinetypeTableRecord
  2
ByLayer
 70
     0
  3

 72
    65
 73
     0
 40
0.0
  0
LTYPE
  5
16
330
5
100
AcDbSymbolTableRecord
100
AcDbLinetypeTableRecord
  2
Continuous
 70
     0
  3
Solid line
 72
    65
 73
     0
 40
0.0
  0
LTYPE
  5
1AB
330
5
100
AcDbSymbolTableRecord
100
AcDbLinetypeTableRecord
  2
HIDDEN
 70
     0
  3
Hidden __ __ __ __ __ __ __ __ __ __ __ __ __ __
 72
    65
 73
     2
 40
1.905
 49
1.27
 74
     0
 49
-0.635
 74
     0
  0
ENDTAB
  0
TABLE
  2
LAYER
  5
2
102
{ACAD_XDICTIONARY
360
18E
102
}
330
0
100
AcDbSymbolTable
 70
     2
  0
LAYER
  5
10
102
{ACAD_XDICTIONARY
360
E6
102
}
330
2
100
AcDbSymbolTableRecord
100
AcDbLayerTableRecord
  2
0
 70
     0
 62
     7
  6
Continuous
370
    -3
390
F
  0
LAYER
  5
3A3
330
2
100
AcDbSymbolTableRecord
100
AcDbLayerTableRecord
  2
Defpoints
 70
     0
 62
     7
  6
Continuous
290
     0
370
    -3
390
F
  0
ENDTAB
  0
TABLE
  2
STYLE
  5
3
330
0
100
AcDbSymbolTable
 70
     2
  0
STYLE
  5
11
330
3
100
AcDbSymbolTableRecord
100
AcDbTextStyleTableRecord
  2
Standard
 70
     0
 40
0.0
 41
1.0
 50
0.0
 71
     0
 42
0.2
  3
ARIAL.TTF
  4

1001
ACAD
1000
Arial
1071
       34
  0
ENDTAB
  0
TABLE
  2
VIEW
  5
6
330
0
100
AcDbSymbolTable
 70
     1
  0
ENDTAB
  0
TABLE
  2
UCS
  5
7
330
0
100
AcDbSymbolTable
 70
     0
  0
ENDTAB
  0
TABLE
  2
APPID
  5
9
330
0
100
AcDbSymbolTable
 70
     8
  0
APPID
  5
12
330
9
100
AcDbSymbolTableRecord
100
AcDbRegAppTableRecord
  2
ACAD
 70
     0
  0
APPID
  5
DD
330
9
100
AcDbSymbolTableRecord
100
AcDbRegAppTableRecord
  2
AcadAnnoPO
 70
     0
  0
APPID
  5
DE
330
9
100
AcDbSymbolTableRecord
100
AcDbRegAppTableRecord
  2
AcadAnnotative
 70
     0
  0
APPID
  5
DF
330
9
100
AcDbSymbolTableRecord
100
AcDbRegAppTableRecord
  2
ACAD_DSTYLE_DIMJAG
 70
     0
  0
APPID
  5
E0
330
9
100
AcDbSymbolTableRecord
100
AcDbRegAppTableRecord
  2
ACAD_DSTYLE_DIMTALN
 70
     0
  0
APPID
  5
107
330
9
100
AcDbSymbolTableRecord
100
AcDbRegAppTableRecord
  2
ACAD_MLEADERVER
 70
     0
  0
APPID
  5
1A6
330
9
100
AcDbSymbolTableRecord
100
AcDbRegAppTableRecord
  2
ACAD_NAV_VCDISPLAY
 70
     0
  0
APPID
  5
3C7
330
9
100
AcDbSymbolTableRecord
100
AcDbRegAppTableRecord
  2
ACAD_EXEMPT_FROM_CAD_STANDARDS
 70
     0
  0
ENDTAB
  0
TABLE
  2
DIMSTYLE
  5
A
330
0
100
AcDbSymbolTable
 70
     3
100
AcDbDimStyleTable
 71
     1
340
27
  0
DIMSTYLE
105
27
330
A
100
AcDbSymbolTableRecord
100
AcDbDimStyleTableRecord
  2
Standard
 70
     0
170
     1
277
     4
340
11
1001
ACAD_DSTYLE_DIMJAG
1070
   388
1040
1.5
1001
ACAD_DSTYLE_DIMTALN
1070
   392
1070
     0
  0
ENDTAB
  0
TABLE
  2
BLOCK_RECORD
  5
1
330
0
100
AcDbSymbolTable
 70
     2
  0
BLOCK_RECORD
  5
1F
102
{ACAD_XDICTIONARY
360
15D
102
}
330
1
100
AcDbSymbolTableRecord
100
AcDbBlockTableRecord
  2
*Model_Space
340
22
  0
BLOCK_RECORD
  5
58
330
1
100
AcDbSymbolTableRecord
100
AcDbBlockTableRecord
  2
*Paper_Space
340
59
  0
BLOCK_RECORD
  5
5D
330
1
100
AcDbSymbolTableRecord
100
AcDbBlockTableRecord
  2
*Paper_Space0
340
5E
  0
ENDTAB
  0
ENDSEC
  0
SECTION
  2
BLOCKS
  0
BLOCK
  5
20
330
1F
100
AcDbEntity
  8
0
100
AcDbBlockBegin
  2
*Model_Space
 70
     0
 10
0.0
 20
0.0
 30
0.0
  3
*Model_Space
  1

  0
ENDBLK
  5
21
330
1F
100
AcDbEntity
  8
0
100
AcDbBlockEnd
  0
BLOCK
  5
5A
330
58
100
AcDbEntity
 67
     1
  8
0
100
AcDbBlockBegin
  2
*Paper_Space
 70
     0
 10
0.0
 20
0.0
 30
0.0
  3
*Paper_Space
  1

  0
ENDBLK
  5
5B
330
58
100
AcDbEntity
 67
     1
  8
0
100
AcDbBlockEnd
  0
BLOCK
  5
5F
330
5D
100
AcDbEntity
 67
     1
  8
0
100
AcDbBlockBegin
  2
*Paper_Space0
 70
     0
 10
0.0
 20
0.0
 30
0.0
  3
*Paper_Space0
  1

  0
ENDBLK
  5
60
330
5D
100
AcDbEntity
 67
     1
  8
0
100
AcDbBlockEnd
  0
ENDSEC
  0
SECTION
  2
ENTITIES
  0
SPLINE
  5
2A9
330
1F
100
AcDbEntity
  8
0
  6
Continuous
 62
     7
370
     0
100
AcDbSpline
210
0.0
220
0.0
230
1.0
 70
     8
 71
     3
 72
    37
 73
    33
 74
     0
 42
0.0000000001
 43
0.0000000001
 40
0.0
 40
0.0
 40
0.0
 40
0.0
 40
0.0468769893873324
 40
0.090821894728269
 40
0.1318870089357495
 40
0.1701091705173367
 40
0.2055178962978937
 40
0.2443385321669525
 40
0.2792157148394279
 40
0.3102119744957919
 40
0.3373873998391905
 40
0.3607973909782649
 40
0.3804899131676883
 40
0.3966693549637967
 40
0.4261132350228112
 40
0.4579586366105949
 40
0.4921182951731757
 40
0.5194777416290638
 40
0.5480600238439745
 40
0.5778156711582624
 40
0.6096616487779524
 40
0.6454774383479835
 40
0.6851339833765026
 40
0.7172763374025966
 40
0.7514301874461195
 40
0.7876261339444703
 40
0.825894600963813
 40
0.8579983096849474
 40
0.8914207479986089
 40
0.9261740011800387
 40
0.9623222607750191
 40
1.0
 40
1.0
 40
1.0
 40
1.0
 10
16.42247254178689
 20
20.02176413096355
 30
0.0
 10
16.24449712401869
 20
20.02486052947544
 30
0.0
 10
15.89967837887266
 20
20.03085965150436
 30
0.0
 10
15.400681583226
 20
20.07614810855592
 30
0.0
 10
14.93719968938581
 20
20.14055135834941
 30
0.0
 10
14.50917057642981
 20
20.22120100863961
 30
0.0
 10
14.093291188612
 20
20.31795442013227
 30
0.0
 10
13.69417976090792
 20
20.4292175427739
 30
0.0
 10
13.31630984539134
 20
20.55273479781424
 30
0.0
 10
12.98518635973504
 20
20.67596181992151
 30
0.0
 10
12.69901862284834
 20
20.79451589754807
 30
0.0
 10
12.45595599059425
 20
20.90458304200218
 30
0.0
 10
12.25363294614206
 20
21.0031736914565
 30
0.0
 10
12.03337091104598
 20
21.11705613082038
 30
0.0
 10
11.77631101314419
 20
21.26006429903011
 30
0.0
 10
11.4672363248373
 20
21.44938018855629
 30
0.0
 10
11.17380252279144
 20
21.64841792186277
 30
0.0
 10
10.89956810559797
 20
21.85297440506026
 30
0.0
 10
10.64718078026723
 20
22.05839955890471
 30
0.0
 10
10.39163098426817
 20
22.28639037402704
 30
0.0
 10
10.12788755153227
 20
22.54583973445418
 30
0.0
 10
9.853445302095572
 20
22.84723305114288
 30
0.0
 10
9.597910356466131
 20
23.16638804168338
 30
0.0
 10
9.366751922366065
 20
23.49579140004484
 30
0.0
 10
9.162883153034023
 20
23.82748763277041
 30
0.0
 10
8.970839566639758
 20
24.1927318605489
 30
0.0
 10
8.80882283942288
 20
24.56384752905862
 30
0.0
 10
8.676425606704491
 20
24.93520634174381
 30
0.0
 10
8.571850435954907
 20
25.3015609627227
 30
0.0
 10
8.490130500673231
 20
25.68930152149511
 30
0.0
 10
8.433736238383673
 20
26.09834565230442
 30
0.0
 10
8.426281885594177
 20
26.37868530666374
 30
0.0
 10
8.422477491952605
 20
26.5217590823011
 30
0.0
  0
SPLINE
  5
2AA
330
1F
100
AcDbEntity
  8
0
  6
Continuous
 62
     7
370
     0
100
AcDbSpline
210
0.0
220
0.0
230
1.0
 70
     8
 71
     3
 72
    36
 73
    32
 74
     0
 42
0.0000000001
 43
0.0000000001
 40
0.0
 40
0.0
 40
0.0
 40
0.0
 40
0.0402881677466949
 40
0.0785373443751743
 40
0.1148990486842686
 40
0.1494325134401581
 40
0.1821396177523319
 40
0.213009474999898
 40
0.2420274035365278
 40
0.2691969481302428
 40
0.2979917048312922
 40
0.3243563812319775
 40
0.3482202481306408
 40
0.3695030241614897
 40
0.3881431903466285
 40
0.4069082615663044
 40
0.4280601934037315
 40
0.455817384353638
 40
0.4869692602845668
 40
0.5215975709515023
 40
0.559777205353779
 40
0.6015707173598417
 40
0.647021964618703
 40
0.6835375562156756
 40
0.7221691878954731
 40
0.7629516377823756
 40
0.8059151229273368
 40
0.8510833356983214
 40
0.8984697480324026
 40
0.9480946435536424
 40
1.0
 40
1.0
 40
1.0
 40
1.0
 10
8.422477491952605
 20
26.5217590823011
 30
0.0
 10
8.426824938885047
 20
26.67475106797645
 30
0.0
 10
8.435299807710862
 20
26.97299208854538
 30
0.0
 10
8.498729950996846
 20
27.40539547828836
 30
0.0
 10
8.588856729565383
 20
27.81005784694364
 30
0.0
 10
8.70204602308638
 20
28.18705976438602
 30
0.0
 10
8.832539718654308
 20
28.53614574944344
 30
0.0
 10
8.975973130686147
 20
28.85728138136175
 30
0.0
 10
9.128157024966512
 20
29.15082649178132
 30
0.0
 10
9.291900618165108
 20
29.42894019696142
 30
0.0
 10
9.464356587213627
 20
29.68975502029302
 30
0.0
 10
9.64209151887892
 20
29.93154312490018
 30
0.0
 10
9.812327587037946
 20
30.14309050038989
 30
0.0
 10
9.971270232534273
 20
30.32582894783227
 30
0.0
 10
10.1229802534913
 20
30.48902130002231
 30
0.0
 10
10.27924056261692
 20
30.64716450536827
 30
0.0
 10
10.46558622730623
 20
30.8240676261231
 30
0.0
 10
10.69396679026284
 20
31.02473438631219
 30
0.0
 10
10.97122513992634
 20
31.2467709811791
 30
0.0
 10
11.29117947308556
 20
31.47807782329313
 30
0.0
 10
11.65674996019758
 20
31.71429080265184
 30
0.0
 10
12.07054463703559
 20
31.95030887114825
 30
0.0
 10
12.49178962165092
 20
32.15898220666796
 30
0.0
 10
12.91241076257271
 20
32.34009648172754
 30
0.0
 10
13.32455646117796
 20
32.49486528161295
 30
0.0
 10
13.76705096715552
 20
32.63693813893166
 30
0.0
 10
14.24006821719769
 20
32.76314241699643
 30
0.0
 10
14.74344341419741
 20
32.87050199800849
 30
0.0
 10
15.27692825734765
 20
32.95366460412614
 30
0.0
 10
15.83991872046391
 20
33.0105122703243
 30
0.0
 10
16.22540183533535
 20
33.01795108504058
 30
0.0
 10
16.42247254178683
 20
33.02175403363871
 30
0.0
  0
SPLINE
  5
2AB
330
1F
100
AcDbEntity
  8
0
  6
Continuous
 62
     7
370
     0
100
AcDbSpline
210
0.0
220
0.0
230
1.0
 70
     8
 71
     3
 72
    36
 73
    32
 74
     0
 42
0.0000000001
 43
0.0000000001
 40
0.0
 40
0.0
 40
0.0
 40
0.0
 40
0.0402881677466949
 40
0.0785373443751743
 40
0.1148990486842686
 40
0.1494325134401581
 40
0.1821396177523319
 40
0.213009474999898
 40
0.2420274035365278
 40
0.2691969481302428
 40
0.2979917048312922
 40
0.3243563812319775
 40
0.3482202481306408
 40
0.3695030241614897
 40
0.3881431903466285
 40
0.4069082615663044
 40
0.4280601934037315
 40
0.455817384353638
 40
0.4869692602845668
 40
0.5215975709515023
 40
0.559777205353779
 40
0.6015707173598417
 40
0.647021964618703
 40
0.6835375562156756
 40
0.7221691878954731
 40
0.7629516377823756
 40
0.8059151229273368
 40
0.8510833356983214
 40
0.8984697480324026
 40
0.9480946435536424
 40
1.0
 40
1.0
 40
1.0
 40
1.0
 10
24.42246759162111
 20
26.52175908230116
 30
0.0
 10
24.41812014468868
 20
26.36876709662581
 30
0.0
 10
24.40964527586287
 20
26.07052607605688
 30
0.0
 10
24.34621513257685
 20
25.63812268631391
 30
0.0
 10
24.25608835400835
 20
25.23346031765861
 30
0.0
 10
24.14289906048733
 20
24.85645840021623
 30
0.0
 10
24.01240536491942
 20
24.50737241515882
 30
0.0
 10
23.86897195288757
 20
24.18623678324051
 30
0.0
 10
23.7167880586072
 20
23.89269167282093
 30
0.0
 10
23.5530444654086
 20
23.61457796764084
 30
0.0
 10
23.38058849636009
 20
23.35376314430924
 30
0.0
 10
23.2028535646948
 20
23.11197503970208
 30
0.0
 10
23.03261749653576
 20
22.90042766421236
 30
0.0
 10
22.87367485103946
 20
22.71768921677001
 30
0.0
 10
22.72196483008241
 20
22.55449686457993
 30
0.0
 10
22.56570452095679
 20
22.39635365923401
 30
0.0
 10
22.37935885626749
 20
22.21945053847915
 30
0.0
 10
22.15097829331088
 20
22.01878377829006
 30
0.0
 10
21.87371994364737
 20
21.79674718342315
 30
0.0
 10
21.55376561048816
 20
21.56544034130913
 30
0.0
 10
21.18819512337613
 20
21.3292273619504
 30
0.0
 10
20.77440044653814
 20
21.09320929345399
 30
0.0
 10
20.35315546192278
 20
20.88453595793428
 30
0.0
 10
19.93253432100101
 20
20.70342168287471
 30
0.0
 10
19.52038862239575
 20
20.54865288298932
 30
0.0
 10
19.07789411641821
 20
20.40658002567059
 30
0.0
 10
18.60487686637603
 20
20.28037574760582
 30
0.0
 10
18.10150166937631
 20
20.17301616659377
 30
0.0
 10
17.56801682622607
 20
20.08985356047611
 30
0.0
 10
17.00502636310981
 20
20.03300589427796
 30
0.0
 10
16.61954324823838
 20
20.02556707956167
 30
0.0
 10
16.42247254178689
 20
20.02176413096355
 30
0.0
  0
SPLINE
  5
2AC
330
1F
100
AcDbEntity
  8
0
  6
Continuous
 62
     7
370
     0
100
AcDbSpline
210
0.0
220
0.0
230
1.0
 70
     8
 71
     3
 72
    37
 73
    33
 74
     0
 42
0.0000000001
 43
0.0000000001
 40
0.0
 40
0.0
 40
0.0
 40
0.0
 40
0.0468769893873324
 40
0.090821894728269
 40
0.1318870089357495
 40
0.1701091705173367
 40
0.2055178962978937
 40
0.2443385321669525
 40
0.2792157148394279
 40
0.3102119744957919
 40
0.3373873998391905
 40
0.3607973909782649
 40
0.3804899131676883
 40
0.3966693549637967
 40
0.4261132350228112
 40
0.4579586366105949
 40
0.4921182951731757
 40
0.5194777416290638
 40
0.5480600238439745
 40
0.5778156711582624
 40
0.6096616487779524
 40
0.6454774383479835
 40
0.6851339833765026
 40
0.7172763374025966
 40
0.7514301874461195
 40
0.7876261339444703
 40
0.825894600963813
 40
0.8579983096849474
 40
0.8914207479986089
 40
0.9261740011800387
 40
0.9623222607750191
 40
1.0
 40
1.0
 40
1.0
 40
1.0
 10
16.42247254178683
 20
33.02175403363871
 30
0.0
 10
16.60044795955504
 20
33.0186576351268
 30
0.0
 10
16.94526670470105
 20
33.01265851309788
 30
0.0
 10
17.44426350034771
 20
32.96737005604634
 30
0.0
 10
17.90774539418791
 20
32.90296680625284
 30
0.0
 10
18.33577450714393
 20
32.82231715596265
 30
0.0
 10
18.7516538949617
 20
32.72556374446998
 30
0.0
 10
19.1507653226658
 20
32.61430062182835
 30
0.0
 10
19.52863523818237
 20
32.49078336678802
 30
0.0
 10
19.85975872383868
 20
32.36755634468075
 30
0.0
 10
20.14592646072538
 20
32.24900226705417
 30
0.0
 10
20.38898909297946
 20
32.13893512260008
 30
0.0
 10
20.59131213743166
 20
32.04034447314574
 30
0.0
 10
20.81157417252774
 20
31.92646203378188
 30
0.0
 10
21.06863407042952
 20
31.78345386557213
 30
0.0
 10
21.37770875873642
 20
31.59413797604596
 30
0.0
 10
21.67114256078228
 20
31.39510024273949
 30
0.0
 10
21.94537697797573
 20
31.19054375954199
 30
0.0
 10
22.19776430330649
 20
30.98511860569754
 30
0.0
 10
22.45331409930556
 20
30.75712779057524
 30
0.0
 10
22.71705753204145
 20
30.49767843014805
 30
0.0
 10
22.99149978147815
 20
30.19628511345938
 30
0.0
 10
23.24703472710759
 20
29.87713012291888
 30
0.0
 10
23.47819316120767
 20
29.54772676455743
 30
0.0
 10
23.6820619305397
 20
29.21603053183186
 30
0.0
 10
23.87410551693395
 20
28.85078630405335
 30
0.0
 10
24.03612224415085
 20
28.47967063554364
 30
0.0
 10
24.16851947686922
 20
28.10831182285843
 30
0.0
 10
24.27309464761882
 20
27.74195720187955
 30
0.0
 10
24.35481458290048
 20
27.35421664310715
 30
0.0
 10
24.41120884519006
 20
26.94517251229785
 30
0.0
 10
24.41866319797954
 20
26.66483285793853
 30
0.0
 10
24.42246759162111
 20
26.52175908230116
 30
0.0
  0
ELLIPSE
  5
2AD
330
1F
100
AcDbEntity
  8
0
  6
HIDDEN
 62
     7
 48
10.0
370
     0
100
AcDbEllipse
 10
16.42247254178775
 20
26.52175908229994
 30
0.0
 11
-9.444329917492259
 21
0.1920299283763405
 31
0.0000000000000324
210
0.0000000000000034
220
0.0
230
1.0
 40
0.8683073019
 41
1.58844963508446
 42
3.165005000773193
  0
ELLIPSE
  5
2AE
330
1F
100
AcDbEntity
  8
0
  6
HIDDEN
 62
     7
 48
10.0
370
     0
100
AcDbEllipse
 10
16.42247254178775
 20
26.52175908229994
 30
0.0
 11
-9.444329917492259
 21
0.1920299283763405
 31
0.0000000000000324
210
0.0000000000000034
220
0.0
230
1.0
 40
0.8683073019
 41
3.165005000773193
 42
4.730042288674264
  0
ELLIPSE
  5
2AF
330
1F
100
AcDbEntity
  8
0
  6
HIDDEN
 62
     7
 48
10.0
370
     0
100
AcDbEllipse
 10
16.42247254178775
 20
26.52175908229994
 30
0.0
 11
-9.444329917492259
 21
0.1920299283763405
 31
0.0000000000000324
210
0.0000000000000034
220
0.0
230
1.0
 40
0.8683073019
 41
4.730042288674264
 42
6.306597654362986
  0
ELLIPSE
  5
2B0
330
1F
100
AcDbEntity
  8
0
  6
HIDDEN
 62
     7
 48
10.0
370
     0
100
AcDbEllipse
 10
16.42247254178775
 20
26.52175908229994
 30
0.0
 11
-9.444329917492259
 21
0.1920299283763405
 31
0.0000000000000324
210
0.0000000000000034
220
0.0
230
1.0
 40
0.8683073019
 41
0.0234123471833847
 42
1.58844963508446
  0
ARC
  5
2B1
330
1F
100
AcDbEntity
  8
0
  6
Continuous
 62
     7
370
     0
100
AcDbCircle
 10
5.58344223091928
 20
17.1827253447276
 30
0.0
 40
0.1187184444336096
100
AcDbArc
 50
180.5081616294004
 51
269.4915526922964
  0
ARC
  5
2B2
330
1F
100
AcDbEntity
  8
0
  6
Continuous
 62
     7
370
     0
100
AcDbCircle
 10
5.58344223091928
 20
35.86079281987621
 30
0.0
 40
0.1187184444336096
100
AcDbArc
 50
90.5084473077032
 51
179.4918383705995
  0
LINE
  5
2B3
330
1F
100
AcDbEntity
  8
0
  6
Continuous
 62
     7
370
     0
100
AcDbLine
 10
5.464728455701631
 20
17.18167243353814
 30
0.0
 11
5.464728455701631
 21
35.86184573106172
 31
0.0
  0
LINE
  5
2B4
330
1F
100
AcDbEntity
  8
0
  6
Continuous
 62
     7
370
     0
100
AcDbLine
 10
5.582388727821572
 20
35.97950658984188
 30
0.0
 11
27.26255635575392
 21
35.97950658984188
 31
0.0
  0
LINE
  5
2B5
330
1F
100
AcDbEntity
  8
0
  6
Continuous
 62
     7
370
     0
100
AcDbLine
 10
27.26255635575392
 20
17.06401157475798
 30
0.0
 11
5.582388727821572
 21
17.06401157475798
 31
0.0
  0
CIRCLE
  5
2B6
330
1F
100
AcDbEntity
  8
0
  6
Continuous
 62
     7
370
     0
100
AcDbCircle
 10
24.92245554178775
 20
33.27174558229993
 30
0.0
 40
0.6889749999999957
  0
ARC
  5
2B7
330
1F
100
AcDbEntity
  8
0
  6
Continuous
 62
     7
370
     0
100
AcDbCircle
 10
27.2615028526562
 20
35.86079281987621
 30
0.0
 40
0.1187184444336096
100
AcDbArc
 50
0.5081616294003859
 51
89.49155269229681
  0
LINE
  5
2B8
330
1F
100
AcDbEntity
  8
0
  6
Continuous
 62
     7
370
     0
100
AcDbLine
 10
27.38021662787385
 20
35.86184573106172
 30
0.0
 11
27.38021662787385
 21
17.18167243353814
 31
0.0
  0
ARC
  5
2B9
330
1F
100
AcDbEntity
  8
0
  6
Continuous
 62
     7
370
     0
100
AcDbCircle
 10
27.2615028526562
 20
17.1827253447276
 30
0.0
 40
0.1187184444336096
100
AcDbArc
 50
270.5084473077036
 51
359.4918383705995
  0
ELLIPSE
  5
2BA
330
1F
100
AcDbEntity
  8
0
  6
Continuous
 62
     7
370
     0
100
AcDbEllipse
 10
5.541055702798799
 20
17.14033924331493
 30
0.0
 11
0.0841532105779168
 21
0.0841532105779173
 31
-0.0000000000000006
210
0.0000000000000036
220
0.0000000000000036
230
1.0
 40
0.9924325090999998
 41
2.359992588465641
 42
3.923192718713951
  0
ELLIPSE
  5
2BB
330
1F
100
AcDbEntity
  8
0
  6
Continuous
 62
     7
370
     0
100
AcDbEllipse
 10
5.541055702798799
 20
35.90317892128886
 30
0.0
 11
0.084153210577919
 21
-0.0841532105779173
 31
-0.0000000000000006
210
0.0000000000000036
220
-0.0000000000000036
230
1.0
 40
0.9924325090999998
 41
2.359992588465654
 42
3.923192718713981
  0
ELLIPSE
  5
2BC
330
1F
100
AcDbEntity
  8
0
  6
Continuous
 62
     7
370
     0
100
AcDbEllipse
 10
27.30388938077275
 20
35.90317892128886
 30
0.0
 11
-0.0841532105779218
 21
-0.0841532105779173
 31
0.0000000000000003
210
0.0000000000000018
220
0.0000000000000018
230
1.0
 40
0.9924325090999998
 41
2.35999258846567
 42
3.923192718714021
  0
ELLIPSE
  5
2BD
330
1F
100
AcDbEntity
  8
0
  6
Continuous
 62
     7
370
     0
100
AcDbEllipse
 10
27.30388938077275
 20
17.14033924331493
 30
0.0
 11
-0.0841532105779173
 21
0.0841532105779196
 31
0.0000000000000003
210
0.0000000000000018
220
-0.0000000000000018
230
1.0
 40
0.9924325090999998
 41
2.359992588465701
 42
3.923192718713963
  0
LINE
  5
2BE
330
1F
100
AcDbEntity
  8
0
  6
Continuous
 62
     7
370
     0
100
AcDbLine
 10
5.422494894720093
 20
35.90407929204324
 30
0.0
 11
5.422494894720093
 21
17.13943887256056
 31
0.0
  0
LINE
  5
2BF
330
1F
100
AcDbEntity
  8
0
  6
Continuous
 62
     7
370
     0
100
AcDbLine
 10
27.30478991673152
 20
17.02177801378039
 30
0.0
 11
5.540155166843966
 21
17.02177801378039
 31
0.0
  0
LINE
  5
2C0
330
1F
100
AcDbEntity
  8
0
  6
Continuous
 62
     7
370
     0
100
AcDbLine
 10
27.30478991673152
 20
36.02174015082342
 30
0.0
 11
5.540155166843966
 21
36.02174015082342
 31
0.0
  0
LINE
  5
2C1
330
1F
100
AcDbEntity
  8
0
  6
Continuous
 62
     7
370
     0
100
AcDbLine
 10
27.42245018885145
 20
35.90407929204324
 30
0.0
 11
27.42245018885145
 21
17.13943887256056
 31
0.0
  0
SPLINE
  5
2C2
330
1F
100
AcDbEntity
  8
0
  6
Continuous
 62
     7
370
     0
100
AcDbSpline
210
0.0
220
0.0
230
1.0
 70
     8
 71
     3
 72
    14
 73
    10
 74
     0
 42
0.0000000001
 43
0.0000000001
 40
0.0
 40
0.0
 40
0.0
 40
0.0
 40
0.1666666666666667
 40
0.3333333333333333
 40
0.5
 40
0.6666666666666666
 40
0.75
 40
0.8749999999999998
 40
1.0
 40
1.0
 40
1.0
 40
1.0
 10
16.42247254178684
 20
25.65561908230113
 30
0.0
 10
16.33948562446478
 20
25.65561908230113
 30
0.0
 10
16.18071751247984
 20
25.676075665416
 30
0.0
 10
15.97080794270771
 20
25.76150485920507
 30
0.0
 10
15.79576640136873
 20
25.89505294188302
 30
0.0
 10
15.68447633247044
 20
26.04092089299884
 30
0.0
 10
15.61138214546196
 20
26.19181531499671
 30
0.0
 10
15.56783936978895
 20
26.33909173732228
 30
0.0
 10
15.55633254178683
 20
26.45951889430959
 30
0.0
 10
15.55633254178683
 20
26.52175908230113
 30
0.0
  0
SPLINE
  5
2C3
330
1F
100
AcDbEntity
  8
0
  6
Continuous
 62
     7
370
     0
100
AcDbSpline
210
0.0
220
0.0
230
1.0
 70
     8
 71
     3
 72
    14
 73
    10
 74
     0
 42
0.0000000001
 43
0.0000000001
 40
0.0
 40
0.0
 40
0.0
 40
0.0
 40
0.1250000000000001
 40
0.25
 40
0.3333333333333334
 40
0.5
 40
0.6666666666666669
 40
0.8333333333333332
 40
1.0
 40
1.0
 40
1.0
 40
1.0
 10
15.55633254178683
 20
26.52175908230113
 30
0.0
 10
15.55633254178683
 20
26.58399927029267
 30
0.0
 10
15.56783936978895
 20
26.70442642727996
 30
0.0
 10
15.61138214546196
 20
26.85170284960554
 30
0.0
 10
15.68447633247044
 20
27.00259727160343
 30
0.0
 10
15.79576640136873
 20
27.14846522271924
 30
0.0
 10
15.97080794270771
 20
27.28201330539719
 30
0.0
 10
16.18071751247984
 20
27.36744249918625
 30
0.0
 10
16.33948562446478
 20
27.38789908230113
 30
0.0
 10
16.42247254178683
 20
27.38789908230113
 30
0.0
  0
SPLINE
  5
2C4
330
1F
100
AcDbEntity
  8
0
  6
Continuous
 62
     7
370
     0
100
AcDbSpline
210
0.0
220
0.0
230
1.0
 70
     8
 71
     3
 72
    14
 73
    10
 74
     0
 42
0.0000000001
 43
0.0000000001
 40
0.0
 40
0.0
 40
0.0
 40
0.0
 40
0.1666666666666667
 40
0.3333333333333333
 40
0.5
 40
0.6666666666666666
 40
0.75
 40
0.8749999999999998
 40
1.0
 40
1.0
 40
1.0
 40
1.0
 10
16.42247254178683
 20
27.38789908230113
 30
0.0
 10
16.50545945910889
 20
27.38789908230113
 30
0.0
 10
16.66422757109384
 20
27.36744249918625
 30
0.0
 10
16.87413714086598
 20
27.2820133053972
 30
0.0
 10
17.04917868220494
 20
27.14846522271924
 30
0.0
 10
17.16046875110324
 20
27.00259727160344
 30
0.0
 10
17.2335629381117
 20
26.85170284960555
 30
0.0
 10
17.27710571378472
 20
26.70442642727998
 30
0.0
 10
17.28861254178684
 20
26.58399927029267
 30
0.0
 10
17.28861254178684
 20
26.52175908230113
 30
0.0
  0
SPLINE
  5
2C5
330
1F
100
AcDbEntity
  8
0
  6
Continuous
 62
     7
370
     0
100
AcDbSpline
210
0.0
220
0.0
230
1.0
 70
     8
 71
     3
 72
    14
 73
    10
 74
     0
 42
0.0000000001
 43
0.0000000001
 40
0.0
 40
0.0
 40
0.0
 40
0.0
 40
0.1250000000000001
 40
0.25
 40
0.3333333333333334
 40
0.5
 40
0.6666666666666669
 40
0.8333333333333332
 40
1.0
 40
1.0
 40
1.0
 40
1.0
 10
17.28861254178684
 20
26.52175908230113
 30
0.0
 10
17.28861254178684
 20
26.45951889430961
 30
0.0
 10
17.27710571378473
 20
26.33909173732229
 30
0.0
 10
17.2335629381117
 20
26.19181531499671
 30
0.0
 10
17.16046875110324
 20
26.04092089299884
 30
0.0
 10
17.04917868220494
 20
25.89505294188302
 30
0.0
 10
16.87413714086598
 20
25.76150485920507
 30
0.0
 10
16.66422757109384
 20
25.676075665416
 30
0.0
 10
16.50545945910889
 20
25.65561908230113
 30
0.0
 10
16.42247254178684
 20
25.65561908230113
 30
0.0
  0
LINE
  5
2C6
330
1F
100
AcDbEntity
  8
0
  6
Continuous
 62
     7
370
     0
100
AcDbLine
 10
16.97281506681703
 20
27.19039902748587
 30
0.0
 11
16.97379801349679
 21
27.19157043827691
 31
0.0
  0
LINE
  5
2C7
330
1F
100
AcDbEntity
  8
0
  6
Continuous
 62
     7
370
     0
100
AcDbLine
 10
15.8585688505383
 20
25.86249211009636
 30
0.0
 11
15.85956342039564
 21
25.86367738069824
 31
0.0
  0
SPLINE
  5
2C8
330
1F
100
AcDbEntity
  8
0
  6
Continuous
 62
     7
370
     0
100
AcDbSpline
210
0.0
220
0.0
230
1.0
 70
     8
 71
     3
 72
    10
 73
     6
 74
     0
 42
0.0000000001
 43
0.0000000001
 40
0.0
 40
0.0
 40
0.0
 40
0.0
 40
0.2065850587053103
 40
0.787440409180431
 40
1.0
 40
1.0
 40
1.0
 40
1.0
 10
20.43181847334668
 20
8.205608948298891
 30
0.0
 10
20.43712644547241
 20
8.370636034366308
 30
0.0
 10
20.45735884644467
 20
8.999669890895859
 30
0.0
 10
20.48141383123335
 20
9.798747638191919
 30
0.0
 10
20.49788931259324
 20
10.43305718946076
 30
0.0
 10
20.50230317146346
 20
10.6029916986983
 30
0.0
  0
SPLINE
  5
2C9
330
1F
100
AcDbEntity
  8
0
  6
Continuous
 62
     7
370
     0
100
AcDbSpline
210
0.0
220
0.0
230
1.0
 70
     8
 71
     3
 72
    15
 73
    11
 74
     0
 42
0.0000000001
 43
0.0000000001
 40
0.0
 40
0.0
 40
0.0
 40
0.0
 40
0.015879816092862
 40
0.164359671664093
 40
0.3148139143507316
 40
0.4782913864736772
 40
0.6317701012569139
 40
0.7749862179218479
 40
0.9125435064224108
 40
1.0
 40
1.0
 40
1.0
 40
1.0
 10
20.22503154241309
 20
8.005066999399257
 30
0.0
 10
20.22671239630343
 20
8.004909505758947
 30
0.0
 10
20.24410961248755
 20
8.003279411124427
 30
0.0
 10
20.27762573591672
 20
8.01013351853286
 30
0.0
 10
20.32382973768049
 20
8.0270586616978
 30
0.0
 10
20.3649404276053
 20
8.056070593188721
 30
0.0
 10
20.39732895363832
 20
8.093273995132205
 30
0.0
 10
20.41867752179145
 20
8.134421108900237
 30
0.0
 10
20.43003189707259
 20
8.172328875290807
 30
0.0
 10
20.4307390288094
 20
8.196228265707642
 30
0.0
 10
20.43101387091741
 20
8.205517282874481
 30
0.0
  0
SPLINE
  5
2CA
330
1F
100
AcDbEntity
  8
0
  6
Continuous
 62
     7
370
     0
100
AcDbSpline
210
0.0
220
0.0
230
1.0
 70
     8
 71
     3
 72
    16
 73
    12
 74
     0
 42
0.0000000001
 43
0.0000000001
 40
0.0
 40
0.0
 40
0.0
 40
0.0
 40
0.0488786922789911
 40
0.2028620978201699
 40
0.3504026301208856
 40
0.49055727432772
 40
0.6219022778833852
 40
0.7432675976997734
 40
0.8369080554185616
 40
0.9249914429624478
 40
1.0
 40
1.0
 40
1.0
 40
1.0
 10
23.77936585367485
 20
7.576752457299408
 30
0.0
 10
23.78550574468882
 20
7.584885931802746
 30
0.0
 10
23.81098824255063
 20
7.618642434347817
 30
0.0
 10
23.85572673416153
 20
7.681026522830488
 30
0.0
 10
23.91290481393903
 20
7.760445902478187
 30
0.0
 10
23.96812972181409
 20
7.836173554827229
 30
0.0
 10
24.02054537366878
 20
7.905296035579058
 30
0.0
 10
24.06696759632108
 20
7.962844259334449
 30
0.0
 10
24.10662814449892
 20
8.008419436948289
 30
0.0
 10
24.13862605413104
 20
8.041552743130639
 30
0.0
 10
24.16014294739428
 20
8.06124343089705
 30
0.0
 10
24.17003890589639
 20
8.070299488694535
 30
0.0
  0
SPLINE
  5
2CB
330
1F
100
AcDbEntity
  8
0
  6
Continuous
 62
     7
370
     0
100
AcDbSpline
210
0.0
220
0.0
230
1.0
 70
     8
 71
     3
 72
     9
 73
     5
 74
     0
 42
0.0000000001
 43
0.0000000001
 40
0.0
 40
0.0
 40
0.0
 40
0.0
 40
0.9240824692006032
 40
1.0
 40
1.0
 40
1.0
 40
1.0
 10
23.76177313209338
 20
7.551524225861899
 30
0.0
 10
23.76679175333252
 20
7.55900458586944
 30
0.0
 10
23.77222267687711
 20
7.567099491093649
 30
0.0
 10
23.77832910329356
 20
7.575283976212147
 30
0.0
 10
23.77879268810911
 20
7.575905322113207
 30
0.0
  0
SPLINE
  5
2CC
330
1F
100
AcDbEntity
  8
0
  6
Continuous
 62
     7
370
     0
100
AcDbSpline
210
0.0
220
0.0
230
1.0
 70
     8
 71
     3
 72
     9
 73
     5
 74
     0
 42
0.0000000001
 43
0.0000000001
 40
0.0
 40
0.0
 40
0.0
 40
0.0
 40
0.2376731069776709
 40
1.0
 40
1.0
 40
1.0
 40
1.0
 10
23.39279765249056
 20
7.033027185925407
 30
0.0
 10
23.42200162525091
 20
7.074059121487638
 30
0.0
 10
23.54487616133839
 20
7.246699333432508
 30
0.0
 10
23.66753757835631
 20
7.419601868436397
 30
0.0
 10
23.76104567528529
 20
7.551410120741599
 30
0.0
  0
SPLINE
  5
2CD
330
1F
100
AcDbEntity
  8
0
  6
Continuous
 62
     7
370
     0
100
AcDbSpline
210
0.0
220
0.0
230
1.0
 70
     8
 71
     3
 72
    24
 73
    20
 74
     0
 42
0.0000000001
 43
0.0000000001
 40
0.0
 40
0.0
 40
0.0
 40
0.0
 40
0.0327544660198039
 40
0.104976316024776
 40
0.1829832410380547
 40
0.2583313443778318
 40
0.3321394067489161
 40
0.403262989053042
 40
0.4719630774948246
 40
0.5384840883179101
 40
0.6030757843735372
 40
0.6583155461042706
 40
0.710818818811303
 40
0.7610208232516849
 40
0.814314245730624
 40
0.8653774755295414
 40
0.9145198700024913
 40
0.9620757359394952
 40
1.0
 40
1.0
 40
1.0
 40
1.0
 10
18.77941294693212
 20
5.277069062867339
 30
0.0
 10
18.83116901349836
 20
5.281861292710067
 30
0.0
 10
18.99704444547071
 20
5.297220133673318
 30
0.0
 10
19.28733273539995
 20
5.333434362064895
 30
0.0
 10
19.64497966595439
 20
5.388550727074917
 30
0.0
 10
20.00443310695085
 20
5.456867617071996
 30
0.0
 10
20.35234378051804
 20
5.535647767505527
 30
0.0
 10
20.68869390605417
 20
5.624795329497308
 30
0.0
 10
21.01220980606888
 20
5.723487824303267
 30
0.0
 10
21.32382604111612
 20
5.831564944941047
 30
0.0
 10
21.61243929429546
 20
5.944110177794819
 30
0.0
 10
21.87760387192565
 20
6.058953651913967
 30
0.0
 10
22.11867942708654
 20
6.174195411017668
 30
0.0
 10
22.35442668193852
 20
6.298239691848057
 30
0.0
 10
22.58504082157218
 20
6.432174748728388
 30
0.0
 10
22.81046316584561
 20
6.576889381288189
 30
0.0
 10
23.02316779468217
 20
6.728002291422182
 30
0.0
 10
23.21333620816775
 20
6.875135723347218
 30
0.0
 10
23.32995111112467
 20
6.97687001483355
 30
0.0
 10
23.38168868304056
 20
7.022005628624138
 30
0.0
  0
SPLINE
  5
2CE
330
1F
100
AcDbEntity
  8
0
  6
Continuous
 62
     7
370
     0
100
AcDbSpline
210
0.0
220
0.0
230
1.0
 70
    24
 71
     1
 72
     4
 73
     2
 74
     0
 42
0.0000000001
 43
0.0000000001
 40
0.0
 40
0.0
 40
1.0
 40
1.0
 10
14.76892948412162
 20
6.020419628896897
 30
0.0
 10
14.83486772385252
 20
5.07746019465584
 30
0.0
  0
ARC
  5
2CF
330
1F
100
AcDbEntity
  8
0
  6
Continuous
 62
     7
370
     0
100
AcDbCircle
 10
15.03123813649439
 20
5.091191716299908
 30
0.0
 40
0.1968500000000002
100
AcDbArc
 50
183.9999999999993
 51
270.0
  0
SPLINE
  5
2D0
330
1F
100
AcDbEntity
  8
0
  6
Continuous
 62
     7
370
     0
100
AcDbSpline
210
0.0
220
0.0
230
1.0
 70
     8
 71
     3
 72
    12
 73
     8
 74
     0
 42
0.0000000001
 43
0.0000000001
 40
0.0
 40
0.0
 40
0.0
 40
0.0
 40
0.1102774209876293
 40
0.346955782553082
 40
0.5916865855452365
 40
0.8555879207486768
 40
1.0
 40
1.0
 40
1.0
 40
1.0
 10
18.69673117411148
 20
5.224268018433028
 30
0.0
 10
18.7009830813547
 20
5.228769967482608
 30
0.0
 10
18.71436046896231
 20
5.242934038799519
 30
0.0
 10
18.73572791331109
 20
5.259724480504138
 30
0.0
 10
18.75745685232908
 20
5.271527241997048
 30
0.0
 10
18.77078461192467
 20
5.275530657170018
 30
0.0
 10
18.77648035762118
 20
5.276246956767347
 30
0.0
 10
18.77849482604126
 20
5.276500297241978
 30
0.0
  0
ARC
  5
2D1
330
1F
100
AcDbEntity
  8
0
  6
Continuous
 62
     7
370
     0
100
AcDbCircle
 10
18.19460322942478
 20
4.894341716299907
 30
0.0
 40
0.1968500000000005
100
AcDbArc
 50
90.0
 51
149.9999999999963
  0
ARC
  5
2D2
330
1F
100
AcDbEntity
  8
0
  6
Continuous
 62
     7
370
     0
100
AcDbCircle
 10
17.85364902795267
 20
5.091191716299908
 30
0.0
 40
0.1968500000000017
100
AcDbArc
 50
270.0
 51
329.9999999999963
  0
SPLINE
  5
2D3
330
1F
100
AcDbEntity
  8
0
  6
Continuous
 62
     7
370
     0
100
AcDbSpline
210
0.0
220
0.0
230
1.0
 70
     8
 71
     3
 72
    12
 73
     8
 74
     0
 42
0.0000000001
 43
0.0000000001
 40
0.0
 40
0.0
 40
0.0
 40
0.0
 40
0.1981078302419015
 40
0.400170481119708
 40
0.6001669919860256
 40
0.7998352117151911
 40
1.0
 40
1.0
 40
1.0
 40
1.0
 10
18.40313752625894
 20
5.091191821896608
 30
0.0
 10
18.42504720446656
 20
5.092287254363848
 30
0.0
 10
18.46930394312664
 20
5.094499987383608
 30
0.0
 10
18.53374906854424
 20
5.112179768059269
 30
0.0
 10
18.594353694439
 20
5.139937301760316
 30
0.0
 10
18.64990813786018
 20
5.176960792307098
 30
0.0
 10
18.68111057817612
 20
5.208485892298147
 30
0.0
 10
18.69673117411148
 20
5.224268018433028
 30
0.0
  0
LINE
  5
2D4
330
1F
100
AcDbEntity
  8
0
  6
Continuous
 62
     7
370
     0
100
AcDbLine
 10
5.540155166843966
 20
10.60299169869759
 30
0.0
 11
5.422494894720093
 21
10.60299169869759
 31
0.0
  0
LINE
  5
2D5
330
1F
100
AcDbEntity
  8
0
  6
Continuous
 62
     7
370
     0
100
AcDbLine
 10
5.422494894720093
 20
10.60299169869759
 30
0.0
 11
5.464728455701631
 21
11.08572572996775
 31
0.0
  0
LINE
  5
2D6
330
1F
100
AcDbEntity
  8
0
  6
Continuous
 62
     7
370
     0
100
AcDbLine
 10
27.30478991673152
 20
10.60299169869759
 30
0.0
 11
5.540155166843966
 21
10.60299169869759
 31
0.0
  0
LINE
  5
2D7
330
1F
100
AcDbEntity
  8
0
  6
Continuous
 62
     7
370
     0
100
AcDbLine
 10
27.38021662787385
 20
11.08572572996382
 30
0.0
 11
27.42245018885145
 21
10.60299169869759
 31
0.0
  0
LINE
  5
2D8
330
1F
100
AcDbEntity
  8
0
  6
Continuous
 62
     7
370
     0
100
AcDbLine
 10
27.42245018885145
 20
10.60299169869759
 30
0.0
 11
27.30478991673152
 21
10.60299169869759
 31
0.0
  0
LINE
  5
2D9
330
1F
100
AcDbEntity
  8
0
  6
Continuous
 62
     7
370
     0
100
AcDbLine
 10
5.582388727821572
 20
11.19354172216605
 30
0.0
 11
27.26255635575392
 21
11.19354172216605
 31
0.0
  0
ARC
  5
2DA
330
1F
100
AcDbEntity
  8
0
  6
Continuous
 62
     7
370
     0
100
AcDbCircle
 10
5.582388846994553
 20
11.07543171629991
 30
0.0
 40
0.11811
100
AcDbArc
 50
90.0
 51
175.0000000000001
  0
ARC
  5
2DB
330
1F
100
AcDbEntity
  8
0
  6
Continuous
 62
     7
370
     0
100
AcDbCircle
 10
27.26255623657699
 20
11.07543171629991
 30
0.0
 40
0.11811
100
AcDbArc
 50
4.999999999999896
 51
90.0
  0
SPLINE
  5
2DC
330
1F
100
AcDbEntity
  8
0
  6
Continuous
 62
     7
370
     0
100
AcDbSpline
210
0.0
220
0.0
230
1.0
 70
     8
 71
     3
 72
    54
 73
    50
 74
     0
 42
0.0000000001
 43
0.0000000001
 40
0.0
 40
0.0
 40
0.0
 40
0.0
 40
0.0625
 40
0.0625
 40
0.1249999999999999
 40
0.1249999999999999
 40
0.1875
 40
0.1875
 40
0.25
 40
0.25
 40
0.2656250000000001
 40
0.2656250000000001
 40
0.2812500000000001
 40
0.2812500000000001
 40
0.3125000000000001
 40
0.3125000000000001
 40
0.3750000000000001
 40
0.3750000000000001
 40
0.4375000000000001
 40
0.4375000000000001
 40
0.5000000000000002
 40
0.5000000000000002
 40
0.5156250000000002
 40
0.5156250000000002
 40
0.5312500000000002
 40
0.5312500000000002
 40
0.5625000000000002
 40
0.5625000000000002
 40
0.6250000000000001
 40
0.6250000000000001
 40
0.6875000000000001
 40
0.6875000000000001
 40
0.7187500000000001
 40
0.7187500000000001
 40
0.7343750000000001
 40
0.7343750000000001
 40
0.7500000000000001
 40
0.7500000000000001
 40
0.8125000000000001
 40
0.8125000000000001
 40
0.875
 40
0.875
 40
0.90625
 40
0.90625
 40
0.921875
 40
0.921875
 40
0.9375
 40
0.9375
 40
1.0
 40
1.0
 40
1.0
 40
1.0
 10
16.42247254178085
 20
8.00457171691341
 30
0.0
 10
16.12848921856532
 20
8.004571716922409
 30
0.0
 10
15.83660469285379
 20
8.004571716930417
 30
0.0
 10
15.25678143766399
 20
8.004571716944587
 30
0.0
 10
14.96884355703558
 20
8.004571716950739
 30
0.0
 10
14.39680575387809
 20
8.004571716961237
 30
0.0
 10
14.11270584283716
 20
8.004571716965587
 30
0.0
 10
13.54836280381738
 20
8.004571716972456
 30
0.0
 10
13.26811988102306
 20
8.004571716975
 30
0.0
 10
12.92032319891741
 20
8.004571716976979
 30
0.0
 10
12.85084174559456
 20
8.00457171697732
 30
0.0
 10
12.71234596305113
 20
8.004571716977878
 30
0.0
 10
12.64347012523098
 20
8.004571716978087
 30
0.0
 10
12.43795420576949
 20
8.004571716978558
 30
0.0
 10
12.30242499370656
 20
8.004571716978617
 30
0.0
 10
11.90027161491431
 20
8.004571716978098
 30
0.0
 10
11.63807871004957
 20
8.004571716976776
 30
0.0
 10
11.12566794391995
 20
8.004571716972177
 30
0.0
 10
10.87543928084203
 20
8.004571716968897
 30
0.0
 10
10.38742668384934
 20
8.00457171696031
 30
0.0
 10
10.14963922315825
 20
8.004571716954986
 30
0.0
 10
9.860786248603444
 20
8.004571716946969
 30
0.0
 10
9.803436074584872
 20
8.004571716945301
 30
0.0
 10
9.689597451023516
 20
8.004571716941804
 30
0.0
 10
9.633048711556867
 20
8.004571716939986
 30
0.0
 10
9.465149952379212
 20
8.004571716934337
 30
0.0
 10
9.35591081502077
 20
8.004571716930307
 30
0.0
 10
9.03630456761045
 20
8.004571716917467
 30
0.0
 10
8.834021146718731
 20
8.004571716907879
 30
0.0
 10
8.451837530838799
 20
8.004571716886559
 30
0.0
 10
8.27193343514282
 20
8.004571716874846
 30
0.0
 10
8.020173109643749
 20
8.00457171685554
 30
0.0
 10
7.939272686482951
 20
8.004571716848822
 30
0.0
 10
7.822672830103548
 20
8.004571716838277
 30
0.0
 10
7.784535218016642
 20
8.004571716834687
 30
0.0
 10
7.710282171387148
 20
8.004571716827378
 30
0.0
 10
7.674159027353681
 20
8.004571716823669
 30
0.0
 10
7.498561516543888
 20
8.004571716804829
 30
0.0
 10
7.374129765848372
 20
8.00457171678882
 30
0.0
 10
7.157533912266286
 20
8.004571716754949
 30
0.0
 10
7.065354551619776
 20
8.004571716737093
 30
0.0
 10
6.952598443634641
 20
8.004571716708806
 30
0.0
 10
6.919283149776838
 20
8.004571716699139
 30
0.0
 10
6.875969560504358
 20
8.00457171668425
 30
0.0
 10
6.8626423831503
 20
8.004571716679206
 30
0.0
 10
6.838265456477023
 20
8.004571716669017
 30
0.0
 10
6.827202838270877
 20
8.004571716663837
 30
0.0
 10
6.777981377692518
 20
8.004571716637791
 30
0.0
 10
6.75785340418885
 20
8.004571716616251
 30
0.0
 10
6.757853404190014
 20
8.004571716593986
 30
0.0
  0
SPLINE
  5
2DD
330
1F
100
AcDbEntity
  8
0
  6
Continuous
 62
     7
370
     0
100
AcDbSpline
210
0.0
220
0.0
230
1.0
 70
     8
 71
     3
 72
    14
 73
    10
 74
     0
 42
0.0000000001
 43
0.0000000001
 40
0.0
 40
0.0
 40
0.0
 40
0.0
 40
0.2500000000000012
 40
0.2500000000000012
 40
0.5000000000000023
 40
0.5000000000000023
 40
0.7500000000000036
 40
0.7500000000000036
 40
1.0
 40
1.0
 40
1.0
 40
1.0
 10
6.757853404190014
 20
8.004571716593986
 30
0.0
 10
6.732944719604526
 20
8.004571716594737
 30
0.0
 10
6.708044596810302
 20
8.009355457780548
 30
0.0
 10
6.661773748425765
 20
8.027815654445095
 30
0.0
 10
6.640418927382221
 20
8.041485764653076
 30
0.0
 10
6.60428268455486
 20
8.075777778671501
 30
0.0
 10
6.589513683778733
 20
8.09638789538576
 30
0.0
 10
6.568657157077147
 20
8.141629199136469
 30
0.0
 10
6.562576800106143
 20
8.166244835508607
 30
0.0
 10
6.561273180279606
 20
8.191119383607558
 30
0.0
  0
SPLINE
  5
2DE
330
1F
100
AcDbEntity
  8
0
  6
Continuous
 62
     7
370
     0
100
AcDbSpline
210
0.0
220
0.0
230
1.0
 70
    24
 71
     3
 72
    18
 73
    14
 74
     0
 42
0.0000000001
 43
0.0000000001
 40
0.0
 40
0.0
 40
0.0
 40
0.0
 40
0.0624999999999998
 40
0.0624999999999998
 40
0.1249999999999995
 40
0.1249999999999995
 40
0.2499999999999994
 40
0.2499999999999994
 40
0.5
 40
0.5
 40
0.75
 40
0.75
 40
1.0
 40
1.0
 40
1.0
 40
1.0
 10
20.22205915190207
 20
8.004571716745427
 30
0.0
 10
20.14558193904484
 20
8.004571716749911
 30
0.0
 10
20.06873685216571
 20
8.004571716754327
 30
0.0
 10
19.91463200309552
 20
8.004571716763058
 30
0.0
 10
19.83742313272256
 20
8.004571716767369
 30
0.0
 10
19.6053345093946
 20
8.004571716780077
 30
0.0
 10
19.44999314868305
 20
8.004571716788309
 30
0.0
 10
18.98216546380662
 20
8.004571716812248
 30
0.0
 10
18.6678820197939
 20
8.004571716827205
 30
0.0
 10
18.03459571625348
 20
8.004571716855217
 30
0.0
 10
17.71559232408175
 20
8.004571716868255
 30
0.0
 10
17.07274454207201
 20
8.004571716892346
 30
0.0
 10
16.74890144743394
 20
8.004571716903408
 30
0.0
 10
16.42247254178085
 20
8.00457171691341
 30
0.0
  0
LINE
  5
2DF
330
1F
100
AcDbEntity
  8
0
  6
Continuous
 62
     7
370
     0
100
AcDbLine
 10
6.434871894875441
 20
10.60299169869759
 30
0.0
 11
6.561273381867231
 21
8.191119357995219
 31
0.0
  0
SPLINE
  5
2E0
330
1F
100
AcDbEntity
  8
0
  6
Continuous
 62
     7
370
     0
100
AcDbSpline
210
0.0
220
0.0
230
1.0
 70
    24
 71
     3
 72
     8
 73
     4
 74
     0
 42
0.0000000001
 43
0.0000000001
 40
0.0
 40
0.0
 40
0.0
 40
0.0
 40
0.0000703038938327
 40
0.0000703038938327
 40
0.0000703038938327
 40
0.0000703038938327
 10
20.22458004943142
 20
8.004571716745267
 30
0.0
 10
20.2237686820592
 20
8.004571716745321
 30
0.0
 10
20.22292420460331
 20
8.004571716745378
 30
0.0
 10
20.22205915190207
 20
8.004571716745427
 30
0.0
  0
SPLINE
  5
2E1
330
1F
100
AcDbEntity
  8
0
  6
Continuous
 62
     7
370
     0
100
AcDbSpline
210
0.0
220
0.0
230
1.0
 70
     8
 71
     3
 72
     8
 73
     4
 74
     0
 42
0.0000000001
 43
0.0000000001
 40
0.0
 40
0.0
 40
0.0
 40
0.0
 40
0.0165957265461486
 40
0.0165957265461486
 40
0.0165957265461486
 40
0.0165957265461486
 10
15.60047580293047
 20
6.035950437198718
 30
0.0
 10
15.60945401400427
 20
5.818693976841987
 30
0.0
 10
15.61842585362095
 20
5.601437569195808
 30
0.0
 10
15.62739107692283
 20
5.384181217327598
 30
0.0
  0
SPLINE
  5
2E2
330
1F
100
AcDbEntity
  8
0
  6
Continuous
 62
     7
370
     0
100
AcDbSpline
210
0.0
220
0.0
230
1.0
 70
     8
 71
     3
 72
    28
 73
    24
 74
     0
 42
0.0000000001
 43
0.0000000001
 40
0.0
 40
0.0
 40
0.0
 40
0.0
 40
0.125000000000001
 40
0.125000000000001
 40
0.250000000000002
 40
0.250000000000002
 40
0.3125000000000014
 40
0.3125000000000014
 40
0.3750000000000009
 40
0.3750000000000009
 40
0.5
 40
0.5
 40
0.5625000000000006
 40
0.5625000000000006
 40
0.6250000000000016
 40
0.6250000000000016
 40
0.7500000000000011
 40
0.7500000000000011
 40
0.8750000000000007
 40
0.8750000000000007
 40
0.9375000000000003
 40
0.9375000000000003
 40
1.0
 40
1.0
 40
1.0
 40
1.0
 10
20.76049329168981
 20
8.004571716298036
 30
0.0
 10
20.78893320458766
 20
8.004571716298036
 30
0.0
 10
20.81731237739317
 20
8.006768059497428
 30
0.0
 10
20.87297402804568
 20
8.015768301807478
 30
0.0
 10
20.90012324241816
 20
8.022524240423916
 30
0.0
 10
20.93976010351749
 20
8.036282711654777
 30
0.0
 10
20.95279038678908
 20
8.041476015858737
 30
0.0
 10
20.97846361337707
 20
8.053162591382758
 30
0.0
 10
20.99113040348246
 20
8.05967646903457
 30
0.0
 10
21.02786109306798
 20
8.080947161285568
 30
0.0
 10
21.05087834030739
 20
8.09749813442324
 30
0.0
 10
21.08298841335543
 20
8.126261563113935
 30
0.0
 10
21.09333359819068
 20
8.13656312522848
 30
0.0
 10
21.11291387348093
 20
8.158355986069089
 30
0.0
 10
21.12209690087436
 20
8.169777210952476
 30
0.0
 10
21.14780167334891
 20
8.205642255484008
 30
0.0
 10
21.16250544029952
 20
8.231674812387227
 30
0.0
 10
21.18643879923398
 20
8.288489792073775
 30
0.0
 10
21.19515771772341
 20
8.318065288623898
 30
0.0
 10
21.20343405934142
 20
8.36416593887429
 30
0.0
 10
21.20538627885435
 20
8.379824570203432
 30
0.0
 10
21.20760809318376
 20
8.411751439553716
 30
0.0
 10
21.20785914910557
 20
8.427998021137391
 30
0.0
 10
21.20726028780153
 20
8.444055967842366
 30
0.0
  0
SPLINE
  5
2E3
330
1F
100
AcDbEntity
  8
0
  6
Continuous
 62
     7
370
     0
100
AcDbSpline
210
0.0
220
0.0
230
1.0
 70
     8
 71
     3
 72
    15
 73
    11
 74
     0
 42
0.0000000001
 43
0.0000000001
 40
0.0
 40
0.0
 40
0.0
 40
0.0
 40
0.0625000000000008
 40
0.0625000000000008
 40
0.1250000000000017
 40
0.2500000000000018
 40
0.2500000000000018
 40
0.5000000000000008
 40
0.5000000000000008
 40
1.0
 40
1.0
 40
1.0
 40
1.0
 10
20.20236197247713
 20
8.004571716298036
 30
0.0
 10
20.20150867036065
 20
8.004571716298036
 30
0.0
 10
20.20063459820162
 20
8.004532779233827
 30
0.0
 10
20.19890633646393
 20
8.004377089235786
 30
0.0
 10
20.19631580983817
 20
8.004027103249525
 30
0.0
 10
20.1937263262354
 20
8.003330416771197
 30
0.0
 10
20.18853685549528
 20
8.001479884609949
 30
0.0
 10
20.18506323901789
 20
7.999637299249708
 30
0.0
 10
20.17450611496792
 20
7.992299550598449
 30
0.0
 10
20.1672903493663
 20
7.985005326029616
 30
0.0
 10
20.15962063979201
 20
7.975226192908557
 30
0.0
  0
SPLINE
  5
2E4
330
1F
100
AcDbEntity
  8
0
  6
Continuous
 62
     7
370
     0
100
AcDbSpline
210
0.0
220
0.0
230
1.0
 70
    24
 71
     3
 72
    11
 73
     7
 74
     0
 42
0.0000000001
 43
0.0000000001
 40
0.00439357597245
 40
0.00439357597245
 40
0.00439357597245
 40
0.00439357597245
 40
0.016
 40
0.016
 40
0.016
 40
0.0220610163182547
 40
0.0220610163182547
 40
0.0220610163182547
 40
0.0220610163182547
 10
20.20236197247713
 20
8.004571716298036
 30
0.0
 10
20.31698353658767
 20
8.004571716298036
 30
0.0
 10
20.43160510069822
 20
8.004571716298036
 30
0.0
 10
20.54622666480875
 20
8.004571716298036
 30
0.0
 10
20.60608344488578
 20
8.004571716298036
 30
0.0
 10
20.66594022496281
 20
8.004571716298036
 30
0.0
 10
20.72579700503984
 20
8.004571716298036
 30
0.0
  0
SPLINE
  5
2E5
330
1F
100
AcDbEntity
  8
0
  6
Continuous
 62
     7
370
     0
100
AcDbSpline
210
0.0
220
0.0
230
1.0
 70
    24
 71
     3
 72
     8
 73
     4
 74
     0
 42
0.0000000001
 43
0.0000000001
 40
0.0
 40
0.0
 40
0.0
 40
0.0
 40
1.0
 40
1.0
 40
1.0
 40
1.0
 10
19.78446325788621
 20
8.004571716298057
 30
0.0
 10
19.92512992548131
 20
8.004571716298057
 30
0.0
 10
20.0644737909177
 20
8.004571716298054
 30
0.0
 10
20.20236197247713
 20
8.004571716298036
 30
0.0
  0
SPLINE
  5
2E6
330
1F
100
AcDbEntity
  8
0
  6
Continuous
 62
     7
370
     0
100
AcDbSpline
210
0.0
220
0.0
230
1.0
 70
     8
 71
     3
 72
    10
 73
     6
 74
     0
 42
0.0000000001
 43
0.0000000001
 40
0.0
 40
0.0
 40
0.0
 40
0.0
 40
0.5
 40
0.5
 40
1.0
 40
1.0
 40
1.0
 40
1.0
 10
8.61979737995172
 20
7.883006166588958
 30
0.0
 10
8.557310288135282
 20
7.92245163821888
 30
0.0
 10
8.489240520484145
 20
7.953038935748509
 30
0.0
 10
8.347267900630534
 20
7.994101116828267
 30
0.0
 10
8.273379859786537
 20
8.004571716547578
 30
0.0
 10
8.199484109734314
 20
8.00457171654984
 30
0.0
  0
SPLINE
  5
2E7
330
1F
100
AcDbEntity
  8
0
  6
Continuous
 62
     7
370
     0
100
AcDbSpline
210
0.0
220
0.0
230
1.0
 70
     8
 71
     3
 72
    19
 73
    15
 74
     0
 42
0.0000000001
 43
0.0000000001
 40
0.0
 40
0.0
 40
0.0
 40
0.0
 40
0.2237012318176207
 40
0.6118504819112406
 40
0.8059251827691701
 40
0.9029625837731691
 40
0.9514813250070107
 40
0.9757406744223654
 40
0.9878703245329839
 40
0.9939351832500012
 40
0.9969675902666768
 40
0.9984838014137428
 40
0.9992419204082279
 40
1.0
 40
1.0
 40
1.0
 40
1.0
 10
24.42669388101264
 20
10.60299169869827
 30
0.0
 10
24.41092034757347
 20
10.44187775459797
 30
0.0
 10
24.36777778658806
 20
10.00121123014735
 30
0.0
 10
24.31085941181882
 20
9.420778158119805
 30
0.0
 10
24.26313528673171
 20
8.931542610061979
 30
0.0
 10
24.23936734246716
 20
8.68691476009916
 30
0.0
 10
24.22750900677782
 20
8.564598067818007
 30
0.0
 10
24.22159046258371
 20
8.503438634863139
 30
0.0
 10
24.21862974932517
 20
8.47285904968572
 30
0.0
 10
24.2171532951849
 20
8.457568887109417
 30
0.0
 10
24.21641326310992
 20
8.44992395962441
 30
0.0
 10
24.21604468275366
 20
8.446101358824581
 30
0.0
 10
24.21583362762223
 20
8.443917065933616
 30
0.0
 10
24.21572754213577
 20
8.442824982020018
 30
0.0
 10
24.215674500771
 20
8.44227895425366
 30
0.0
  0
LINE
  5
2E8
330
1F
100
AcDbEntity
  8
0
  6
Continuous
 62
     7
370
     0
100
AcDbLine
 10
22.11616375357547
 20
8.442278954253769
 30
0.0
 11
24.21567450076999
 21
8.442278954253769
 31
0.0
  0
ELLIPSE
  5
2E9
330
1F
100
AcDbEntity
  8
0
  6
Continuous
 62
     7
370
     0
100
AcDbEllipse
 10
20.98196639115582
 20
8.546913427661557
 30
0.0
 11
-0.1234049399308241
 21
1.497113717503272
 31
0.0
210
0.0
220
0.0
230
1.0
 40
0.7532904232
 41
3.927702169660093
 42
4.580562774653829
  0
SPLINE
  5
2EA
330
1F
100
AcDbEntity
  8
0
  6
Continuous
 62
     7
370
     0
100
AcDbSpline
210
0.0
220
0.0
230
1.0
 70
     8
 71
     3
 72
     8
 73
     4
 74
     0
 42
0.0000000001
 43
0.0000000001
 40
0.0
 40
0.0
 40
0.0
 40
0.0
 40
1.0
 40
1.0
 40
1.0
 40
1.0
 10
24.21567456906249
 20
8.442278926314436
 30
0.0
 10
24.21318896040002
 20
8.416614275203436
 30
0.0
 10
24.21025950081119
 20
8.390992562296357
 30
0.0
 10
24.20686461613296
 20
8.365444402865929
 30
0.0
  0
LINE
  5
2EB
330
1F
100
AcDbEntity
  8
0
  6
Continuous
 62
     7
370
     0
100
AcDbLine
 10
21.8671793411752
 20
7.5548266744414
 30
0.0
 11
23.70648054809298
 21
7.5548266744414
 31
0.0
  0
ELLIPSE
  5
2EC
330
1F
100
AcDbEntity
  8
0
  6
Continuous
 62
     7
370
     0
100
AcDbEllipse
 10
-160.4831485838411
 20
210.5036579571835
 30
0.0
 11
-31.51141918777268
 21
305.941203403193
 31
0.0
210
0.0
220
0.0
230
1.0
 40
0.7492400527
 41
3.910290383709958
 42
3.912697410398147
  0
SPLINE
  5
2ED
330
1F
100
AcDbEntity
  8
0
  6
Continuous
 62
     7
370
     0
100
AcDbSpline
210
0.0
220
0.0
230
1.0
 70
     8
 71
     3
 72
     8
 73
     4
 74
     0
 42
0.0000000001
 43
0.0000000001
 40
0.0
 40
0.0
 40
0.0
 40
0.0
 40
0.0001161429930318
 40
0.0001161429930318
 40
0.0001161429930318
 40
0.0001161429930318
 10
21.52383244923433
 20
7.001437007523826
 30
0.0
 10
21.52285272315082
 20
7.001437007523826
 30
0.0
 10
21.52184274514994
 20
7.001409787980437
 30
0.0
 10
21.52080528177821
 20
7.001355262290619
 30
0.0
  0
LINE
  5
2EE
330
1F
100
AcDbEntity
  8
0
  6
Continuous
 62
     7
370
     0
100
AcDbLine
 10
21.52383263424795
 20
7.001437080703118
 30
0.0
 11
23.31297452092945
 21
7.001437080703118
 31
0.0
  0
SPLINE
  5
2EF
330
1F
100
AcDbEntity
  8
0
  6
Continuous
 62
     7
370
     0
100
AcDbSpline
210
0.0
220
0.0
230
1.0
 70
     8
 71
     3
 72
    24
 73
    20
 74
     0
 42
0.0000000001
 43
0.0000000001
 40
0.0
 40
0.0
 40
0.0
 40
0.0
 40
0.0624999999999999
 40
0.0624999999999999
 40
0.1249999999999998
 40
0.1249999999999998
 40
0.2499999999999998
 40
0.2499999999999998
 40
0.3749999999999998
 40
0.3749999999999998
 40
0.5
 40
0.5
 40
0.5625
 40
0.5625
 40
0.625
 40
0.625
 40
0.75
 40
0.75
 40
1.0
 40
1.0
 40
1.0
 40
1.0
 10
21.52080528177824
 20
7.00135526229063
 30
0.0
 10
21.44301831062707
 20
6.926068704558037
 30
0.0
 10
21.363342897994
 20
6.854417324499808
 30
0.0
 10
21.2004544614714
 20
6.717955484642327
 30
0.0
 10
21.11712968442984
 20
6.653045808182468
 30
0.0
 10
20.8643327819218
 20
6.468611750064891
 30
0.0
 10
20.69162257979445
 20
6.3585912371638
 30
0.0
 10
20.33962563654156
 20
6.15881557068694
 30
0.0
 10
20.16036778682024
 20
6.068981107671597
 30
0.0
 10
19.79649018774732
 20
5.905793960808739
 30
0.0
 10
19.61187716627181
 20
5.832416634269477
 30
0.0
 10
19.33146076079603
 20
5.733076516093128
 30
0.0
 10
19.23734106706242
 20
5.701720462984518
 30
0.0
 10
19.04834220885411
 20
5.642420999508378
 30
0.0
 10
18.95356920424267
 20
5.614521910245088
 30
0.0
 10
18.66847959752945
 20
5.535758558597589
 30
0.0
 10
18.47739806021405
 20
5.48979276152986
 30
0.0
 10
17.90141478718532
 20
5.369380501716986
 30
0.0
 10
17.51380160250314
 20
5.312212503338838
 30
0.0
 10
17.12290506490652
 20
5.275933668975538
 30
0.0
  0
SPLINE
  5
2F0
330
1F
100
AcDbEntity
  8
0
  6
Continuous
 62
     7
370
     0
100
AcDbSpline
210
0.0
220
0.0
230
1.0
 70
     8
 71
     3
 72
    10
 73
     6
 74
     0
 42
0.0000000001
 43
0.0000000001
 40
0.0
 40
0.0
 40
0.0
 40
0.0
 40
0.5
 40
0.5
 40
1.0
 40
1.0
 40
1.0
 40
1.0
 10
15.41748532793687
 20
6.327236820067746
 30
0.0
 10
15.58600995936297
 20
6.33331563069529
 30
0.0
 10
15.75408783440588
 20
6.343774926421858
 30
0.0
 10
16.08905174917413
 20
6.37390011858359
 30
0.0
 10
16.2560136482612
 20
6.39349888799478
 30
0.0
 10
16.42247254178686
 20
6.417760193081618
 30
0.0
  0
SPLINE
  5
2F1
330
1F
100
AcDbEntity
  8
0
  6
Continuous
 62
     7
370
     0
100
AcDbSpline
210
0.0
220
0.0
230
1.0
 70
     8
 71
     3
 72
    34
 73
    30
 74
     0
 42
0.0000000001
 43
0.0000000001
 40
0.0
 40
0.0
 40
0.0
 40
0.0
 40
0.0078125
 40
0.0078125
 40
0.015625
 40
0.03125
 40
0.0625000000000001
 40
0.0625000000000001
 40
0.1250000000000001
 40
0.1250000000000001
 40
0.2500000000000001
 40
0.2500000000000001
 40
0.3125
 40
0.3125
 40
0.34375
 40
0.34375
 40
0.3749999999999999
 40
0.3749999999999999
 40
0.5
 40
0.5
 40
0.6249999999999995
 40
0.6249999999999995
 40
0.6874999999999995
 40
0.6874999999999995
 40
0.7499999999999993
 40
0.7499999999999993
 40
0.8749999999999996
 40
0.8749999999999996
 40
1.0
 40
1.0
 40
1.0
 40
1.0
 10
14.48002994068939
 20
6.312391978824762
 30
0.0
 10
14.48002994383589
 20
6.312391978571258
 30
0.0
 10
14.48005132862092
 20
6.312392585434259
 30
0.0
 10
14.48013669955183
 20
6.312394991658538
 30
0.0
 10
14.48032865062976
 20
6.312400390628307
 30
0.0
 10
14.48122199482313
 20
6.312425308877259
 30
0.0
 10
14.48274549522106
 20
6.312467097732938
 30
0.0
 10
14.48679037823237
 20
6.312576251612426
 30
0.0
 10
14.49081641719049
 20
6.312683064286156
 30
0.0
 10
14.5068230230936
 20
6.313094545465038
 30
0.0
 10
14.52271614451335
 20
6.313490247260718
 30
0.0
 10
14.55444657944649
 20
6.314232536053681
 30
0.0
 10
14.56634249021621
 20
6.31450475979844
 30
0.0
 10
14.58621029588207
 20
6.314946936910728
 30
0.0
 10
14.59318257000205
 20
6.315100234773567
 30
0.0
 10
14.60771089878955
 20
6.315415466483327
 30
0.0
 10
14.6152740775692
 20
6.31557756616795
 30
0.0
 10
14.65456419885002
 20
6.316408715083047
 30
0.0
 10
14.69069498428624
 20
6.317138941959417
 30
0.0
 10
14.77212597740799
 20
6.31867962968384
 30
0.0
 10
14.81742594540226
 20
6.319490344281047
 30
0.0
 10
14.89242550743323
 20
6.320730646718477
 30
0.0
 10
14.91869493089905
 20
6.321149475302697
 30
0.0
 10
14.97290097966969
 20
6.32197843315795
 30
0.0
 10
15.00089162196421
 20
6.322389556857496
 30
0.0
 10
15.0874660370241
 20
6.323605973980839
 30
0.0
 10
15.14864168656864
 20
6.324394087913218
 30
0.0
 10
15.27785057110921
 20
6.325886138144627
 30
0.0
 10
15.34588287384471
 20
6.326590065408058
 30
0.0
 10
15.41748532793687
 20
6.327236820067746
 30
0.0
  0
SPLINE
  5
2F2
330
1F
100
AcDbEntity
  8
0
  6
Continuous
 62
     7
370
     0
100
AcDbSpline
210
0.0
220
0.0
230
1.0
 70
     8
 71
     3
 72
    19
 73
    15
 74
     0
 42
0.0000000001
 43
0.0000000001
 40
-1.349563739684376
 40
-1.349563739684376
 40
-1.349563739684376
 40
-1.349563739684376
 40
-1.339537295686835
 40
-1.281942192264355
 40
-1.224347088841872
 40
-1.166751985419389
 40
-1.051561778574423
 40
-0.9363715717294571
 40
-0.8211813648844913
 40
-0.7059911580395255
 40
-0.6483960546170425
 40
-0.5908009511945595
 40
-0.5332058477720764
 40
-0.5158628411095844
 40
-0.5158628411095844
 40
-0.5158628411095844
 40
-0.5158628411095844
 10
14.48002874901046
 20
6.312377176379679
 30
0.0
 10
14.45108944684456
 20
6.314706950872378
 30
0.0
 10
14.25613445757189
 20
6.330769606030917
 30
0.0
 10
13.89875620651913
 20
6.364828494217728
 30
0.0
 10
13.41296275538184
 20
6.422011300892119
 30
0.0
 10
12.77800715274809
 20
6.51156824999688
 30
0.0
 10
12.0115077905717
 20
6.648072057841679
 30
0.0
 10
11.14655376771031
 20
6.84952156885112
 30
0.0
 10
10.34662601176791
 20
7.086786170814619
 30
0.0
 10
9.741748881246612
 20
7.31287442631773
 30
0.0
 10
9.298738923002574
 20
7.510111438916119
 30
0.0
 10
8.987657568405088
 20
7.666230471622139
 30
0.0
 10
8.766121275483071
 20
7.792119356550561
 30
0.0
 10
8.646988622495307
 20
7.865856577803459
 30
0.0
 10
8.619806342605777
 20
7.883020360742531
 30
0.0
  0
SPLINE
  5
2F3
330
1F
100
AcDbEntity
  8
0
  6
Continuous
 62
     7
370
     0
100
AcDbSpline
210
0.0
220
0.0
230
1.0
 70
     8
 71
     3
 72
    27
 73
    23
 74
     0
 42
0.0000000001
 43
0.0000000001
 40
0.0
 40
0.0
 40
0.0
 40
0.0
 40
0.0156250000000001
 40
0.0156250000000001
 40
0.0312500000000001
 40
0.0625000000000002
 40
0.0625000000000002
 40
0.1250000000000003
 40
0.1250000000000003
 40
0.2500000000000003
 40
0.2500000000000003
 40
0.3750000000000002
 40
0.3750000000000002
 40
0.5000000000000002
 40
0.5000000000000002
 40
0.6250000000000002
 40
0.6250000000000002
 40
0.7500000000000001
 40
0.7500000000000001
 40
0.8750000000000001
 40
0.8750000000000001
 40
1.0
 40
1.0
 40
1.0
 40
1.0
 10
16.42247254178686
 20
6.417760193081618
 30
0.0
 10
16.44163347724839
 20
6.420552894213191
 30
0.0
 10
16.46085256120531
 20
6.423417009517495
 30
0.0
 10
16.49920395262622
 20
6.429258249400677
 30
0.0
 10
16.55670246503774
 20
6.43820444315606
 30
0.0
 10
16.61411572556717
 20
6.447702791662517
 30
0.0
 10
16.72882899677876
 20
6.467435021754758
 30
0.0
 10
16.80515371236717
 20
6.481569885662999
 30
0.0
 10
17.03366984326001
 20
6.526932216720648
 30
0.0
 10
17.1854056057701
 20
6.561101152788666
 30
0.0
 10
17.4875992658546
 20
6.637696179154009
 30
0.0
 10
17.63805982244787
 20
6.680123709579699
 30
0.0
 10
17.93754582552746
 20
6.774102788054299
 30
0.0
 10
18.08613549772947
 20
6.825514794606656
 30
0.0
 10
18.38064251745205
 20
6.938177610116798
 30
0.0
 10
18.52658447941316
 20
6.999418422101777
 30
0.0
 10
18.81542377046453
 20
7.133393634708401
 30
0.0
 10
18.95834140746482
 20
7.20615387223734
 30
0.0
 10
19.24034523620153
 20
7.36551921488374
 30
0.0
 10
19.3786290008732
 20
7.451747167326079
 30
0.0
 10
19.64843322752986
 20
7.640369645193656
 30
0.0
 10
19.78002411973762
 20
7.74276612717994
 30
0.0
 10
19.9070106864036
 20
7.856092771678317
 30
0.0
  0
SPLINE
  5
2F4
330
1F
100
AcDbEntity
  8
0
  6
Continuous
 62
     7
370
     0
100
AcDbSpline
210
0.0
220
0.0
230
1.0
 70
     8
 71
     3
 72
     8
 73
     4
 74
     0
 42
0.0000000001
 43
0.0000000001
 40
0.0000000000000001
 40
0.0000000000000001
 40
0.0000000000000001
 40
0.0000000000000001
 40
0.0000581742712999
 40
0.0000581742712999
 40
0.0000581742712999
 40
0.0000581742712999
 10
23.31442407032
 20
7.001416482831977
 30
0.0
 10
23.31394855031721
 20
7.001430168914659
 30
0.0
 10
23.31346524044858
 20
7.001437007523763
 30
0.0
 10
23.31297451044849
 20
7.001437007523763
 30
0.0
  0
LINE
  5
2F5
330
1F
100
AcDbEntity
  8
0
  6
Continuous
 62
     7
370
     0
100
AcDbLine
 10
17.12290506277816
 20
5.275933584921738
 30
0.0
 11
18.76636741705948
 21
5.275933584921738
 31
0.0
  0
SPLINE
  5
2F6
330
1F
100
AcDbEntity
  8
0
  6
Continuous
 62
     7
370
     0
100
AcDbSpline
210
0.0
220
0.0
230
1.0
 70
     8
 71
     3
 72
    20
 73
    16
 74
     0
 42
0.0000000001
 43
0.0000000001
 40
0.0
 40
0.0
 40
0.0
 40
0.0
 40
0.2499999999999837
 40
0.2499999999999837
 40
0.3749999999999864
 40
0.3749999999999864
 40
0.4999999999999892
 40
0.4999999999999892
 40
0.6249999999999921
 40
0.6249999999999921
 40
0.7499999999999946
 40
0.7499999999999946
 40
0.8749999999999971
 40
0.8749999999999971
 40
1.0
 40
1.0
 40
1.0
 40
1.0
 10
20.15962063979207
 20
7.975226192908659
 30
0.0
 10
20.15661396636708
 20
7.971392584948571
 30
0.0
 10
20.15213483538343
 20
7.967175280156617
 30
0.0
 10
20.14333666659129
 20
7.96025935600932
 30
0.0
 10
20.14002900048275
 20
7.957840538024938
 30
0.0
 10
20.13280006086599
 20
7.952893360470877
 30
0.0
 10
20.12888307598895
 20
7.950365551850339
 30
0.0
 10
20.12042997663912
 20
7.945218561839148
 30
0.0
 10
20.11589420392611
 20
7.942599277987237
 30
0.0
 10
20.10614649753585
 20
7.937291970566576
 30
0.0
 10
20.10093016653021
 20
7.934604424480857
 30
0.0
 10
20.09004624447627
 20
7.929346150080942
 30
0.0
 10
20.08434688697842
 20
7.926756949731286
 30
0.0
 10
20.072369781775
 20
7.921716358216495
 30
0.0
 10
20.06603212000946
 20
7.919244271331968
 30
0.0
 10
20.0595305952835
 20
7.916947960085098
 30
0.0
  0
SPLINE
  5
2F7
330
1F
100
AcDbEntity
  8
0
  6
Continuous
 62
     7
370
     0
100
AcDbSpline
210
0.0
220
0.0
230
1.0
 70
     8
 71
     3
 72
    14
 73
    10
 74
     0
 42
0.0000000001
 43
0.0000000001
 40
0.0
 40
0.0
 40
0.0
 40
0.0
 40
0.5000000000000071
 40
0.5000000000000071
 40
0.7500000000000046
 40
0.7500000000000046
 40
0.8750000000000021
 40
0.8750000000000021
 40
1.0
 40
1.0
 40
1.0
 40
1.0
 10
20.05953059528396
 20
7.916947960085258
 30
0.0
 10
20.03391125406686
 20
7.907899316289617
 30
0.0
 10
20.00838209536062
 20
7.898295025827612
 30
0.0
 10
19.97024287515714
 20
7.883077269387449
 30
0.0
 10
19.9575555832795
 20
7.877869175024577
 30
0.0
 10
19.9385660300244
 20
7.869854053817578
 30
0.0
 10
19.93224307876514
 20
7.867148500124567
 30
0.0
 10
19.91961145908182
 20
7.861669547821768
 30
0.0
 10
19.91325233825463
 20
7.858873647701598
 30
0.0
 10
19.90701068640372
 20
7.856092771678401
 30
0.0
  0
SPLINE
  5
2F8
330
1F
100
AcDbEntity
  8
0
  6
Continuous
 62
     7
370
     0
100
AcDbSpline
210
0.0
220
0.0
230
1.0
 70
     8
 71
     3
 72
    16
 73
    12
 74
     0
 42
0.0000000001
 43
0.0000000001
 40
0.0
 40
0.0
 40
0.0
 40
0.0
 40
0.2499999999999863
 40
0.2499999999999863
 40
0.4999999999999726
 40
0.4999999999999726
 40
0.7499999999999593
 40
0.7499999999999593
 40
0.8749999999999793
 40
0.8749999999999793
 40
1.0
 40
1.0
 40
1.0
 40
1.0
 10
24.37525379119393
 20
8.545789451113829
 30
0.0
 10
24.37786900216902
 20
8.548591793122518
 30
0.0
 10
24.38056129129306
 20
8.551081921768556
 30
0.0
 10
24.38611247210938
 20
8.555384277232949
 30
0.0
 10
24.38899660569149
 20
8.557209668895257
 30
0.0
 10
24.39483653727015
 20
8.559985115443986
 30
0.0
 10
24.39776961937071
 20
8.560935013919285
 30
0.0
 10
24.40219316841111
 20
8.561575520091409
 30
0.0
 10
24.40367171369124
 20
8.561657151708049
 30
0.0
 10
24.40663866179313
 20
8.561504993726337
 30
0.0
 10
24.40811164336224
 20
8.561212190518627
 30
0.0
 10
24.40954543630581
 20
8.560854573595777
 30
0.0
  0
SPLINE
  5
2F9
330
1F
100
AcDbEntity
  8
0
  6
Continuous
 62
     7
370
     0
100
AcDbSpline
210
0.0
220
0.0
230
1.0
 70
     8
 71
     3
 72
    30
 73
    26
 74
     0
 42
0.0000000001
 43
0.0000000001
 40
0.0
 40
0.0
 40
0.0
 40
0.0
 40
0.0368493861140013
 40
0.0757923460237988
 40
0.1132980105446408
 40
0.1509775702286733
 40
0.1880262953613859
 40
0.2259008472155576
 40
0.2646012917768662
 40
0.298975379447726
 40
0.3262691882427731
 40
0.3543644952576525
 40
0.3832612681273644
 40
0.4129595547982161
 40
0.4434593089162365
 40
0.4747605121486186
 40
0.5068632233045257
 40
0.5397673612576038
 40
0.5781534811998318
 40
0.6293080783343126
 40
0.6932309592013539
 40
0.769921912047225
 40
0.848751385710487
 40
0.9762233754284419
 40
1.0
 40
1.0
 40
1.0
 40
1.0
 10
24.20694501907391
 20
8.365419329197276
 30
0.0
 10
24.21168091743779
 20
8.392611400812111
 30
0.0
 10
24.22142178113677
 20
8.448540443824079
 30
0.0
 10
24.22770222847282
 20
8.533335819159592
 30
0.0
 10
24.236334259646
 20
8.618421611643181
 30
0.0
 10
24.24423687110277
 20
8.702179666341571
 30
0.0
 10
24.25233154614487
 20
8.786189344394486
 30
0.0
 10
24.26046230320022
 20
8.870966190146768
 30
0.0
 10
24.26841855298589
 20
8.953745170759555
 30
0.0
 10
24.27561694117365
 20
9.028629831650366
 30
0.0
 10
24.28205865859626
 20
9.095601546834117
 30
0.0
 10
24.28810986344488
 20
9.158486386383293
 30
0.0
 10
24.29433384141234
 20
9.22316511131564
 30
0.0
 10
24.30073356890668
 20
9.289637427857206
 30
0.0
 10
24.30730644345481
 20
9.35790355396551
 30
0.0
 10
24.31405280132005
 20
9.427963467249801
 30
0.0
 10
24.32097407986015
 20
9.499816990029168
 30
0.0
 10
24.32840384961941
 20
9.576956443829342
 30
0.0
 10
24.33720543135482
 20
9.66830978833288
 30
0.0
 10
24.34823501090094
 20
9.782805603176159
 30
0.0
 10
24.36201142551255
 20
9.925880332193738
 30
0.0
 10
24.37776792173591
 20
10.08960344572536
 30
0.0
 10
24.39806713612246
 20
10.30074136799205
 30
0.0
 10
24.41455623670871
 20
10.4724018120498
 30
0.0
 10
24.4253593375135
 20
10.58525147604303
 30
0.0
 10
24.42705760941669
 20
10.60299169869827
 30
0.0
  0
SPLINE
  5
2FA
330
1F
100
AcDbEntity
  8
0
  6
Continuous
 62
     7
370
     0
100
AcDbSpline
210
0.0
220
0.0
230
1.0
 70
     8
 71
     3
 72
    14
 73
    10
 74
     0
 42
0.0000000001
 43
0.0000000001
 40
0.0
 40
0.0
 40
0.0
 40
0.0
 40
0.5000000000000046
 40
0.5000000000000046
 40
0.6250000000000037
 40
0.6250000000000037
 40
0.7500000000000029
 40
0.7500000000000029
 40
1.0
 40
1.0
 40
1.0
 40
1.0
 10
24.7485573264467
 20
8.322910384615937
 30
0.0
 10
24.75758398802575
 20
8.34924289864907
 30
0.0
 10
24.76439087400431
 20
8.376028999093847
 30
0.0
 10
24.76985838494814
 20
8.410096713817891
 30
0.0
 10
24.77080000536853
 20
8.416939605997129
 30
0.0
 10
24.77237353530082
 20
8.430684909393949
 30
0.0
 10
24.77302713099509
 20
8.437585736584377
 30
0.0
 10
24.7743793513074
 20
8.458388932690859
 30
0.0
 10
24.77528085601465
 20
8.472257729114069
 30
0.0
 10
24.77618238621147
 20
8.486126524458025
 30
0.0
  0
SPLINE
  5
2FB
330
1F
100
AcDbEntity
  8
0
  6
Continuous
 62
     7
370
     0
100
AcDbSpline
210
0.0
220
0.0
230
1.0
 70
     8
 71
     3
 72
    26
 73
    22
 74
     0
 42
0.0000000001
 43
0.0000000001
 40
0.0
 40
0.0
 40
0.0
 40
0.0
 40
0.1250000000000016
 40
0.1250000000000016
 40
0.2500000000000033
 40
0.2500000000000033
 40
0.3750000000000049
 40
0.3750000000000049
 40
0.4375000000000038
 40
0.4375000000000038
 40
0.5000000000000028
 40
0.5000000000000028
 40
0.6250000000000007
 40
0.6250000000000007
 40
0.687500000000001
 40
0.687500000000001
 40
0.7500000000000016
 40
0.7500000000000016
 40
0.8750000000000007
 40
0.8750000000000007
 40
1.0
 40
1.0
 40
1.0
 40
1.0
 10
24.7364248134049
 20
8.078305396136556
 30
0.0
 10
24.73112290939555
 20
8.0813797610069
 30
0.0
 10
24.72644965139192
 20
8.084972425857142
 30
0.0
 10
24.71841301456413
 20
8.09345364151409
 30
0.0
 10
24.71504824855806
 20
8.098356464938959
 30
0.0
 10
24.70977682050779
 20
8.109666630373467
 30
0.0
 10
24.70785415449416
 20
8.116081469596938
 30
0.0
 10
24.70609247762015
 20
8.127178700900419
 30
0.0
 10
24.7056928102618
 20
8.131125025697571
 30
0.0
 10
24.70528642391899
 20
8.139593189011641
 30
0.0
 10
24.7052816689285
 20
8.144132272626277
 30
0.0
 10
24.70587914663358
 20
8.158514463316322
 30
0.0
 10
24.70708055018504
 20
8.169161831234866
 30
0.0
 10
24.71013427675079
 20
8.18717408309045
 30
0.0
 10
24.71136182800823
 20
8.193520530166598
 30
0.0
 10
24.71426394218317
 20
8.207016903730142
 30
0.0
 10
24.71594160965016
 20
8.214168775326999
 30
0.0
 10
24.7215068087111
 20
8.236298480380098
 30
0.0
 10
24.72595758148325
 20
8.252139792880559
 30
0.0
 10
24.73638738317792
 20
8.286446649542849
 30
0.0
 10
24.74227195463139
 20
8.30457474191116
 30
0.0
 10
24.7485573264467
 20
8.32291038461595
 30
0.0
  0
SPLINE
  5
2FC
330
1F
100
AcDbEntity
  8
0
  6
Continuous
 62
     7
370
     0
100
AcDbSpline
210
0.0
220
0.0
230
1.0
 70
     8
 71
     3
 72
     9
 73
     5
 74
     0
 42
0.0000000001
 43
0.0000000001
 40
0.0
 40
0.0
 40
0.0
 40
0.0
 40
0.6161802610502623
 40
1.0
 40
1.0
 40
1.0
 40
1.0
 10
23.31442415461702
 20
7.001416547649668
 30
0.0
 10
23.33544941871306
 20
7.002624479594667
 30
0.0
 10
23.3695713557907
 20
7.004584834415076
 30
0.0
 10
23.38394628820117
 20
7.02691253893322
 30
0.0
 10
23.38946367100638
 20
7.035482352652717
 30
0.0
  0
SPLINE
  5
2FD
330
1F
100
AcDbEntity
  8
0
  6
Continuous
 62
     7
370
     0
100
AcDbSpline
210
0.0
220
0.0
230
1.0
 70
     8
 71
     3
 72
    12
 73
     8
 74
     0
 42
0.0000000001
 43
0.0000000001
 40
0.0
 40
0.0
 40
0.0
 40
0.0
 40
0.2499999999999992
 40
0.2499999999999992
 40
0.4999999999999984
 40
0.4999999999999984
 40
1.0
 40
1.0
 40
1.0
 40
1.0
 10
25.14321784569247
 20
8.465820116102557
 30
0.0
 10
25.14193142980504
 20
8.445314200163821
 30
0.0
 10
25.14074833204166
 20
8.424795912644935
 30
0.0
 10
25.13777769117555
 20
8.383831762372777
 30
0.0
 10
25.13597578403942
 20
8.363387601701878
 30
0.0
 10
25.12962324500786
 20
8.302169572872436
 30
0.0
 10
25.12412709560782
 20
8.261509526549911
 30
0.0
 10
25.11736565129942
 20
8.221010033696686
 30
0.0
  0
SPLINE
  5
2FE
330
1F
100
AcDbEntity
  8
0
  6
Continuous
 62
     7
370
     0
100
AcDbSpline
210
0.0
220
0.0
230
1.0
 70
     8
 71
     3
 72
     8
 73
     4
 74
     0
 42
0.0000000001
 43
0.0000000001
 40
0.0000000000000094
 40
0.0000000000000094
 40
0.0000000000000094
 40
0.0000000000000094
 40
0.0000428173020701
 40
0.0000428173020701
 40
0.0000428173020701
 40
0.0000428173020701
 10
25.11736565129942
 20
8.221010033696686
 30
0.0
 10
25.11721580085452
 20
8.220471864265956
 30
0.0
 10
25.1170657511542
 20
8.219934032835737
 30
0.0
 10
25.11691551124946
 20
8.219396574448117
 30
0.0
  0
SPLINE
  5
2FF
330
1F
100
AcDbEntity
  8
0
  6
Continuous
 62
     7
370
     0
100
AcDbSpline
210
0.0
220
0.0
230
1.0
 70
     8
 71
     3
 72
     8
 73
     4
 74
     0
 42
0.0000000001
 43
0.0000000001
 40
0.0
 40
0.0
 40
0.0
 40
0.0
 40
1.0
 40
1.0
 40
1.0
 40
1.0
 10
25.21544424069694
 20
8.004571716280366
 30
0.0
 10
25.21233023604597
 20
8.004571716281027
 30
0.0
 10
25.20922835488735
 20
8.005021668251377
 30
0.0
 10
25.20613860092167
 20
8.005921581696231
 30
0.0
  0
SPLINE
  5
300
330
1F
100
AcDbEntity
  8
0
  6
Continuous
 62
     7
370
     0
100
AcDbSpline
210
0.0
220
0.0
230
1.0
 70
     8
 71
     3
 72
    22
 73
    18
 74
     0
 42
0.0000000001
 43
0.0000000001
 40
0.0
 40
0.0
 40
0.0
 40
0.0
 40
0.125
 40
0.125
 40
0.25
 40
0.25
 40
0.375
 40
0.375
 40
0.5
 40
0.5
 40
0.625
 40
0.625
 40
0.75
 40
0.75
 40
0.875
 40
0.875
 40
1.0
 40
1.0
 40
1.0
 40
1.0
 10
25.20613860092167
 20
8.005921581696231
 30
0.0
 10
25.20108536668793
 20
8.007393373132508
 30
0.0
 10
25.19605478739438
 20
8.010035684308217
 30
0.0
 10
25.1860376522807
 20
8.017594951256391
 30
0.0
 10
25.18101468267846
 20
8.022568115451338
 30
0.0
 10
25.17130569978295
 20
8.0345501486727
 30
0.0
 10
25.16659494550495
 20
8.041559950114077
 30
0.0
 10
25.15746723921611
 20
8.057657879577348
 30
0.0
 10
25.15317799303383
 20
8.06652049499636
 30
0.0
 10
25.14512278194813
 20
8.085796199397929
 30
0.0
 10
25.1413465203283
 20
8.096242674580821
 30
0.0
 10
25.13438727618511
 20
8.118625956451179
 30
0.0
 10
25.13127909701142
 20
8.130312233205778
 30
0.0
 10
25.12579106005477
 20
8.154654666944177
 30
0.0
 10
25.12340966073932
 20
8.167357509498039
 30
0.0
 10
25.11951546452408
 20
8.193126579678446
 30
0.0
 10
25.11799070477547
 20
8.206247652946597
 30
0.0
 10
25.11691551124961
 20
8.219396574448076
 30
0.0
  0
LINE
  5
301
330
1F
100
AcDbEntity
  8
0
  6
Continuous
 62
     7
370
     0
100
AcDbLine
 10
25.21544420511239
 20
8.0045717127763
 30
0.0
 11
24.48966993421894
 21
8.0045717127763
 31
0.0
  0
ARC
  5
302
330
1F
100
AcDbEntity
  8
0
  6
Continuous
 62
     7
370
     0
100
AcDbCircle
 10
25.19108389328192
 20
8.201679127415006
 30
0.0
 40
0.1963355515508682
100
AcDbArc
 50
274.3976756402983
 51
356.1568232870989
  0
SPLINE
  5
303
330
1F
100
AcDbEntity
  8
0
  6
Continuous
 62
     7
370
     0
100
AcDbSpline
210
0.0
220
0.0
230
1.0
 70
     8
 71
     3
 72
     8
 73
     4
 74
     0
 42
0.0000000001
 43
0.0000000001
 40
0.0
 40
0.0
 40
0.0
 40
0.0
 40
1.0
 40
1.0
 40
1.0
 40
1.0
 10
25.40334521871427
 20
8.452515217265361
 30
0.0
 10
25.3979336791072
 20
8.364513706216778
 30
0.0
 10
25.39247694782186
 20
8.276515185436416
 30
0.0
 10
25.38697780844844
 20
8.188519645885648
 30
0.0
  0
LINE
  5
304
330
1F
100
AcDbEntity
  8
0
  6
Continuous
 62
     7
370
     0
100
AcDbLine
 10
26.41007318870003
 20
10.60299169869759
 30
0.0
 11
26.28367170170824
 21
8.191119357995219
 31
0.0
  0
SPLINE
  5
305
330
1F
100
AcDbEntity
  8
0
  6
Continuous
 62
     7
370
     0
100
AcDbSpline
210
0.0
220
0.0
230
1.0
 70
     8
 71
     3
 72
     8
 73
     4
 74
     0
 42
0.0000000001
 43
0.0000000001
 40
0.0
 40
0.0
 40
0.0
 40
0.0
 40
0.0000575941508607
 40
0.0000575941508607
 40
0.0000575941508607
 40
0.0000575941508607
 10
25.38697780844846
 20
8.188519645885648
 30
0.0
 10
25.38733190382507
 20
8.188438634216705
 30
0.0
 10
25.3876909235708
 20
8.18839843345291
 30
0.0
 10
25.38805168136565
 20
8.188399230489487
 30
0.0
  0
ARC
  5
306
330
1F
100
AcDbEntity
  8
0
  6
Continuous
 62
     7
370
     0
100
AcDbCircle
 10
25.20381734729922
 20
8.188438642514137
 30
0.0
 40
0.1842341761816767
100
AcDbArc
 50
273.6182910751951
 51
359.9877237110999
  0
SPLINE
  5
307
330
1F
100
AcDbEntity
  8
0
  6
Continuous
 62
     7
370
     0
100
AcDbSpline
210
0.0
220
0.0
230
1.0
 70
     8
 71
     3
 72
    14
 73
    10
 74
     0
 42
0.0000000001
 43
0.0000000001
 40
0.0
 40
0.0
 40
0.0
 40
0.0
 40
0.2500000000000012
 40
0.2500000000000012
 40
0.5000000000000023
 40
0.5000000000000023
 40
0.7500000000000036
 40
0.7500000000000036
 40
1.0
 40
1.0
 40
1.0
 40
1.0
 10
26.08709167934061
 20
8.004571716002097
 30
0.0
 10
26.1120003639271
 20
8.00457171600134
 30
0.0
 10
26.13690048672263
 20
8.009355457186007
 30
0.0
 10
26.18317133510987
 20
8.027815653849167
 30
0.0
 10
26.20452615615483
 20
8.041485764056911
 30
0.0
 10
26.2406623989847
 20
8.075777778075607
 30
0.0
 10
26.25543139976193
 20
8.096387894790376
 30
0.0
 10
26.27628792646504
 20
8.141629198542595
 30
0.0
 10
26.2823682834365
 20
8.166244834915719
 30
0.0
 10
26.28367190326307
 20
8.191119383015681
 30
0.0
  0
SPLINE
  5
308
330
1F
100
AcDbEntity
  8
0
  6
Continuous
 62
     7
370
     0
100
AcDbSpline
210
0.0
220
0.0
230
1.0
 70
    24
 71
     3
 72
    18
 73
    14
 74
     0
 42
0.0000000001
 43
0.0000000001
 40
0.0
 40
0.0
 40
0.0
 40
0.0
 40
0.2500000000000002
 40
0.2500000000000002
 40
0.5000000000000006
 40
0.5000000000000006
 40
0.6250000000000007
 40
0.6250000000000007
 40
0.6875000000000007
 40
0.6875000000000007
 40
0.7500000000000006
 40
0.7500000000000006
 40
1.0
 40
1.0
 40
1.0
 40
1.0
 10
26.08709167934061
 20
8.004571716002097
 30
0.0
 10
26.08709167934177
 20
8.004571716024166
 30
0.0
 10
26.06733739923293
 20
8.004571716046577
 30
0.0
 10
25.99143349069352
 20
8.004571716092073
 30
0.0
 10
25.93526862627133
 20
8.004571716115139
 30
0.0
 10
25.82435554901211
 20
8.004571716150206
 30
0.0
 10
25.78292830173495
 20
8.004571716161969
 30
0.0
 10
25.71410861428805
 20
8.00457171617975
 30
0.0
 10
25.6900413602507
 20
8.004571716185701
 30
0.0
 10
25.63994865970477
 20
8.00457171619757
 30
0.0
 10
25.61389451753311
 20
8.0045717162035
 30
0.0
 10
25.47866759924598
 20
8.00457171623314
 30
0.0
 10
25.35468276587621
 20
8.004571716256801
 30
0.0
 10
25.21544424069694
 20
8.004571716280377
 30
0.0
  0
SPLINE
  5
309
330
1F
100
AcDbEntity
  8
0
  6
Continuous
 62
     7
370
     0
100
AcDbSpline
210
0.0
220
0.0
230
1.0
 70
    24
 71
     1
 72
     4
 73
     2
 74
     0
 42
0.0000000001
 43
0.0000000001
 40
0.0
 40
0.0
 40
1.0
 40
1.0
 10
23.84321250841779
 20
7.663767731391939
 30
0.0
 10
24.22514786572023
 20
7.883006200247559
 30
0.0
  0
SPLINE
  5
30A
330
1F
100
AcDbEntity
  8
0
  6
Continuous
 62
     7
370
     0
100
AcDbSpline
210
0.0
220
0.0
230
1.0
 70
     8
 71
     3
 72
    10
 73
     6
 74
     0
 42
0.0000000001
 43
0.0000000001
 40
0.0
 40
0.0
 40
0.0
 40
0.0
 40
0.5
 40
0.5
 40
1.0
 40
1.0
 40
1.0
 40
1.0
 10
24.22514770292874
 20
7.88300616615129
 30
0.0
 10
24.28763479474074
 20
7.922451637764709
 30
0.0
 10
24.35570456238416
 20
7.953038935280002
 30
0.0
 10
24.49767718221815
 20
7.9941011163373
 30
0.0
 10
24.57156522305024
 20
8.004571716048506
 30
0.0
 10
24.64546097308993
 20
8.00457171604625
 30
0.0
  0
SPLINE
  5
30B
330
1F
100
AcDbEntity
  8
0
  6
Continuous
 62
     7
370
     0
100
AcDbSpline
210
0.0
220
0.0
230
1.0
 70
     8
 71
     3
 72
     8
 73
     4
 74
     0
 42
0.0000000001
 43
0.0000000001
 40
0.0
 40
0.0
 40
0.0
 40
0.0
 40
0.0000253503344778
 40
0.0000253503344778
 40
0.0000253503344778
 40
0.0000253503344778
 10
15.60041546282151
 20
6.036945777242878
 30
0.0
 10
15.60043674528177
 20
6.036614056618717
 30
0.0
 10
15.60045685886306
 20
6.036282272173688
 30
0.0
 10
15.60047580293045
 20
6.035950437198718
 30
0.0
  0
SPLINE
  5
30C
330
1F
100
AcDbEntity
  8
0
  6
Continuous
 62
     7
370
     0
100
AcDbSpline
210
0.0
220
0.0
230
1.0
 70
     8
 71
     3
 72
    30
 73
    26
 74
     0
 42
0.0000000001
 43
0.0000000001
 40
0.0
 40
0.0
 40
0.0
 40
0.0
 40
0.1250000000000003
 40
0.1250000000000003
 40
0.2500000000000006
 40
0.2500000000000006
 40
0.3750000000000009
 40
0.3750000000000009
 40
0.4375000000000007
 40
0.4375000000000007
 40
0.5000000000000006
 40
0.5000000000000006
 40
0.625
 40
0.625
 40
0.6874999999999993
 40
0.6874999999999993
 40
0.7499999999999987
 40
0.7499999999999987
 40
0.8749999999999996
 40
0.8749999999999996
 40
0.9375000000000003
 40
0.9375000000000003
 40
0.96875
 40
0.96875
 40
1.0
 40
1.0
 40
1.0
 40
1.0
 10
15.60041546282151
 20
6.036945777242878
 30
0.0
 10
15.59923729499135
 20
6.055309376332459
 30
0.0
 10
15.59706424182304
 20
6.073285400203799
 30
0.0
 10
15.59081105596884
 20
6.108494797386088
 30
0.0
 10
15.58671367384181
 20
6.125784794034019
 30
0.0
 10
15.57658969418425
 20
6.159347368307919
 30
0.0
 10
15.5706833705504
 20
6.175246405764768
 30
0.0
 10
15.56060285747768
 20
6.197819765917047
 30
0.0
 10
15.55703799480884
 20
6.20513044537836
 30
0.0
 10
15.5494924321731
 20
6.21931761758134
 30
0.0
 10
15.5454918372141
 20
6.226224669618701
 30
0.0
 10
15.53299757324743
 20
6.246028543987407
 30
0.0
 10
15.52406668961156
 20
6.257958322067747
 30
0.0
 10
15.50979567124835
 20
6.27400251882041
 30
0.0
 10
15.50489204663655
 20
6.279040398081786
 30
0.0
 10
15.49478610753595
 20
6.288484330172869
 30
0.0
 10
15.48955593009307
 20
6.292909701406997
 30
0.0
 10
15.47367324800676
 20
6.305000689383986
 30
0.0
 10
15.46280842141953
 20
6.311532248343298
 30
0.0
 10
15.44611093965131
 20
6.31911482767903
 30
0.0
 10
15.44047802282114
 20
6.321271097830987
 30
0.0
 10
15.43192639849151
 20
6.323939525701647
 30
0.0
 10
15.42905879197055
 20
6.324734540880037
 30
0.0
 10
15.42328888132978
 20
6.326132472732341
 30
0.0
 10
15.42036056364368
 20
6.32673945699986
 30
0.0
 10
15.41748532793675
 20
6.327236820067771
 30
0.0
  0
ELLIPSE
  5
30D
330
1F
100
AcDbEntity
  8
0
  6
Continuous
 62
     7
370
     0
100
AcDbEllipse
 10
17.16732262180113
 20
4.961733574744268
 30
0.0
 11
-0.0605963104668174
 21
0.3118669339509373
 31
0.0
210
0.0
220
0.0
230
1.0
 40
0.7266449164000001
 41
6.212403132060246
 42
6.862609871087308
  0
ELLIPSE
  5
30E
330
1F
100
AcDbEntity
  8
0
  6
Continuous
 62
     7
370
     0
100
AcDbEllipse
 10
16.77090804460824
 20
5.524261716299906
 30
0.0
 11
-0.012671297017184
 21
0.4329623124444935
 31
0.0
210
0.0
220
0.0
230
1.0
 40
0.7621294371
 41
3.119291480579466
 42
3.838977374094421
  0
LINE
  5
30F
330
1F
100
AcDbEntity
  8
0
  6
Continuous
 62
     7
370
     0
100
AcDbLine
 10
16.99253479290504
 20
5.198587619791137
 30
0.0
 11
18.62208794568594
 21
5.198587619791137
 31
0.0
  0
LINE
  5
310
330
1F
100
AcDbEntity
  8
0
  6
Continuous
 62
     7
370
     0
100
AcDbLine
 10
16.77621799445684
 20
5.091191821898127
 30
0.0
 11
16.52297846388573
 21
5.091191821898127
 31
0.0
  0
SPLINE
  5
311
330
1F
100
AcDbEntity
  8
0
  6
Continuous
 62
     7
370
     0
100
AcDbSpline
210
0.0
220
0.0
230
1.0
 70
     8
 71
     3
 72
    32
 73
    28
 74
     0
 42
0.0000000001
 43
0.0000000001
 40
0.0
 40
0.0
 40
0.0
 40
0.0
 40
0.015625
 40
0.015625
 40
0.0312499999999999
 40
0.0312499999999999
 40
0.0624999999999998
 40
0.0624999999999998
 40
0.0937499999999998
 40
0.0937499999999998
 40
0.1249999999999997
 40
0.1249999999999997
 40
0.1874999999999996
 40
0.1874999999999996
 40
0.2499999999999994
 40
0.2499999999999994
 40
0.3749999999999996
 40
0.3749999999999996
 40
0.5
 40
0.5
 40
0.625
 40
0.625
 40
0.75
 40
0.75
 40
0.875
 40
0.875
 40
1.0
 40
1.0
 40
1.0
 40
1.0
 10
15.62739107692283
 20
5.384181217327598
 30
0.0
 10
15.62760237954041
 20
5.378660556510218
 30
0.0
 10
15.62893119702788
 20
5.373233544605851
 30
0.0
 10
15.6329807950899
 20
5.363336090200709
 30
0.0
 10
15.63566211299923
 20
5.358805279836178
 30
0.0
 10
15.64477034882512
 20
5.346105968665468
 30
0.0
 10
15.65195131016032
 20
5.339077983143456
 30
0.0
 10
15.66699330100163
 20
5.326162838000508
 30
0.0
 10
15.67490744316169
 20
5.320339178029262
 30
0.0
 10
15.69099878023371
 20
5.309442448724879
 30
0.0
 10
15.69921723365964
 20
5.304357485201379
 30
0.0
 10
15.72422473479857
 20
5.28976664407954
 30
0.0
 10
15.74137810055357
 20
5.280902541964458
 30
0.0
 10
15.77616426234387
 20
5.264112224387829
 30
0.0
 10
15.79381510356774
 20
5.256202019171518
 30
0.0
 10
15.84740938820013
 20
5.233422735129949
 30
0.0
 10
15.88389739877657
 20
5.21952657816044
 30
0.0
 10
15.95798916064838
 20
5.19354036960787
 30
0.0
 10
15.99564110273034
 20
5.181462741060038
 30
0.0
 10
16.07221119591882
 20
5.15903786751444
 30
0.0
 10
16.11112988222085
 20
5.148695625283687
 30
0.0
 10
16.19038759407674
 20
5.129987853807519
 30
0.0
 10
16.230853846322
 20
5.121601646409349
 30
0.0
 10
16.31263616034935
 20
5.107469658950128
 30
0.0
 10
16.35396831579813
 20
5.101706938766247
 30
0.0
 10
16.43765397332866
 20
5.093574968992886
 30
0.0
 10
16.4800058228387
 20
5.091191716298047
 30
0.0
 10
16.52297846107353
 20
5.091191716298047
 30
0.0
  0
LINE
  5
312
330
1F
100
AcDbEntity
  8
0
  6
Continuous
 62
     7
370
     0
100
AcDbLine
 10
18.40313752626087
 20
5.091191821898127
 30
0.0
 11
18.16174154435301
 21
5.091191821898127
 31
0.0
  0
SPLINE
  5
313
330
1F
100
AcDbEntity
  8
0
  6
Continuous
 62
     7
370
     0
100
AcDbSpline
210
0.0
220
0.0
230
1.0
 70
     8
 71
     3
 72
    26
 73
    22
 74
     0
 42
0.0000000001
 43
0.0000000001
 40
0.0
 40
0.0
 40
0.0
 40
0.0
 40
0.0625000000000002
 40
0.0625000000000002
 40
0.1250000000000004
 40
0.1250000000000004
 40
0.2500000000000006
 40
0.2500000000000006
 40
0.3125000000000006
 40
0.3125000000000006
 40
0.3750000000000005
 40
0.3750000000000005
 40
0.5000000000000006
 40
0.5000000000000006
 40
0.6250000000000006
 40
0.6250000000000006
 40
0.7500000000000002
 40
0.7500000000000002
 40
0.8750000000000001
 40
0.8750000000000001
 40
1.0
 40
1.0
 40
1.0
 40
1.0
 10
17.05902488156989
 20
5.091191716298047
 30
0.0
 10
17.09108301830368
 20
5.091191716298047
 30
0.0
 10
17.12271506922062
 20
5.09177923204843
 30
0.0
 10
17.18486357040275
 20
5.093700989600398
 30
0.0
 10
17.21538519357753
 20
5.095034641529136
 30
0.0
 10
17.30537240159612
 20
5.099629468562688
 30
0.0
 10
17.36326708366344
 20
5.103463337861398
 30
0.0
 10
17.44714370021952
 20
5.108783801455988
 30
0.0
 10
17.47460655257973
 20
5.110491422191497
 30
0.0
 10
17.52855042839199
 20
5.113576043842978
 30
0.0
 10
17.55507339248612
 20
5.11495432582209
 30
0.0
 10
17.63269162773812
 20
5.118342187421968
 30
0.0
 10
17.68193883590688
 20
5.119583254050947
 30
0.0
 10
17.77554349844695
 20
5.11957557635551
 30
0.0
 10
17.81990089458046
 20
5.118327203771198
 30
0.0
 10
17.90365363103856
 20
5.113812851666957
 30
0.0
 10
17.9431256483825
 20
5.110538039262339
 30
0.0
 10
18.01591198783292
 20
5.103434055094917
 30
0.0
 10
18.04936146232814
 20
5.099602291842388
 30
0.0
 10
18.11020666561099
 20
5.093491699559318
 30
0.0
 10
18.13760475518722
 20
5.091191716298038
 30
0.0
 10
18.16174147438782
 20
5.091191716298038
 30
0.0
  0
LINE
  5
314
330
1F
100
AcDbEntity
  8
0
  6
Continuous
 62
     7
370
     0
100
AcDbLine
 10
17.05902489515686
 20
5.091191821898127
 30
0.0
 11
16.77621799445684
 21
5.091191821898127
 31
0.0
  0
ARC
  5
315
330
1F
100
AcDbEntity
  8
0
  6
Continuous
 62
     7
370
     0
100
AcDbCircle
 10
15.61300264181346
 20
3.548714767696988
 30
0.0
 40
1.835522838964548
100
AcDbArc
 50
89.55086112609542
 51
90.44913887390457
  0
ARC
  5
316
330
1F
100
AcDbEntity
  8
0
  6
Continuous
 62
     7
370
     0
100
AcDbCircle
 10
16.84939019786806
 20
5.00944005381144
 30
0.0
 40
0.3364936428325946
100
AcDbArc
 50
165.9391706843993
 51
182.8401980992999
  0
SPLINE
  5
317
330
1F
100
AcDbEntity
  8
0
  6
Continuous
 62
     7
370
     0
100
AcDbSpline
210
0.0
220
0.0
230
1.0
 70
     8
 71
     3
 72
    16
 73
    12
 74
     0
 42
0.0000000001
 43
0.0000000001
 40
0.0
 40
0.0
 40
0.0
 40
0.0
 40
0.2499999999999999
 40
0.2499999999999999
 40
0.5
 40
0.5
 40
0.75
 40
0.75
 40
0.875
 40
0.875
 40
1.0
 40
1.0
 40
1.0
 40
1.0
 10
15.91930963156863
 20
5.077460154441522
 30
0.0
 10
15.96678713116451
 20
5.065925880473488
 30
0.0
 10
16.01468922024145
 20
5.055134029185579
 30
0.0
 10
16.11176658621913
 20
5.035382023093719
 30
0.0
 10
16.16095690915798
 20
5.026421103050211
 30
0.0
 10
16.25994108907338
 20
5.011109664042456
 30
0.0
 10
16.30984585448002
 20
5.004723302262466
 30
0.0
 10
16.38552960287457
 20
4.997850103240747
 30
0.0
 10
16.41089599256648
 20
4.996014786048148
 30
0.0
 10
16.46195097918124
 20
4.993471585721599
 30
0.0
 10
16.4876701998821
 20
4.992766716298048
 30
0.0
 10
16.51330989777501
 20
4.992766716298048
 30
0.0
  0
SPLINE
  5
318
330
1F
100
AcDbEntity
  8
0
  6
Continuous
 62
     7
370
     0
100
AcDbSpline
210
0.0
220
0.0
230
1.0
 70
     8
 71
     3
 72
    22
 73
    18
 74
     0
 42
0.0000000001
 43
0.0000000001
 40
0.0
 40
0.0
 40
0.0
 40
0.0
 40
0.2500000000000003
 40
0.2500000000000003
 40
0.5000000000000007
 40
0.5000000000000007
 40
0.6249999999999995
 40
0.6249999999999995
 40
0.7499999999999984
 40
0.7499999999999984
 40
0.8124999999999984
 40
0.8124999999999984
 40
0.8749999999999991
 40
0.8749999999999991
 40
0.9374999999999996
 40
0.9374999999999996
 40
1.0
 40
1.0
 40
1.0
 40
1.0
 10
15.91930963156861
 20
5.077460154442078
 30
0.0
 10
15.88584477984978
 20
5.095558928161509
 30
0.0
 10
15.85313078595207
 20
5.114769421076007
 30
0.0
 10
15.78934101252341
 20
5.155847480641247
 30
0.0
 10
15.75826705158918
 20
5.17767075483073
 30
0.0
 10
15.71401299322586
 20
5.213039935247039
 30
0.0
 10
15.69961365728525
 20
5.225314080671738
 30
0.0
 10
15.67205600913412
 20
5.251101887262369
 30
0.0
 10
15.6588614120108
 20
5.264607108093637
 30
0.0
 10
15.64053577147062
 20
5.286565950584818
 30
0.0
 10
15.63465321218449
 20
5.294210049057369
 30
0.0
 10
15.62375102258545
 20
5.310143445487659
 30
0.0
 10
15.61872394789346
 20
5.318428902591829
 30
0.0
 10
15.60990967760627
 20
5.335954051924808
 30
0.0
 10
15.60616893766857
 20
5.34513727591454
 30
0.0
 10
15.60072517468309
 20
5.364183146264219
 30
0.0
 10
15.59902178082789
 20
5.374160460134728
 30
0.0
 10
15.59861422112919
 20
5.384181217327598
 30
0.0
  0
LWPOLYLINE
  5
319
330
1F
100
AcDbEntity
  8
0
  6
Continuous
 62
     7
370
     0
100
AcDbPolyline
 90
        9
 70
   128
 43
0.0
 10
17.05902489515686
 20
5.091191821898127
 10
17.04979550690307
 20
5.089507524723416
 10
17.0407240765066
 20
5.084484259466818
 10
17.03196577520041
 20
5.076207384965488
 10
17.02367045761785
 20
5.064818872640191
 10
17.01598005850655
 20
5.05051319984609
 10
17.00902617274506
 20
5.03353558992736
 10
17.00292778205997
 20
5.014176438952818
 10
16.99778920169935
 20
4.992766622433959
  0
LINE
  5
31A
330
1F
100
AcDbEntity
  8
0
  6
Continuous
 62
     7
370
     0
100
AcDbLine
 10
16.51330989741581
 20
4.992766622433959
 30
0.0
 11
16.99778920169935
 21
4.992766622433959
 31
0.0
  0
ARC
  5
31B
330
1F
100
AcDbEntity
  8
0
  6
Continuous
 62
     7
370
     0
100
AcDbCircle
 10
15.63411813090523
 20
3.85347977154371
 30
0.0
 40
2.183726124752674
100
AcDbArc
 50
90.88431261869692
 51
91.62845232190331
  0
SPLINE
  5
31C
330
1F
100
AcDbEntity
  8
0
  6
Continuous
 62
     7
370
     0
100
AcDbSpline
210
0.0
220
0.0
230
1.0
 70
     8
 71
     3
 72
    30
 73
    26
 74
     0
 42
0.0000000001
 43
0.0000000001
 40
0.0
 40
0.0
 40
0.0
 40
0.0
 40
0.1250000000000016
 40
0.1250000000000016
 40
0.2500000000000032
 40
0.2500000000000032
 40
0.3750000000000048
 40
0.3750000000000048
 40
0.437500000000005
 40
0.437500000000005
 40
0.5000000000000055
 40
0.5000000000000055
 40
0.6250000000000045
 40
0.6250000000000045
 40
0.6875000000000028
 40
0.6875000000000028
 40
0.7500000000000016
 40
0.7500000000000016
 40
0.875
 40
0.875
 40
0.9374999999999992
 40
0.9374999999999992
 40
0.9687499999999996
 40
0.9687499999999996
 40
1.0
 40
1.0
 40
1.0
 40
1.0
 10
15.57206093000728
 20
6.03632384615234
 30
0.0
 10
15.57118736614401
 20
6.054693507482098
 30
0.0
 10
15.56946370463155
 20
6.072678850323469
 30
0.0
 10
15.56438490764739
 20
6.107913076942728
 30
0.0
 10
15.56101548451971
 20
6.125218621968407
 30
0.0
 10
15.55262069276222
 20
6.158818567723971
 30
0.0
 10
15.54769521013288
 20
6.174738950677746
 30
0.0
 10
15.53925067480795
 20
6.197348070416627
 30
0.0
 10
15.53625874973338
 20
6.204671297184268
 30
0.0
 10
15.52991452782829
 20
6.21888482207395
 30
0.0
 10
15.52654544013964
 20
6.22580575097095
 30
0.0
 10
15.51600685726097
 20
6.245652644259839
 30
0.0
 10
15.50845299952212
 20
6.257612728449199
 30
0.0
 10
15.49635049116977
 20
6.273704700082698
 30
0.0
 10
15.49218697199452
 20
6.278758892880408
 30
0.0
 10
15.48359588483402
 20
6.288236239087106
 30
0.0
 10
15.47914455276849
 20
6.292678802212638
 30
0.0
 10
15.46561133551974
 20
6.304821678466878
 30
0.0
 10
15.45633338942446
 20
6.311388333152349
 30
0.0
 10
15.44204398627082
 20
6.319024321174517
 30
0.0
 10
15.43721842863571
 20
6.321198522638499
 30
0.0
 10
15.42988479959264
 20
6.323894049433198
 30
0.0
 10
15.42742435323544
 20
6.324698131302298
 30
0.0
 10
15.42247110808029
 20
6.326114266248728
 30
0.0
 10
15.41995604419889
 20
6.326730425614067
 30
0.0
 10
15.41748532793676
 20
6.327236820067771
 30
0.0
  0
SPLINE
  5
31D
330
1F
100
AcDbEntity
  8
0
  6
Continuous
 62
     7
370
     0
100
AcDbSpline
210
0.0
220
0.0
230
1.0
 70
     8
 71
     3
 72
    14
 73
    10
 74
     0
 42
0.0000000001
 43
0.0000000001
 40
0.0
 40
0.0
 40
0.0
 40
0.0
 40
0.25
 40
0.25
 40
0.5
 40
0.5
 40
0.75
 40
0.75
 40
1.0
 40
1.0
 40
1.0
 40
1.0
 10
14.48002994068939
 20
6.312391978824762
 30
0.0
 10
14.5171952812761
 20
6.309397703583578
 30
0.0
 10
14.55381360338385
 20
6.299736130992579
 30
0.0
 10
14.62142329962742
 20
6.268274378427888
 30
0.0
 10
14.65239685473906
 20
6.246482490426528
 30
0.0
 10
14.70484722267752
 20
6.193474266501259
 30
0.0
 10
14.7263102118307
 20
6.162271901277959
 30
0.0
 10
14.75705493873948
 20
6.094333144534147
 30
0.0
 10
14.76632857350004
 20
6.057614658764108
 30
0.0
 10
14.76892949694381
 20
6.020419720635548
 30
0.0
  0
ARC
  5
31E
330
1F
100
AcDbEntity
  8
0
  6
Continuous
 62
     7
370
     0
100
AcDbCircle
 10
16.17723169554206
 20
4.97609322854459
 30
0.0
 40
0.3364915449731137
100
AcDbArc
 50
345.9391261271994
 51
2.840209429699473
  0
SPLINE
  5
31F
330
1F
100
AcDbEntity
  8
0
  6
Continuous
 62
     7
370
     0
100
AcDbSpline
210
0.0
220
0.0
230
1.0
 70
    24
 71
     3
 72
    16
 73
    12
 74
     0
 42
0.0000000001
 43
0.0000000001
 40
0.0
 40
0.0
 40
0.0
 40
0.0
 40
0.125
 40
0.125
 40
0.2499999999999999
 40
0.2499999999999999
 40
0.5
 40
0.5
 40
0.75
 40
0.75
 40
1.0
 40
1.0
 40
1.0
 40
1.0
 10
16.50364133447648
 20
4.894341716298049
 30
0.0
 10
16.48110201407567
 20
4.894341716298049
 30
0.0
 10
16.45846940786038
 20
4.894341716298049
 30
0.0
 10
16.41367567793021
 20
4.894341716298049
 30
0.0
 10
16.39145660708539
 20
4.894341716298049
 30
0.0
 10
16.32521376960312
 20
4.894341716298049
 30
0.0
 10
16.28159829869024
 20
4.894341716298049
 30
0.0
 10
16.19498226200067
 20
4.894341716298049
 30
0.0
 10
16.15194662294593
 20
4.894341716298049
 30
0.0
 10
16.06647947382053
 20
4.894341716298049
 30
0.0
 10
16.02400610294391
 20
4.894341716298049
 30
0.0
 10
15.98154573613423
 20
4.894341716298049
 30
0.0
  0
LWPOLYLINE
  5
320
330
1F
100
AcDbEntity
  8
0
  6
Continuous
 62
     7
370
     0
100
AcDbPolyline
 90
        9
 70
   128
 43
0.0
 10
15.91930962404078
 20
5.077460194656709
 10
15.92121358823679
 20
5.04107327444251
 10
15.92523517040226
 20
5.006445743717388
 10
15.93123320578412
 20
4.974792279355158
 10
15.93899715723257
 20
4.947224599624478
 10
15.94825455844214
 20
4.92471010474412
 10
15.95868043714939
 20
4.908039024003667
 10
15.96990886497989
 20
4.897796256146728
 10
15.98154575394228
 20
4.894341716299907
  0
SPLINE
  5
321
330
1F
100
AcDbEntity
  8
0
  6
Continuous
 62
     7
370
     0
100
AcDbSpline
210
0.0
220
0.0
230
1.0
 70
     8
 71
     3
 72
    28
 73
    24
 74
     0
 42
0.0000000001
 43
0.0000000001
 40
0.0
 40
0.0
 40
0.0
 40
0.0
 40
0.1249999999999999
 40
0.1249999999999999
 40
0.2499999999999998
 40
0.2499999999999998
 40
0.3124999999999998
 40
0.3124999999999998
 40
0.3749999999999998
 40
0.3749999999999998
 40
0.5
 40
0.5
 40
0.6250000000000001
 40
0.6250000000000001
 40
0.6875000000000001
 40
0.6875000000000001
 40
0.75
 40
0.75
 40
0.875
 40
0.875
 40
0.9375
 40
0.9375
 40
1.0
 40
1.0
 40
1.0
 40
1.0
 10
16.99778921869845
 20
4.992766716298048
 30
0.0
 10
17.06121512911735
 20
4.992766716298048
 30
0.0
 10
17.1221225688851
 20
4.994415269104877
 30
0.0
 10
17.23957938755144
 20
4.998821384210468
 30
0.0
 10
17.29612998532101
 20
5.001598888128568
 30
0.0
 10
17.37788793018892
 20
5.005500004979258
 30
0.0
 10
17.40459134405664
 20
5.006757101272717
 30
0.0
 10
17.45630271031564
 20
5.009011611436228
 30
0.0
 10
17.48140107204007
 20
5.010013413039868
 30
0.0
 10
17.55449179528802
 20
5.01248675778063
 30
0.0
 10
17.60028877977091
 20
5.013405438457988
 30
0.0
 10
17.68609464058189
 20
5.013419126403761
 30
0.0
 10
17.72610409717745
 20
5.012513140081209
 30
0.0
 10
17.78160423240553
 20
5.010024329302617
 30
0.0
 10
17.79938628824053
 20
5.009008367400188
 30
0.0
 10
17.83295459971854
 20
5.006745569628808
 30
0.0
 10
17.84879482149402
 20
5.005497511150468
 30
0.0
 10
17.89347676948788
 20
5.0016240029742
 30
0.0
 10
17.91950528425359
 20
4.998853583712499
 30
0.0
 10
17.95246201189231
 20
4.99553803029544
 30
0.0
 10
17.96242700711795
 20
4.994576154035818
 30
0.0
 10
17.98016374520549
 20
4.993189263728858
 30
0.0
 10
17.98791343026121
 20
4.992766716298039
 30
0.0
 10
17.99442563978448
 20
4.992766716298039
 30
0.0
  0
LINE
  5
322
330
1F
100
AcDbEntity
  8
0
  6
Continuous
 62
     7
370
     0
100
AcDbLine
 10
16.9365535449032
 20
4.894341716299907
 30
0.0
 11
16.5036413309459
 21
4.894341716299907
 31
0.0
  0
LWPOLYLINE
  5
323
330
1F
100
AcDbEntity
  8
0
  6
Continuous
 62
     7
370
     0
100
AcDbPolyline
 90
        9
 70
   128
 43
0.0
 10
16.9365535449032
 20
4.894341716299907
 10
16.94578289649171
 20
4.896025720144497
 10
16.95485436355346
 20
4.901049278731218
 10
16.9636126648636
 20
4.909326153228608
 10
16.97190798244221
 20
4.920714665553907
 10
16.97959838155351
 20
4.935020045021828
 10
16.98655226731501
 20
4.951997654936619
 10
16.99265065800403
 20
4.971357099245218
 10
16.99778920169935
 20
4.992766622433959
  0
SPLINE
  5
324
330
1F
100
AcDbEntity
  8
0
  6
Continuous
 62
     7
370
     0
100
AcDbSpline
210
0.0
220
0.0
230
1.0
 70
     8
 71
     3
 72
     8
 73
     4
 74
     0
 42
0.0000000001
 43
0.0000000001
 40
0.0
 40
0.0
 40
0.0
 40
0.0
 40
0.0000095086417665
 40
0.0000095086417665
 40
0.0000095086417665
 40
0.0000095086417665
 10
15.57207870615595
 20
6.035950437198718
 30
0.0
 10
15.57207363313973
 20
6.036074916352469
 30
0.0
 10
15.57206770781022
 20
6.036199393913527
 30
0.0
 10
15.5720609300073
 20
6.03632384615234
 30
0.0
  0
SPLINE
  5
325
330
1F
100
AcDbEntity
  8
0
  6
Continuous
 62
     7
370
     0
100
AcDbSpline
210
0.0
220
0.0
230
1.0
 70
     8
 71
     3
 72
    11
 73
     7
 74
     0
 42
0.0000000001
 43
0.0000000001
 40
0.0
 40
0.0
 40
0.0
 40
0.0
 40
0.0100000000050478
 40
0.0100000000050478
 40
0.0100000000050478
 40
0.0165956595168055
 40
0.0165956595168055
 40
0.0165956595168055
 40
0.0165956595168055
 10
15.59861422112919
 20
5.384181217327598
 30
0.0
 10
15.59328984529792
 20
5.51509278090135
 30
0.0
 10
15.58796214557946
 20
5.646004356698746
 30
0.0
 10
15.58263121129589
 20
5.776915944330428
 30
0.0
 10
15.57911510855523
 20
5.863260770127799
 30
0.0
 10
15.5755975986057
 20
5.949605601120029
 30
0.0
 10
15.57207870615598
 20
6.035950437198718
 30
0.0
  0
LINE
  5
326
330
1F
100
AcDbEntity
  8
0
  6
Continuous
 62
     7
370
     0
100
AcDbLine
 10
15.98154575394228
 20
4.894341716299907
 30
0.0
 11
15.03123808928583
 21
4.894341716299907
 31
0.0
  0
SPLINE
  5
327
330
1F
100
AcDbEntity
  8
0
  6
Continuous
 62
     7
370
     0
100
AcDbSpline
210
0.0
220
0.0
230
1.0
 70
    24
 71
     3
 72
    28
 73
    24
 74
     0
 42
0.0000000001
 43
0.0000000001
 40
0.0
 40
0.0
 40
0.0
 40
0.0
 40
0.0625000000000002
 40
0.0625000000000002
 40
0.1250000000000005
 40
0.1250000000000005
 40
0.2500000000000006
 40
0.2500000000000006
 40
0.3125000000000008
 40
0.3125000000000008
 40
0.3750000000000009
 40
0.3750000000000009
 40
0.5000000000000009
 40
0.5000000000000009
 40
0.6250000000000008
 40
0.6250000000000008
 40
0.6875000000000007
 40
0.6875000000000007
 40
0.7500000000000006
 40
0.7500000000000006
 40
0.8750000000000003
 40
0.8750000000000003
 40
1.0
 40
1.0
 40
1.0
 40
1.0
 10
17.82710980518114
 20
4.894341716298038
 30
0.0
 10
17.82131274415876
 20
4.894341716298038
 30
0.0
 10
17.81414115429498
 20
4.894341716298038
 30
0.0
 10
17.79752664808714
 20
4.894341716298038
 30
0.0
 10
17.78810498869897
 20
4.894341716298038
 30
0.0
 10
17.75696616544238
 20
4.894341716298038
 30
0.0
 10
17.73241444632049
 20
4.894341716298038
 30
0.0
 10
17.69089263614644
 20
4.894341716298038
 30
0.0
 10
17.6762588771202
 20
4.894341716298049
 30
0.0
 10
17.64546542195268
 20
4.894341716298049
 30
0.0
 10
17.62927039728621
 20
4.894341716298049
 30
0.0
 10
17.57897285006938
 20
4.894341716298049
 30
0.0
 10
17.54303258714695
 20
4.894341716298049
 30
0.0
 10
17.46654643736382
 20
4.894341716298049
 30
0.0
 10
17.42600001393802
 20
4.894341716298049
 30
0.0
 10
17.36164169145831
 20
4.894341716298049
 30
0.0
 10
17.33959678992639
 20
4.894341716298049
 30
0.0
 10
17.29426622709516
 20
4.894341716298049
 30
0.0
 10
17.27091442859451
 20
4.894341716298049
 30
0.0
 10
17.19935236606719
 20
4.894341716298049
 30
0.0
 10
17.14987016792781
 20
4.894341716298049
 30
0.0
 10
17.04671099303822
 20
4.894341716298049
 30
0.0
 10
16.99304116793288
 20
4.894341716298049
 30
0.0
 10
16.93655355582703
 20
4.894341716298049
 30
0.0
  0
ARC
  5
328
330
1F
100
AcDbEntity
  8
0
  6
Continuous
 62
     7
370
     0
100
AcDbCircle
 10
15.58627725733126
 20
4.198572325183998
 30
0.0
 40
1.837433073038256
100
AcDbArc
 50
89.55724848059928
 51
90.44275151940068
  0
LINE
  5
329
330
1F
100
AcDbEntity
  8
0
  6
Continuous
 62
     7
370
     0
100
AcDbLine
 10
17.85364906632266
 20
4.894341716299907
 30
0.0
 11
17.82710979931863
 21
4.894341716299907
 31
0.0
  0
LWPOLYLINE
  5
32A
330
1F
100
AcDbEntity
  8
0
  6
Continuous
 62
     7
370
     0
100
AcDbPolyline
 90
        3
 70
   128
 43
0.0
 10
16.42247254178775
 20
11.19354172216605
 10
16.42247254178775
 20
11.19354172216605
 10
16.42247254178775
 20
11.19354172216605
  0
SPLINE
  5
32B
330
1F
100
AcDbEntity
  8
0
  6
Continuous
 62
     7
370
     0
100
AcDbSpline
210
0.0
220
0.0
230
1.0
 70
     8
 71
     3
 72
    10
 73
     6
 74
     0
 42
0.0000000001
 43
0.0000000001
 40
0.0
 40
0.0
 40
0.0
 40
0.0
 40
0.0000010832546012
 40
0.2907850356117631
 40
1.0
 40
1.0
 40
1.0
 40
1.0
 10
21.20726015114053
 20
8.444055943505057
 30
0.0
 10
21.20726015114056
 20
8.444056725716688
 30
0.0
 10
21.20726015548747
 20
8.65403084957564
 30
0.0
 10
21.19517580715732
 20
9.372152951129251
 30
0.0
 10
21.18889176326347
 20
10.09227196481345
 30
0.0
 10
21.18443502046929
 20
10.6029916986983
 30
0.0
  0
SPLINE
  5
32C
330
1F
100
AcDbEntity
  8
0
  6
Continuous
 62
     7
370
     0
100
AcDbSpline
210
0.0
220
0.0
230
1.0
 70
    24
 71
     3
 72
    11
 73
     7
 74
     0
 42
0.0000000001
 43
0.0000000001
 40
0.0220610163182547
 40
0.0220610163182547
 40
0.0220610163182547
 40
0.0220610163182547
 40
0.0232320559513993
 40
0.0232320559513993
 40
0.0232320559513993
 40
0.0232321159513993
 40
0.0232321159513993
 40
0.0232321159513993
 40
0.0232321159513993
 10
20.72579700503984
 20
8.004571716298036
 30
0.0
 10
20.73736184138114
 20
8.004571716298036
 30
0.0
 10
20.74892667772245
 20
8.004571716298036
 30
0.0
 10
20.76049151406377
 20
8.004571716298036
 30
0.0
 10
20.76049210660578
 20
8.004571716298036
 30
0.0
 10
20.76049269914778
 20
8.004571716298036
 30
0.0
 10
20.76049329168981
 20
8.004571716298036
 30
0.0
  0
LINE
  5
32D
330
1F
100
AcDbEntity
  8
0
  6
Continuous
 62
     7
370
     0
100
AcDbLine
 10
22.13274859548445
 20
10.60299169869759
 30
0.0
 11
22.11616375357547
 21
8.442278954253769
 31
0.0
  0
SPLINE
  5
32E
330
1F
100
AcDbEntity
  8
0
  6
Continuous
 62
     7
370
     0
100
AcDbSpline
210
0.0
220
0.0
230
1.0
 70
     8
 71
     3
 72
    15
 73
    11
 74
     0
 42
0.0000000001
 43
0.0000000001
 40
0.0
 40
0.0
 40
0.0
 40
0.0
 40
0.0307203559742733
 40
0.0910893144535234
 40
0.1881187454223108
 40
0.2763726095089505
 40
0.3887886377899303
 40
0.5473990745046518
 40
0.7426818842234929
 40
1.0
 40
1.0
 40
1.0
 40
1.0
 10
24.40954526007934
 20
8.56085456063705
 30
0.0
 10
24.40722867523538
 20
8.556249513222955
 30
0.0
 10
24.40035974033479
 20
8.542595029130197
 30
0.0
 10
24.39163132252299
 20
8.50905210685855
 30
0.0
 10
24.38416138209902
 20
8.463900636754956
 30
0.0
 10
24.37906634411336
 20
8.408152615609552
 30
0.0
 10
24.36060395563929
 20
8.34305478138425
 30
0.0
 10
24.32435329727456
 20
8.263288886707002
 30
0.0
 10
24.26174095425353
 20
8.166365135024829
 30
0.0
 10
24.20165036450302
 20
8.106650413641956
 30
0.0
 10
24.1674869404809
 20
8.072700682819949
 30
0.0
  0
ARC
  5
32F
330
1F
100
AcDbEntity
  8
0
  6
Continuous
 62
     7
370
     0
100
AcDbCircle
 10
23.72378819413118
 20
7.629463973473589
 30
0.0
 40
0.0766177591572443
100
AcDbArc
 50
256.9444276807991
 51
316.5292462890028
  0
SPLINE
  5
330
330
1F
100
AcDbEntity
  8
0
  6
Continuous
 62
     7
370
     0
100
AcDbSpline
210
0.0
220
0.0
230
1.0
 70
     8
 71
     3
 72
    11
 73
     7
 74
     0
 42
0.0000000001
 43
0.0000000001
 40
0.0
 40
0.0
 40
0.0
 40
0.0
 40
0.1495900581826951
 40
0.650494880342853
 40
0.8618140056206668
 40
1.0
 40
1.0
 40
1.0
 40
1.0
 10
24.77618231803937
 20
8.486126560025978
 30
0.0
 10
24.78299050143174
 20
8.59168176681829
 30
0.0
 10
24.81259600125554
 20
9.050690356333456
 30
0.0
 10
24.85214177937573
 20
9.658806381824208
 30
0.0
 10
24.89128799753288
 20
10.25887387512855
 30
0.0
 10
24.90760931108791
 20
10.50548681852923
 30
0.0
 10
24.91406236947341
 20
10.60299169869827
 30
0.0
  0
LINE
  5
331
330
1F
100
AcDbEntity
  8
0
  6
Continuous
 62
     7
370
     0
100
AcDbLine
 10
18.76636741705948
 20
5.275933584921738
 30
0.0
 11
18.77939710714572
 21
5.276586536072521
 31
0.0
  0
SPLINE
  5
332
330
1F
100
AcDbEntity
  8
0
  6
Continuous
 62
     7
370
     0
100
AcDbSpline
210
0.0
220
0.0
230
1.0
 70
     8
 71
     3
 72
    11
 73
     7
 74
     0
 42
0.0000000001
 43
0.0000000001
 40
0.0
 40
0.0
 40
0.0
 40
0.0
 40
0.1463743650373091
 40
0.3556465066298174
 40
0.8518169839379565
 40
1.0
 40
1.0
 40
1.0
 40
1.0
 10
25.27133459434672
 20
10.60299169869827
 30
0.0
 10
25.26533657766908
 20
10.4986942761788
 30
0.0
 10
25.25076316737575
 20
10.24528232142777
 30
0.0
 10
25.21505420278328
 20
9.638406416856275
 30
0.0
 10
25.17823576354319
 20
9.030317029808006
 30
0.0
 10
25.14976467332129
 20
8.571365848161438
 30
0.0
 10
25.143217130609
 20
8.465820101888036
 30
0.0
  0
SPLINE
  5
333
330
1F
100
AcDbEntity
  8
0
  6
Continuous
 62
     7
370
     0
100
AcDbSpline
210
0.0
220
0.0
230
1.0
 70
     8
 71
     3
 72
    10
 73
     6
 74
     0
 42
0.0000000001
 43
0.0000000001
 40
0.0
 40
0.0
 40
0.0
 40
0.0
 40
0.3283673656379351
 40
0.664157675394028
 40
1.0
 40
1.0
 40
1.0
 40
1.0
 10
25.52487617165609
 20
10.60299169869827
 30
0.0
 10
25.51251860307988
 20
10.36754650079761
 30
0.0
 10
25.48752411556997
 20
9.891333723024819
 30
0.0
 10
25.4468227146661
 20
9.174515510514206
 30
0.0
 10
25.41783840333922
 20
8.6931944414459
 30
0.0
 10
25.40334512532516
 20
8.452515268863301
 30
0.0
  0
ARC
  5
334
330
1F
100
AcDbEntity
  8
0
  6
Continuous
 62
     7
370
     0
100
AcDbCircle
 10
18.63262547487461
 20
5.289298526943768
 30
0.0
 40
0.0913209077801987
100
AcDbArc
 50
263.3738737563978
 51
314.5317961386997
  0
LINE
  5
335
330
1F
100
AcDbEntity
  8
0
  6
Continuous
 62
     7
370
     0
100
AcDbLine
 10
17.99442559850131
 20
4.992766622433959
 30
0.0
 11
18.02412607599789
 21
4.992766622433959
 31
0.0
  0
SPLINE
  5
336
330
1F
100
AcDbEntity
  8
0
  6
Continuous
 62
     7
370
     0
100
AcDbSpline
210
0.0
220
0.0
230
1.0
 70
     8
 71
     3
 72
    10
 73
     6
 74
     0
 42
0.0000000001
 43
0.0000000001
 40
0.0
 40
0.0
 40
0.0
 40
0.0
 40
0.0732454711848574
 40
0.7464188045862849
 40
1.0
 40
1.0
 40
1.0
 40
1.0
 10
35.70577258819567
 20
10.60299169869829
 30
0.0
 10
35.70675812909843
 20
10.55068134542564
 30
0.0
 10
35.71680142939556
 20
10.01760495550514
 30
0.0
 10
35.73333665638639
 20
9.303660933210183
 30
0.0
 10
35.75043340539578
 20
8.642286190598571
 30
0.0
 10
35.75511146621631
 20
8.461318962888007
 30
0.0
  0
SPLINE
  5
337
330
1F
100
AcDbEntity
  8
0
  6
Continuous
 62
     7
370
     0
100
AcDbSpline
210
0.0
220
0.0
230
1.0
 70
    24
 71
     1
 72
     4
 73
     2
 74
     0
 42
0.0000000001
 43
0.0000000001
 40
0.0
 40
0.0
 40
1.0
 40
1.0
 10
35.75506424018967
 20
8.461319989540758
 30
0.0
 10
35.76138607451543
 20
8.208919316769719
 30
0.0
  0
SPLINE
  5
338
330
1F
100
AcDbEntity
  8
0
  6
Continuous
 62
     7
370
     0
100
AcDbSpline
210
0.0
220
0.0
230
1.0
 70
     8
 71
     3
 72
     9
 73
     5
 74
     0
 42
0.0000000001
 43
0.0000000001
 40
0.0
 40
0.0
 40
0.0
 40
0.0
 40
0.7774810929786284
 40
1.0
 40
1.0
 40
1.0
 40
1.0
 10
35.94393666723596
 20
8.007761229553407
 30
0.0
 10
35.95074311526751
 20
8.006309515057001
 30
0.0
 10
35.95949760215218
 20
8.004442312742359
 30
0.0
 10
35.96840235332319
 20
8.004641975760527
 30
0.0
 10
35.97038382882104
 20
8.004686404557109
 30
0.0
  0
SPLINE
  5
339
330
1F
100
AcDbEntity
  8
0
  6
Continuous
 62
     7
370
     0
100
AcDbSpline
210
0.0
220
0.0
230
1.0
 70
     8
 71
     3
 72
    14
 73
    10
 74
     0
 42
0.0000000001
 43
0.0000000001
 40
0.0
 40
0.0
 40
0.0
 40
0.0
 40
0.0536365328509369
 40
0.2122420913423021
 40
0.3714906905529758
 40
0.5317743423775998
 40
0.7106781168244351
 40
0.8799892632640137
 40
1.0
 40
1.0
 40
1.0
 40
1.0
 10
35.76226283596681
 20
8.208869157449488
 30
0.0
 10
35.76206914918261
 20
8.203530580402201
 30
0.0
 10
35.76130272216052
 20
8.182405599030687
 30
0.0
 10
35.77079740523142
 20
8.14595133885129
 30
0.0
 10
35.79059996352646
 20
8.102486364389257
 30
0.0
 10
35.82177114259553
 20
8.06308724683172
 30
0.0
 10
35.86231095106906
 20
8.032066264214687
 30
0.0
 10
35.90545268697143
 20
8.012362692594306
 30
0.0
 10
35.93414749637647
 20
8.008571156136959
 30
0.0
 10
35.94605010526108
 20
8.006998426557661
 30
0.0
  0
SPLINE
  5
33A
330
1F
100
AcDbEntity
  8
0
  6
Continuous
 62
     7
370
     0
100
AcDbSpline
210
0.0
220
0.0
230
1.0
 70
    24
 71
     3
 72
     9
 73
     5
 74
     0
 42
0.0000000001
 43
0.0000000001
 40
0.0
 40
0.0
 40
0.0
 40
0.0
 40
0.3877813147728547
 40
1.0
 40
1.0
 40
1.0
 40
1.0
 10
35.5447242107414
 20
8.004571712778091
 30
0.0
 10
35.63982335282697
 20
8.004571712778091
 30
0.0
 10
35.88506245657618
 20
8.004571712778091
 30
0.0
 10
36.15060200404606
 20
8.004571712778091
 30
0.0
 10
36.3131702766739
 20
8.004571712778091
 30
0.0
  0
SPLINE
  5
33B
330
1F
100
AcDbEntity
  8
0
  6
Continuous
 62
     7
370
     0
100
AcDbSpline
210
0.0
220
0.0
230
1.0
 70
    24
 71
     1
 72
     4
 73
     2
 74
     0
 42
0.0000000001
 43
0.0000000001
 40
0.0
 40
0.0
 40
1.0
 40
1.0
 10
32.04118809105681
 20
10.60299169869829
 30
0.0
 10
32.25740233423041
 20
8.433021626376689
 30
0.0
  0
SPLINE
  5
33C
330
1F
100
AcDbEntity
  8
0
  6
Continuous
 62
     7
370
     0
100
AcDbSpline
210
0.0
220
0.0
230
1.0
 70
     8
 71
     3
 72
    15
 73
    11
 74
     0
 42
0.0000000001
 43
0.0000000001
 40
0.0
 40
0.0
 40
0.0
 40
0.0
 40
0.0818721467756669
 40
0.2319490560340442
 40
0.3822675420918658
 40
0.5328968926286564
 40
0.6839256762057051
 40
0.8354106195475209
 40
0.9786744824066435
 40
1.0
 40
1.0
 40
1.0
 40
1.0
 10
32.25740233423041
 20
8.433021626376689
 30
0.0
 10
32.26014777357149
 20
8.408148793167733
 30
0.0
 10
32.26792577975118
 20
8.337682457412292
 30
0.0
 10
32.28764041477826
 20
8.222640297696141
 30
0.0
 10
32.31908605773255
 20
8.089538418269459
 30
0.0
 10
32.35919323401795
 20
7.959925759423955
 30
0.0
 10
32.40761735602095
 20
7.83479189126526
 30
0.0
 10
32.46316334050958
 20
7.717488112064258
 30
0.0
 10
32.50768770129115
 20
7.638823491972999
 30
0.0
 10
32.53242998227165
 20
7.599505657948437
 30
0.0
 10
32.53563579024599
 20
7.59441132465113
 30
0.0
  0
SPLINE
  5
33D
330
1F
100
AcDbEntity
  8
0
  6
Continuous
 62
     7
370
     0
100
AcDbSpline
210
0.0
220
0.0
230
1.0
 70
     8
 71
     3
 72
     9
 73
     5
 74
     0
 42
0.0000000001
 43
0.0000000001
 40
0.0
 40
0.0
 40
0.0
 40
0.0
 40
0.2548791820430995
 40
1.0
 40
1.0
 40
1.0
 40
1.0
 10
32.53563579024599
 20
7.59441132465113
 30
0.0
 10
32.56510221043236
 20
7.547978475580269
 30
0.0
 10
32.6807115746424
 20
7.365802557175888
 30
0.0
 10
32.7965232260879
 20
7.183917183094929
 30
0.0
 10
32.88281689854189
 20
7.048390604385317
 30
0.0
  0
SPLINE
  5
33E
330
1F
100
AcDbEntity
  8
0
  6
Continuous
 62
     7
370
     0
100
AcDbSpline
210
0.0
220
0.0
230
1.0
 70
     8
 71
     3
 72
    25
 73
    21
 74
     0
 42
0.0000000001
 43
0.0000000001
 40
0.0
 40
0.0
 40
0.0
 40
0.0
 40
0.0418289747454336
 40
0.085969147709462
 40
0.1321918731740457
 40
0.1794315216659904
 40
0.2279310213010419
 40
0.2779447319710331
 40
0.3297696960385691
 40
0.3837625356803607
 40
0.4403658440612685
 40
0.5001532166009957
 40
0.5640216863152955
 40
0.632292198687284
 40
0.7007532308419142
 40
0.7706360081057082
 40
0.8421070795685261
 40
0.9153642786514147
 40
0.9906265882038676
 40
1.0
 40
1.0
 40
1.0
 40
1.0
 10
32.89606717230603
 20
7.030191277691306
 30
0.0
 10
32.94674696555875
 20
6.98147140376572
 30
0.0
 10
33.05090678918676
 20
6.881339711239551
 30
0.0
 10
33.21746555232754
 20
6.734938523182179
 30
0.0
 10
33.39368393582332
 20
6.592991285377968
 30
0.0
 10
33.57900428033417
 20
6.456785244676956
 30
0.0
 10
33.77213219371969
 20
6.327488482293628
 30
0.0
 10
33.97387765741139
 20
6.204725071548799
 30
0.0
 10
34.18512484553679
 20
6.088151014395977
 30
0.0
 10
34.4070364188005
 20
5.977340469367039
 30
0.0
 10
34.64120096701087
 20
5.871736741636247
 30
0.0
 10
34.88974651387764
 20
5.770644763207219
 30
0.0
 10
35.15546457534546
 20
5.67309426357926
 30
0.0
 10
35.43465421885807
 20
5.582623405848591
 30
0.0
 10
35.72310100502126
 20
5.501283729540441
 30
0.0
 10
36.01665300477139
 20
5.430440020687099
 30
0.0
 10
36.31751982494018
 20
5.369580290977909
 30
0.0
 10
36.62528707360444
 20
5.319416925001278
 30
0.0
 10
36.84825753531483
 20
5.290240743583908
 30
0.0
 10
36.96529129952566
 20
5.278468468491398
 30
0.0
 10
36.97825279673414
 20
5.27716468823809
 30
0.0
  0
SPLINE
  5
33F
330
1F
100
AcDbEntity
  8
0
  6
Continuous
 62
     7
370
     0
100
AcDbSpline
210
0.0
220
0.0
230
1.0
 70
    24
 71
     1
 72
     4
 73
     2
 74
     0
 42
0.0000000001
 43
0.0000000001
 40
0.0
 40
0.0
 40
1.0
 40
1.0
 10
40.89596850341036
 20
5.07746019465584
 30
0.0
 10
40.96332381727028
 20
6.040683994271939
 30
0.0
  0
ARC
  5
340
330
1F
100
AcDbEntity
  8
0
  6
Continuous
 62
     7
370
     0
100
AcDbCircle
 10
40.69959809077022
 20
5.091191716299908
 30
0.0
 40
0.1968500000000002
100
AcDbArc
 50
270.0
 51
356.0000000000006
  0
SPLINE
  5
341
330
1F
100
AcDbEntity
  8
0
  6
Continuous
 62
     7
370
     0
100
AcDbSpline
210
0.0
220
0.0
230
1.0
 70
     8
 71
     3
 72
    11
 73
     7
 74
     0
 42
0.0000000001
 43
0.0000000001
 40
0.0
 40
0.0
 40
0.0
 40
0.0
 40
0.1562509869123944
 40
0.4448733300280181
 40
0.7419890813479473
 40
1.0
 40
1.0
 40
1.0
 40
1.0
 10
36.97564495207594
 20
5.277294926473079
 30
0.0
 10
36.9753922848099
 20
5.277383842316657
 30
0.0
 10
36.97467289781433
 20
5.277637000957158
 30
0.0
 10
36.98293626405476
 20
5.273536584858898
 30
0.0
 10
36.99852800875844
 20
5.261701693111068
 30
0.0
 10
37.01269886517369
 20
5.245471912434548
 30
0.0
 10
37.0192851739921
 20
5.237928659969146
 30
0.0
  0
SPLINE
  5
342
330
1F
100
AcDbEntity
  8
0
  6
Continuous
 62
     7
370
     0
100
AcDbSpline
210
0.0
220
0.0
230
1.0
 70
     8
 71
     3
 72
    13
 73
     9
 74
     0
 42
0.0000000001
 43
0.0000000001
 40
0.0
 40
0.0
 40
0.0
 40
0.0
 40
0.1994359583677725
 40
0.3902537282052859
 40
0.5785492759320495
 40
0.7653449224313623
 40
0.9510675720395164
 40
1.0
 40
1.0
 40
1.0
 40
1.0
 10
37.0192851739921
 20
5.237928659969146
 30
0.0
 10
37.03444900306545
 20
5.220796087862388
 30
0.0
 10
37.06412138952063
 20
5.187271290262538
 30
0.0
 10
37.11766694482208
 20
5.147674435987528
 30
0.0
 10
37.17532662677505
 20
5.117666634247107
 30
0.0
 10
37.2368646314959
 20
5.098311583683432
 30
0.0
 10
37.28497843438605
 20
5.091658851556929
 30
0.0
 10
37.31186280986842
 20
5.091272406882768
 30
0.0
 10
37.31746898630486
 20
5.09119182189662
 30
0.0
  0
SPLINE
  5
343
330
1F
100
AcDbEntity
  8
0
  6
Continuous
 62
     7
370
     0
100
AcDbSpline
210
0.0
220
0.0
230
1.0
 70
     8
 71
     3
 72
    13
 73
     9
 74
     0
 42
0.0000000001
 43
0.0000000001
 40
0.0
 40
0.0
 40
0.0
 40
0.0
 40
0.0609756132754026
 40
0.2889345002387791
 40
0.5196534871674353
 40
0.7505479918168385
 40
0.9588675564050715
 40
1.0
 40
1.0
 40
1.0
 40
1.0
 10
37.54043229801432
 20
5.088355327003777
 30
0.0
 10
37.54449166191047
 20
5.088646525897236
 30
0.0
 10
37.56372706136965
 20
5.090026379288318
 30
0.0
 10
37.59863870914273
 20
5.08182085518794
 30
0.0
 10
37.64168981288452
 20
5.063305702958158
 30
0.0
 10
37.67712881284886
 20
5.0348913086272
 30
0.0
 10
37.69897531861901
 20
5.010311679507395
 30
0.0
 10
37.70626041304212
 20
4.995716990929308
 30
0.0
 10
37.70746166108029
 20
4.993310455062568
 30
0.0
  0
LINE
  5
344
330
1F
100
AcDbEntity
  8
0
  6
Continuous
 62
     7
370
     0
100
AcDbLine
 10
48.76611119301886
 20
11.08572572996382
 30
0.0
 11
48.80834475399645
 21
10.60299169869759
 31
0.0
  0
LINE
  5
345
330
1F
100
AcDbEntity
  8
0
  6
Continuous
 62
     7
370
     0
100
AcDbLine
 10
48.80834475399645
 20
10.60299169869759
 30
0.0
 11
48.69068389521628
 21
10.60299169869759
 31
0.0
  0
LINE
  5
346
330
1F
100
AcDbEntity
  8
0
  6
Continuous
 62
     7
370
     0
100
AcDbLine
 10
48.69068389521628
 20
10.60299169869759
 30
0.0
 11
29.9260434757336
 21
10.60299169869759
 31
0.0
  0
LINE
  5
347
330
1F
100
AcDbEntity
  8
0
  6
Continuous
 62
     7
370
     0
100
AcDbLine
 10
29.80838261695342
 20
10.60299169869759
 30
0.0
 11
29.85061617793494
 21
11.08572572996382
 31
0.0
  0
LINE
  5
348
330
1F
100
AcDbEntity
  8
0
  6
Continuous
 62
     7
370
     0
100
AcDbLine
 10
29.9260434757336
 20
10.60299169869759
 30
0.0
 11
29.80838261695342
 21
10.60299169869759
 31
0.0
  0
LINE
  5
349
330
1F
100
AcDbEntity
  8
0
  6
Continuous
 62
     7
370
     0
100
AcDbLine
 10
29.96827703671512
 20
11.19354172216605
 30
0.0
 11
48.64845033423868
 21
11.19354172216605
 31
0.0
  0
ARC
  5
34A
330
1F
100
AcDbEntity
  8
0
  6
Continuous
 62
     7
370
     0
100
AcDbCircle
 10
48.64845038026615
 20
11.07543171629991
 30
0.0
 40
0.11811
100
AcDbArc
 50
4.999999999999896
 51
90.0
  0
ARC
  5
34B
330
1F
100
AcDbEntity
  8
0
  6
Continuous
 62
     7
370
     0
100
AcDbCircle
 10
29.96827699068371
 20
11.07543171629991
 30
0.0
 40
0.11811
100
AcDbArc
 50
90.0
 51
175.0000000000001
  0
SPLINE
  5
34C
330
1F
100
AcDbEntity
  8
0
  6
Continuous
 62
     7
370
     0
100
AcDbSpline
210
0.0
220
0.0
230
1.0
 70
    24
 71
     3
 72
    54
 73
    50
 74
     0
 42
0.0000000001
 43
0.0000000001
 40
0.0
 40
0.0
 40
0.0
 40
0.0
 40
0.0625000000000002
 40
0.0625000000000002
 40
0.1250000000000005
 40
0.1250000000000005
 40
0.1875000000000007
 40
0.1875000000000007
 40
0.2500000000000009
 40
0.2500000000000009
 40
0.265625000000001
 40
0.265625000000001
 40
0.2812500000000011
 40
0.2812500000000011
 40
0.3125000000000011
 40
0.3125000000000011
 40
0.3750000000000014
 40
0.3750000000000014
 40
0.4375000000000018
 40
0.4375000000000018
 40
0.500000000000002
 40
0.500000000000002
 40
0.515625000000002
 40
0.515625000000002
 40
0.5312500000000019
 40
0.5312500000000019
 40
0.5625000000000018
 40
0.5625000000000018
 40
0.6250000000000016
 40
0.6250000000000016
 40
0.687500000000001
 40
0.687500000000001
 40
0.7187500000000009
 40
0.7187500000000009
 40
0.7343750000000008
 40
0.7343750000000008
 40
0.7500000000000008
 40
0.7500000000000008
 40
0.8125000000000007
 40
0.8125000000000007
 40
0.8750000000000003
 40
0.8750000000000003
 40
0.9062500000000003
 40
0.9062500000000003
 40
0.9218750000000003
 40
0.9218750000000003
 40
0.9375000000000003
 40
0.9375000000000003
 40
1.0
 40
1.0
 40
1.0
 40
1.0
 10
47.47298582300426
 20
8.004571715682706
 30
0.0
 10
47.47298582300378
 20
8.004571715673705
 30
0.0
 10
47.46072196998738
 20
8.004571715665701
 30
0.0
 10
47.41313788765211
 20
8.004571715651529
 30
0.0
 10
47.37781269826927
 20
8.004571715645377
 30
0.0
 10
47.28473607117765
 20
8.004571715634867
 30
0.0
 10
47.22698456634039
 20
8.004571715630527
 30
0.0
 10
47.08894530888803
 20
8.004571715623647
 30
0.0
 10
47.00865635732293
 20
8.004571715621116
 30
0.0
 10
46.8936462422087
 20
8.004571715619142
 30
0.0
 10
46.86989285095289
 20
8.004571715618801
 30
0.0
 10
46.8209702086701
 20
8.004571715618251
 30
0.0
 10
46.79585102518081
 20
8.004571715618039
 30
0.0
 10
46.71852796186825
 20
8.004571715617569
 30
0.0
 10
46.66435985011553
 20
8.004571715617496
 30
0.0
 10
46.49401489150188
 20
8.004571715618027
 30
0.0
 10
46.37000271796436
 20
8.004571715619338
 30
0.0
 10
46.10080418136099
 20
8.004571715623949
 30
0.0
 10
45.9556369179864
 20
8.004571715627232
 30
0.0
 10
45.64329770693439
 20
8.00457171563583
 30
0.0
 10
45.47613199527844
 20
8.004571715641146
 30
0.0
 10
45.25235500811115
 20
8.004571715649166
 30
0.0
 10
45.20685622535443
 20
8.00457171565084
 30
0.0
 10
45.11433496456439
 20
8.00457171565432
 30
0.0
 10
45.06726110516376
 20
8.004571715656139
 30
0.0
 10
44.92406522153102
 20
8.0045717156618
 30
0.0
 10
44.82629243882279
 20
8.004571715665822
 30
0.0
 10
44.52602088538507
 20
8.004571715678661
 30
0.0
 10
44.3165924624123
 20
8.00457171568825
 30
0.0
 10
43.87854784606597
 20
8.00457171570957
 30
0.0
 10
43.64993499653054
 20
8.00457171572129
 30
0.0
 10
43.29150328432589
 20
8.004571715740587
 30
0.0
 10
43.16943745539535
 20
8.004571715747321
 30
0.0
 10
42.9822661603116
 20
8.004571715757847
 30
0.0
 10
42.91908513933178
 20
8.004571715761436
 30
0.0
 10
42.79200453171799
 20
8.004571715768751
 30
0.0
 10
42.72810134267658
 20
8.004571715772456
 30
0.0
 10
42.40677049645031
 20
8.004571715791298
 30
0.0
 10
42.14390248050292
 20
8.004571715807299
 30
0.0
 10
41.6064964319323
 20
8.004571715841169
 30
0.0
 10
41.33196391747747
 20
8.004571715859038
 30
0.0
 10
40.91093806004218
 20
8.004571715887319
 30
0.0
 10
40.76905177894571
 20
8.004571715896986
 30
0.0
 10
40.55381391576593
 20
8.004571715911888
 30
0.0
 10
40.48166626735562
 20
8.00457171591691
 30
0.0
 10
40.33654730891258
 20
8.004571715927099
 30
0.0
 10
40.26346813475561
 20
8.004571715932279
 30
0.0
 10
39.89778850958247
 20
8.004571715958327
 30
0.0
 10
39.60382067340136
 20
8.004571715979867
 30
0.0
 10
39.30836368546123
 20
8.004571716002139
 30
0.0
  0
SPLINE
  5
34D
330
1F
100
AcDbEntity
  8
0
  6
Continuous
 62
     7
370
     0
100
AcDbSpline
210
0.0
220
0.0
230
1.0
 70
     8
 71
     3
 72
    14
 73
    10
 74
     0
 42
0.0000000001
 43
0.0000000001
 40
0.0
 40
0.0
 40
0.0
 40
0.0
 40
0.25
 40
0.25
 40
0.5
 40
0.5
 40
0.75
 40
0.75
 40
1.0
 40
1.0
 40
1.0
 40
1.0
 10
47.47298582300426
 20
8.004571715682706
 30
0.0
 10
47.49789450759148
 20
8.004571715680826
 30
0.0
 10
47.52279463038797
 20
8.009355456864668
 30
0.0
 10
47.56906547877719
 20
8.027815653526822
 30
0.0
 10
47.59042029982317
 20
8.041485763734387
 30
0.0
 10
47.62655654265485
 20
8.075777777753277
 30
0.0
 10
47.64132554343285
 20
8.096387894468437
 30
0.0
 10
47.66218207013714
 20
8.141629198221757
 30
0.0
 10
47.66826242710893
 20
8.166244834595598
 30
0.0
 10
47.66956604693553
 20
8.191119382696289
 30
0.0
  0
LWPOLYLINE
  5
34E
330
1F
100
AcDbEntity
  8
0
  6
Continuous
 62
     7
370
     0
100
AcDbPolyline
 90
        9
 70
   128
 43
0.0
 10
35.87666275227439
 20
8.188399168195456
 10
35.8794775407944
 20
8.15190488943613
 10
35.88549929918393
 20
8.117157093675949
 10
35.89451507033739
 20
8.08538087097656
 10
35.90620747187775
 20
8.057697326146911
 10
35.92016378940993
 20
8.035082512624651
 10
35.93589181626089
 20
8.01833413960178
 10
35.95283715994888
 20
8.008042972400687
 10
35.97040172191025
 20
8.0045717127763
  0
SPLINE
  5
34F
330
1F
100
AcDbEntity
  8
0
  6
Continuous
 62
     7
370
     0
100
AcDbSpline
210
0.0
220
0.0
230
1.0
 70
    24
 71
     3
 72
    18
 73
    14
 74
     0
 42
0.0000000001
 43
0.0000000001
 40
0.0
 40
0.0
 40
0.0
 40
0.0
 40
0.2500000000000002
 40
0.2500000000000002
 40
0.5000000000000006
 40
0.5000000000000006
 40
0.6250000000000007
 40
0.6250000000000007
 40
0.6875000000000007
 40
0.6875000000000007
 40
0.7500000000000006
 40
0.7500000000000006
 40
1.0
 40
1.0
 40
1.0
 40
1.0
 10
39.30836368546123
 20
8.004571716002139
 30
0.0
 10
39.01558943957925
 20
8.004571716024202
 30
0.0
 10
38.72617727601451
 20
8.004571716046607
 30
0.0
 10
38.1535472600085
 20
8.004571716092097
 30
0.0
 10
37.87033200065885
 20
8.004571716115156
 30
0.0
 10
37.45004749769639
 20
8.004571716150238
 30
0.0
 10
37.3107110905875
 20
8.004571716162001
 30
0.0
 10
37.10284318198747
 20
8.004571716179768
 30
0.0
 10
37.03371651536304
 20
8.004571716185731
 30
0.0
 10
36.89656926208451
 20
8.004571716197599
 30
0.0
 10
36.82845771407861
 20
8.004571716203521
 30
0.0
 10
36.49017242489721
 20
8.004571716233161
 30
0.0
 10
36.2267901008601
 20
8.004571716256819
 30
0.0
 10
35.97040168605513
 20
8.004571716280397
 30
0.0
  0
SPLINE
  5
350
330
1F
100
AcDbEntity
  8
0
  6
Continuous
 62
     7
370
     0
100
AcDbSpline
210
0.0
220
0.0
230
1.0
 70
     8
 71
     3
 72
     8
 73
     4
 74
     0
 42
0.0000000001
 43
0.0000000001
 40
0.0
 40
0.0
 40
0.0
 40
0.0
 40
0.0000575941508607
 40
0.0000575941508607
 40
0.0000575941508607
 40
0.0000575941508607
 10
35.87466920799663
 20
8.188519645885666
 30
0.0
 10
35.87533202651643
 20
8.18843863421673
 30
0.0
 10
35.87599846514911
 20
8.188398433452919
 30
0.0
 10
35.87666263982085
 20
8.188399230489508
 30
0.0
  0
SPLINE
  5
351
330
1F
100
AcDbEntity
  8
0
  6
Continuous
 62
     7
370
     0
100
AcDbSpline
210
0.0
220
0.0
230
1.0
 70
     8
 71
     3
 72
     8
 73
     4
 74
     0
 42
0.0000000001
 43
0.0000000001
 40
0.0
 40
0.0
 40
0.0
 40
0.0
 40
1.0
 40
1.0
 40
1.0
 40
1.0
 10
35.8684051739351
 20
8.452515217265368
 30
0.0
 10
35.87047959329189
 20
8.364513706216799
 30
0.0
 10
35.87256788764547
 20
8.276515185436437
 30
0.0
 10
35.87466920799663
 20
8.188519645885666
 30
0.0
  0
LINE
  5
352
330
1F
100
AcDbEntity
  8
0
  6
Continuous
 62
     7
370
     0
100
AcDbLine
 10
47.79596716718478
 20
10.60299169869759
 30
0.0
 11
47.66956626685327
 21
8.191119357995219
 31
0.0
  0
SPLINE
  5
353
330
1F
100
AcDbEntity
  8
0
  6
Continuous
 62
     7
370
     0
100
AcDbSpline
210
0.0
220
0.0
230
1.0
 70
     8
 71
     3
 72
    10
 73
     6
 74
     0
 42
0.0000000001
 43
0.0000000001
 40
0.0
 40
0.0
 40
0.0
 40
0.0
 40
0.5
 40
0.5
 40
1.0
 40
1.0
 40
1.0
 40
1.0
 10
45.6638543849001
 20
7.846931941462369
 30
0.0
 10
45.73143177389134
 20
7.897650693550338
 30
0.0
 10
45.80723058030357
 20
7.937390202991088
 30
0.0
 10
45.96753605711977
 20
7.990855475530139
 30
0.0
 10
46.05201417509862
 20
8.004571715789801
 30
0.0
 10
46.13650734237409
 20
8.004571715783427
 30
0.0
  0
SPLINE
  5
354
330
1F
100
AcDbEntity
  8
0
  6
Continuous
 62
     7
370
     0
100
AcDbSpline
210
0.0
220
0.0
230
1.0
 70
     8
 71
     3
 72
    14
 73
    10
 74
     0
 42
0.0000000001
 43
0.0000000001
 40
0.0
 40
0.0
 40
0.0
 40
0.0
 40
0.5000000000000046
 40
0.5000000000000046
 40
0.6250000000000037
 40
0.6250000000000037
 40
0.7500000000000029
 40
0.7500000000000029
 40
1.0
 40
1.0
 40
1.0
 40
1.0
 10
35.64478909286361
 20
8.322910384615957
 30
0.0
 10
35.64218345328642
 20
8.349242898649078
 30
0.0
 10
35.64057964257694
 20
8.376028999093858
 30
0.0
 10
35.63922943915726
 20
8.41009671381791
 30
0.0
 10
35.63899462049486
 20
8.41693960599715
 30
0.0
 10
35.63859031012611
 20
8.430684909393967
 30
0.0
 10
35.63846730663782
 20
8.437585736584392
 30
0.0
 10
35.63790573451171
 20
8.45838893269088
 30
0.0
 10
35.63753142158935
 20
8.47225772911409
 30
0.0
 10
35.63715717877601
 20
8.48612652445804
 30
0.0
  0
SPLINE
  5
355
330
1F
100
AcDbEntity
  8
0
  6
Continuous
 62
     7
370
     0
100
AcDbSpline
210
0.0
220
0.0
230
1.0
 70
    24
 71
     3
 72
     8
 73
     4
 74
     0
 42
0.0000000001
 43
0.0000000001
 40
0.0013489712275974
 40
0.0013489712275974
 40
0.0013489712275974
 40
0.0013489712275974
 40
0.0061050012972992
 40
0.0061050012972992
 40
0.0061050012972992
 40
0.0061050012972992
 10
35.42141249090394
 20
8.004571716298036
 30
0.0
 10
35.46251637541192
 20
8.004571716298036
 30
0.0
 10
35.50362025991987
 20
8.004571716298036
 30
0.0
 10
35.54472414442783
 20
8.004571716298036
 30
0.0
  0
SPLINE
  5
356
330
1F
100
AcDbEntity
  8
0
  6
Continuous
 62
     7
370
     0
100
AcDbSpline
210
0.0
220
0.0
230
1.0
 70
     8
 71
     3
 72
    36
 73
    32
 74
     0
 42
0.0000000001
 43
0.0000000001
 40
0.0
 40
0.0
 40
0.0
 40
0.0
 40
0.0625000000000001
 40
0.0625000000000001
 40
0.1250000000000002
 40
0.1250000000000002
 40
0.2500000000000004
 40
0.2500000000000004
 40
0.3125000000000011
 40
0.3125000000000011
 40
0.3750000000000018
 40
0.4375000000000024
 40
0.4375000000000024
 40
0.5000000000000031
 40
0.5000000000000031
 40
0.6250000000000026
 40
0.6250000000000026
 40
0.6875000000000023
 40
0.6875000000000023
 40
0.7500000000000018
 40
0.7500000000000018
 40
0.8750000000000007
 40
0.8750000000000007
 40
0.9375
 40
0.9375
 40
0.9687499999999992
 40
0.9687499999999992
 40
0.9843750000000003
 40
0.9921875
 40
0.9921875
 40
1.0
 40
1.0
 40
1.0
 40
1.0
 10
35.09811859890643
 20
8.444055967842366
 30
0.0
 10
35.09750597815592
 20
8.429255187199446
 30
0.0
 10
35.09738488802542
 20
8.414454609267076
 30
0.0
 10
35.09811985200797
 20
8.385261861210349
 30
0.0
 10
35.09897139041496
 20
8.370866225163617
 30
0.0
 10
35.10294432032431
 20
8.328268079752181
 30
0.0
 10
35.10747137803732
 20
8.300649136361347
 30
0.0
 10
35.11717282572111
 20
8.260430464550486
 30
0.0
 10
35.12089384189909
 20
8.247260852867007
 30
0.0
 10
35.1291556306625
 20
8.221887945120666
 30
0.0
 10
35.13826934612594
 20
8.197338196376756
 30
0.0
 10
35.14906445911356
 20
8.174412628493847
 30
0.0
 10
35.16071159570073
 20
8.15230961002825
 30
0.0
 10
35.16698732255405
 20
8.141630070214866
 30
0.0
 10
35.18696469624297
 20
8.111145622342341
 30
0.0
 10
35.20159308351411
 20
8.093169663161681
 30
0.0
 10
35.22543712178764
 20
8.069601324517449
 30
0.0
 10
35.23370419782373
 20
8.062314966918357
 30
0.0
 10
35.25089171163453
 20
8.0489067058779
 30
0.0
 10
35.25983982503125
 20
8.042776649412449
 30
0.0
 10
35.28710758211126
 20
8.026531074234789
 30
0.0
 10
35.30601383267161
 20
8.018391913909571
 30
0.0
 10
35.33545339558428
 20
8.010147688579397
 30
0.0
 10
35.34544776968623
 20
8.008064631936568
 30
0.0
 10
35.36072054782247
 20
8.005968423840911
 30
0.0
 10
35.36583578430981
 20
8.005444615090937
 30
0.0
 10
35.37353727816125
 20
8.004920937621728
 30
0.0
 10
35.37739582464924
 20
8.004724547060478
 30
0.0
 10
35.38126608977
 20
8.004626306477996
 30
0.0
 10
35.38384887477383
 20
8.004582638332053
 30
0.0
 10
35.38520590706149
 20
8.00456553525818
 30
0.0
 10
35.3864355734134
 20
8.004571716298036
 30
0.0
  0
SPLINE
  5
357
330
1F
100
AcDbEntity
  8
0
  6
Continuous
 62
     7
370
     0
100
AcDbSpline
210
0.0
220
0.0
230
1.0
 70
     8
 71
     3
 72
    11
 73
     7
 74
     0
 42
0.0000000001
 43
0.0000000001
 40
0.0581218146537435
 40
0.0581218146537435
 40
0.0581218146537435
 40
0.0581218146537435
 40
0.061101455107542
 40
0.061101455107542
 40
0.061101455107542
 40
0.0611015150562261
 40
0.0611015150562261
 40
0.0611015150562261
 40
0.0611015150562261
 10
35.09905840224255
 20
8.560854573595786
 30
0.0
 10
35.09874443607394
 20
8.521922411537822
 30
0.0
 10
35.09843117499153
 20
8.48299032623823
 30
0.0
 10
35.09811861777186
 20
8.444058317712457
 30
0.0
 10
35.09811861148337
 20
8.44405753442243
 30
0.0
 10
35.09811862960304
 20
8.444056748285049
 30
0.0
 10
35.09811859890643
 20
8.444055967842366
 30
0.0
  0
SPLINE
  5
358
330
1F
100
AcDbEntity
  8
0
  6
Continuous
 62
     7
370
     0
100
AcDbSpline
210
0.0
220
0.0
230
1.0
 70
     8
 71
     3
 72
    16
 73
    12
 74
     0
 42
0.0000000001
 43
0.0000000001
 40
0.0
 40
0.0
 40
0.0
 40
0.0
 40
0.2499999999999863
 40
0.2499999999999863
 40
0.4999999999999726
 40
0.4999999999999726
 40
0.7499999999999593
 40
0.7499999999999593
 40
0.8749999999999793
 40
0.8749999999999793
 40
1.0
 40
1.0
 40
1.0
 40
1.0
 10
35.05544619059485
 20
8.545789451113847
 30
0.0
 10
35.05855961088429
 20
8.548591793122525
 30
0.0
 10
35.06181492917571
 20
8.551081921768577
 30
0.0
 10
35.06863428248556
 20
8.555384277232954
 30
0.0
 10
35.07223016867974
 20
8.557209668895271
 30
0.0
 10
35.07963072786348
 20
8.559985115444
 30
0.0
 10
35.08340528176113
 20
8.560935013919301
 30
0.0
 10
35.08919984068862
 20
8.56157552009142
 30
0.0
 10
35.09115367088995
 20
8.561657151708057
 30
0.0
 10
35.09511452569988
 20
8.561504993726348
 30
0.0
 10
35.09710793912358
 20
8.561212190518642
 30
0.0
 10
35.09905840224254
 20
8.560854573595801
 30
0.0
  0
SPLINE
  5
359
330
1F
100
AcDbEntity
  8
0
  6
Continuous
 62
     7
370
     0
100
AcDbSpline
210
0.0
220
0.0
230
1.0
 70
     8
 71
     3
 72
    30
 73
    26
 74
     0
 42
0.0000000001
 43
0.0000000001
 40
0.0
 40
0.0
 40
0.0
 40
0.0
 40
0.2499999999999985
 40
0.2499999999999985
 40
0.3749999999999978
 40
0.3749999999999978
 40
0.4374999999999958
 40
0.4374999999999958
 40
0.4999999999999938
 40
0.4999999999999938
 40
0.5624999999999921
 40
0.5624999999999921
 40
0.5781249999999922
 40
0.5781249999999922
 40
0.5937499999999928
 40
0.5937499999999928
 40
0.6249999999999935
 40
0.6249999999999935
 40
0.6874999999999952
 40
0.6874999999999952
 40
0.7499999999999968
 40
0.7499999999999968
 40
0.8749999999999984
 40
0.8749999999999984
 40
1.0
 40
1.0
 40
1.0
 40
1.0
 10
34.87198627244668
 20
8.364555428996649
 30
0.0
 10
34.89247780600607
 20
8.36899843914886
 30
0.0
 10
34.91262386097577
 20
8.374663514331437
 30
0.0
 10
34.94186711144822
 20
8.386836440954731
 30
0.0
 10
34.95148426510783
 20
8.391514835680276
 30
0.0
 10
34.96533483429902
 20
8.400340931936277
 30
0.0
 10
34.96981918267751
 20
8.403567011641627
 30
0.0
 10
34.97835047326534
 20
8.410964720540302
 30
0.0
 10
34.98238545376326
 20
8.415103210087572
 30
0.0
 10
34.98928941968439
 20
8.424912509523016
 30
0.0
 10
34.99222621200889
 20
8.430748467388076
 30
0.0
 10
34.99365668039722
 20
8.439088343537076
 30
0.0
 10
34.99382536460502
 20
8.440779921433717
 30
0.0
 10
34.99390958673773
 20
8.444213979899076
 30
0.0
 10
34.99383669220164
 20
8.445954198628419
 30
0.0
 10
34.99398934380295
 20
8.451103611854419
 30
0.0
 10
34.99433314060417
 20
8.454462133208966
 30
0.0
 10
34.99598607844696
 20
8.464313089808289
 30
0.0
 10
34.99794765038532
 20
8.470656425414803
 30
0.0
 10
35.00283103459516
 20
8.482412473043449
 30
0.0
 10
35.00575439830735
 20
8.48790111600941
 30
0.0
 10
35.01544981708294
 20
8.503623190674481
 30
0.0
 10
35.02294905102043
 20
8.512880356041947
 30
0.0
 10
35.03864885522644
 20
8.530118425192728
 30
0.0
 10
35.04692704558217
 20
8.538121498917378
 30
0.0
 10
35.05544619059482
 20
8.545789451113877
 30
0.0
  0
SPLINE
  5
35A
330
1F
100
AcDbEntity
  8
0
  6
Continuous
 62
     7
370
     0
100
AcDbSpline
210
0.0
220
0.0
230
1.0
 70
     8
 71
     3
 72
    30
 73
    26
 74
     0
 42
0.0000000001
 43
0.0000000001
 40
0.0
 40
0.0
 40
0.0
 40
0.0
 40
0.0368493861140013
 40
0.0757923460237988
 40
0.1132980105446408
 40
0.1509775702286733
 40
0.1880262953613859
 40
0.2259008472155576
 40
0.2646012917768662
 40
0.298975379447726
 40
0.3262691882427731
 40
0.3543644952576525
 40
0.3832612681273644
 40
0.4129595547982161
 40
0.4434593089162365
 40
0.4747605121486186
 40
0.5068632233045257
 40
0.5397673612576038
 40
0.5781534811998318
 40
0.6293080783343126
 40
0.6932309592013539
 40
0.769921912047225
 40
0.848751385710487
 40
0.9762233754284419
 40
1.0
 40
1.0
 40
1.0
 40
1.0
 10
34.87184279637264
 20
8.365419329197289
 30
0.0
 10
34.87019003363061
 20
8.392611400812116
 30
0.0
 10
34.86679060751124
 20
8.448540443824088
 30
0.0
 10
34.86900372069682
 20
8.533335819159598
 30
0.0
 10
34.86923511810552
 20
8.618421611643197
 30
0.0
 10
34.8699995956631
 20
8.702179666341589
 30
0.0
 10
34.87063980507287
 20
8.786189344394507
 30
0.0
 10
34.87133706577
 20
8.870966190146777
 30
0.0
 10
34.87202031600957
 20
8.953745170759571
 30
0.0
 10
34.87265131045616
 20
9.028629831650393
 30
0.0
 10
34.87322238879402
 20
9.095601546834126
 30
0.0
 10
34.87376443653178
 20
9.158486386383302
 30
0.0
 10
34.87432825769318
 20
9.223165111315648
 30
0.0
 10
34.8749122891616
 20
9.289637427857231
 30
0.0
 10
34.87551865661203
 20
9.357903553965519
 30
0.0
 10
34.87614570720366
 20
9.427963467249806
 30
0.0
 10
34.87679435844734
 20
9.499816990029168
 30
0.0
 10
34.87749617544692
 20
9.576956443829358
 30
0.0
 10
34.87833609452402
 20
9.668309788332893
 30
0.0
 10
34.87939713176834
 20
9.78280560317618
 30
0.0
 10
34.88073089817304
 20
9.925880332193752
 30
0.0
 10
34.8822659711082
 20
10.08960344572536
 30
0.0
 10
34.88425649312747
 20
10.30074136799206
 30
0.0
 10
34.8858757646896
 20
10.4724018120498
 30
0.0
 10
34.88692814049931
 20
10.58525147604304
 30
0.0
 10
34.88709357635902
 20
10.60299169869829
 30
0.0
  0
LINE
  5
35B
330
1F
100
AcDbEntity
  8
0
  6
Continuous
 62
     7
370
     0
100
AcDbLine
 10
32.36885106386456
 20
8.442278954253769
 30
0.0
 11
34.87095078179289
 21
8.442278954253769
 31
0.0
  0
SPLINE
  5
35C
330
1F
100
AcDbEntity
  8
0
  6
Continuous
 62
     7
370
     0
100
AcDbSpline
210
0.0
220
0.0
230
1.0
 70
     8
 71
     3
 72
    44
 73
    40
 74
     0
 42
0.0000000001
 43
0.0000000001
 40
0.0
 40
0.0
 40
0.0
 40
0.0
 40
0.1249999999999998
 40
0.1249999999999998
 40
0.1874999999999997
 40
0.1874999999999997
 40
0.2499999999999996
 40
0.2499999999999996
 40
0.3750000000000007
 40
0.3750000000000007
 40
0.4375000000000015
 40
0.4375000000000015
 40
0.5000000000000023
 40
0.5000000000000023
 40
0.6250000000000026
 40
0.6250000000000026
 40
0.6875000000000028
 40
0.6875000000000028
 40
0.7500000000000031
 40
0.7500000000000031
 40
0.8125000000000033
 40
0.8125000000000033
 40
0.8437500000000042
 40
0.8437500000000042
 40
0.8750000000000051
 40
0.8750000000000051
 40
0.8906250000000055
 40
0.8906250000000055
 40
0.9062500000000055
 40
0.9062500000000055
 40
0.9140625000000055
 40
0.9140625000000055
 40
0.9218750000000055
 40
0.9218750000000055
 40
0.9375000000000044
 40
0.9375000000000044
 40
0.9687500000000019
 40
0.9687500000000019
 40
1.0
 40
1.0
 40
1.0
 40
1.0
 10
34.84173466959563
 20
7.554826703835749
 30
0.0
 10
34.82136058423508
 20
7.59503137853099
 30
0.0
 10
34.80466527369174
 20
7.636600524716566
 30
0.0
 10
34.7858891680098
 20
7.700687715711509
 30
0.0
 10
34.78067837019455
 20
7.722339084310871
 30
0.0
 10
34.77253669764134
 20
7.766162639193018
 30
0.0
 10
34.76958894538595
 20
7.788432615600519
 30
0.0
 10
34.76414668729474
 20
7.855109223518036
 30
0.0
 10
34.76505779051692
 20
7.899408702071087
 30
0.0
 10
34.77321019187217
 20
7.965163846576956
 30
0.0
 10
34.77706298334671
 20
7.986965308252091
 30
0.0
 10
34.78707938585724
 20
8.030240583132869
 30
0.0
 10
34.79322353329202
 20
8.051592617130609
 30
0.0
 10
34.81474453821167
 20
8.114033467990578
 30
0.0
 10
34.83328379304244
 20
8.15376264167202
 30
0.0
 10
34.86667083246654
 20
8.21035196385613
 30
0.0
 10
34.87875523277433
 20
8.22874817740173
 30
0.0
 10
34.90434210884247
 20
8.264317092428008
 30
0.0
 10
34.91786520985046
 20
8.28151906423437
 30
0.0
 10
34.94598517591652
 20
8.315125731985009
 30
0.0
 10
34.96060218519392
 20
8.331499228389347
 30
0.0
 10
34.98272170175513
 20
8.356182141161447
 30
0.0
 10
34.99012896258328
 20
8.364437130286219
 30
0.0
 10
35.00473182631671
 20
8.381384951439486
 30
0.0
 10
35.01194684688782
 20
8.390034209551707
 30
0.0
 10
35.02201204331735
 20
8.404118660560097
 30
0.0
 10
35.02525373847331
 20
8.40903561244097
 30
0.0
 10
35.03104868615232
 20
8.419451781488607
 30
0.0
 10
35.03361957842259
 20
8.424943769026231
 30
0.0
 10
35.03642434988494
 20
8.434083875437268
 30
0.0
 10
35.03717245342534
 20
8.437303331129893
 30
0.0
 10
35.0381116704872
 20
8.44377040557806
 30
0.0
 10
35.03823880734
 20
8.447071615186917
 30
0.0
 10
35.03831500149296
 20
8.457040124644361
 30
0.0
 10
35.03858028044097
 20
8.463655100917826
 30
0.0
 10
35.04001507317895
 20
8.483387579144357
 30
0.0
 10
35.04180498561878
 20
8.496288971109398
 30
0.0
 10
35.04716742049588
 20
8.521531894462018
 30
0.0
 10
35.05075753648423
 20
8.533950801274077
 30
0.0
 10
35.05544619059482
 20
8.545789451113861
 30
0.0
  0
LINE
  5
35D
330
1F
100
AcDbEntity
  8
0
  6
Continuous
 62
     7
370
     0
100
AcDbLine
 10
32.6497409105483
 20
7.5548266744414
 30
0.0
 11
34.84173459106792
 21
7.5548266744414
 31
0.0
  0
SPLINE
  5
35E
330
1F
100
AcDbEntity
  8
0
  6
Continuous
 62
     7
370
     0
100
AcDbSpline
210
0.0
220
0.0
230
1.0
 70
     8
 71
     3
 72
    37
 73
    33
 74
     0
 42
0.0000000001
 43
0.0000000001
 40
0.0
 40
0.0
 40
0.0
 40
0.0
 40
0.0312499999999998
 40
0.0312499999999998
 40
0.0624999999999996
 40
0.0624999999999996
 40
0.1249999999999995
 40
0.1249999999999995
 40
0.1874999999999994
 40
0.1874999999999994
 40
0.2499999999999993
 40
0.2499999999999993
 40
0.3124999999999993
 40
0.3124999999999993
 40
0.3749999999999992
 40
0.3749999999999992
 40
0.4999999999999999
 40
0.4999999999999999
 40
0.625
 40
0.625
 40
0.6875
 40
0.6875
 40
0.75
 40
0.75
 40
0.8750000000000001
 40
0.8750000000000001
 40
0.9375
 40
0.9375
 40
0.96875
 40
0.984375
 40
0.984375
 40
1.0
 40
1.0
 40
1.0
 40
1.0
 10
36.00363538432322
 20
8.004298228824879
 30
0.0
 10
36.0322210397826
 20
7.970820167827419
 30
0.0
 10
36.06122125108949
 20
7.938157228369487
 30
0.0
 10
36.12004785294204
 20
7.874455869719351
 30
0.0
 10
36.14989178536318
 20
7.843400146269431
 30
0.0
 10
36.24030502375453
 20
7.752748378586968
 30
0.0
 10
36.30180731618582
 20
7.695538316867437
 30
0.0
 10
36.42688690614956
 20
7.586576598052436
 30
0.0
 10
36.49046433871037
 20
7.534837806693849
 30
0.0
 10
36.61938019747926
 20
7.436016450003517
 30
0.0
 10
36.68472694335279
 20
7.388943713061348
 30
0.0
 10
36.81701068524768
 20
7.298991243497776
 30
0.0
 10
36.88394333234806
 20
7.256108263647308
 30
0.0
 10
37.01921253662576
 20
7.174065706565659
 30
0.0
 10
37.08740986944683
 20
7.134996441850097
 30
0.0
 10
37.2932065913626
 20
7.023257920980221
 30
0.0
 10
37.43214384526896
 20
6.955951081514689
 30
0.0
 10
37.71291848578731
 20
6.833354021794767
 30
0.0
 10
37.85476311582139
 20
6.77806897435795
 30
0.0
 10
38.06946102888126
 20
6.70310586952662
 30
0.0
 10
38.14138097868701
 20
6.679441850116719
 30
0.0
 10
38.28556309753827
 20
6.634730794241547
 30
0.0
 10
38.35784804032547
 20
6.613673535033601
 30
0.0
 10
38.57525471992718
 20
6.554189079714677
 30
0.0
 10
38.72092591520335
 20
6.519440487458697
 30
0.0
 10
38.94046508498947
 20
6.474095651947621
 30
0.0
 10
39.01381718251324
 20
6.460113258858959
 30
0.0
 10
39.12409137165282
 20
6.440783249823808
 30
0.0
 10
39.17928995150912
 20
6.431529215535859
 30
0.0
 10
39.23457802500623
 20
6.422881894302577
 30
0.0
 10
39.27145628394504
 20
6.417250796356011
 30
0.0
 10
39.28984933674254
 20
6.414510254674147
 30
0.0
 10
39.30836368547604
 20
6.411819853099178
 30
0.0
  0
SPLINE
  5
35F
330
1F
100
AcDbEntity
  8
0
  6
Continuous
 62
     7
370
     0
100
AcDbSpline
210
0.0
220
0.0
230
1.0
 70
     8
 71
     3
 72
    17
 73
    13
 74
     0
 42
0.0000000001
 43
0.0000000001
 40
-1.301889744489139
 40
-1.301889744489139
 40
-1.301889744489139
 40
-1.301889744489139
 40
-1.24838920107657
 40
-1.138940985860634
 40
-1.029492770644699
 40
-0.9200445554287636
 40
-0.8105963402128281
 40
-0.7011481249968928
 40
-0.6464240173889248
 40
-0.591699909780957
 40
-0.5369758021729894
 40
-0.5335936175049092
 40
-0.5335936175049092
 40
-0.5335936175049092
 40
-0.5335936175049092
 10
41.23930113029532
 20
6.33132703054806
 30
0.0
 10
41.36462896381636
 20
6.346640957445757
 30
0.0
 10
41.7429695612349
 20
6.397758159869557
 30
0.0
 10
42.36038304624671
 20
6.506171396374027
 30
0.0
 10
43.0706154142589
 20
6.672759515685566
 30
0.0
 10
43.73967302490061
 20
6.873951997889097
 30
0.0
 10
44.36046009517804
 20
7.10831473351505
 30
0.0
 10
44.83233593192863
 20
7.33015800562855
 30
0.0
 10
45.17973280003495
 20
7.523072789391157
 30
0.0
 10
45.42462205287795
 20
7.675467434282442
 30
0.0
 10
45.58159541585149
 20
7.78539237938676
 30
0.0
 10
45.65934074884953
 20
7.843541111277157
 30
0.0
 10
45.66385527739678
 20
7.846930752762418
 30
0.0
  0
SPLINE
  5
360
330
1F
100
AcDbEntity
  8
0
  6
Continuous
 62
     7
370
     0
100
AcDbSpline
210
0.0
220
0.0
230
1.0
 70
     8
 71
     3
 72
    28
 73
    24
 74
     0
 42
0.0000000001
 43
0.0000000001
 40
0.0
 40
0.0
 40
0.0
 40
0.0
 40
0.1250000000000001
 40
0.1250000000000001
 40
0.1875000000000001
 40
0.1875000000000001
 40
0.2500000000000002
 40
0.2500000000000002
 40
0.5000000000000002
 40
0.5000000000000002
 40
0.6250000000000001
 40
0.6250000000000001
 40
0.75
 40
0.75
 40
0.875
 40
0.875
 40
0.9375
 40
0.9375
 40
0.96875
 40
0.96875
 40
0.984375
 40
0.984375
 40
1.0
 40
1.0
 40
1.0
 40
1.0
 10
40.52139348262746
 20
6.321033927116998
 30
0.0
 10
40.57774395151393
 20
6.321758755031168
 30
0.0
 10
40.63117685557663
 20
6.322479324557606
 30
0.0
 10
40.70703702202057
 20
6.323534315879209
 30
0.0
 10
40.7316071919375
 20
6.32388163253521
 30
0.0
 10
40.77930864238473
 20
6.324564120205339
 30
0.0
 10
40.80246855244761
 20
6.324899709724658
 30
0.0
 10
40.914311753744
 20
6.32653475037905
 30
0.0
 10
40.98953083921961
 20
6.327677413836639
 30
0.0
 10
41.08176707251225
 20
6.329066593827657
 30
0.0
 10
41.10906796678682
 20
6.329475886036536
 30
0.0
 10
41.15639682866053
 20
6.330176600740387
 30
0.0
 10
41.17602592865711
 20
6.33046214652743
 30
0.0
 10
41.20750215658746
 20
6.330911971855327
 30
0.0
 10
41.21934841356857
 20
6.331076398698156
 30
0.0
 10
41.231271781328
 20
6.331239193175028
 30
0.0
 10
41.23426965800054
 20
6.331279477916029
 30
0.0
 10
41.23727976091035
 20
6.331319615895897
 30
0.0
 10
41.23803519493809
 20
6.33132961176094
 30
0.0
 10
41.23879232768222
 20
6.331339593146008
 30
0.0
 10
41.23898202561885
 20
6.331342084690549
 30
0.0
 10
41.23923525372553
 20
6.331345404666918
 30
0.0
 10
41.23929877851231
 20
6.331346232443188
 30
0.0
 10
41.23929878391698
 20
6.331346233103888
 30
0.0
  0
SPLINE
  5
361
330
1F
100
AcDbEntity
  8
0
  6
Continuous
 62
     7
370
     0
100
AcDbSpline
210
0.0
220
0.0
230
1.0
 70
     8
 71
     3
 72
    12
 73
     8
 74
     0
 42
0.0000000001
 43
0.0000000001
 40
0.0
 40
0.0
 40
0.0
 40
0.0
 40
0.5000000000000001
 40
0.5000000000000001
 40
0.75
 40
0.75
 40
1.0
 40
1.0
 40
1.0
 40
1.0
 10
39.30836368547604
 20
6.411819853099178
 30
0.0
 10
39.50923099855194
 20
6.382630980047011
 30
0.0
 10
39.71121079581995
 20
6.361373309287567
 30
0.0
 10
40.0147471186328
 20
6.339203564951039
 30
0.0
 10
40.11601736209111
 20
6.333424586626038
 30
0.0
 10
40.31864392746728
 20
6.324908538186459
 30
0.0
 10
40.41999363001365
 20
6.322163058390048
 30
0.0
 10
40.52139348262747
 20
6.321033927116998
 30
0.0
  0
SPLINE
  5
362
330
1F
100
AcDbEntity
  8
0
  6
Continuous
 62
     7
370
     0
100
AcDbSpline
210
0.0
220
0.0
230
1.0
 70
     8
 71
     3
 72
     8
 73
     4
 74
     0
 42
0.0000000001
 43
0.0000000001
 40
0.0
 40
0.0
 40
0.0
 40
0.0
 40
1.0
 40
1.0
 40
1.0
 40
1.0
 10
34.85681566670257
 20
7.52521014201665
 30
0.0
 10
34.8516035471332
 20
7.535091670894798
 30
0.0
 10
34.84657608215331
 20
7.54496388431637
 30
0.0
 10
34.84173466959571
 20
7.554826703835817
 30
0.0
  0
SPLINE
  5
363
330
1F
100
AcDbEntity
  8
0
  6
Continuous
 62
     7
370
     0
100
AcDbSpline
210
0.0
220
0.0
230
1.0
 70
     8
 71
     3
 72
     8
 73
     4
 74
     0
 42
0.0000000001
 43
0.0000000001
 40
0.0000000000000001
 40
0.0000000000000001
 40
0.0000000000000001
 40
0.0000000000000001
 40
0.0000581742712999
 40
0.0000581742712999
 40
0.0000581742712999
 40
0.0000581742712999
 10
35.13555807720641
 20
7.001416482831987
 30
0.0
 10
35.13496097202998
 20
7.001430168914679
 30
0.0
 10
35.13436979464042
 20
7.001437007523769
 30
0.0
 10
35.13378496539981
 20
7.001437007523769
 30
0.0
  0
ELLIPSE
  5
364
330
1F
100
AcDbEntity
  8
0
  6
Continuous
 62
     7
370
     0
100
AcDbEllipse
 10
197.3001030133504
 20
210.5036579571835
 30
0.0
 11
28.84432644441067
 21
306.267975399803
 31
0.0
210
0.0
220
0.0
230
1.0
 40
0.6553801857
 41
2.355244310113167
 42
2.357522645985858
  0
SPLINE
  5
365
330
1F
100
AcDbEntity
  8
0
  6
Continuous
 62
     7
370
     0
100
AcDbSpline
210
0.0
220
0.0
230
1.0
 70
     8
 71
     3
 72
     8
 73
     4
 74
     0
 42
0.0000000001
 43
0.0000000001
 40
0.0
 40
0.0
 40
0.0
 40
0.0
 40
0.0000011166003983
 40
0.0000011166003983
 40
0.0000011166003983
 40
0.0000011166003983
 10
40.31374168207242
 20
6.029469073342157
 30
0.0
 10
40.31374239082018
 20
6.029483690879289
 30
0.0
 10
40.31374308946321
 20
6.029498308328577
 30
0.0
 10
40.31374377799821
 20
6.029512925641967
 30
0.0
  0
SPLINE
  5
366
330
1F
100
AcDbEntity
  8
0
  6
Continuous
 62
     7
370
     0
100
AcDbSpline
210
0.0
220
0.0
230
1.0
 70
     8
 71
     3
 72
     8
 73
     4
 74
     0
 42
0.0000000001
 43
0.0000000001
 40
0.0
 40
0.0
 40
0.0
 40
0.0
 40
0.0164306943345851
 40
0.0164306943345851
 40
0.0164306943345851
 40
0.0164306943345851
 10
40.28247077779193
 20
5.384181217327598
 30
0.0
 10
40.29288880568568
 20
5.599277115652208
 30
0.0
 10
40.30331250979687
 20
5.814373068649708
 30
0.0
 10
40.31374168207239
 20
6.029469073342157
 30
0.0
  0
LINE
  5
367
330
1F
100
AcDbEntity
  8
0
  6
Continuous
 62
     7
370
     0
100
AcDbLine
 10
33.00156835587626
 20
7.001437080703118
 30
0.0
 11
35.13378503317057
 21
7.001437080703118
 31
0.0
  0
SPLINE
  5
368
330
1F
100
AcDbEntity
  8
0
  6
Continuous
 62
     7
370
     0
100
AcDbSpline
210
0.0
220
0.0
230
1.0
 70
     8
 71
     3
 72
    24
 73
    20
 74
     0
 42
0.0000000001
 43
0.0000000001
 40
0.0
 40
0.0
 40
0.0
 40
0.0
 40
0.2500000000000004
 40
0.2500000000000004
 40
0.3750000000000006
 40
0.3750000000000006
 40
0.4375000000000007
 40
0.4375000000000007
 40
0.5000000000000007
 40
0.5000000000000007
 40
0.6250000000000007
 40
0.6250000000000007
 40
0.7500000000000006
 40
0.7500000000000006
 40
0.8750000000000003
 40
0.8750000000000003
 40
0.9375
 40
0.9375
 40
1.0
 40
1.0
 40
1.0
 40
1.0
 10
38.95618381299998
 20
5.275933668975528
 30
0.0
 10
38.6150074937744
 20
5.312194775539528
 30
0.0
 10
38.27696680996679
 20
5.369328481301127
 30
0.0
 10
37.77510533667579
 20
5.489683967636349
 30
0.0
 10
37.60869305289098
 20
5.535629871602208
 30
0.0
 10
37.36054666935078
 20
5.614365029502438
 30
0.0
 10
37.27807784671616
 20
5.642255012175728
 30
0.0
 10
37.11366480230511
 20
5.701537667333968
 30
0.0
 10
37.03181640395428
 20
5.7328845987538
 30
0.0
 10
36.78804258027668
 20
5.832200544701486
 30
0.0
 10
36.62766378886285
 20
5.905564838648509
 30
0.0
 10
36.31181115301338
 20
6.068739875810968
 30
0.0
 10
36.15634492749276
 20
6.158574975681118
 30
0.0
 10
35.85140059528726
 20
6.358378051298749
 30
0.0
 10
35.70194735061293
 20
6.468425300909682
 30
0.0
 10
35.4835270666387
 20
6.652937480768137
 30
0.0
 10
35.41159869438944
 20
6.717876255027188
 30
0.0
 10
35.27113337368721
 20
6.854398856699449
 30
0.0
 10
35.20249634750002
 20
6.926086334762415
 30
0.0
 10
35.13555807720641
 20
7.001416482831977
 30
0.0
  0
LINE
  5
369
330
1F
100
AcDbEntity
  8
0
  6
Continuous
 62
     7
370
     0
100
AcDbLine
 10
36.99758158812122
 20
5.275933584921738
 30
0.0
 11
38.95618380492469
 21
5.275933584921738
 31
0.0
  0
SPLINE
  5
36A
330
1F
100
AcDbEntity
  8
0
  6
Continuous
 62
     7
370
     0
100
AcDbSpline
210
0.0
220
0.0
230
1.0
 70
     8
 71
     3
 72
     8
 73
     4
 74
     0
 42
0.0000000001
 43
0.0000000001
 40
0.0
 40
0.0
 40
0.0
 40
0.0
 40
0.0001161429930318
 40
0.0001161429930318
 40
0.0001161429930318
 40
0.0001161429930318
 10
33.00156848628595
 20
7.001437007523818
 30
0.0
 10
33.00040089420618
 20
7.001437007523818
 30
0.0
 10
32.99925771296792
 20
7.001409787980427
 30
0.0
 10
32.99814244117822
 20
7.001355262290609
 30
0.0
  0
SPLINE
  5
36B
330
1F
100
AcDbEntity
  8
0
  6
Continuous
 62
     7
370
     0
100
AcDbSpline
210
0.0
220
0.0
230
1.0
 70
     8
 71
     3
 72
    10
 73
     6
 74
     0
 42
0.0000000001
 43
0.0000000001
 40
0.0
 40
0.0
 40
0.0
 40
0.0
 40
0.4863345244429702
 40
0.9726092851448456
 40
1.0
 40
1.0
 40
1.0
 40
1.0
 10
32.99814226897287
 20
7.001355241813839
 30
0.0
 10
32.97446713316354
 20
7.003085752073432
 30
0.0
 10
32.92711977088946
 20
7.006546559936995
 30
0.0
 10
32.88982004526957
 20
7.027838998130476
 30
0.0
 10
32.88394281830921
 20
7.047769022461468
 30
0.0
 10
32.88362942086386
 20
7.048831771739897
 30
0.0
  0
SPLINE
  5
36C
330
1F
100
AcDbEntity
  8
0
  6
Continuous
 62
     7
370
     0
100
AcDbSpline
210
0.0
220
0.0
230
1.0
 70
     8
 71
     3
 72
    14
 73
    10
 74
     0
 42
0.0000000001
 43
0.0000000001
 40
0.0
 40
0.0
 40
0.0
 40
0.0
 40
0.2297393059925803
 40
0.3548047903189175
 40
0.4909196109262783
 40
0.6192854802710866
 40
0.7592465048238953
 40
0.8790904281006259
 40
1.0
 40
1.0
 40
1.0
 40
1.0
 10
32.15920739831253
 20
8.221106711604768
 30
0.0
 10
32.17278373450835
 20
8.198266304956526
 30
0.0
 10
32.19375075665738
 20
8.162992037644642
 30
0.0
 10
32.22337826764952
 20
8.123729343143459
 30
0.0
 10
32.24697565632626
 20
8.09640391263531
 30
0.0
 10
32.27155616124335
 20
8.07229882195207
 30
0.0
 10
32.29515913013385
 20
8.053017342034987
 30
0.0
 10
32.3183349850982
 20
8.037265237168348
 30
0.0
 10
32.33299004584811
 20
8.029802956921258
 30
0.0
 10
32.34035001011418
 20
8.02605530163008
 30
0.0
  0
SPLINE
  5
36D
330
1F
100
AcDbEntity
  8
0
  6
Continuous
 62
     7
370
     0
100
AcDbSpline
210
0.0
220
0.0
230
1.0
 70
     8
 71
     3
 72
    12
 73
     8
 74
     0
 42
0.0000000001
 43
0.0000000001
 40
0.0
 40
0.0
 40
0.0
 40
0.0
 40
0.2499999999999988
 40
0.2499999999999988
 40
0.4999999999999976
 40
0.4999999999999976
 40
1.0
 40
1.0
 40
1.0
 40
1.0
 10
32.15920728581074
 20
8.221106717278981
 30
0.0
 10
32.1531990683471
 20
8.231777885175896
 30
0.0
 10
32.14756706778916
 20
8.242730772763401
 30
0.0
 10
32.13716387218497
 20
8.26494540758563
 30
0.0
 10
32.13237200659615
 20
8.276243311171487
 30
0.0
 10
32.11920634821578
 20
8.310699822512539
 30
0.0
 10
32.11203471047785
 20
8.33441761044855
 30
0.0
 10
32.10651054341921
 20
8.358901716298069
 30
0.0
  0
SPLINE
  5
36E
330
1F
100
AcDbEntity
  8
0
  6
Continuous
 62
     7
370
     0
100
AcDbSpline
210
0.0
220
0.0
230
1.0
 70
     8
 71
     3
 72
    20
 73
    16
 74
     0
 42
0.0000000001
 43
0.0000000001
 40
0.0
 40
0.0
 40
0.0
 40
0.0
 40
0.1250000000000016
 40
0.1250000000000016
 40
0.2500000000000032
 40
0.2500000000000032
 40
0.3750000000000048
 40
0.3750000000000048
 40
0.5000000000000064
 40
0.5000000000000064
 40
0.6250000000000079
 40
0.6250000000000079
 40
0.7500000000000097
 40
0.7500000000000097
 40
1.0
 40
1.0
 40
1.0
 40
1.0
 10
32.09495536434324
 20
8.358901716298069
 30
0.0
 10
32.09051390988698
 20
8.358901716298069
 30
0.0
 10
32.08614333029806
 20
8.359375707495249
 30
0.0
 10
32.07753818365858
 20
8.361233303527408
 30
0.0
 10
32.07326582914426
 20
8.362635064246777
 30
0.0
 10
32.06505154359755
 20
8.366322137175638
 30
0.0
 10
32.06114654879203
 20
8.368580359533449
 30
0.0
 10
32.05373408140632
 20
8.3739122804615
 30
0.0
 10
32.0501955203301
 20
8.377025739742091
 30
0.0
 10
32.04378540150752
 20
8.383869643812218
 30
0.0
 10
32.04089074206408
 20
8.387604514813276
 30
0.0
 10
32.03572605793009
 20
8.395703960685366
 30
0.0
 10
32.03345940509902
 20
8.400088013141449
 30
0.0
 10
32.02790647628521
 20
8.413644853595821
 30
0.0
 10
32.02571652527395
 20
8.423542449316379
 30
0.0
 10
32.02526061702375
 20
8.433632293034499
 30
0.0
  0
SPLINE
  5
36F
330
1F
100
AcDbEntity
  8
0
  6
Continuous
 62
     7
370
     0
100
AcDbSpline
210
0.0
220
0.0
230
1.0
 70
     8
 71
     3
 72
    11
 73
     7
 74
     0
 42
0.0000000001
 43
0.0000000001
 40
0.0019006643318629
 40
0.0019006643318629
 40
0.0019006643318629
 40
0.0019006643318629
 40
0.0157717468369432
 40
0.0157717468369432
 40
0.0157717468369432
 40
0.0188231635934506
 40
0.0188231635934506
 40
0.0188231635934506
 40
0.0188231635934506
 10
32.02526061702375
 20
8.433632293034499
 30
0.0
 10
32.01704623264117
 20
8.615427324441919
 30
0.0
 10
32.00883220179669
 20
8.797222376505487
 30
0.0
 10
32.00061850501302
 20
8.979017448084768
 30
0.0
 10
31.99881162281839
 20
9.019009462223916
 30
0.0
 10
31.99700475678989
 20
9.059001477307518
 30
0.0
 10
31.99519790695139
 20
9.098993493336919
 30
0.0
  0
LINE
  5
370
330
1F
100
AcDbEntity
  8
0
  6
Continuous
 62
     7
370
     0
100
AcDbLine
 10
32.10651077912884
 20
8.358901697524357
 30
0.0
 11
32.0949553623972
 21
8.358901697524357
 31
0.0
  0
SPLINE
  5
371
330
1F
100
AcDbEntity
  8
0
  6
Continuous
 62
     7
370
     0
100
AcDbSpline
210
0.0
220
0.0
230
1.0
 70
     8
 71
     3
 72
    10
 73
     6
 74
     0
 42
0.0000000001
 43
0.0000000001
 40
0.0
 40
0.0
 40
0.0
 40
0.0
 40
0.1373301993921574
 40
0.5686622758206685
 40
1.0
 40
1.0
 40
1.0
 40
1.0
 10
31.92957744361685
 20
10.60299169869829
 30
0.0
 10
31.93246848022594
 20
10.53414718463391
 30
0.0
 10
31.94443979800508
 20
10.24907312067059
 30
0.0
 10
31.96614760274191
 20
9.747741583813256
 30
0.0
 10
31.98551459486159
 20
9.315243819134376
 30
0.0
 10
31.99519815431761
 20
9.098993521050688
 30
0.0
  0
LINE
  5
372
330
1F
100
AcDbEntity
  8
0
  6
Continuous
 62
     7
370
     0
100
AcDbLine
 10
32.34699450673524
 20
8.0045717127763
 30
0.0
 11
31.82989298121988
 21
8.0045717127763
 31
0.0
  0
LINE
  5
373
330
1F
100
AcDbEntity
  8
0
  6
Continuous
 62
     7
370
     0
100
AcDbLine
 10
30.82076020376506
 20
10.60299169869759
 30
0.0
 11
30.94716110410056
 21
8.191119357995219
 31
0.0
  0
ARC
  5
374
330
1F
100
AcDbEntity
  8
0
  6
Continuous
 62
     7
370
     0
100
AcDbCircle
 10
31.83453038210648
 20
8.194522190319467
 30
0.0
 40
0.1900384034079832
100
AcDbArc
 50
181.8819114659006
 51
268.2570215488974
  0
SPLINE
  5
375
330
1F
100
AcDbEntity
  8
0
  6
Continuous
 62
     7
370
     0
100
AcDbSpline
210
0.0
220
0.0
230
1.0
 70
    24
 71
     3
 72
     8
 73
     4
 74
     0
 42
0.0000000001
 43
0.0000000001
 40
0.0
 40
0.0
 40
0.0
 40
0.0
 40
0.0000703038938327
 40
0.0000703038938327
 40
0.0000703038938327
 40
0.0000703038938327
 10
31.82989311943491
 20
8.00457171674525
 30
0.0
 10
31.8294539004728
 20
8.00457171674531
 30
0.0
 10
31.82907105325273
 20
8.004571716745367
 30
0.0
 10
31.82875025092503
 20
8.004571716745418
 30
0.0
  0
SPLINE
  5
376
330
1F
100
AcDbEntity
  8
0
  6
Continuous
 62
     7
370
     0
100
AcDbSpline
210
0.0
220
0.0
230
1.0
 70
     8
 71
     3
 72
    14
 73
    10
 74
     0
 42
0.0000000001
 43
0.0000000001
 40
0.0
 40
0.0
 40
0.0
 40
0.0
 40
0.25
 40
0.25
 40
0.5
 40
0.5
 40
0.75
 40
0.75
 40
1.0
 40
1.0
 40
1.0
 40
1.0
 10
31.14374154785366
 20
8.004571716913378
 30
0.0
 10
31.11883286326889
 20
8.004571716915258
 30
0.0
 10
31.09393274047564
 20
8.009355458101888
 30
0.0
 10
31.04766189209309
 20
8.027815654767437
 30
0.0
 10
31.02630707105057
 20
8.041485764975597
 30
0.0
 10
30.99017082822503
 20
8.075777778993819
 30
0.0
 10
30.97540182744972
 20
8.0963878957077
 30
0.0
 10
30.95454530074926
 20
8.141629199457307
 30
0.0
 10
30.94846494377856
 20
8.166244835828731
 30
0.0
 10
30.94716132395208
 20
8.191119383926949
 30
0.0
  0
SPLINE
  5
377
330
1F
100
AcDbEntity
  8
0
  6
Continuous
 62
     7
370
     0
100
AcDbSpline
210
0.0
220
0.0
230
1.0
 70
    24
 71
     3
 72
    18
 73
    14
 74
     0
 42
0.0000000001
 43
0.0000000001
 40
0.0
 40
0.0
 40
0.0
 40
0.0
 40
0.0624999999999998
 40
0.0624999999999998
 40
0.1249999999999995
 40
0.1249999999999995
 40
0.2499999999999994
 40
0.2499999999999994
 40
0.5
 40
0.5
 40
0.75
 40
0.75
 40
1.0
 40
1.0
 40
1.0
 40
1.0
 10
31.82875025092503
 20
8.004571716745418
 30
0.0
 10
31.80038889459711
 20
8.0045717167499
 30
0.0
 10
31.77287599606529
 20
8.00457171675432
 30
0.0
 10
31.71964606736374
 20
8.004571716763049
 30
0.0
 10
31.69394525921756
 20
8.004571716767348
 30
0.0
 10
31.61954249961694
 20
8.00457171678007
 30
0.0
 10
31.57353784967266
 20
8.0045717167883
 30
0.0
 10
31.44606284839557
 20
8.004571716812233
 30
0.0
 10
31.37509356427995
 20
8.0045717168272
 30
0.0
 10
31.26073184330706
 20
8.004571716855199
 30
0.0
 10
31.21734251883592
 20
8.004571716868237
 30
0.0
 10
31.15885115521481
 20
8.004571716892339
 30
0.0
 10
31.14374154785421
 20
8.004571716903377
 30
0.0
 10
31.14374154785368
 20
8.004571716913378
 30
0.0
  0
SPLINE
  5
378
330
1F
100
AcDbEntity
  8
0
  6
Continuous
 62
     7
370
     0
100
AcDbSpline
210
0.0
220
0.0
230
1.0
 70
     8
 71
     3
 72
     9
 73
     5
 74
     0
 42
0.0000000001
 43
0.0000000001
 40
0.0
 40
0.0
 40
0.0
 40
0.0
 40
0.0091331647701393
 40
1.0
 40
1.0
 40
1.0
 40
1.0
 10
31.94640046896268
 20
10.20837127663861
 30
0.0
 10
31.9464493850998
 20
10.2086723439765
 30
0.0
 10
31.95180526538667
 20
10.24163652949811
 30
0.0
 10
31.96319037466994
 20
10.27323102363802
 30
0.0
 10
31.97447150187419
 20
10.30453696005713
 30
0.0
  0
SPLINE
  5
379
330
1F
100
AcDbEntity
  8
0
  6
Continuous
 62
     7
370
     0
100
AcDbSpline
210
0.0
220
0.0
230
1.0
 70
     8
 71
     3
 72
    28
 73
    24
 74
     0
 42
0.0000000001
 43
0.0000000001
 40
0.0
 40
0.0
 40
0.0
 40
0.0
 40
0.1250000000000004
 40
0.1250000000000004
 40
0.2500000000000008
 40
0.2500000000000008
 40
0.3750000000000012
 40
0.3750000000000012
 40
0.4375000000000013
 40
0.4375000000000013
 40
0.5000000000000016
 40
0.5000000000000016
 40
0.6250000000000006
 40
0.6250000000000006
 40
0.6875000000000007
 40
0.6875000000000007
 40
0.7500000000000008
 40
0.7500000000000008
 40
0.8750000000000003
 40
0.8750000000000003
 40
0.9375
 40
0.9375
 40
1.0
 40
1.0
 40
1.0
 40
1.0
 10
40.31374377799821
 20
6.029512925641967
 30
0.0
 10
40.31472954770847
 20
6.048047685648797
 30
0.0
 10
40.31688906412478
 20
6.066191959760668
 30
0.0
 10
40.32345780696071
 20
6.101732270634729
 30
0.0
 10
40.327890855584
 20
6.119199652357848
 30
0.0
 10
40.3390201517349
 20
6.153043319966157
 30
0.0
 10
40.34559081097571
 20
6.169071874780089
 30
0.0
 10
40.35690394302021
 20
6.191821339401156
 30
0.0
 10
40.3609192790985
 20
6.199187658477567
 30
0.0
 10
40.36944693608736
 20
6.213479245932906
 30
0.0
 10
40.37398365080871
 20
6.220437040985067
 30
0.0
 10
40.38815648821335
 20
6.240332803887119
 30
0.0
 10
40.3983339745892
 20
6.252307013364028
 30
0.0
 10
40.41466395124436
 20
6.268386974744447
 30
0.0
 10
40.42028559535935
 20
6.273431582473908
 30
0.0
 10
40.43189299100486
 20
6.282876900037527
 30
0.0
 10
40.43790443856653
 20
6.287291466315427
 30
0.0
 10
40.45616319445011
 20
6.299316475485908
 30
0.0
 10
40.46870945678495
 20
6.305794484955009
 30
0.0
 10
40.48807803472856
 20
6.313250668878718
 30
0.0
 10
40.49462627944871
 20
6.315357104054698
 30
0.0
 10
40.50791136391639
 20
6.318793468639869
 30
0.0
 10
40.51472889035779
 20
6.320130753071368
 30
0.0
 10
40.52139348262756
 20
6.321033927117021
 30
0.0
  0
ELLIPSE
  5
37A
330
1F
100
AcDbEntity
  8
0
  6
Continuous
 62
     7
370
     0
100
AcDbEllipse
 10
38.90776422865773
 20
4.961733574744268
 30
0.0
 11
0.06041455463616
 21
0.3124187477975724
 31
0.0
210
0.0
220
0.0
230
1.0
 40
0.6609174328
 41
5.690616410002547
 42
6.340823149029597
  0
ELLIPSE
  5
37B
330
1F
100
AcDbEntity
  8
0
  6
Continuous
 62
     7
370
     0
100
AcDbEllipse
 10
39.26268429309177
 20
5.524261716299906
 30
0.0
 11
0.0108833014718726
 21
0.4330127701561329
 31
0.0
210
0.0
220
0.0
230
1.0
 40
0.6468898254999999
 41
2.438164194507856
 42
3.157850088022836
  0
LINE
  5
37C
330
1F
100
AcDbEntity
  8
0
  6
Continuous
 62
     7
370
     0
100
AcDbLine
 10
39.25635612445681
 20
5.091191821898127
 30
0.0
 11
38.96867153235469
 21
5.091191821898127
 31
0.0
  0
SPLINE
  5
37D
330
1F
100
AcDbEntity
  8
0
  6
Continuous
 62
     7
370
     0
100
AcDbSpline
210
0.0
220
0.0
230
1.0
 70
     8
 71
     3
 72
    26
 73
    22
 74
     0
 42
0.0000000001
 43
0.0000000001
 40
0.0
 40
0.0
 40
0.0
 40
0.0
 40
0.0625000000000002
 40
0.0625000000000002
 40
0.1250000000000004
 40
0.1250000000000004
 40
0.2500000000000006
 40
0.2500000000000006
 40
0.3125000000000006
 40
0.3125000000000006
 40
0.3750000000000005
 40
0.3750000000000005
 40
0.5000000000000006
 40
0.5000000000000006
 40
0.6250000000000006
 40
0.6250000000000006
 40
0.7500000000000002
 40
0.7500000000000002
 40
0.8750000000000001
 40
0.8750000000000001
 40
1.0
 40
1.0
 40
1.0
 40
1.0
 10
37.65450507822374
 20
5.091191716298047
 30
0.0
 10
37.6724063016037
 20
5.091191716298047
 30
0.0
 10
37.69111646567005
 20
5.091779232048417
 30
0.0
 10
37.72992175801262
 20
5.093700989600388
 30
0.0
 10
37.75001662335522
 20
5.095034641529127
 30
0.0
 10
37.81230984490826
 20
5.099629468562677
 30
0.0
 10
37.8565095072908
 20
5.103463337861398
 30
0.0
 10
37.92669116859361
 20
5.108783801455988
 30
0.0
 10
37.95073399906267
 20
5.110491422191497
 30
0.0
 10
38.00011800427927
 20
5.113576043842967
 30
0.0
 10
38.02550335793555
 20
5.11495432582209
 30
0.0
 10
38.1031383918023
 20
5.118342187421968
 30
0.0
 10
38.15693544781797
 20
5.119583254050947
 30
0.0
 10
38.26852048470279
 20
5.119575576355519
 30
0.0
 10
38.32630851517961
 20
5.118327203771198
 30
0.0
 10
38.44593714390124
 20
5.113812851666968
 30
0.0
 10
38.50794489595079
 20
5.110538039262348
 30
0.0
 10
38.63448150658472
 20
5.103434055094917
 30
0.0
 10
38.69917281489801
 20
5.099602291842388
 30
0.0
 10
38.83157218153576
 20
5.093491699559318
 30
0.0
 10
38.89927819130835
 20
5.091191716298047
 30
0.0
 10
38.96867153932776
 20
5.091191716298047
 30
0.0
  0
LINE
  5
37E
330
1F
100
AcDbEntity
  8
0
  6
Continuous
 62
     7
370
     0
100
AcDbLine
 10
37.65450500542136
 20
5.091191821898127
 30
0.0
 11
37.31746898630578
 21
5.091191821898127
 31
0.0
  0
SPLINE
  5
37F
330
1F
100
AcDbEntity
  8
0
  6
Continuous
 62
     7
370
     0
100
AcDbSpline
210
0.0
220
0.0
230
1.0
 70
     8
 71
     3
 72
    32
 73
    28
 74
     0
 42
0.0000000001
 43
0.0000000001
 40
0.0
 40
0.0
 40
0.0
 40
0.0
 40
0.1250000000000001
 40
0.1250000000000001
 40
0.2500000000000002
 40
0.2500000000000002
 40
0.3750000000000002
 40
0.3750000000000002
 40
0.5000000000000006
 40
0.5000000000000006
 40
0.6250000000000006
 40
0.6250000000000006
 40
0.7500000000000006
 40
0.7500000000000006
 40
0.8125000000000003
 40
0.8125000000000003
 40
0.8750000000000001
 40
0.8750000000000001
 40
0.90625
 40
0.90625
 40
0.9375
 40
0.9375
 40
0.96875
 40
0.96875
 40
0.984375
 40
0.984375
 40
1.0
 40
1.0
 40
1.0
 40
1.0
 10
39.44335582006211
 20
5.091191716298047
 30
0.0
 10
39.48487259452011
 20
5.091191716298047
 30
0.0
 10
39.5259394310577
 20
5.093588432782708
 30
0.0
 10
39.6063339169925
 20
5.101758431938398
 30
0.0
 10
39.64570791976536
 20
5.10753027065315
 30
0.0
 10
39.72305445203567
 20
5.121612573282839
 30
0.0
 10
39.76102560569788
 20
5.129928984678589
 30
0.0
 10
39.83572058985925
 20
5.148647444033406
 30
0.0
 10
39.87243018637689
 20
5.159053226532178
 30
0.0
 10
39.94404150037343
 20
5.18152603109319
 30
0.0
 10
39.97903878970955
 20
5.19361060029437
 30
0.0
 10
40.04751505874764
 20
5.219559509104851
 30
0.0
 10
40.0809991678986
 20
5.233394852611108
 30
0.0
 10
40.13003189572061
 20
5.256076683326157
 30
0.0
 10
40.14617613051721
 20
5.263963353738058
 30
0.0
 10
40.17800509902714
 20
5.280737920841058
 30
0.0
 10
40.19368956020096
 20
5.289603249695898
 30
0.0
 10
40.21649818515983
 20
5.304170938717167
 30
0.0
 10
40.22398736460728
 20
5.30924568386394
 30
0.0
 10
40.23864207789602
 20
5.320110392348028
 30
0.0
 10
40.24581391534161
 20
5.325882665089747
 30
0.0
 10
40.25959878650575
 20
5.338811377874917
 30
0.0
 10
40.26621588242814
 20
5.345900206078169
 30
0.0
 10
40.27454506433534
 20
5.358469645259511
 30
0.0
 10
40.2771002232557
 20
5.363104273566328
 30
0.0
 10
40.28093770416211
 20
5.373125945656417
 30
0.0
 10
40.28221538321908
 20
5.37860699098868
 30
0.0
 10
40.28247077779193
 20
5.384181217327598
 30
0.0
  0
LINE
  5
380
330
1F
100
AcDbEntity
  8
0
  6
Continuous
 62
     7
370
     0
100
AcDbLine
 10
39.44335581771259
 20
5.091191821898127
 30
0.0
 11
39.25635612445681
 21
5.091191821898127
 31
0.0
  0
ARC
  5
381
330
1F
100
AcDbEntity
  8
0
  6
Continuous
 62
     7
370
     0
100
AcDbCircle
 10
40.29534628311012
 20
3.915376669666988
 30
0.0
 40
1.468860973416755
100
AcDbArc
 50
89.49776073039647
 51
90.50223926960354
  0
SPLINE
  5
382
330
1F
100
AcDbEntity
  8
0
  6
Continuous
 62
     7
370
     0
100
AcDbSpline
210
0.0
220
0.0
230
1.0
 70
     8
 71
     3
 72
    22
 73
    18
 74
     0
 42
0.0000000001
 43
0.0000000001
 40
0.0
 40
0.0
 40
0.0
 40
0.0
 40
0.0625000000000001
 40
0.0625000000000001
 40
0.1250000000000003
 40
0.1250000000000003
 40
0.1875000000000004
 40
0.1875000000000004
 40
0.2500000000000006
 40
0.2500000000000006
 40
0.3750000000000007
 40
0.3750000000000007
 40
0.5000000000000009
 40
0.5000000000000009
 40
0.7500000000000006
 40
0.7500000000000006
 40
1.0
 40
1.0
 40
1.0
 40
1.0
 10
40.30822172058525
 20
5.384181217327598
 30
0.0
 10
40.30773706869142
 20
5.374061628117769
 30
0.0
 10
40.30609273124635
 20
5.364201076498718
 30
0.0
 10
40.3008401870332
 20
5.344917169421377
 30
0.0
 10
40.29726758918295
 20
5.335647009441409
 30
0.0
 10
40.28898216063033
 20
5.318113279322958
 30
0.0
 10
40.28420988429522
 20
5.309708015444408
 30
0.0
 10
40.27394861477097
 20
5.293681524197316
 30
0.0
 10
40.26848742058469
 20
5.286090747021259
 30
0.0
 10
40.25140405638507
 20
5.26416621192266
 30
0.0
 10
40.23909607509653
 20
5.250660199422077
 30
0.0
 10
40.21333393476258
 20
5.224854592792858
 30
0.0
 10
40.19982216848095
 20
5.212541496704967
 30
0.0
 10
40.15834656675318
 20
5.177172311997758
 30
0.0
 10
40.1294179269246
 20
5.155574874807348
 30
0.0
 10
40.0695811635382
 20
5.11475428015728
 30
0.0
 10
40.03865347965228
 20
5.095581202106949
 30
0.0
 10
40.00675082459403
 20
5.077460154441522
 30
0.0
  0
SPLINE
  5
383
330
1F
100
AcDbEntity
  8
0
  6
Continuous
 62
     7
370
     0
100
AcDbSpline
210
0.0
220
0.0
230
1.0
 70
     8
 71
     3
 72
    16
 73
    12
 74
     0
 42
0.0000000001
 43
0.0000000001
 40
0.0
 40
0.0
 40
0.0
 40
0.0
 40
0.2499999999999999
 40
0.2499999999999999
 40
0.5
 40
0.5
 40
0.625
 40
0.625
 40
0.7500000000000001
 40
0.7500000000000001
 40
1.0
 40
1.0
 40
1.0
 40
1.0
 10
39.43036971927012
 20
4.992766716298048
 30
0.0
 10
39.48162773461993
 20
4.992766716298048
 30
0.0
 10
39.53189266653963
 20
4.995531810510986
 30
0.0
 10
39.63086420941423
 20
5.004659548129379
 30
0.0
 10
39.67957091206536
 20
5.011041066899097
 30
0.0
 10
39.75172682366923
 20
5.022563222956457
 30
0.0
 10
39.77565585482358
 20
5.026740088880748
 30
0.0
 10
39.8229723938861
 20
5.035616582127908
 30
0.0
 10
39.84639097132136
 20
5.040320563497048
 30
0.0
 10
39.91603943602233
 20
5.055127471123077
 30
0.0
 10
39.96165999262347
 20
5.065919849295289
 30
0.0
 10
40.00675082459403
 20
5.077460154441507
 30
0.0
  0
ARC
  5
384
330
1F
100
AcDbEntity
  8
0
  6
Continuous
 62
     7
370
     0
100
AcDbCircle
 10
39.68574941581811
 20
5.009141438861417
 30
0.0
 40
0.2559041261071077
100
AcDbArc
 50
161.2990082065991
 51
183.6687540503997
  0
LINE
  5
385
330
1F
100
AcDbEntity
  8
0
  6
Continuous
 62
     7
370
     0
100
AcDbLine
 10
39.00134955949852
 20
4.992766622433959
 30
0.0
 11
39.43036972370449
 21
4.992766622433959
 31
0.0
  0
ARC
  5
386
330
1F
100
AcDbEntity
  8
0
  6
Continuous
 62
     7
370
     0
100
AcDbCircle
 10
38.87534321254715
 20
5.00556870822737
 30
0.0
 40
0.1266550151895005
100
AcDbArc
 50
354.1987273084012
 51
42.53450832059722
  0
SPLINE
  5
387
330
1F
100
AcDbEntity
  8
0
  6
Continuous
 62
     7
370
     0
100
AcDbSpline
210
0.0
220
0.0
230
1.0
 70
    24
 71
     3
 72
    28
 73
    24
 74
     0
 42
0.0000000001
 43
0.0000000001
 40
0.0
 40
0.0
 40
0.0
 40
0.0
 40
0.0625000000000002
 40
0.0625000000000002
 40
0.1250000000000005
 40
0.1250000000000005
 40
0.2500000000000006
 40
0.2500000000000006
 40
0.3125000000000008
 40
0.3125000000000008
 40
0.3750000000000009
 40
0.3750000000000009
 40
0.5000000000000009
 40
0.5000000000000009
 40
0.6250000000000008
 40
0.6250000000000008
 40
0.6875000000000007
 40
0.6875000000000007
 40
0.7500000000000006
 40
0.7500000000000006
 40
0.8750000000000003
 40
0.8750000000000003
 40
1.0
 40
1.0
 40
1.0
 40
1.0
 10
39.03402759079936
 20
4.894341716298049
 30
0.0
 10
39.00434586794835
 20
4.894341716298049
 30
0.0
 10
38.97490357407901
 20
4.894341716298049
 30
0.0
 10
38.91694263593592
 20
4.894341716298049
 30
0.0
 10
38.88846354597428
 20
4.894341716298049
 30
0.0
 10
38.80431923891153
 20
4.894341716298049
 30
0.0
 10
38.74992930786183
 20
4.894341716298049
 30
0.0
 10
38.67045637856536
 20
4.894341716298049
 30
0.0
 10
38.64432224834974
 20
4.894341716298049
 30
0.0
 10
38.59274051760105
 20
4.894341716298049
 30
0.0
 10
38.56724812049393
 20
4.894341716298049
 30
0.0
 10
38.4925875041351
 20
4.894341716298049
 30
0.0
 10
38.44497575057896
 20
4.894341716298049
 30
0.0
 10
38.35388637186375
 20
4.894341716298049
 30
0.0
 10
38.31040922833955
 20
4.894341716298049
 30
0.0
 10
38.24836993128037
 20
4.894341716298049
 30
0.0
 10
38.22822167459604
 20
4.894341716298049
 30
0.0
 10
38.18903889961703
 20
4.894341716298049
 30
0.0
 10
38.16995351090361
 20
4.894341716298049
 30
0.0
 10
38.1148910490154
 20
4.894341716298049
 30
0.0
 10
38.081207206543
 20
4.894341716298049
 30
0.0
 10
38.0209905047932
 20
4.894341716298049
 30
0.0
 10
37.99444545386119
 20
4.894341716298049
 30
0.0
 10
37.97270398122436
 20
4.894341716298049
 30
0.0
  0
ARC
  5
388
330
1F
100
AcDbEntity
  8
0
  6
Continuous
 62
     7
370
     0
100
AcDbCircle
 10
39.12735534847069
 20
4.979964606561658
 30
0.0
 40
0.1266544529988499
100
AcDbArc
 50
174.1987332632997
 51
222.5346044923992
  0
LWPOLYLINE
  5
389
330
1F
100
AcDbEntity
  8
0
  6
Continuous
 62
     7
370
     0
100
AcDbPolyline
 90
        9
 70
   128
 43
0.0
 10
40.00675082085336
 20
5.077460194656709
 10
40.0041081433356
 20
5.04107327444251
 10
39.9985262323144
 20
5.006445743717388
 10
39.99020095847289
 20
4.974792279355158
 10
39.97942462451769
 20
4.947224599624478
 10
39.96657547864913
 20
4.92471010474412
 10
39.95210436809535
 20
4.908039024003667
 10
39.93651941263933
 20
4.897796256146728
 10
39.92036748819912
 20
4.894341716299907
  0
SPLINE
  5
38A
330
1F
100
AcDbEntity
  8
0
  6
Continuous
 62
     7
370
     0
100
AcDbSpline
210
0.0
220
0.0
230
1.0
 70
    24
 71
     3
 72
    14
 73
    10
 74
     0
 42
0.0000000001
 43
0.0000000001
 40
0.0
 40
0.0
 40
0.0
 40
0.0
 40
0.25
 40
0.25
 40
0.5
 40
0.5
 40
0.75
 40
0.75
 40
1.0
 40
1.0
 40
1.0
 40
1.0
 10
39.92036748008526
 20
4.894341716298049
 30
0.0
 10
39.88017718403124
 20
4.894341716298049
 30
0.0
 10
39.83997216676947
 20
4.894341716298049
 30
0.0
 10
39.75899146582932
 20
4.894341716298049
 30
0.0
 10
39.71822198736525
 20
4.894341716298049
 30
0.0
 10
39.6354744033826
 20
4.894341716298049
 30
0.0
 10
39.59350334424529
 20
4.894341716298049
 30
0.0
 10
39.50741009779117
 20
4.894341716298049
 30
0.0
 10
39.46328771055421
 20
4.894341716298049
 30
0.0
 10
39.41738361847811
 20
4.894341716298049
 30
0.0
  0
ARC
  5
38B
330
1F
100
AcDbEntity
  8
0
  6
Continuous
 62
     7
370
     0
100
AcDbCircle
 10
39.17499128619468
 20
4.976391907573216
 30
0.0
 40
0.2559028675694937
100
AcDbArc
 50
341.2989581501008
 51
3.668749329899615
  0
LINE
  5
38C
330
1F
100
AcDbEntity
  8
0
  6
Continuous
 62
     7
370
     0
100
AcDbLine
 10
39.41738362052716
 20
4.894341716299907
 30
0.0
 11
39.03402758664233
 21
4.894341716299907
 31
0.0
  0
SPLINE
  5
38D
330
1F
100
AcDbEntity
  8
0
  6
Continuous
 62
     7
370
     0
100
AcDbSpline
210
0.0
220
0.0
230
1.0
 70
     8
 71
     3
 72
    14
 73
    10
 74
     0
 42
0.0000000001
 43
0.0000000001
 40
0.0
 40
0.0
 40
0.0
 40
0.0
 40
0.25
 40
0.25
 40
0.5
 40
0.5
 40
0.75
 40
0.75
 40
1.0
 40
1.0
 40
1.0
 40
1.0
 10
41.23929878391698
 20
6.331346233103888
 30
0.0
 10
41.20336317017659
 20
6.326953289329159
 30
0.0
 10
41.16820081536036
 20
6.316304768201907
 30
0.0
 10
41.10353056640021
 20
6.283740615225719
 30
0.0
 10
41.0740378267318
 20
6.261832614283838
 30
0.0
 10
41.0241826908119
 20
6.209324228457988
 30
0.0
 10
41.00383197734274
 20
6.178736148104468
 30
0.0
 10
40.97466178978142
 20
6.112465752623039
 30
0.0
 10
40.96584915127293
 20
6.076798966940308
 30
0.0
 10
40.9633237489054
 20
6.040684030517977
 30
0.0
  0
SPLINE
  5
38E
330
1F
100
AcDbEntity
  8
0
  6
Continuous
 62
     7
370
     0
100
AcDbSpline
210
0.0
220
0.0
230
1.0
 70
     8
 71
     3
 72
     8
 73
     4
 74
     0
 42
0.0000000001
 43
0.0000000001
 40
0.0
 40
0.0
 40
0.0
 40
0.0
 40
0.0000029772737039
 40
0.0000029772737039
 40
0.0000029772737039
 40
0.0000029772737039
 10
40.3391543197049
 20
6.029585999955968
 30
0.0
 10
40.33915278262646
 20
6.029547024999899
 30
0.0
 10
40.33915123951104
 20
6.029508049455958
 30
0.0
 10
40.33914969035959
 20
6.029469073342157
 30
0.0
  0
SPLINE
  5
38F
330
1F
100
AcDbEntity
  8
0
  6
Continuous
 62
     7
370
     0
100
AcDbSpline
210
0.0
220
0.0
230
1.0
 70
     8
 71
     3
 72
    28
 73
    24
 74
     0
 42
0.0000000001
 43
0.0000000001
 40
0.0
 40
0.0
 40
0.0
 40
0.0
 40
0.1250000000000016
 40
0.1250000000000016
 40
0.2500000000000032
 40
0.2500000000000032
 40
0.3750000000000048
 40
0.3750000000000048
 40
0.4375000000000053
 40
0.4375000000000053
 40
0.5000000000000057
 40
0.5000000000000057
 40
0.6250000000000054
 40
0.6250000000000054
 40
0.6875000000000054
 40
0.6875000000000054
 40
0.7500000000000048
 40
0.7500000000000048
 40
0.8750000000000024
 40
0.8750000000000024
 40
0.9375000000000014
 40
0.9375000000000014
 40
1.0
 40
1.0
 40
1.0
 40
1.0
 10
40.33915431970494
 20
6.029585999955968
 30
0.0
 10
40.33988523551231
 20
6.048119478982417
 30
0.0
 10
40.34165745612172
 20
6.066262179736456
 30
0.0
 10
40.3471995247045
 20
6.101798771171347
 30
0.0
 10
40.35098990229558
 20
6.119263971169689
 30
0.0
 10
40.36058623106774
 20
6.153102838011736
 30
0.0
 10
40.36628365162793
 20
6.169128793630897
 30
0.0
 10
40.3761354638844
 20
6.191874037592188
 30
0.0
 10
40.37963830180979
 20
6.199238896106318
 30
0.0
 10
40.3870898939694
 20
6.213527449927259
 30
0.0
 10
40.39106004465735
 20
6.220483668170409
 30
0.0
 10
40.40348063664665
 20
6.240374571787429
 30
0.0
 10
40.41242211553984
 20
6.252345348540789
 30
0.0
 10
40.42680238065432
 20
6.268419903393319
 30
0.0
 10
40.43175807070253
 20
6.273462666029628
 30
0.0
 10
40.44200128631104
 20
6.28290421261461
 30
0.0
 10
40.44731157144799
 20
6.287316846035568
 30
0.0
 10
40.46345674697639
 20
6.299336009818918
 30
0.0
 10
40.47457150659506
 20
6.30581005626929
 30
0.0
 10
40.49176171184359
 20
6.3132603242406
 30
0.0
 10
40.49757860420531
 20
6.315364792067168
 30
0.0
 10
40.50939045827639
 20
6.318797252631839
 30
0.0
 10
40.51545772143861
 20
6.320132628025068
 30
0.0
 10
40.52139348262756
 20
6.321033927117021
 30
0.0
  0
ARC
  5
390
330
1F
100
AcDbEntity
  8
0
  6
Continuous
 62
     7
370
     0
100
AcDbCircle
 10
40.33052891948091
 20
4.610138140204258
 30
0.0
 40
1.419473943882915
100
AcDbArc
 50
89.65184261559896
 51
90.67753379409555
  0
SPLINE
  5
391
330
1F
100
AcDbEntity
  8
0
  6
Continuous
 62
     7
370
     0
100
AcDbSpline
210
0.0
220
0.0
230
1.0
 70
     8
 71
     3
 72
    11
 73
     7
 74
     0
 42
0.0000000001
 43
0.0000000001
 40
0.0000000000000002
 40
0.0000000000000002
 40
0.0000000000000002
 40
0.0000000000000002
 40
0.0100000000047957
 40
0.0100000000047957
 40
0.0100000000047957
 40
0.0164306279559651
 40
0.0164306279559651
 40
0.0164306279559651
 40
0.0164306279559651
 10
40.33914969035959
 20
6.029469073342157
 30
0.0
 10
40.33287052697787
 20
5.898557470513119
 30
0.0
 10
40.32659418656609
 20
5.767645879358166
 30
0.0
 10
40.32032074697611
 20
5.636734300257727
 30
0.0
 10
40.31628653137921
 20
5.552549934305008
 30
0.0
 10
40.31225351542436
 20
5.468365573293558
 30
0.0
 10
40.30822172058525
 20
5.384181217327598
 30
0.0
  0
LINE
  5
392
330
1F
100
AcDbEntity
  8
0
  6
Continuous
 62
     7
370
     0
100
AcDbLine
 10
40.69959813797881
 20
4.894341716299907
 30
0.0
 11
39.92036748819912
 21
4.894341716299907
 31
0.0
  0
ARC
  5
393
330
1F
100
AcDbEntity
  8
0
  6
Continuous
 62
     7
370
     0
100
AcDbCircle
 10
40.32644568498206
 20
4.559482462665427
 30
0.0
 40
1.470041564706115
100
AcDbArc
 50
89.50484818070384
 51
90.49515181929612
  0
ARC
  5
394
330
1F
100
AcDbEntity
  8
0
  6
Continuous
 62
     7
370
     0
100
AcDbCircle
 10
37.53902523740104
 20
4.894712918077188
 30
0.0
 40
0.1964789130078742
100
AcDbArc
 50
29.93747219380098
 51
89.98247634110283
  0
ARC
  5
395
330
1F
100
AcDbEntity
  8
0
  6
Continuous
 62
     7
370
     0
100
AcDbCircle
 10
37.87955077795093
 20
5.090820674904199
 30
0.0
 40
0.1964789677555234
100
AcDbArc
 50
209.937580146402
 51
269.9825163853987
  0
LINE
  5
396
330
1F
100
AcDbEntity
  8
0
  6
Continuous
 62
     7
370
     0
100
AcDbLine
 10
37.97270399982129
 20
4.894341716299907
 30
0.0
 11
37.87949082305512
 21
4.894341716299907
 31
0.0
  0
SPLINE
  5
397
330
1F
100
AcDbEntity
  8
0
  6
Continuous
 62
     7
370
     0
100
AcDbSpline
210
0.0
220
0.0
230
1.0
 70
    24
 71
     1
 72
     4
 73
     2
 74
     0
 42
0.0000000001
 43
0.0000000001
 40
0.0
 40
0.0
 40
1.0
 40
1.0
 10
37.70769280461447
 20
4.993432773404895
 30
0.0
 10
37.70928807632853
 20
4.992766622432648
 30
0.0
  0
SPLINE
  5
398
330
1F
100
AcDbEntity
  8
0
  6
Continuous
 62
     7
370
     0
100
AcDbSpline
210
0.0
220
0.0
230
1.0
 70
     8
 71
     3
 72
    10
 73
     6
 74
     0
 42
0.0000000001
 43
0.0000000001
 40
0.0
 40
0.0
 40
0.0
 40
0.0
 40
0.3283673656379351
 40
0.664157675394028
 40
1.0
 40
1.0
 40
1.0
 40
1.0
 10
35.82068935083078
 20
10.60299169869829
 30
0.0
 10
35.82542293156289
 20
10.36754650079764
 30
0.0
 10
35.8349970985
 20
9.891333723024839
 30
0.0
 10
35.85102556063743
 20
9.174515510514227
 30
0.0
 10
35.86261171278983
 20
8.693194441445918
 30
0.0
 10
35.86840523751306
 20
8.452515268863317
 30
0.0
  0
SPLINE
  5
399
330
1F
100
AcDbEntity
  8
0
  6
Continuous
 62
     7
370
     0
100
AcDbSpline
210
0.0
220
0.0
230
1.0
 70
     8
 71
     3
 72
    11
 73
     7
 74
     0
 42
0.0000000001
 43
0.0000000001
 40
0.0
 40
0.0
 40
0.0
 40
0.0
 40
0.1495900581826951
 40
0.650494880342853
 40
0.8618140056206668
 40
1.0
 40
1.0
 40
1.0
 40
1.0
 10
35.63715727807807
 20
8.486126560025986
 30
0.0
 10
35.6342260623472
 20
8.591681766818307
 30
0.0
 10
35.62147962151236
 20
9.050690356333467
 30
0.0
 10
35.60514903708037
 20
9.658806381824232
 30
0.0
 10
35.58927298079904
 20
10.25887387512857
 30
0.0
 10
35.58313703603089
 20
10.50548681852925
 30
0.0
 10
35.58071102971064
 20
10.60299169869829
 30
0.0
  0
SPLINE
  5
39A
330
1F
100
AcDbEntity
  8
0
  6
Continuous
 62
     7
370
     0
100
AcDbSpline
210
0.0
220
0.0
230
1.0
 70
     8
 71
     3
 72
    12
 73
     8
 74
     0
 42
0.0000000001
 43
0.0000000001
 40
0.0
 40
0.0
 40
0.0
 40
0.0
 40
0.3939670393989798
 40
0.7656635258828776
 40
0.9442790739675738
 40
0.9888451570855265
 40
1.0
 40
1.0
 40
1.0
 40
1.0
 10
35.77034523309993
 20
8.154443948359366
 30
0.0
 10
35.74534498513825
 20
8.170260137065231
 30
0.0
 10
35.69675772760657
 20
8.200998441541248
 30
0.0
 10
35.65891652065831
 20
8.261039966247597
 30
0.0
 10
35.64755421163136
 20
8.30186707844895
 30
0.0
 10
35.64527204556306
 20
8.318231342875307
 30
0.0
 10
35.6448696728261
 20
8.322129879045878
 30
0.0
 10
35.64478912131713
 20
8.322910331950669
 30
0.0
  0
SPLINE
  5
39B
330
1F
100
AcDbEntity
  8
0
  6
Continuous
 62
     7
370
     0
100
AcDbSpline
210
0.0
220
0.0
230
1.0
 70
    24
 71
     3
 72
    11
 73
     7
 74
     0
 42
0.0000000001
 43
0.0000000001
 40
-0.00000006
 40
-0.00000006
 40
-0.00000006
 40
-0.00000006
 40
0.0
 40
0.0
 40
0.0
 40
0.0013489712275974
 40
0.0013489712275974
 40
0.0013489712275974
 40
0.0013489712275974
 10
35.3864355734134
 20
8.004571716298036
 30
0.0
 10
35.38643609196205
 20
8.004571716298036
 30
0.0
 10
35.38643661051074
 20
8.004571716298036
 30
0.0
 10
35.38643712905942
 20
8.004571716298036
 30
0.0
 10
35.3980955830076
 20
8.004571716298036
 30
0.0
 10
35.40975403695576
 20
8.004571716298036
 30
0.0
 10
35.42141249090394
 20
8.004571716298036
 30
0.0
  0
ARC
  5
39C
330
1F
100
AcDbEntity
  8
0
  6
Continuous
 62
     7
370
     0
100
AcDbCircle
 10
32.15911275069634
 20
10.29182021037645
 30
0.0
 40
1.861395449147414
100
AcDbArc
 50
273.0268681895042
 51
276.4697135869993
  0
ARC
  5
39D
330
1F
100
AcDbEntity
  8
0
  6
Continuous
 62
     7
370
     0
100
AcDbCircle
 10
32.62565979824211
 20
7.669631950688657
 30
0.0
 40
0.117303671829672
100
AcDbArc
 50
219.843335332901
 51
281.8463967995961
  0
LINE
  5
39E
330
1F
100
AcDbEntity
  8
0
  6
Continuous
 62
     7
370
     0
100
AcDbLine
 10
36.99758158812122
 20
5.275933584921738
 30
0.0
 11
36.97832466242648
 21
5.276940584608518
 31
0.0
  0
SPLINE
  5
39F
330
1F
100
AcDbEntity
  8
0
  6
Continuous
 62
     7
370
     0
100
AcDbSpline
210
0.0
220
0.0
230
1.0
 70
     8
 71
     3
 72
    11
 73
     7
 74
     0
 42
0.0000000001
 43
0.0000000001
 40
0.0
 40
0.0
 40
0.0
 40
0.0
 40
0.2699592077611213
 40
0.5734861447082757
 40
0.8770599483842433
 40
1.0
 40
1.0
 40
1.0
 40
1.0
 10
31.64459447907137
 20
8.188281396457139
 30
0.0
 10
31.63175560496292
 20
8.405505435513758
 30
0.0
 10
31.60448142351932
 20
8.866963956338789
 30
0.0
 10
31.56526880634031
 20
9.572872625783956
 30
0.0
 10
31.53419417400652
 20
10.16055874774273
 30
0.0
 10
31.51754127153349
 20
10.50399753532409
 30
0.0
 10
31.51274117262889
 20
10.60299169869829
 30
0.0
  0
SPLINE
  5
3A0
330
1F
100
AcDbEntity
  8
0
  6
Continuous
 62
     7
370
     0
100
AcDbSpline
210
0.0
220
0.0
230
1.0
 70
    24
 71
     1
 72
     4
 73
     2
 74
     0
 42
0.0000000001
 43
0.0000000001
 40
0.0
 40
0.0
 40
1.0
 40
1.0
 10
31.99519815431761
 20
9.098993521050688
 30
0.0
 10
31.90337667869257
 20
10.60299169869829
 30
0.0
  0
TEXT
  5
3C5
330
1F
100
AcDbEntity
  8
0
100
AcDbText
 10
5.591875223946541
 20
1.767344710284474
 30
0.0
 40
1.0
  1
LT182
100
AcDbText
  0
TEXT
  5
3C6
330
1F
100
AcDbEntity
  8
0
100
AcDbText
 10
5.591875223946541
 20
0.7474504105362776
 30
0.0
 40
0.4
  1
AD-00295, v02
100
AcDbText
  0
ENDSEC
  0
SECTION
  2
OBJECTS
  0
DICTIONARY
  5
C
330
0
100
AcDbDictionary
281
     1
  3
ACAD_CIP_PREVIOUS_PRODUCT_INFO
350
1A5
  3
ACAD_COLOR
350
73
  3
ACAD_GROUP
350
D
  3
ACAD_LAYOUT
350
1A
  3
ACAD_MATERIAL
350
72
  3
ACAD_MLEADERSTYLE
350
D7
  3
ACAD_MLINESTYLE
350
17
  3
ACAD_PLOTSETTINGS
350
19
  3
ACAD_PLOTSTYLENAME
350
E
  3
ACAD_SCALELIST
350
B6
  3
ACAD_TABLESTYLE
350
86
  3
ACAD_VISUALSTYLE
350
99
  3
ACDB_RECOMPOSE_DATA
350
456
  3
AcDbVariableDictionary
350
66
  0
DICTIONARY
  5
18E
330
2
100
AcDbDictionary
280
     1
281
     1
  3
ACAD_LAYERSTATES
360
18F
  0
DICTIONARY
  5
E6
330
10
100
AcDbDictionary
280
     1
281
     1
  0
DICTIONARY
  5
15D
330
1F
100
AcDbDictionary
280
     1
281
     1
  0
XRECORD
  5
1A5
102
{ACAD_REACTORS
330
C
102
}
330
C
100
AcDbXrecord
280
     1
300
ACD
300
2012
300
85730ACD_2012_0F
  0
DICTIONARY
  5
73
102
{ACAD_REACTORS
330
C
102
}
330
C
100
AcDbDictionary
281
     1
  0
DICTIONARY
  5
D
102
{ACAD_REACTORS
330
C
102
}
330
C
100
AcDbDictionary
281
     1
  0
DICTIONARY
  5
1A
102
{ACAD_REACTORS
330
C
102
}
330
C
100
AcDbDictionary
281
     1
  3
Layout1
350
59
  3
Layout2
350
5E
  3
Model
350
22
  0
DICTIONARY
  5
72
102
{ACAD_REACTORS
330
C
102
}
330
C
100
AcDbDictionary
281
     1
  3
ByBlock
350
97
  3
ByLayer
350
96
  3
Global
350
98
  0
DICTIONARY
  5
D7
102
{ACAD_REACTORS
330
C
102
}
330
C
100
AcDbDictionary
281
     1
  3
Standard
350
D8
  0
DICTIONARY
  5
17
102
{ACAD_REACTORS
330
C
102
}
330
C
100
AcDbDictionary
281
     1
  3
Standard
350
18
  0
DICTIONARY
  5
19
102
{ACAD_REACTORS
330
C
102
}
330
C
100
AcDbDictionary
281
     1
  0
ACDBDICTIONARYWDFLT
  5
E
102
{ACAD_REACTORS
330
C
102
}
330
C
100
AcDbDictionary
281
     1
  3
Normal
350
F
100
AcDbDictionaryWithDefault
340
F
  0
DICTIONARY
  5
B6
102
{ACAD_REACTORS
330
C
102
}
330
C
100
AcDbDictionary
281
     1
  3
A0
350
B7
  3
A1
350
124
  3
A2
350
125
  3
A3
350
126
  3
A4
350
127
  3
A5
350
128
  3
A6
350
129
  3
A7
350
12A
  3
A8
350
12B
  3
A9
350
12C
  3
B0
350
12D
  3
B1
350
12E
  3
B2
350
12F
  3
B3
350
130
  3
B4
350
131
  3
B5
350
132
  3
B6
350
133
  3
B7
350
134
  3
B8
350
135
  3
B9
350
136
  3
C0
350
137
  3
C1
350
138
  3
C2
350
139
  3
C3
350
13A
  3
C4
350
13B
  3
C5
350
13C
  3
C6
350
13D
  3
C7
350
13E
  3
C8
350
13F
  3
C9
350
140
  3
D0
350
141
  3
D1
350
142
  3
D2
350
143
  0
DICTIONARY
  5
86
102
{ACAD_REACTORS
330
C
102
}
330
C
100
AcDbDictionary
281
     1
  3
Standard
350
87
  0
DICTIONARY
  5
99
102
{ACAD_REACTORS
330
C
102
}
330
C
100
AcDbDictionary
281
     1
  3
2dWireframe
350
9F
  3
Basic
350
9E
  3
Brighten
350
A5
  3
ColorChange
350
A9
  3
Conceptual
350
A2
  3
Dim
350
A4
  3
EdgeColorOff
350
175
  3
Facepattern
350
A8
  3
Flat
350
9A
  3
FlatWithEdges
350
9B
  3
Gouraud
350
9C
  3
GouraudWithEdges
350
9D
  3
Hidden
350
A1
  3
JitterOff
350
173
  3
Linepattern
350
A7
  3
OverhangOff
350
174
  3
Realistic
350
A3
  3
Shaded
350
182
  3
Shaded with edges
350
181
  3
Shades of Gray
350
17E
  3
Sketchy
350
17F
  3
Thicken
350
A6
  3
Wireframe
350
A0
  3
X-Ray
350
180
  0
XRECORD
  5
456
102
{ACAD_REACTORS
330
C
102
}
330
C
100
AcDbXrecord
280
     1
 90
        1
330
87
  0
DICTIONARY
  5
66
102
{ACAD_REACTORS
330
C
102
}
330
C
100
AcDbDictionary
281
     1
  3
CANNOSCALE
350
F0
  3
CMLEADERSTYLE
350
EF
  3
CTABLESTYLE
350
89
  3
DIMASSOC
350
67
  3
HIDETEXT
350
6B
  3
LAYEREVAL
350
14D
  3
LAYERNOTIFY
350
14E
  3
LIGHTINGUNITS
350
3CA
  3
MSLTSCALE
350
3C9
  3
XCLIPFRAME
350
452
  0
DICTIONARY
  5
18F
102
{ACAD_REACTORS
330
18E
102
}
330
18E
100
AcDbDictionary
281
     1
  0
LAYOUT
  5
59
102
{ACAD_REACTORS
330
1A
102
}
330
1A
100
AcDbPlotSettings
  1

  2
None
  4

  6

 40
0.0
 41
0.0
 42
0.0
 43
0.0
 44
0.0
 45
0.0
 46
0.0
 47
0.0
 48
0.0
 49
0.0
140
0.0
141
0.0
142
1.0
143
1.0
 70
   688
 72
     0
 73
     0
 74
     5
  7

 75
    16
147
1.0
 76
     0
 77
     2
 78
   300
148
0.0
149
0.0
100
AcDbLayout
  1
Layout1
 70
     1
 71
     1
 10
0.0
 20
0.0
 11
12.0
 21
9.0
 12
0.0
 22
0.0
 32
0.0
 14
0.0
 24
0.0
 34
0.0
 15
0.0
 25
0.0
 35
0.0
146
0.0
 13
0.0
 23
0.0
 33
0.0
 16
1.0
 26
0.0
 36
0.0
 17
0.0
 27
1.0
 37
0.0
 76
     0
330
58
  0
LAYOUT
  5
5E
102
{ACAD_REACTORS
330
1A
102
}
330
1A
100
AcDbPlotSettings
  1

  2
None
  4

  6

 40
0.0
 41
0.0
 42
0.0
 43
0.0
 44
0.0
 45
0.0
 46
0.0
 47
0.0
 48
0.0
 49
0.0
140
0.0
141
0.0
142
1.0
143
1.0
 70
   688
 72
     0
 73
     0
 74
     5
  7

 75
    16
147
1.0
 76
     0
 77
     2
 78
   300
148
0.0
149
0.0
100
AcDbLayout
  1
Layout2
 70
     1
 71
     2
 10
0.0
 20
0.0
 11
12.0
 21
9.0
 12
0.0
 22
0.0
 32
0.0
 14
0.0
 24
0.0
 34
0.0
 15
0.0
 25
0.0
 35
0.0
146
0.0
 13
0.0
 23
0.0
 33
0.0
 16
1.0
 26
0.0
 36
0.0
 17
0.0
 27
1.0
 37
0.0
 76
     0
330
5D
  0
LAYOUT
  5
22
102
{ACAD_XDICTIONARY
360
194
102
}
102
{ACAD_REACTORS
330
1A
102
}
330
1A
100
AcDbPlotSettings
  1

  2
none_device
  4
ANSI_A_(8.50_x_11.00_Inches)
  6

 40
6.349999904632567
 41
19.04999923706055
 42
6.350006103515625
 43
19.04998779296875
 44
215.8999938964844
 45
279.3999938964844
 46
0.0
 47
0.0
 48
0.0
 49
0.0
140
0.0
141
0.0
142
1.0
143
2.584895464708373
 70
 11952
 72
     0
 73
     1
 74
     0
  7

 75
     0
147
0.3868628397755418
 76
     0
 77
     2
 78
   300
148
0.0
149
0.0
100
AcDbLayout
  1
Model
 70
     1
 71
     0
 10
0.0
 20
0.0
 11
12.0
 21
9.0
 12
0.0
 22
0.0
 32
0.0
 14
0.0
 24
0.0
 34
0.0
 15
0.0
 25
0.0
 35
0.0
146
0.0
 13
0.0
 23
0.0
 33
0.0
 16
1.0
 26
0.0
 36
0.0
 17
0.0
 27
1.0
 37
0.0
 76
     0
330
1F
331
94
  0
MATERIAL
  5
97
102
{ACAD_XDICTIONARY
360
188
102
}
102
{ACAD_REACTORS
330
72
102
}
330
72
100
AcDbMaterial
  1
ByBlock
  0
MATERIAL
  5
96
102
{ACAD_XDICTIONARY
360
186
102
}
102
{ACAD_REACTORS
330
72
102
}
330
72
100
AcDbMaterial
  1
ByLayer
  0
MATERIAL
  5
98
102
{ACAD_XDICTIONARY
360
110
102
}
102
{ACAD_REACTORS
330
72
102
}
330
72
100
AcDbMaterial
  1
Global
 43
0.0208000000566244
 43
0.0
 43
0.0
 43
0.0
 43
0.0
 43
0.0208000000566244
 43
0.0
 43
0.0
 43
0.0
 43
0.0
 43
1.0
 43
0.0
 43
0.0
 43
0.0
 43
0.0
 43
1.0
 49
0.0208000000566244
 49
0.0
 49
0.0
 49
0.0
 49
0.0
 49
0.0208000000566244
 49
0.0
 49
0.0
 49
0.0
 49
0.0
 49
1.0
 49
0.0
 49
0.0
 49
0.0
 49
0.0
 49
1.0
142
0.0208000000566244
142
0.0
142
0.0
142
0.0
142
0.0
142
0.0208000000566244
142
0.0
142
0.0
142
0.0
142
0.0
142
1.0
142
0.0
142
0.0
142
0.0
142
0.0
142
1.0
144
0.0208000000566244
144
0.0
144
0.0
144
0.0
144
0.0
144
0.0208000000566244
144
0.0
144
0.0
144
0.0
144
0.0
144
1.0
144
0.0
144
0.0
144
0.0
144
0.0
144
1.0
1001
ACAD
1070
    -1
1070
     3
1070
     0
1000

1071
        0
1070
     0
  0
MLEADERSTYLE
  5
D8
102
{ACAD_XDICTIONARY
360
454
102
}
102
{ACAD_REACTORS
330
D7
102
}
330
D7
100
AcDbMLeaderStyle
170
     2
171
     1
172
     0
 90
        2
 40
0.0
 41
0.0
173
     1
 91
-1056964608
340
14
 92
       -2
290
     1
 42
0.09
291
     1
 43
0.36
  3
Standard
 44
0.18
300

342
11
174
     1
178
     1
175
     1
176
     0
 93
-1056964608
 45
0.18
292
     0
297
     0
 46
0.18
 94
-1056964608
 47
1.0
 49
1.0
140
1.0
293
     1
141
0.0
294
     1
177
     0
142
1.0
295
     0
296
     0
143
0.125
1001
ACAD_MLEADERVER
1070
     2
  0
MLINESTYLE
  5
18
102
{ACAD_REACTORS
330
17
102
}
330
17
100
AcDbMlineStyle
  2
STANDARD
 70
     0
  3

 62
   256
 51
90.0
 52
90.0
 71
     2
 49
0.5
 62
   256
  6
BYLAYER
 49
-0.5
 62
   256
  6
BYLAYER
  0
ACDBPLACEHOLDER
  5
F
102
{ACAD_REACTORS
330
E
102
}
330
E
  0
SCALE
  5
B7
102
{ACAD_REACTORS
330
B6
102
}
330
B6
100
AcDbScale
 70
     0
300
1:1
140
1.0
141
1.0
290
     1
  0
SCALE
  5
124
102
{ACAD_REACTORS
330
B6
102
}
330
B6
100
AcDbScale
 70
     0
300
1:2
140
1.0
141
2.0
290
     0
  0
SCALE
  5
125
102
{ACAD_REACTORS
330
B6
102
}
330
B6
100
AcDbScale
 70
     0
300
1:4
140
1.0
141
4.0
290
     0
  0
SCALE
  5
126
102
{ACAD_REACTORS
330
B6
102
}
330
B6
100
AcDbScale
 70
     0
300
1:5
140
1.0
141
5.0
290
     0
  0
SCALE
  5
127
102
{ACAD_REACTORS
330
B6
102
}
330
B6
100
AcDbScale
 70
     0
300
1:8
140
1.0
141
8.0
290
     0
  0
SCALE
  5
128
102
{ACAD_REACTORS
330
B6
102
}
330
B6
100
AcDbScale
 70
     0
300
1:10
140
1.0
141
10.0
290
     0
  0
SCALE
  5
129
102
{ACAD_REACTORS
330
B6
102
}
330
B6
100
AcDbScale
 70
     0
300
1:16
140
1.0
141
16.0
290
     0
  0
SCALE
  5
12A
102
{ACAD_REACTORS
330
B6
102
}
330
B6
100
AcDbScale
 70
     0
300
1:20
140
1.0
141
20.0
290
     0
  0
SCALE
  5
12B
102
{ACAD_REACTORS
330
B6
102
}
330
B6
100
AcDbScale
 70
     0
300
1:30
140
1.0
141
30.0
290
     0
  0
SCALE
  5
12C
102
{ACAD_REACTORS
330
B6
102
}
330
B6
100
AcDbScale
 70
     0
300
1:40
140
1.0
141
40.0
290
     0
  0
SCALE
  5
12D
102
{ACAD_REACTORS
330
B6
102
}
330
B6
100
AcDbScale
 70
     0
300
1:50
140
1.0
141
50.0
290
     0
  0
SCALE
  5
12E
102
{ACAD_REACTORS
330
B6
102
}
330
B6
100
AcDbScale
 70
     0
300
1:100
140
1.0
141
100.0
290
     0
  0
SCALE
  5
12F
102
{ACAD_REACTORS
330
B6
102
}
330
B6
100
AcDbScale
 70
     0
300
2:1
140
2.0
141
1.0
290
     0
  0
SCALE
  5
130
102
{ACAD_REACTORS
330
B6
102
}
330
B6
100
AcDbScale
 70
     0
300
4:1
140
4.0
141
1.0
290
     0
  0
SCALE
  5
131
102
{ACAD_REACTORS
330
B6
102
}
330
B6
100
AcDbScale
 70
     0
300
8:1
140
8.0
141
1.0
290
     0
  0
SCALE
  5
132
102
{ACAD_REACTORS
330
B6
102
}
330
B6
100
AcDbScale
 70
     0
300
10:1
140
10.0
141
1.0
290
     0
  0
SCALE
  5
133
102
{ACAD_REACTORS
330
B6
102
}
330
B6
100
AcDbScale
 70
     0
300
100:1
140
100.0
141
1.0
290
     0
  0
SCALE
  5
134
102
{ACAD_REACTORS
330
B6
102
}
330
B6
100
AcDbScale
 70
     0
300
1/128" = 1'-0"
140
0.0078125
141
12.0
290
     0
  0
SCALE
  5
135
102
{ACAD_REACTORS
330
B6
102
}
330
B6
100
AcDbScale
 70
     0
300
1/64" = 1'-0"
140
0.015625
141
12.0
290
     0
  0
SCALE
  5
136
102
{ACAD_REACTORS
330
B6
102
}
330
B6
100
AcDbScale
 70
     0
300
1/32" = 1'-0"
140
0.03125
141
12.0
290
     0
  0
SCALE
  5
137
102
{ACAD_REACTORS
330
B6
102
}
330
B6
100
AcDbScale
 70
     0
300
1/16" = 1'-0"
140
0.0625
141
12.0
290
     0
  0
SCALE
  5
138
102
{ACAD_REACTORS
330
B6
102
}
330
B6
100
AcDbScale
 70
     0
300
3/32" = 1'-0"
140
0.09375
141
12.0
290
     0
  0
SCALE
  5
139
102
{ACAD_REACTORS
330
B6
102
}
330
B6
100
AcDbScale
 70
     0
300
1/8" = 1'-0"
140
0.125
141
12.0
290
     0
  0
SCALE
  5
13A
102
{ACAD_REACTORS
330
B6
102
}
330
B6
100
AcDbScale
 70
     0
300
3/16" = 1'-0"
140
0.1875
141
12.0
290
     0
  0
SCALE
  5
13B
102
{ACAD_REACTORS
330
B6
102
}
330
B6
100
AcDbScale
 70
     0
300
1/4" = 1'-0"
140
0.25
141
12.0
290
     0
  0
SCALE
  5
13C
102
{ACAD_REACTORS
330
B6
102
}
330
B6
100
AcDbScale
 70
     0
300
3/8" = 1'-0"
140
0.375
141
12.0
290
     0
  0
SCALE
  5
13D
102
{ACAD_REACTORS
330
B6
102
}
330
B6
100
AcDbScale
 70
     0
300
1/2" = 1'-0"
140
0.5
141
12.0
290
     0
  0
SCALE
  5
13E
102
{ACAD_REACTORS
330
B6
102
}
330
B6
100
AcDbScale
 70
     0
300
3/4" = 1'-0"
140
0.75
141
12.0
290
     0
  0
SCALE
  5
13F
102
{ACAD_REACTORS
330
B6
102
}
330
B6
100
AcDbScale
 70
     0
300
1" = 1'-0"
140
1.0
141
12.0
290
     0
  0
SCALE
  5
140
102
{ACAD_REACTORS
330
B6
102
}
330
B6
100
AcDbScale
 70
     0
300
1-1/2" = 1'-0"
140
1.5
141
12.0
290
     0
  0
SCALE
  5
141
102
{ACAD_REACTORS
330
B6
102
}
330
B6
100
AcDbScale
 70
     0
300
3" = 1'-0"
140
3.0
141
12.0
290
     0
  0
SCALE
  5
142
102
{ACAD_REACTORS
330
B6
102
}
330
B6
100
AcDbScale
 70
     0
300
6" = 1'-0"
140
6.0
141
12.0
290
     0
  0
SCALE
  5
143
102
{ACAD_REACTORS
330
B6
102
}
330
B6
100
AcDbScale
 70
     0
300
1'-0" = 1'-0"
140
12.0
141
12.0
290
     0
  0
TABLESTYLE
  5
87
102
{ACAD_XDICTIONARY
360
104
102
}
102
{ACAD_REACTORS
330
86
102
}
330
86
100
AcDbTableStyle
  3
Standard
 70
     0
 71
     0
 40
0.06
 41
0.06
280
     0
281
     0
  7
Standard
140
0.18
170
     2
 62
     0
 63
     7
283
     0
274
    -2
284
     1
 64
     0
275
    -2
285
     1
 65
     0
276
    -2
286
     1
 66
     0
277
    -2
287
     1
 67
     0
278
    -2
288
     1
 68
     0
279
    -2
289
     1
 69
     0
  7
Standard
140
0.25
170
     5
 62
     0
 63
     7
283
     0
274
    -2
284
     1
 64
     0
275
    -2
285
     1
 65
     0
276
    -2
286
     1
 66
     0
277
    -2
287
     1
 67
     0
278
    -2
288
     1
 68
     0
279
    -2
289
     1
 69
     0
  7
Standard
140
0.18
170
     5
 62
     0
 63
     7
283
     0
274
    -2
284
     1
 64
     0
275
    -2
285
     1
 65
     0
276
    -2
286
     1
 66
     0
277
    -2
287
     1
 67
     0
278
    -2
288
     1
 68
     0
279
    -2
289
     1
 69
     0
  0
VISUALSTYLE
  5
9F
102
{ACAD_XDICTIONARY
360
462
102
}
102
{ACAD_REACTORS
330
99
102
}
330
99
100
AcDbVisualStyle
  2

 70
     4
 71
     0
 72
     2
 73
     1
 90
        0
 40
-0.6
 41
-30.0
 62
     5
 63
     7
421
 16777215
 74
     1
 91
        4
 64
     7
 65
   257
 75
     1
175
     1
 42
1.0
 92
        0
 66
   257
 43
1.0
 76
     1
 77
     6
 78
     2
 67
     7
 79
     5
170
     0
171
     0
290
     0
174
     0
 93
        1
 44
0.0
173
     0
291
     0
 45
0.0
1001
ACAD
1000
AcDbSavedByObjectVersion
1070
     0
  0
VISUALSTYLE
  5
9E
102
{ACAD_XDICTIONARY
360
460
102
}
102
{ACAD_REACTORS
330
99
102
}
330
99
100
AcDbVisualStyle
  2

 70
     7
 71
     1
 72
     0
 73
     1
 90
        0
 40
-0.6
 41
-30.0
 62
     5
 63
     7
421
 16777215
 74
     0
 91
        4
 64
     7
 65
   257
 75
     1
175
     1
 42
1.0
 92
        8
 66
     7
 43
1.0
 76
     1
 77
     6
 78
     2
 67
     7
 79
     5
170
     0
171
     0
290
     0
174
     0
 93
        1
 44
0.0
173
     0
291
     1
 45
0.0
1001
ACAD
1000
AcDbSavedByObjectVersion
1070
     0
  0
VISUALSTYLE
  5
A5
102
{ACAD_XDICTIONARY
360
46E
102
}
102
{ACAD_REACTORS
330
99
102
}
330
99
100
AcDbVisualStyle
  2

 70
    12
 71
     2
 72
     2
 73
     1
 90
        0
 40
-0.6
 41
-30.0
 62
     5
 63
     7
421
 16777215
 74
     1
 91
        4
 64
     7
 65
   257
 75
     1
175
     1
 42
1.0
 92
        8
 66
     7
 43
1.0
 76
     1
 77
     6
 78
     2
 67
     7
 79
     5
170
     0
171
     0
290
     0
174
     0
 93
        1
 44
50.0
173
     0
291
     1
 45
0.0
1001
ACAD
1000
AcDbSavedByObjectVersion
1070
     0
  0
VISUALSTYLE
  5
A9
102
{ACAD_XDICTIONARY
360
476
102
}
102
{ACAD_REACTORS
330
99
102
}
330
99
100
AcDbVisualStyle
  2

 70
    16
 71
     2
 72
     2
 73
     3
 90
        0
 40
-0.6
 41
-30.0
 62
     5
 63
     8
421
  8421504
 74
     1
 91
        4
 64
     7
 65
   257
 75
     1
175
     1
 42
1.0
 92
        8
 66
     8
424
  8421504
 43
1.0
 76
     1
 77
     6
 78
     2
 67
     7
 79
     5
170
     0
171
     0
290
     0
174
     0
 93
        1
 44
0.0
173
     0
291
     1
 45
0.0
1001
ACAD
1000
AcDbSavedByObjectVersion
1070
     0
  0
VISUALSTYLE
  5
A2
102
{ACAD_XDICTIONARY
360
468
102
}
102
{ACAD_REACTORS
330
99
102
}
330
99
100
AcDbVisualStyle
  2

 70
     9
 71
     3
 72
     2
 73
     1
 90
        0
 40
-0.6
 41
-30.0
 62
     5
 63
     7
421
 16777215
 74
     2
 91
        2
 64
     7
 65
   257
 75
     1
175
     1
 42
40.0
 92
        8
 66
     7
 43
1.0
 76
     1
 77
     6
 78
     2
 67
     7
 79
     3
170
     0
171
     0
290
     0
174
     0
 93
        1
 44
0.0
173
     0
291
     0
 45
0.0
1001
ACAD
1000
AcDbSavedByObjectVersion
1070
     0
  0
VISUALSTYLE
  5
A4
102
{ACAD_XDICTIONARY
360
46C
102
}
102
{ACAD_REACTORS
330
99
102
}
330
99
100
AcDbVisualStyle
  2

 70
    11
 71
     2
 72
     2
 73
     1
 90
        0
 40
-0.6
 41
-30.0
 62
     5
 63
     7
421
 16777215
 74
     1
 91
        4
 64
     7
 65
   257
 75
     1
175
     1
 42
1.0
 92
        8
 66
     7
 43
1.0
 76
     1
 77
     6
 78
     2
 67
     7
 79
     5
170
     0
171
     0
290
     0
174
     0
 93
        1
 44
-50.0
173
     0
291
     1
 45
0.0
1001
ACAD
1000
AcDbSavedByObjectVersion
1070
     0
  0
VISUALSTYLE
  5
175
102
{ACAD_XDICTIONARY
360
47C
102
}
102
{ACAD_REACTORS
330
99
102
}
330
99
100
AcDbVisualStyle
  2

 70
    22
 71
     2
 72
     2
 73
     0
 90
        0
 40
-0.6
 41
-30.0
 62
     5
 63
     7
421
 16777215
 74
     1
 91
        4
 64
     7
 65
   257
 75
     1
175
     1
 42
1.0
 92
        8
 66
     7
 43
1.0
 76
     1
 77
     6
 78
     2
 67
     7
 79
     5
170
     0
171
     0
290
     0
174
     0
 93
        1
 44
0.0
173
     0
291
     1
 45
0.0
1001
ACAD
1000
AcDbSavedByObjectVersion
1070
     0
  0
VISUALSTYLE
  5
A8
102
{ACAD_XDICTIONARY
360
474
102
}
102
{ACAD_REACTORS
330
99
102
}
330
99
100
AcDbVisualStyle
  2

 70
    15
 71
     2
 72
     2
 73
     1
 90
        0
 40
-0.6
 41
-30.0
 62
     5
 63
     7
421
 16777215
 74
     1
 91
        4
 64
     7
 65
   257
 75
     1
175
     1
 42
1.0
 92
        8
 66
     7
 43
1.0
 76
     1
 77
     6
 78
     2
 67
     7
 79
     5
170
     0
171
     0
290
     0
174
     0
 93
        1
 44
0.0
173
     0
291
     1
 45
0.0
1001
ACAD
1000
AcDbSavedByObjectVersion
1070
     0
  0
VISUALSTYLE
  5
9A
102
{ACAD_XDICTIONARY
360
458
102
}
102
{ACAD_REACTORS
330
99
102
}
330
99
100
AcDbVisualStyle
  2

 70
     0
 71
     2
 72
     1
 73
     1
 90
        2
 40
-0.6
 41
30.0
 62
     5
 63
     7
421
 16777215
 74
     0
 91
        0
 64
     7
 65
   257
 75
     1
175
     1
 42
1.0
 92
        8
 66
     7
 43
1.0
 76
     1
 77
     6
 78
     2
 67
     7
 79
     5
170
     0
171
     0
290
     0
174
     0
 93
       13
 44
0.0
173
     0
291
     1
 45
0.0
1001
ACAD
1000
AcDbSavedByObjectVersion
1070
     0
  0
VISUALSTYLE
  5
9B
102
{ACAD_XDICTIONARY
360
45A
102
}
102
{ACAD_REACTORS
330
99
102
}
330
99
100
AcDbVisualStyle
  2

 70
     1
 71
     2
 72
     1
 73
     1
 90
        2
 40
-0.6
 41
30.0
 62
     5
 63
     7
421
 16777215
 74
     1
 91
        0
 64
     7
 65
   257
 75
     1
175
     1
 42
1.0
 92
        0
 66
   257
 43
1.0
 76
     1
 77
     6
 78
     2
 67
     7
 79
     5
170
     0
171
     0
290
     0
174
     0
 93
       13
 44
0.0
173
     0
291
     1
 45
0.0
1001
ACAD
1000
AcDbSavedByObjectVersion
1070
     0
  0
VISUALSTYLE
  5
9C
102
{ACAD_XDICTIONARY
360
45C
102
}
102
{ACAD_REACTORS
330
99
102
}
330
99
100
AcDbVisualStyle
  2

 70
     2
 71
     2
 72
     2
 73
     1
 90
        2
 40
-0.6
 41
30.0
 62
     5
 63
     7
421
 16777215
 74
     0
 91
        0
 64
     7
 65
   257
 75
     1
175
     1
 42
1.0
 92
        0
 66
     7
 43
1.0
 76
     1
 77
     6
 78
     2
 67
     7
 79
     5
170
     0
171
     0
290
     0
174
     0
 93
       13
 44
0.0
173
     0
291
     1
 45
0.0
1001
ACAD
1000
AcDbSavedByObjectVersion
1070
     0
  0
VISUALSTYLE
  5
9D
102
{ACAD_XDICTIONARY
360
45E
102
}
102
{ACAD_REACTORS
330
99
102
}
330
99
100
AcDbVisualStyle
  2

 70
     3
 71
     2
 72
     2
 73
     1
 90
        2
 40
-0.6
 41
30.0
 62
     5
 63
     7
421
 16777215
 74
     1
 91
        0
 64
     7
 65
   257
 75
     1
175
     1
 42
1.0
 92
        0
 66
   257
 43
1.0
 76
     1
 77
     6
 78
     2
 67
     7
 79
     5
170
     0
171
     0
290
     0
174
     0
 93
       13
 44
0.0
173
     0
291
     1
 45
0.0
1001
ACAD
1000
AcDbSavedByObjectVersion
1070
     0
  0
VISUALSTYLE
  5
A1
102
{ACAD_XDICTIONARY
360
466
102
}
102
{ACAD_REACTORS
330
99
102
}
330
99
100
AcDbVisualStyle
  2

 70
     6
 71
     1
 72
     2
 73
     2
 90
        0
 40
-0.6
 41
-30.0
 62
     5
 63
     7
421
 16777215
 74
     2
 91
        2
 64
     7
 65
   257
 75
     2
175
     1
 42
40.0
 92
        0
 66
   257
 43
1.0
 76
     1
 77
     6
 78
     2
 67
     7
 79
     3
170
     0
171
     0
290
     0
174
     0
 93
        1
 44
0.0
173
     0
291
     0
 45
0.0
1001
ACAD
1000
AcDbSavedByObjectVersion
1070
     0
  0
VISUALSTYLE
  5
173
102
{ACAD_XDICTIONARY
360
478
102
}
102
{ACAD_REACTORS
330
99
102
}
330
99
100
AcDbVisualStyle
  2

 70
    20
 71
     2
 72
     2
 73
     0
 90
        0
 40
-0.6
 41
-30.0
 62
     5
 63
     7
421
 16777215
 74
     1
 91
        4
 64
     7
 65
   257
 75
     1
175
     1
 42
1.0
 92
       10
 66
     7
 43
1.0
 76
     1
 77
     6
 78
     2
 67
     7
 79
     5
170
     0
171
     0
290
     0
174
     0
 93
        1
 44
0.0
173
     0
291
     1
 45
0.0
1001
ACAD
1000
AcDbSavedByObjectVersion
1070
     0
  0
VISUALSTYLE
  5
A7
102
{ACAD_XDICTIONARY
360
472
102
}
102
{ACAD_REACTORS
330
99
102
}
330
99
100
AcDbVisualStyle
  2

 70
    14
 71
     2
 72
     2
 73
     1
 90
        0
 40
-0.6
 41
-30.0
 62
     5
 63
     7
421
 16777215
 74
     1
 91
        4
 64
     7
 65
   257
 75
     7
175
     7
 42
1.0
 92
        8
 66
     7
 43
1.0
 76
     1
 77
     6
 78
     2
 67
     7
 79
     5
170
     0
171
     0
290
     0
174
     0
 93
        1
 44
0.0
173
     0
291
     1
 45
0.0
1001
ACAD
1000
AcDbSavedByObjectVersion
1070
     0
  0
VISUALSTYLE
  5
174
102
{ACAD_XDICTIONARY
360
47A
102
}
102
{ACAD_REACTORS
330
99
102
}
330
99
100
AcDbVisualStyle
  2

 70
    21
 71
     2
 72
     2
 73
     0
 90
        0
 40
-0.6
 41
-30.0
 62
     5
 63
     7
421
 16777215
 74
     1
 91
        4
 64
     7
 65
   257
 75
     1
175
     1
 42
1.0
 92
        9
 66
     7
 43
1.0
 76
     1
 77
     6
 78
     2
 67
     7
 79
     5
170
     0
171
     0
290
     0
174
     0
 93
        1
 44
0.0
173
     0
291
     1
 45
0.0
1001
ACAD
1000
AcDbSavedByObjectVersion
1070
     0
  0
VISUALSTYLE
  5
A3
102
{ACAD_XDICTIONARY
360
46A
102
}
102
{ACAD_REACTORS
330
99
102
}
330
99
100
AcDbVisualStyle
  2

 70
     8
 71
     2
 72
     3
 73
     0
 90
        2
 40
-0.6
 41
30.0
 62
     5
 63
     7
421
 16777215
 74
     0
 91
        0
 64
     7
 65
   257
 75
     1
175
     1
 42
1.0
 92
        8
 66
   257
 43
1.0
 76
     1
 77
     6
 78
     2
 67
     7
 79
     3
170
     0
171
     0
290
     0
174
     0
 93
       13
 44
0.0
173
     0
291
     0
 45
0.0
1001
ACAD
1000
AcDbSavedByObjectVersion
1070
     0
  0
VISUALSTYLE
  5
182
102
{ACAD_XDICTIONARY
360
486
102
}
102
{ACAD_REACTORS
330
99
102
}
330
99
100
AcDbVisualStyle
  2

 70
    27
 71
     2
 72
     2
 73
     1
 90
        2
 40
-0.6
 41
30.0
 62
     5
 63
     7
421
 16777215
 74
     0
 91
        4
 64
     7
 65
   257
 75
     1
175
     1
 42
1.0
 92
        8
 66
   257
 43
1.0
 76
     1
 77
     6
 78
     2
 67
     8
425
  7895160
 79
     3
170
     0
171
     0
290
     0
174
     0
 93
        5
 44
0.0
173
     0
291
     0
 45
0.0
1001
ACAD
1000
AcDbSavedByObjectVersion
1070
     0
  0
VISUALSTYLE
  5
181
102
{ACAD_XDICTIONARY
360
484
102
}
102
{ACAD_REACTORS
330
99
102
}
330
99
100
AcDbVisualStyle
  2

 70
    26
 71
     2
 72
     2
 73
     1
 90
        2
 40
-0.6
 41
30.0
 62
     5
 63
     7
421
 16777215
 74
     1
 91
       10
 64
     7
 65
   257
 75
     2
175
     1
 42
1.0
 92
        8
 66
   257
 43
1.0
 76
     1
 77
     6
 78
     2
 67
     7
 79
     3
170
     0
171
     0
290
     0
174
     0
 93
        5
 44
0.0
173
     0
291
     0
 45
0.0
1001
ACAD
1000
AcDbSavedByObjectVersion
1070
     0
  0
VISUALSTYLE
  5
17E
102
{ACAD_XDICTIONARY
360
47E
102
}
102
{ACAD_REACTORS
330
99
102
}
330
99
100
AcDbVisualStyle
  2

 70
    23
 71
     2
 72
     2
 73
     3
 90
        0
 40
-0.6
 41
-30.0
 62
     5
 63
     7
421
 16777215
 74
     2
 91
        2
 64
     7
 65
     7
 75
     1
175
     1
 42
40.0
 92
        8
 66
     7
 43
1.0
 76
     1
 77
     6
 78
     2
 67
     7
 79
     3
170
     0
171
     0
290
     0
174
     0
 93
        1
 44
0.0
173
     0
291
     0
 45
0.0
1001
ACAD
1000
AcDbSavedByObjectVersion
1070
     0
  0
VISUALSTYLE
  5
17F
102
{ACAD_XDICTIONARY
360
480
102
}
102
{ACAD_REACTORS
330
99
102
}
330
99
100
AcDbVisualStyle
  2

 70
    24
 71
     1
 72
     2
 73
     2
 90
        0
 40
-0.6
 41
-30.0
 62
     5
 63
     7
421
 16777215
 74
     2
 91
        2
 64
     7
 65
     7
 75
     1
175
     1
 42
40.0
 92
       11
 66
     7
 43
1.0
 76
     1
 77
     6
 78
     2
 67
     7
 79
     6
170
     0
171
     0
290
     0
174
     0
 93
        1
 44
0.0
173
     0
291
     0
 45
0.0
1001
ACAD
1000
AcDbSavedByObjectVersion
1070
     0
  0
VISUALSTYLE
  5
A6
102
{ACAD_XDICTIONARY
360
470
102
}
102
{ACAD_REACTORS
330
99
102
}
330
99
100
AcDbVisualStyle
  2

 70
    13
 71
     2
 72
     2
 73
     1
 90
        0
 40
-0.6
 41
-30.0
 62
     5
 63
     7
421
 16777215
 74
     1
 91
        4
 64
     7
 65
   257
 75
     1
175
     1
 42
1.0
 92
       12
 66
     7
 43
1.0
 76
     1
 77
     6
 78
     2
 67
     7
 79
     5
170
     0
171
     0
290
     0
174
     0
 93
        1
 44
0.0
173
     0
291
     1
 45
0.0
1001
ACAD
1000
AcDbSavedByObjectVersion
1070
     0
  0
VISUALSTYLE
  5
A0
102
{ACAD_XDICTIONARY
360
464
102
}
102
{ACAD_REACTORS
330
99
102
}
330
99
100
AcDbVisualStyle
  2

 70
     5
 71
     0
 72
     2
 73
     0
 90
        0
 40
-0.6
 41
-30.0
 62
     5
 63
     7
421
 16777215
 74
     1
 91
        4
 64
     7
 65
   257
 75
     1
175
     1
 42
1.0
 92
        0
 66
   257
 43
1.0
 76
     1
 77
     6
 78
     2
 67
     7
 79
     3
170
     0
171
     0
290
     0
174
     0
 93
        1
 44
0.0
173
     0
291
     0
 45
0.0
1001
ACAD
1000
AcDbSavedByObjectVersion
1070
     0
  0
VISUALSTYLE
  5
180
102
{ACAD_XDICTIONARY
360
482
102
}
102
{ACAD_REACTORS
330
99
102
}
330
99
100
AcDbVisualStyle
  2

 70
    25
 71
     2
 72
     2
 73
     1
 90
        1
 40
0.5
 41
-30.0
 62
     5
 63
     7
421
 16777215
 74
     1
 91
        0
 64
     7
 65
   257
 75
     1
175
     1
 42
1.0
 92
        8
 66
     7
 43
1.0
 76
     1
 77
     6
 78
     2
 67
     7
 79
     3
170
     0
171
     0
290
     0
174
     0
 93
       13
 44
0.0
173
     0
291
     0
 45
0.0
1001
ACAD
1000
AcDbSavedByObjectVersion
1070
     0
  0
DICTIONARYVAR
  5
F0
102
{ACAD_REACTORS
330
66
102
}
330
66
100
DictionaryVariables
280
     0
  1
1:1
  0
DICTIONARYVAR
  5
EF
102
{ACAD_REACTORS
330
66
102
}
330
66
100
DictionaryVariables
280
     0
  1
STANDARD
  0
DICTIONARYVAR
  5
89
102
{ACAD_REACTORS
330
66
102
}
330
66
100
DictionaryVariables
280
     0
  1
STANDARD
  0
DICTIONARYVAR
  5
67
102
{ACAD_REACTORS
330
66
102
}
330
66
100
DictionaryVariables
280
     0
  1
2
  0
DICTIONARYVAR
  5
6B
102
{ACAD_REACTORS
330
66
102
}
330
66
100
DictionaryVariables
280
     0
  1
1
  0
DICTIONARYVAR
  5
14D
102
{ACAD_REACTORS
330
66
102
}
330
66
100
DictionaryVariables
280
     0
  1
0
  0
DICTIONARYVAR
  5
14E
102
{ACAD_REACTORS
330
66
102
}
330
66
100
DictionaryVariables
280
     0
  1
0
  0
DICTIONARYVAR
  5
3CA
102
{ACAD_REACTORS
330
66
102
}
330
66
100
DictionaryVariables
280
     0
  1
2
  0
DICTIONARYVAR
  5
3C9
102
{ACAD_REACTORS
330
66
102
}
330
66
100
DictionaryVariables
280
     0
  1
1
  0
DICTIONARYVAR
  5
452
102
{ACAD_REACTORS
330
66
102
}
330
66
100
DictionaryVariables
280
     0
  1
2
  0
DICTIONARY
  5
194
330
22
100
AcDbDictionary
280
     1
281
     1
  3
ADSK_XREC_LAYOUTTHUMBNAIL
360
195
  0
DICTIONARY
  5
188
330
97
100
AcDbDictionary
280
     1
281
     1
  3
ACAD_XREC_ROUNDTRIP
360
415
  3
FBXASSET
360
189
  0
DICTIONARY
  5
186
330
96
100
AcDbDictionary
280
     1
281
     1
  3
ACAD_XREC_ROUNDTRIP
360
414
  3
FBXASSET
360
187
  0
DICTIONARY
  5
110
330
98
100
AcDbDictionary
280
     1
281
     1
  3
ACAD_XREC_ROUNDTRIP
360
416
  3
BUMPTILE
360
112
  3
DIFFUSETILE
360
111
  3
FBXASSET
360
18A
  3
OPACITYTILE
360
113
  3
REFLECTIONTILE
360
114
  0
DICTIONARY
  5
454
330
D8
100
AcDbDictionary
280
     1
281
     1
  3
ACAD_XREC_ROUNDTRIP
360
455
  0
DICTIONARY
  5
104
330
87
100
AcDbDictionary
280
     1
281
     1
  3
ACAD_ROUNDTRIP_2008_TABLESTYLE_CELLSTYLEMAP
360
453
  3
ACAD_XREC_ROUNDTRIP
360
457
  0
DICTIONARY
  5
462
330
9F
100
AcDbDictionary
280
     1
281
     1
  3
ACAD_XREC_ROUNDTRIP
360
463
  0
DICTIONARY
  5
460
330
9E
100
AcDbDictionary
280
     1
281
     1
  3
ACAD_XREC_ROUNDTRIP
360
461
  0
DICTIONARY
  5
46E
330
A5
100
AcDbDictionary
280
     1
281
     1
  3
ACAD_XREC_ROUNDTRIP
360
46F
  0
DICTIONARY
  5
476
330
A9
100
AcDbDictionary
280
     1
281
     1
  3
ACAD_XREC_ROUNDTRIP
360
477
  0
DICTIONARY
  5
468
330
A2
100
AcDbDictionary
280
     1
281
     1
  3
ACAD_XREC_ROUNDTRIP
360
469
  0
DICTIONARY
  5
46C
330
A4
100
AcDbDictionary
280
     1
281
     1
  3
ACAD_XREC_ROUNDTRIP
360
46D
  0
DICTIONARY
  5
47C
330
175
100
AcDbDictionary
280
     1
281
     1
  3
ACAD_XREC_ROUNDTRIP
360
47D
  0
DICTIONARY
  5
474
330
A8
100
AcDbDictionary
280
     1
281
     1
  3
ACAD_XREC_ROUNDTRIP
360
475
  0
DICTIONARY
  5
458
330
9A
100
AcDbDictionary
280
     1
281
     1
  3
ACAD_XREC_ROUNDTRIP
360
459
  0
DICTIONARY
  5
45A
330
9B
100
AcDbDictionary
280
     1
281
     1
  3
ACAD_XREC_ROUNDTRIP
360
45B
  0
DICTIONARY
  5
45C
330
9C
100
AcDbDictionary
280
     1
281
     1
  3
ACAD_XREC_ROUNDTRIP
360
45D
  0
DICTIONARY
  5
45E
330
9D
100
AcDbDictionary
280
     1
281
     1
  3
ACAD_XREC_ROUNDTRIP
360
45F
  0
DICTIONARY
  5
466
330
A1
100
AcDbDictionary
280
     1
281
     1
  3
ACAD_XREC_ROUNDTRIP
360
467
  0
DICTIONARY
  5
478
330
173
100
AcDbDictionary
280
     1
281
     1
  3
ACAD_XREC_ROUNDTRIP
360
479
  0
DICTIONARY
  5
472
330
A7
100
AcDbDictionary
280
     1
281
     1
  3
ACAD_XREC_ROUNDTRIP
360
473
  0
DICTIONARY
  5
47A
330
174
100
AcDbDictionary
280
     1
281
     1
  3
ACAD_XREC_ROUNDTRIP
360
47B
  0
DICTIONARY
  5
46A
330
A3
100
AcDbDictionary
280
     1
281
     1
  3
ACAD_XREC_ROUNDTRIP
360
46B
  0
DICTIONARY
  5
486
330
182
100
AcDbDictionary
280
     1
281
     1
  3
ACAD_XREC_ROUNDTRIP
360
487
  0
DICTIONARY
  5
484
330
181
100
AcDbDictionary
280
     1
281
     1
  3
ACAD_XREC_ROUNDTRIP
360
485
  0
DICTIONARY
  5
47E
330
17E
100
AcDbDictionary
280
     1
281
     1
  3
ACAD_XREC_ROUNDTRIP
360
47F
  0
DICTIONARY
  5
480
330
17F
100
AcDbDictionary
280
     1
281
     1
  3
ACAD_XREC_ROUNDTRIP
360
481
  0
DICTIONARY
  5
470
330
A6
100
AcDbDictionary
280
     1
281
     1
  3
ACAD_XREC_ROUNDTRIP
360
471
  0
DICTIONARY
  5
464
330
A0
100
AcDbDictionary
280
     1
281
     1
  3
ACAD_XREC_ROUNDTRIP
360
465
  0
DICTIONARY
  5
482
330
180
100
AcDbDictionary
280
     1
281
     1
  3
ACAD_XREC_ROUNDTRIP
360
483
  0
XRECORD
  5
195
102
{ACAD_REACTORS
330
194
102
}
330
194
100
AcDbXrecord
280
     1
310
280000000001000081000000010008000000000000810000000000000000000000010000000000003028210000000000C8C8C8000000000000000000000000000000000000000000000000000000000000000000330000006600000099000000CC000000FF00000000330000333300006633000099330000CC330000FF3300
310
0000660000336600006666000099660000CC660000FF66000000990000339900006699000099990000CC990000FF99000000CC000033CC000066CC000099CC0000CCCC0000FFCC000000FF000033FF000066FF000099FF0000CCFF0000FFFF000000003300330033006600330099003300CC003300FF003300003333003333
310
33006633330099333300CC333300FF33330000663300336633006666330099663300CC663300FF66330000993300339933006699330099993300CC993300FF99330000CC330033CC330066CC330099CC3300CCCC3300FFCC330000FF330033FF330066FF330099FF3300CCFF3300FFFF330000006600330066006600660099
310
006600CC006600FF00660000336600333366006633660099336600CC336600FF33660000666600336666006666660099666600CC666600FF66660000996600339966006699660099996600CC996600FF99660000CC660033CC660066CC660099CC6600CCCC6600FFCC660000FF660033FF660066FF660099FF6600CCFF6600
310
FFFF660000009900330099006600990099009900CC009900FF00990000339900333399006633990099339900CC339900FF33990000669900336699006666990099669900CC669900FF66990000999900339999006699990099999900CC999900FF99990000CC990033CC990066CC990099CC9900CCCC9900FFCC990000FF99
310
0033FF990066FF990099FF9900CCFF9900FFFF99000000CC003300CC006600CC009900CC00CC00CC00FF00CC000033CC003333CC006633CC009933CC00CC33CC00FF33CC000066CC003366CC006666CC009966CC00CC66CC00FF66CC000099CC003399CC006699CC009999CC00CC99CC00FF99CC0000CCCC0033CCCC0066CC
310
CC0099CCCC00CCCCCC00FFCCCC0000FFCC0033FFCC0066FFCC0099FFCC00CCFFCC00FFFFCC000000FF003300FF006600FF009900FF00CC00FF00FF00FF000033FF003333FF006633FF009933FF00CC33FF00FF33FF000066FF003366FF006666FF009966FF00CC66FF00FF66FF000099FF003399FF006699FF009999FF00CC
310
99FF00FF99FF0000CCFF0033CCFF0066CCFF0099CCFF00CCCCFF00FFCCFF0000FFFF0033FFFF0066FFFF0099FFFF00CCFFFF00FFFFFF00000000000D0D0D001A1A1A00282828003535350043434300505050005D5D5D006B6B6B00787878008686860093939300A1A1A100AEAEAE00BBBBBB00C9C9C900D6D6D600E4E4E400
310
F1F1F100FFFFFF00000000000000000000000000000000000000000000000000000000000000000000000000000000000000000000000000000000000000000000000000000000000000000000000000000000000000000000000000000000000000F5F5F5F5F5F5F5F5F5F5F5F5F500000000000000000000000000000000
310
00000000000000000000000000000000000000000000000000000000000000000000000000000000000000000000000000000000000000000000000000000000000000000000000000000000000000000000000000000000000000000000000000000000000000000000000000000000000000000000000000000000000000
310
00000000000000000000000000000000000000000000000000000000000000000000000000000000000000000000000000000000000000000000000000000000000000000000000000000000000000000000000000000000000000000000000000000000F5F5F5F5F5F5F5F5F5F5F5F5F50000000000000000000000000000
310
00000000000000000000000000000000000000000000000000000000000000000000000000000000000000000000000000000000000000000000000000000000000000000000000000000000000000000000000000000000000000000000000000000000000000000000000000000000000000000000000000000000000000
310
000000000000000000000000000000000000000000000000000000000000000000000000000000000000000000000000000000000000000000000000000000000000000000000000000000000000000000000000000000000000000000000000000000000000F5F5F5F5F5F5F5F5F5F5F5F5F5000000000000000000000000
310
00000000000000000000000000000000000000000000000000000000000000000000000000000000000000000000000000000000000000000000000000000000000000000000000000000000000000000000000000000000000000000000000000000000000000000000000000000000000000000000000000000000000000
310
00000000000000000000000000000000000000000000000000000000000000000000000000000000000000000000000000000000000000000000000000000000000000000000000000000000000000000000000000000000000000000000000000000000000000000000000000000000000000000000000000000000000000
310
00000000000000000000000000000000000000000000000000000000000000000000000000000000000000000000000000000000000000000000000000000000000000000000000000000000000000000000000000000000000000000000000000000000000000000000000000000000000000000000000000000000000000
310
00000000000000000000000000000000000000000000000000000000000000000000000000000000000000000000000000000000000000000000000000000000000000000000000000000000000000000000000000000000000000000000000000000000000000000000F5F5F5F5F5F5F5F5F5F5F5F5F5F500000000000000
310
00000000000000000000000000000000000000000000000000000000000000000000000000000000000000000000000000000000000000000000000000000000000000000000000000000000000000000000000000000000000000000000000000000000000000000000000000000000000000000000000000000000000000
310
000000000000000000000000000000000000000000000000000000000000000000000000000000000000000000000000000000000000000000000000000000000000000000000000000000000000000000000000000000000000000000000000000000000000000000000000F5F5F5F5F5F5F5F5F5F5F5F5F5F50000000000
310
00000000000000000000000000000000000000000000000000000000000000000000000000000000000000000000000000000000000000000000000000000000000000000000000000000000000000000000000000000000000000000000000000000000000000000000000000000000000000000000000000000000000000
310
0000000000000000000000000000000000000000000000000000000000000000000000000000000000000000000000000000000000000000000000000000000000000000000000000000000000000000000000000000000000000000000000000000000000000000000000000000F5F5F5F5F5F5F5F5F5F5F5F5F5F5000000
310
00000000000000000000000000000000000000000000000000000000000000000000000000000000000000000000000000000000000000000000000000000000000000000000000000000000000000000000000000000000000000000000000000000000000000000000000000000000000000000000000000000000000000
310
00000000000000000000000000000000000000000000000000000000000000000000000000000000000000000000000000000000000000000000000000000000000000000000000000000000000000000000000000000000000000000000000000000000000000000000000000000000F5F5F5F5F5F5F5F5F5F5F5F5F5F500
310
00000000000000000000000000000000000000000000000000000000000000000000000000000000000000000000000000000000000000000000000000000000000000000000000000000000000000000000000000000000000000000000000000000000000000000000000000000000000000000000000000000000000000
310
000000000000000000000000000000000000000000000000000000000000000000000000000000000000000000000000000000000000000000000000000000000000000000000000000000000000000000000000000000000000000000000000000000000000000000000000000000000000F5F5F5F5F5F5F5F5F5F5F5F5F5
310
F5000000000000000000000000000000000000000000000000000000000000000000000000000000000000000000000000000000000000000000000000000000000000000000000000000000000000000000000000000000000000000000000000000000000000000000000000000000000000000000000000000000000000
310
00000000000000000000000000000000000000000000000000000000000000000000000000000000000000000000000000000000000000000000000000000000000000000000000000000000000000000000000000000000000000000000000000000000000000000000000000000000000000000000000000000000000000
310
00000000000000000000000000000000000000000000000000000000000000000000000000000000000000000000000000000000000000000000000000000000000000000000000000000000000000000000000000000000000000000000000000000000000000000000000000000000000000000000000000000000000000
310
00000000000000000000000000000000000000000000000000000000000000000000000000000000000000000000000000000000000000000000000000000000000000000000000000000000000000000000000000000000000000000000000000000000000000000000000000000000000000000000000000000000000000
310
00000000000000000000000000000000000000000000000000000000000000000000000000000000000000000000000000000000000000000000000000000000000000000000000000000000000000000000000000000000000000000000000000000000000000000000000000000000000000000000000000000000000000
310
00000000000000000000000000000000000000000000000000000000000000000000000000000000000000000000000000000000000000000000000000000000000000000000000000000000000000000000000000000000000000000000000000000000000000000000000000000000000000000000000000000000000000
310
00000000000000000000000000000000000000000000000000000000000000000000000000000000000000000000000000000000000000000000000000000000000000000000000000000000000000000000000000000000000000000000000000000000000000000000000000000000000000000000000000000000000000
310
00000000000000000000000000000000000000000000000000000000000000000000000000000000000000000000000000000000000000000000000000000000000000000000000000000000000000000000000000000000000000000000000000000000000000000000000000000000000000000000000000000000000000
310
00000000000000000000000000000000000000000000000000000000000000000000000000000000000000000000000000000000000000000000000000000000000000000000000000000000000000000000000000000000000000000000000000000000000000000000000000000000000000000000000000000000000000
310
00000000000000000000000000000000000000000000000000000000000000000000000000000000000000000000000000000000000000000000000000000000000000000000000000000000000000000000000000000000000000000000000000000000000000000000000000000000000000000000000000000000000000
310
00000000000000000000000000000000000000000000000000000000000000000000000000000000000000000000000000000000000000000000000000000000000000000000000000000000000000000000000000000000000000000000000000000000000000000000000000000000000000000000000000000000000000
310
00000000000000000000000000000000000000000000000000000000000000000000000000000000000000000000000000000000000000000000000000000000000000000000000000000000000000000000000000000000000000000000000000000000000000000000000000000000000000000000000000000000000000
310
00000000000000000000000000000000000000000000000000000000000000000000000000000000000000000000000000000000000000000000000000000000000000000000000000000000000000000000000000000000000000000000000000000000000000000000000000000000000000000000000000000000000000
310
00000000000000000000000000000000000000000000000000000000000000000000000000000000000000000000000000000000000000000000000000000000000000000000000000000000000000000000000000000000000000000000000000000000000000000000000000000000000000000000000000000000000000
310
00000000000000000000000000000000000000000000000000000000000000000000000000000000000000000000000000000000000000000000000000000000000000000000000000000000000000000000000000000000000000000000000000000000000000000000000000000000000000000000000000000000000000
310
00000000000000000000000000000000000000000000000000000000000000000000000000000000000000000000000000000000000000000000000000000000000000000000000000000000000000000000000000000000000000000000000000000000000000000000000000000000000000000000000000000000000000
310
000000000000000000000000000000000000000000000000000000000000000000000000F5F5F5F5F5F5F5F5F5F5F5F5F5000000000000000000000000000000000000000000000000000000000000000000000000000000000000000000000000000000000000000000000000000000000000000000F5F5F5F5F5F5F5F5F5
310
F5F5F5F5000000000000000000000000000000000000000000000000000000000000000000000000000000000000000000000000000000000000000000000000000000000000000000000000000000000000000000000000000000000000000000000000000000000000000000000000000000000000000000000000000000
310
0000000000000000000000000000000000000000000000000000000000000000000000000000F50000F5F5F5F5F5F5F5F5F5F5F5F5F5F500000000000000000000000000000000000000000000000000000000000000000000000000000000000000000000000000000000000000000000000000F5F5F5F5F5F5F5F5F5F5F5
310
F5F5F5F500F500000000000000000000000000000000000000000000000000000000000000000000000000000000000000000000000000000000000000000000000000000000000000000000000000000000000000000000000000000000000000000000000000000000000000000000000000000000000000000000000000
310
00000000000000000000000000000000000000000000000000000000000000000000000000000000F50000F500000000000000F5F5F5F5F500F5F5F5F5F50000000000000000000000000000000000000000000000000000000000000000000000000000000000000000000000000000000000F5F5F500000000F5F5F5F500
310
0000000000F50000F500000000000000000000000000000000000000000000000000000000000000000000000000000000000000000000000000000000000000000000000000000000000000000000000000000000000000000000000000000000000000000000000000000000000000000000000000000000000000000000
310
000000000000000000000000000000000000000000000000000000000000000000000000000000000000F50000F5000000000000000000000000F5F5F5000000F5F5F50000000000000000000000000000000000000000000000000000000000000000000000000000000000000000000000F5F5F500000000F5F5F5000000
310
00000000000000F50000F50000000000000000000000000000000000000000000000000000000000000000000000000000000000000000000000000000000000000000000000000000000000000000000000000000000000000000000000000000000000000000000000000000000000000000000000000000000000000000
310
0000000000000000000000000000000000000000000000000000000000000000000000000000000000000000F50000F5000000000000000000000000000000F5F500000000F5F500000000000000000000000000000000000000000000000000000000000000000000000000000000000000F5F5000000000000F500000000
310
000000000000000000F5F500F5000000000000000000000000000000000000000000000000000000000000000000000000000000000000000000000000000000000000000000000000000000000000000000000000000000000000000000000000000000000000000000000000000000000000000000000000000000000000
310
00000000000000000000000000000000000000000000000000000000000000000000000000000000F5F5F5F5F5F5F5F5F5F5F5F5F5F500000000000000000000000000F5F500000000F5F5000000000000000000000000000000000000000000000000000000000000000000000000000000F5F5000000000000F5F5000000
310
00000000000000F5F5F5F5F5F5F5F5F5F5F500000000000000000000000000000000000000000000000000000000000000000000000000000000000000000000000000000000000000000000000000000000000000000000000000000000000000000000000000000000000000000000000000000000000000000000000000
310
00000000000000000000000000000000000000000000000000000000000000000000000000F5F5F5F5F500000000000000000000000000F5F5F5F5F500000000000000000000F5F50000000000F5F5000000000000000000000000000000000000000000000000000000000000000000000000F5F5000000000000F5000000
310
0000000000F5F5F5F50000000000000000000000F5F5F5F5F5000000000000000000000000000000000000000000000000000000000000000000000000000000000000000000000000000000000000000000000000000000000000000000000000000000000000000000000000000000000000000000000000000000000000
310
0000000000000000000000000000000000000000000000000000000000000000000000F5F5F5F50000000000000000000000000000000000000000000000F5F5000000000000000000F5F5F5F5F5F5F5F5F5000000000000000000000000000000000000000000000000000000000000000000F5F5F5F5F5F5F5F5F5F50000
310
0000000000F5F50000000000000000000000000000000000000000F5F5F500000000000000000000000000000000000000000000000000000000000000000000000000000000000000000000000000000000000000000000000000000000000000000000000000000000000000000000000000000000000000000000000000
310
00000000000000000000000000000000000000000000000000000000000000000000F5F5F50000000000000000000000000000000000000000000000000000000000F5F5000000000000000000F5000000000000F50000000000000000000000000000000000000000000000000000000000000000F50000000000000000F5
310
0000000000F5F500000000000000000000000000000000000000000000000000F5F5F50000000000000000000000000000000000000000000000000000000000000000000000000000000000000000000000000000000000000000000000000000000000000000000000000000000000000000000000000000000000000000
310
000000000000000000000000000000000000000000000000000000000000000000F5F5F500000000000000000000000000000000000000000000000000000000000000000000F5F500000000000000F5F5F5F5F5F5F5F500000000000000000000000000000000000000000000000000000000000000F5F5F5F5F5F5F5F5F5
310
F50000000000F50000000000000000000000000000000000000000000000000000000000F5F50000000000000000000000000000000000000000000000000000000000000000000000000000000000000000000000000000000000000000000000000000000000000000000000000000000000000000000000000000000000
310
00000000000000000000000000000000000000000000000000000000000000000000F5F50000000000000000000000000000000000000000000000000000000000000000000000000000F500000000000000F5000000000000F5000000000000000000000000000000000000000000000000000000000000F5000000000000
310
00F500000000F5F50000000000000000000000000000000000000000000000000000000000000000F5F500000000000000000000000000000000000000000000000000000000000000000000000000000000000000000000000000000000000000000000000000000000000000000000000000000000000000000000000000
310
00000000000000000000000000000000000000000000000000000000F5F5F5F5F5F5F5F5F5F5F5F5F5F5F5F5F5F5F5F5F5F5F5F5F5F5F5F5F5F5F5F5F5F5F5F5F5F5F5F5F5F5F5F5F5F5F5F5F5F5F5F5F5F50000F5000000000000F5F5F5F5F5F5F5F5F500000000000000000000000000000000F5F5F5F5F5F5F500000000
310
000000F500F5F5F5F5F5F5F5F5F5F5F5F5F5F5F5F5F5F5F5F5F5F5F5F5F5F5F5F5F5F5F5F5F5F5F5F5F5F5F5F5F5F5F5F5F5F500000000000000000000000000000000000000000000000000000000000000000000000000000000000000000000000000000000000000000000000000000000000000000000000000000000
310
000000000000000000000000000000000000000000000000000000000000F500000000000000000000000000000000000000000000000000000000000000000000000000000000000000000000000000F50000F50000F500000000000000F5F5F5F5F50000F500000000000000000000000000000000F50000F5F5F5000000
310
000000000000F5F5F5F5000000000000000000000000000000000000000000000000000000000000000000000000000000000000F50000000000000000000000000000000000000000000000000000000000000000000000000000000000000000000000000000000000000000000000000000000000000000000000000000
310
0000000000000000000000000000000000000000000000000000000000000000F500000000000000000000000000000000000000000000000000000000000000000000000000000000000000000000000000F50000F50000F5F5F5F5F5F5F5F5F5F5F5F5F50000F500000000000000000000000000000000F50000F5F5F5F5
310
F5F5F5F5F5F5F5F5F500F5F5000000000000000000000000000000000000000000000000000000000000000000000000000000000000F5000000000000000000000000000000000000000000000000000000000000000000000000000000000000000000000000000000000000000000000000000000000000000000000000
310
00000000000000000000000000000000000000000000000000000000000000000000F500000000000000000000000000000000000000000000000000000000000000000000000000000000000000000000000000F50000F50000F500000000000000F500F5F5F50000F500000000000000000000000000000000F50000F5F5
310
F5000000000000000000F500F5F5000000000000000000000000000000000000000000000000000000000000000000000000000000000000F500000000000000000000000000000000000000000000000000000000000000000000000000000000000000000000000000000000000000000000000000000000000000000000
310
000000000000000000000000000000000000000000000000000000000000000000000000F500000000000000000000000000000000000000000000000000000000000000000000000000000000000000000000000000F50000F50000F500000000000000F500F5F500F500F500000000000000000000000000000000F50000
310
F5F5F5000000000000000000F500F5F5000000000000000000000000000000000000000000000000000000000000000000000000000000000000F50000000000000000000000000000000000000000000000000000000000000000000000000000000000000000000000000000000000000000000000000000000000000000
310
0000000000000000000000000000000000000000000000000000000000000000000000000000F50000000000000000000000000000000000000000000000000000000000000000000000000000000000000000000000000000F500F50000F500000000000000F500F5F500F50000F5000000000000000000000000000000F5
310
0000F5F5F5000000000000000000F500F5F5000000000000000000000000000000000000000000000000000000000000000000000000000000000000F5000000000000000000000000000000000000000000000000000000000000000000000000000000000000000000000000000000000000000000000000000000000000
310
00000000000000000000000000000000000000000000000000000000000000000000000000000000F50000000000000000000000000000000000000000000000000000000000000000000000000000000000000000000000000000F500F50000F500000000000000F5F500F5F5F50000F50000000000000000000000000000
310
00F50000F5F500000000000000000000F500F5F5000000000000000000000000000000000000000000000000000000000000000000000000000000000000F500000000000000000000000000000000000000000000000000000000000000000000000000000000000000000000000000000000000000000000000000000000
310
000000000000000000000000000000000000000000000000000000000000000000000000000000000000F50000000000000000000000000000000000000000000000000000000000000000000000000000000000000000000000000000F500F50000F50000000000000000F500F5F5F50000F5000000000000000000000000
310
000000F50000F5F500000000000000000000F500F5F5000000000000000000000000000000000000000000000000000000000000000000000000000000000000F50000000000000000000000000000000000000000000000000000000000000000000000000000000000000000000000000000000000000000000000000000
310
0000000000000000000000000000000000000000000000000000000000000000000000000000000000000000F50000000000000000000000000000000000000000000000000000000000000000000000000000000000000000000000000000F500F50000F50000000000000000F500F5F5F50000F500000000000000000000
310
0000000000F500F500F500000000000000000000F500F5F5000000000000000000000000000000000000000000000000000000000000000000000000000000000000F5000000000000000000000000000000000000000000000000000000000000000000000000000000000000000000000000000000000000000000000000
310
000000000000000000000000000000000000000000000000000000000000000000000000000000000000F5F5F5F5F5F5F5F5F5F5F5F5F5F5F5F5F5F5F5F5F5F5F5F5F5F5F5F5F5F5F5F5F5F5F5F5F5F5F5F5F5F5F5F5F5F5F5F5F5F5F5F5F5F5F5F5F5F5F5F5F5F5F5F5F5F5F5F5F5F5F5F5F5F5F5F5F5F5F5F5F500000000
310
000000F5F5F5F5F5F5F5F5F5F5F5F5F5F5F5F5F5F5F5F5F5F5F5F5F5F5F5F5F5F5F5F5F5F5F5F5F5F5F5F5F5F5F5F5F5F5F5F5F5F5F5F5F5F5F5F5F5F5F5F5F5F5F5F5F5F5F5F5F5F5000000000000000000000000000000000000000000000000000000000000000000000000000000000000000000000000000000000000
310
0000000000000000000000000000000000000000000000000000000000000000000000000000000000000000F500000000000000000000000000000000000000000000000000000000000000000000000000000000000000000000000000000000000000000000000000000000000000000000000000000000000000F50000
310
0000000000F50000000000000000000000000000000000000000000000000000000000000000000000000000000000000000000000000000000000000000000000000000000000000000F500000000000000000000000000000000000000000000000000000000000000000000000000000000000000000000000000000000
310
00000000000000000000000000000000000000000000000000000000000000000000000000000000000000000000F5F5F5F5F5F5F5F5F5F5F5F5F5F5F5F5F5F5F5F5F5F5F5F5F5F5F5F5F5F5F5F5F5F5F5F5F5F5F5F5F5F5F5F5F5F5F5F5F5F5F5F5F5F5F5F5F5F5F5F5F5F5F5F5F5F5F5F5F5F5F5F5F5F5F5F5F5F5F5F500
310
00000000000000F5F5F5F5F5F5F5F5F5F5F5F5F5F5F5F5F5F5F5F5F5F5F5F5F5F5F5F5F5F5F5F5F5F5F5F5F5F5F5F5F5F5F5F5F5F5F5F5F5F5F5F5F5F5F5F5F5F5F5F5F5F5F5F5F5F5F5F5F5F50000000000000000000000000000000000000000000000000000000000000000000000000000000000000000000000000000
310
00000000000000000000000000000000000000000000000000000000000000000000000000000000000000000000000000000000000000000000000000000000000000000000000000000000000000000000000000000000000000000000000000000000000000000000000000000000000000000000000000000000000000
310
00000000000000000000000000000000000000000000000000000000000000000000000000000000000000000000000000000000000000000000000000000000000000000000000000000000000000000000000000000000000000000000000000000000000000000000000000000000000000000000000000000000000000
310
00000000000000000000000000000000000000000000000000000000000000000000000000000000000000000000000000000000000000000000000000000000000000000000000000000000000000000000000000000000000000000000000000000000000000000000000000000000000000000000000000000000000000
310
00000000000000000000000000000000000000000000000000000000000000000000000000000000000000000000000000000000000000000000000000000000000000000000000000000000000000000000000000000000000000000000000000000000000000000000000000000000000000000000000000000000000000
310
00000000000000000000000000000000000000000000000000000000000000000000000000000000000000000000000000000000000000000000000000000000000000000000000000000000000000000000000000000000000000000000000000000000000000000000000000000000000000000000000000000000000000
310
00000000000000000000000000000000000000000000000000000000000000000000000000000000000000000000000000000000000000000000000000000000000000000000000000000000000000000000000000000000000000000000000000000000000000000000000000000000000000000000000000000000000000
310
00000000000000000000000000000000000000000000000000000000000000000000000000000000000000000000000000000000000000000000000000000000000000000000000000000000000000000000000000000000000000000000000000000000000000000000000000000000000000000000000000000000000000
310
00000000000000000000000000000000000000000000000000000000000000000000000000000000000000000000000000000000000000000000000000000000000000000000000000000000000000000000000000000000000000000000000000000000000000000000000000000000000000000000000000000000000000
310
00000000000000000000000000000000000000000000000000000000000000000000000000000000000000000000000000000000000000000000000000000000000000000000000000000000000000000000000000000000000000000000000000000000000000000000000000000000000000000000000000000000000000
310
00000000000000000000000000000000000000000000000000000000000000000000000000000000000000000000000000000000000000000000000000000000000000000000000000000000000000000000000000000000000000000000000000000000000000000000000000000000000000000000000000000000000000
310
00000000000000000000000000000000000000000000000000000000000000000000000000000000000000000000000000000000000000000000000000000000000000000000000000000000000000000000000000000000000000000000000000000000000000000000000000000000000000000000000000000000000000
310
00000000000000000000000000000000000000000000000000000000000000000000000000000000000000000000000000000000000000000000000000000000000000000000000000000000000000000000000000000000000000000000000000000000000000000000000000000000000000000000000000000000000000
310
00000000000000000000000000000000000000000000000000000000000000000000000000000000000000000000000000000000000000000000000000000000000000000000000000000000000000000000000000000000000000000000000000000000000000000000000000000000000000000000000000000000000000
310
00000000000000000000000000000000000000000000000000000000000000000000000000000000000000000000000000000000000000000000000000000000000000000000000000000000000000000000000000000000000000000000000000000000000000000000000000000000000000000000000000000000000000
310
00000000000000000000000000000000000000000000000000000000000000000000000000000000000000000000000000000000000000000000000000000000000000000000000000000000000000000000000000000000000000000000000000000000000000000000000000000000000000000000000000000000000000
310
00000000000000000000000000000000000000000000000000000000000000000000000000000000000000000000000000000000000000000000000000000000000000000000000000000000000000000000000000000000000000000000000000000000000000000000000000000000000000000000000000000000000000
310
00000000000000000000000000000000000000000000000000000000000000000000000000000000000000000000000000000000000000000000000000000000000000000000000000000000000000000000000000000000000000000000000000000000000000000000000000000000000000000000000000000000000000
310
00000000000000000000000000000000000000000000000000000000000000000000000000000000000000000000000000000000000000000000000000000000000000000000000000000000000000000000000000000000000000000000000000000000000000000000000000000000000000000000000000000000000000
310
00000000000000000000000000000000000000000000000000000000000000000000000000000000000000000000000000000000000000000000000000000000000000000000000000000000000000000000000000000000000000000000000000000000000000000000000000000000000000000000000000000000000000
310
00000000000000000000000000000000000000000000000000000000000000000000000000000000000000000000000000000000000000000000000000000000000000000000000000000000000000000000000000000000000000000000000000000000000000000000000000000000000000000000000000000000000000
310
00000000000000000000000000000000000000000000000000000000000000000000000000000000000000000000000000000000000000000000000000000000000000000000000000000000000000000000000000000000000000000000000000000000000000000000000000000000000000000000000000000000000000
310
00000000000000000000000000000000000000000000000000000000000000000000000000000000000000000000000000000000000000000000000000000000000000000000000000000000000000000000000000000000000000000000000000000000000000000000000000000000000000000000000000000000000000
310
00000000000000000000000000000000000000000000000000000000000000000000000000000000000000000000000000000000000000000000000000000000000000000000000000000000000000000000000000000000000000000000000000000000000000000000000000000000000000000000000000000000000000
310
00000000000000000000000000000000000000000000000000000000000000000000000000000000000000000000000000000000000000000000000000000000000000000000000000000000000000000000000000000000000000000000000000000000000000000000000000000000000000000000000000000000000000
310
00000000000000000000000000000000000000000000000000000000000000000000000000000000000000000000000000000000000000000000000000000000000000000000000000000000000000000000000000000000000000000000000000000000000000000000000000000000000000000000000000000000000000
310
00000000000000000000000000000000000000000000000000000000000000000000000000000000000000000000000000000000000000000000000000000000000000000000000000000000000000000000000000000000000000000000000000000000000000000000000000000000000000000000000000000000000000
310
00000000000000000000000000000000000000000000000000000000000000000000000000000000000000000000000000000000000000000000000000000000000000000000000000000000000000000000000000000000000000000000000000000000000000000000000000000000000000000000000000000000000000
310
00000000000000000000000000000000000000000000000000000000000000000000000000000000000000000000000000000000000000000000000000000000000000000000000000000000000000000000000000000000000000000000000000000000000000000000000000000000000000000000000000000000000000
310
00000000000000000000000000000000000000000000000000000000000000000000000000000000000000000000000000000000000000000000000000000000000000000000000000000000000000000000000000000000000000000000000000000000000000000000000000000000000000000000000000000000000000
310
00000000000000000000000000000000000000000000000000000000000000000000000000000000000000000000000000000000000000000000000000000000000000000000000000000000000000000000000000000000000000000000000000000000000000000000000000000000000000000000000000000000000000
310
00000000000000000000000000000000000000000000000000000000000000000000000000000000000000000000000000000000000000000000000000000000000000000000000000000000000000000000000000000000000000000000000000000000000000000000000000000000000000000000000000000000000000
310
00000000000000000000000000000000000000000000000000000000000000000000000000000000000000000000000000000000000000000000000000000000000000000000000000000000000000000000000000000000000000000000000000000000000000000000000000000000000000000000000000000000000000
310
00000000000000000000000000000000000000000000000000000000000000000000000000000000000000000000000000000000000000000000000000000000000000000000000000000000000000000000000000000000000000000000000000000000000000000000000000000000000000000000000000000000000000
310
00000000000000000000000000000000000000000000000000000000000000000000000000000000000000000000000000000000000000000000000000000000000000000000000000000000000000000000000000000000000000000000000000000000000000000000000000000000000000000000000000000000000000
310
00000000000000000000000000000000000000000000000000000000000000000000000000000000000000000000000000000000000000000000000000000000000000000000000000000000000000000000000000000000000000000000000000000000000000000000000000000000000000000000000000000000000000
310
00000000000000000000000000000000000000000000000000000000000000000000000000000000000000000000000000000000000000000000000000000000000000000000000000000000000000000000000000000000000000000000000000000000000000000000000000000000000000000000000000000000000000
310
00000000000000000000000000000000000000000000000000000000000000000000000000000000000000000000000000000000000000000000000000000000000000000000000000000000000000000000000000000000000000000000000000000000000000000000000000000000000000000000000000000000000000
310
00000000000000000000000000000000000000000000000000000000000000000000000000000000000000000000000000000000000000000000000000000000000000000000000000000000000000000000000000000000000000000000000000000000000000000000000000000000000000000000000000000000000000
310
00000000000000000000000000000000000000000000000000000000000000000000000000000000000000000000000000000000000000000000000000000000000000000000000000000000000000000000000000000000000000000000000000000000000000000000000000000000000000000000000000000000000000
310
00000000000000000000000000000000000000000000000000000000000000000000000000000000000000000000000000000000000000000000000000000000000000000000000000000000000000000000000000000000000000000000000000000000000000000000000000000000000000000000000000000000000000
310
00000000000000000000000000000000000000000000000000000000000000000000000000000000000000000000000000000000000000000000000000000000000000000000000000000000000000000000000000000000F5F5F5F5F5F5F5F5F5F5F5F5F5F5F5F5F5F5F5F5F5F5F5F5F5F5F5F5F5F5F5F5F5F5F5F5F5F5F5
310
F5F5F5F5F5F5F5F5F5F5F5F5F5F5F5F5F5F5F5F5F5F5F5F5F5F5F5F5F5F5F5F5F5F5F5F5F5F5F5F5F50000000000000000000000000000000000000000000000000000000000000000000000000000000000000000000000000000000000000000000000000000000000000000000000000000000000000000000000000000
310
000000000000000000000000000000000000000000000000000000000000000000000000000000000000000000000000000000000000000000000000000000000000000000000000000000000000000000000000000000000000F5000000000000000000000000000000000000000000000000000000000000000000000000
310
000000000000000000000000000000000000000000000000000000000000000000000000000000000000F5F50000000000000000000000000000000000000000000000000000000000000000000000000000000000000000000000000000000000000000000000000000000000000000000000000000000000000000000000
310
0000000000000000000000000000000000000000000000000000000000000000000000000000000000000000000000000000000000000000000000000000000000000000000000000000000000000000000000000000000000000000F500000000000000000000000000000000000000000000000000000000000000000000
310
0000000000000000000000000000000000000000000000000000000000000000000000000000000000000000F5F5000000000000000000000000000000000000000000000000000000000000000000000000000000000000000000000000000000000000000000000000000000000000000000000000000000000000000000
310
00000000000000000000000000000000000000000000000000000000000000000000000000000000000000000000000000000000000000000000000000000000000000000000000000000000000000000000000000000000000000000000F50000000000000000000000000000000000000000000000000000000000000000
310
00000000000000000000000000000000000000000000000000000000000000000000000000000000000000000000F5F500000000000000000000000000000000000000000000000000000000000000000000000000000000000000000000000000000000000000000000000000000000000000000000000000000000000000
310
000000000000000000000000000000000000000000000000000000000000000000000000000000000000000000000000000000000000000000000000000000000000000000000000000000000000000000000000000000000000000000000000F5000000000000000000000000000000000000000000000000000000000000
310
000000000000000000000000000000000000000000000000000000000000000000000000000000000000000000000000F5F50000000000000000000000000000000000000000000000000000000000000000000000000000000000000000000000000000000000000000000000000000000000000000000000000000000000
310
0000000000000000000000000000000000000000000000000000000000000000000000000000000000000000000000000000000000000000000000000000000000000000000000000000000000000000000000000000000000000000000000000000F500000000000000000000000000000000000000000000000000000000
310
0000000000F5F5F5F5F5F5F5F5F5F5F5F5F50000000000000000000000000000000000000000000000000000000000000000F5F5000000000000000000000000000000000000000000000000000000000000000000000000000000000000000000000000000000000000000000000000000000000000000000000000000000
310
00000000000000000000000000000000000000000000000000000000000000000000000000000000000000000000000000000000000000000000000000000000000000000000000000000000000000000000000000000000000000000000000000000000F50000000000000000000000000000000000000000000000000000
310
0000F5F5F5F5F500000000000000000000000000F5F5F5F500000000000000000000000000000000000000000000000000000000F5F500000000000000000000000000000000000000000000000000000000000000000000000000000000000000000000000000000000000000000000000000000000000000000000000000
310
000000000000000000000000000000000000000000000000000000000000000000000000000000000000000000000000000000000000000000000000000000000000000000000000000000000000000000000000000000000000000000000000000000000000F5000000000000000000000000000000000000000000000000
310
0000F5F500000000000000000000000000000000000000000000F5F5F500000000000000000000000000000000000000000000000000F5F50000000000000000000000000000000000000000000000000000000000000000000000000000000000000000000000000000000000000000000000000000000000000000000000
310
0000000000000000000000000000000000000000000000000000000000000000000000000000000000000000000000000000000000000000000000000000000000000000000000000000000000000000000000000000000000000000000000000000000000000000F500000000000000000000000000000000000000000000
310
00F5F5F5000000000000000000000000000000000000000000000000000000F5F5F500000000000000000000000000000000000000000000F5F5000000000000000000000000000000000000000000000000000000000000000000000000000000000000000000000000000000000000000000000000000000000000000000
310
00000000000000000000000000000000000000000000000000000000000000000000000000000000000000000000000000000000000000000000000000000000000000000000000000000000000000000000000000000000000000000000000000000000000000000000F50000000000000000000000000000000000000000
310
0000F5000000000000000000000000000000000000000000000000000000000000000000F5000000000000000000000000000000000000000000F5F500000000000000000000000000000000000000000000000000000000000000000000000000000000000000000000000000000000000000000000000000000000000000
310
000000000000000000000000000000000000000000000000000000000000000000000000000000000000000000000000000000000000000000000000000000000000000000000000000000000000000000000000000000000000000000000000000000000000000000000000F5000000000000000000000000000000000000
310
00F5F5F50000000000000000000000000000000000000000000000000000000000000000000000F5F500000000000000000000000000000000000000F5F50000000000000000000000000000000000000000000000000000000000000000000000000000000000000000000000000000000000000000000000000000000000
310
0000000000000000000000000000000000000000000000000000000000000000000000000000000000000000000000000000000000000000000000000000000000000000000000000000000000000000000000000000000000000000000000000000000000000000000000000000F500000000000000000000000000000000
310
0000F5000000000000000000000000000000F5F5F5F5F5F5F5F5F5F5F50000000000000000000000000000F5F50000000000000000000000000000000000F5F5000000000000000000000000000000000000000000000000000000000000000000000000000000000000000000000000000000000000000000000000000000
310
00000000000000000000000000000000000000000000000000000000000000000000000000000000000000000000000000000000000000000000000000000000000000000000000000000000000000000000000000000000000000000000000000000000000000000000000000000000F50000000000000000000000000000
310
000000F5000000000000000000000000F5F5F5F50000000000000000000000F5F5F5F5000000000000000000000000F500000000000000000000000000000000F5F500000000000000000000000000000000000000000000000000000000000000000000000000000000000000000000000000000000000000000000000000
310
000000000000000000000000000000000000000000000000000000000000000000000000000000000000000000000000000000000000000000000000000000000000000000000000000000000000000000000000000000000000000000000000000000000000000000000000000000000000F5000000000000000000000000
310
00000000F5000000000000000000F5F5F5F500000000000000000000000000000000000000F5F5F500000000000000000000F5000000000000000000000000000000F5F50000000000000000000000000000000000000000000000000000000000000000000000000000000000000000000000000000000000000000000000
310
0000000000000000000000000000000000000000000000000000000000000000000000000000000000000000000000000000000000000000000000000000000000000000000000000000000000000000000000000000000000000000000000000000000000000000000000000000000000000000F500000000000000000000
310
0000000000F5000000000000000000F50000000000000000000000000000000000000000000000000000F5F5000000000000000000F5F500000000000000000000000000F5F5000000000000000000000000000000000000000000000000000000000000000000000000000000000000000000000000000000000000000000
310
00000000000000000000000000000000000000000000000000000000000000000000000000000000000000000000000000000000000000000000000000000000000000000000000000000000000000000000000000000000000000000000000000000000000000000000000000000000000000000000F50000000000000000
310
000000000000F50000000000000000F5F50000000000000000000000000000000000000000000000000000000000F5F5000000000000000000F5000000000000000000000000F5F500000000000000000000000000000000000000000000000000000000000000000000000000000000000000000000000000000000000000
310
000000000000000000000000000000000000000000000000000000000000000000000000000000000000000000000000000000000000000000000000000000000000000000000000000000000000000000000000000000000000000000000000000000000000000000000000000000000000000000000000F5000000000000
310
00000000000000F5000000000000F5F5F5000000000000000000000000000000000000000000000000000000000000000000F5F50000000000000000F50000000000000000000000F5F50000000000000000000000000000000000000000000000000000000000000000000000000000000000000000000000000000000000
310
0000000000000000000000000000000000000000000000000000000000000000000000000000000000000000000000000000000000000000000000000000000000000000000000000000000000000000000000000000000000000000000000000000000000000000000000000000000000000000000000000000F500000000
310
0000000000000000F5000000000000F50000000000000000000000000000000000000000000000000000000000000000000000000000F50000000000000000F500000000000000000000F5F5000000000000000000000000000000000000000000000000000000000000000000000000000000000000000000000000000000
310
00000000000000000000000000000000000000000000000000000000000000000000000000000000000000000000000000000000000000000000000000000000000000000000000000000000000000000000000000000000000000000000000000000000000000000000000000000000000000000000000000000000F50000
310
000000000000000000F5000000000000F500000000000000000000000000000000000000000000000000000000000000000000000000000000F50000000000000000F5000000000000000000F5F500000000000000000000000000000000000000000000000000000000000000000000000000000000000000000000000000
310
000000000000000000000000000000000000000000000000000000000000000000000000000000000000000000000000000000000000000000000000000000000000000000000000000000000000000000000000000000000000000000000000000000000000000000000000000000000000000000000000000000000000F5
310
00000000000000000000F5000000000000F5000000000000000000000000000000000000000000000000000000000000000000000000000000000000F500000000000000F5000000000000000000F5F50000000000000000000000000000000000000000000000000000000000000000000000000000000000000000000000
310
00000000000000000000000000000000000000000000000000000000000000000000000000000000000000000000000000000000000000000000000000000000000000000000000000000000000000000000000000000000000000000000000000000000000000000000000000000000000000000000000000000000000000
310
00F5000000000000000000F5000000000000F50000000000000000000000000000000000000000000000000000000000000000000000000000000000000000F5000000000000F5000000000000000000F5F5000000000000000000000000000000000000000000000000000000000000000000000000000000000000000000
310
00000000000000000000000000000000000000000000000000000000000000000000000000000000000000000000000000000000000000000000000000000000000000000000000000000000000000000000000000000000000000000000000000000000000000000000000000000000000000000000000000000000000000
310
000000F50000000000000000F5000000000000F5F5000000000000000000000000000000000000000000000000000000000000000000000000000000000000000000F5000000000000F50000000000000000F5F500000000000000000000000000000000000000000000000000000000000000000000000000000000000000
310
00000000000000000000000000000000000000000000000000000000000000000000000000000000000000000000000000000000000000000000000000000000000000000000000000000000000000000000000000000000000000000000000000000000000000000000000000000000000000000000000000000000000000
310
0000000000F50000000000000000F50000000000F5F50000000000000000000000000000000000000000000000000000000000000000000000000000000000000000000000F5000000000000F500000000000000F5F50000000000000000000000000000000000000000000000000000000000000000000000000000000000
310
00000000000000000000000000000000000000000000000000000000000000000000000000000000000000000000000000000000000000000000000000000000000000000000000000000000000000000000000000000000000000000000000000000000000000000000000000000000000000000000000000000000000000
310
00000000000000F500000000000000F5000000000000F500000000000000000000000000000000000000000000000000000000000000000000000000000000000000000000000000F50000000000F500000000000000F5F5000000000000000000000000000000000000000000000000000000000000000000000000000000
310
00000000000000000000000000000000000000000000000000000000000000000000000000000000000000000000000000000000000000000000000000000000000000000000000000000000000000000000000000000000000000000000000000000000000000000000000000000000000000000000000000000000000000
310
000000000000000000F500000000000000F50000000000F50000000000000000000000000000000000000000000000000000000000000000000000000000000000000000000000000000F5F50000000000F5000000000000F5F500000000000000000000000000000000000000000000000000000000000000000000000000
310
00000000000000000000000000000000000000000000000000000000000000000000000000000000000000000000000000000000000000000000000000000000000000000000000000000000000000000000000000000000000000000000000000000000000000000000000000000000000000000000000000000000000000
310
0000000000000000000000F500000000000000F500000000F5F5000000000000000000000000000000000000000000000000000000000000000000000000000000000000000000000000000000F50000000000F5000000000000F5F50000000000000000000000000000000000000000000000000000000000000000000000
310
00000000000000000000000000000000000000000000000000000000000000000000000000000000000000000000000000000000000000000000000000000000000000000000000000000000000000000000000000000000000000000000000000000000000000000000000000000000000000000000000000000000000000
310
00000000000000000000000000F5000000000000F50000000000F50000000000000000000000000000000000000000000000000000000000000000000000000000000000000000000000000000000000F500000000F5000000000000F5F5000000000000000000000000000000000000000000000000000000000000000000
310
00000000000000000000000000000000000000000000000000000000000000000000000000000000000000000000000000000000000000000000000000000000000000000000000000000000000000000000000000000000000000000000000000000000000000000000000000000000000000000000000000000000000000
310
000000000000000000000000000000F5000000000000F500000000F5000000000000000000000000000000000000000000000000000000000000000000000000000000000000000000000000000000000000F50000000000F50000000000F5F500000000000000000000000000000000000000000000000000000000000000
310
00000000000000000000000000000000000000000000000000000000000000000000000000000000000000000000000000000000000000000000000000000000000000000000000000000000000000000000000000000000000000000000000000000000000000000000000000000000000000000000000000000000000000
310
0000000000000000000000000000000000F50000000000F50000000000F5000000000000000000000000000000000000000000000000000000000000000000000000000000000000000000000000000000000000F5F500000000F50000000000F5F50000000000000000000000000000000000000000000000000000000000
310
00000000000000000000000000000000000000000000000000000000000000000000000000000000000000000000000000000000000000000000000000000000000000000000000000000000000000000000000000000000000000000000000000000000000000000000000000000000000000000000000000000000000000
310
00000000000000000000000000000000000000F50000000000F50000000000F500000000000000000000000000000000000000000000000000000000000000000000000000000000000000000000000000000000000000F500000000F50000000000F5F5000000000000000000000000000000000000000000000000000000
310
00000000000000000000000000000000000000000000000000000000000000000000000000000000000000000000000000000000000000000000000000000000000000000000000000000000000000000000000000000000000000000000000000000000000000000000000000000000000000000000000000000000000000
310
000000000000000000000000000000000000000000F50000000000F500000000F50000000000000000000000000000000000000000000000000000000000000000000000000000000000000000000000000000000000000000F50000000000F500000000F5F500000000000000000000000000000000000000000000000000
310
00000000000000000000000000000000000000000000000000000000000000000000000000000000000000000000000000000000000000000000000000000000000000000000000000000000000000000000000000000000000000000000000000000000000000000000000000000000000000000000000000000000000000
310
0000000000000000000000000000000000000000000000F50000000000F500000000F5000000000000000000000000000000000000000000000000000000F5F5F50000000000000000000000000000000000000000000000000000F50000000000F500000000F5F50000000000000000000000000000000000000000000000
310
00000000000000000000000000000000000000000000000000000000000000000000000000000000000000000000000000000000000000000000000000000000000000000000000000000000000000000000000000000000000000000000000000000000000000000000000000000000000000000000000000000000000000
310
00000000000000000000000000000000000000000000000000F50000000000F500000000F500000000000000000000000000000000000000000000000000F5F5F500F5F50000000000000000000000000000000000000000000000000000F500000000F500000000F5F5000000000000000000000000000000000000000000
310
00000000000000000000000000000000000000000000000000000000000000000000000000000000000000000000000000000000000000000000000000000000000000000000000000000000000000000000000000000000000000000000000000000000000000000000000000000000000000000000000000000000000000
310
000000000000000000000000000000000000000000000000000000F50000000000F500000000F500000000000000000000000000000000000000000000000000F500000000F5F500000000000000000000000000000000000000000000000000F500000000F500000000F5F500000000000000000000000000000000000000
310
00000000000000000000000000000000000000000000000000000000000000000000000000000000000000000000000000000000000000000000000000000000000000000000000000000000000000000000000000000000000000000000000000000000000000000000000000000000000000000000000000000000000000
310
0000000000000000000000000000000000000000000000000000000000F50000000000F500000000F500000000000000000000000000000000000000000000000000F50000000000F500000000000000000000000000000000000000000000000000F500000000F500000000F5F50000000000000000000000000000000000
310
00000000000000000000000000000000000000000000000000000000000000000000000000000000000000000000000000000000000000000000000000000000000000000000000000000000000000000000000000000000000000000000000000000000000000000000000000000000000000000000000000000000000000
310
00000000000000000000000000000000000000000000000000000000000000F50000000000F500000000F500000000000000000000000000000000000000000000000000F50000000000F500000000000000000000000000000000000000000000000000F500000000F500000000F5F5000000000000000000000000000000
310
00000000000000000000000000000000000000000000000000000000000000000000000000000000000000000000000000000000000000000000000000000000000000000000000000000000000000000000000000000000000000000000000000000000000000000000000000000000000000000000000000000000000000
310
000000000000000000000000000000000000000000000000000000000000000000F50000000000F500000000F500000000000000000000000000000000000000000000000000F500000000F5F500000000000000000000000000000000000000000000000000F500000000F500000000F5F500000000000000000000000000
310
00000000000000000000000000000000000000000000000000000000000000000000000000000000000000000000000000000000000000000000000000000000000000000000000000000000000000000000000000000000000000000000000000000000000000000000000000000000000000000000000000000000000000
310
0000000000000000000000000000000000000000000000000000000000000000000000F50000000000F500000000F50000000000000000000000000000000000000000000000000000F5F5F5F5F50000000000000000000000000000000000000000000000000000F500000000F500000000F5F50000000000000000000000
310
00000000000000000000000000000000000000000000000000000000000000000000000000000000000000000000000000000000000000000000000000000000000000000000000000000000000000000000000000000000000000000000000000000000000000000000000000000000000000000000000000000000000000
310
00000000000000000000000000000000000000000000000000000000000000000000000000F50000000000F500000000F5000000000000000000000000000000000000000000000000000000F5F5000000000000000000000000000000000000000000000000000000F50000000000F500000000F5F5000000000000000000
310
00000000000000000000000000000000000000000000000000000000000000000000000000000000000000000000000000000000000000000000000000000000000000000000000000000000000000000000000000000000000000000000000000000000000000000000000000000000000000000000000000000000000000
310
000000000000000000000000000000000000000000000000000000000000000000000000000000F50000000000F500000000F5F500000000000000000000000000000000000000000000000000000000000000000000000000000000000000000000000000000000000000F50000000000F500000000F5F500000000000000
310
00000000000000000000000000000000000000000000000000000000000000000000000000000000000000000000000000000000000000000000000000000000000000000000000000000000000000000000000000000000000000000000000000000000000000000000000000000000000000000000000000000000000000
310
0000000000000000000000000000000000000000000000000000000000000000000000000000000000F50000000000F50000000000F500000000000000000000000000000000000000000000000000000000000000000000000000000000000000000000000000000000000000F500000000F50000000000F5F50000000000
310
00000000000000000000000000000000000000000000000000000000000000000000000000000000000000000000000000000000000000000000000000000000000000000000000000000000000000000000000000000000000000000000000000000000000000000000000000000000000000000000000000000000000000
310
00000000000000000000000000000000000000000000000000000000000000000000000000000000000000F50000000000F50000000000F5000000000000000000000000000000000000000000000000000000000000000000000000000000000000000000000000000000000000F5F500000000F50000000000F5F5000000
310
00000000000000000000000000000000000000000000000000000000000000000000000000000000000000000000000000000000000000000000000000000000000000000000000000000000000000000000000000000000000000000000000000000000000000000000000000000000000000000000000000000000000000
310
000000000000000000000000000000000000000000000000000000000000000000000000000000000000000000F5000000000000F500000000F5F50000000000000000000000000000000000000000000000000000000000000000000000000000000000000000000000000000000000F50000000000F50000000000F5F500
310
00000000000000000000000000000000000000000000000000000000000000000000000000000000000000000000000000000000000000000000000000000000000000000000000000000000000000000000000000000000000000000000000000000000000000000000000000000000000000000000000000000000000000
310
0000000000000000000000000000000000000000000000000000000000000000000000000000000000000000000000F5000000000000F50000000000F50000000000000000000000000000000000000000000000000000000000000000000000000000000000000000000000000000000000F500000000F5000000000000F5
310
F5000000000000000000000000000000000000000000000000000000000000000000000000000000000000000000000000000000000000000000000000000000000000000000000000000000000000000000000000000000000000000000000000000000000000000000000000000000000000000000000000000000000000
310
00000000000000000000000000000000000000000000000000000000000000000000000000000000000000000000000000F500000000000000F500000000F5F5000000000000000000000000000000000000000000000000000000000000000000000000000000000000000000000000000000F50000000000F50000000000
310
00F5F500000000000000000000000000000000000000000000000000000000000000000000000000000000000000000000000000000000000000000000000000000000000000000000000000000000000000000000000000000000000000000000000000000000000000000000000000000000000000000000000000000000
310
000000000000000000000000000000000000000000000000000000000000000000000000000000000000000000000000000000F500000000000000F50000000000F50000000000000000000000000000000000000000000000000000000000000000000000000000000000000000000000000000F5F50000000000F5000000
310
000000F5F50000000000000000000000000000000000000000000000000000000000000000000000000000000000000000000000000000000000000000000000000000000000000000000000000000000000000000000000000000000000000000000000000000000000000000000000000000000000000000000000000000
310
0000000000000000000000000000000000000000000000000000000000000000000000000000000000000000000000000000000000F500000000000000F5000000000000F500000000000000000000000000000000000000000000000000000000000000000000000000000000000000000000000000F50000000000F50000
310
0000000000F5F5000000000000000000000000000000000000000000000000000000000000000000000000000000000000000000000000000000000000000000000000000000000000000000000000000000000000000000000000000000000000000000000000000000000000000000000000000000000000000000000000
310
00000000000000000000000000000000000000000000000000000000000000000000000000000000000000000000000000000000000000F50000000000000000F50000000000F5F50000000000000000000000000000000000000000000000000000000000000000000000000000000000000000000000F5000000000000F5
310
00000000000000F5F500000000000000000000000000000000000000000000000000000000000000000000000000000000000000000000000000000000000000000000000000000000000000000000000000000000000000000000000000000000000000000000000000000000000000000000000000000000000000000000
310
000000000000000000000000000000000000000000000000000000000000000000000000000000000000000000000000000000000000000000F50000000000000000F5000000000000F5F5000000000000000000000000000000000000000000000000000000000000000000000000000000000000000000F5000000000000
310
F50000000000000000F5F50000000000000000000000000000000000000000000000000000000000000000000000000000000000000000000000000000000000000000000000000000000000000000000000000000000000000000000000000000000000000000000000000000000000000000000000000000000000000000
310
0000000000000000000000000000000000000000000000000000000000000000000000000000000000000000000000000000000000000000000000F5000000000000000000F5000000000000F50000000000000000000000000000000000000000000000000000000000000000000000000000000000000000F50000000000
310
00F5000000000000000000F5F5000000000000000000000000000000000000000000000000000000000000000000000000000000000000000000000000000000000000000000000000000000000000000000000000000000000000000000000000000000000000000000000000000000000000000000000000000000000000
310
00000000000000000000000000000000000000000000000000000000000000000000000000000000000000000000000000000000000000000000000000F500000000000000000000F5000000000000F5000000000000000000000000000000000000000000000000000000000000000000000000000000000000F500000000
310
000000F5000000000000000000F5F500000000000000000000000000000000000000000000000000000000000000000000000000000000000000000000000000000000000000000000000000000000000000000000000000000000000000000000000000000000000000000000000000000000000000000000000000000000
310
000000000000000000000000000000000000000000000000000000000000000000000000000000000000000000000000000000000000000000000000000000F50000000000000000000000F5000000000000F500000000000000000000000000000000000000000000000000000000000000000000000000000000F5000000
310
00000000F500000000000000000000F5F50000000000000000000000000000000000000000000000000000000000000000000000000000000000000000000000000000000000000000000000000000000000000000000000000000000000000000000000000000000000000000000000000000000000000000000000000000
310
0000000000000000000000000000000000000000000000000000000000000000000000000000000000000000000000000000000000000000000000000000000000F5000000000000000000000000F5000000000000F5F5000000000000000000000000000000000000000000000000000000000000000000000000F5F50000
310
0000000000F50000000000000000000000F5F5000000000000000000000000000000000000000000000000000000000000000000000000000000000000000000000000000000000000000000000000000000000000000000000000000000000000000000000000000000000000000000000000000000000000000000000000
310
00000000000000000000000000000000000000000000000000000000000000000000000000000000000000000000000000000000000000000000000000000000000000F5000000000000000000000000F50000000000000000F5F5000000000000000000000000000000000000000000000000000000000000000000F50000
310
000000000000F5000000000000000000000000F5F500000000000000000000000000000000000000000000000000000000000000000000000000000000000000000000000000000000000000000000000000000000000000000000000000000000000000000000000000000000000000000000000000000000000000000000
310
000000000000000000000000000000000000000000000000000000000000000000000000000000000000000000000000000000000000000000000000000000000000000000F500000000000000000000000000F5000000000000000000F5F50000000000000000000000000000000000000000000000000000000000F5F500
310
00000000000000F500000000000000000000000000F5F50000000000000000000000000000000000000000000000000000000000000000000000000000000000000000000000000000000000000000000000000000000000000000000000000000000000000000000000000000000000000000000000000000000000000000
310
0000000000000000000000000000000000000000000000000000000000000000000000000000000000000000000000000000000000000000000000000000000000000000000000F50000000000000000000000000000F500000000000000000000F5F5000000000000000000000000000000000000000000000000F5F5F500
310
0000000000000000F50000000000000000000000000000F5F5000000000000000000000000000000000000000000000000000000000000000000000000000000000000000000000000000000000000000000000000000000000000000000000000000000000000000000000000000000000000000000000000000000000000
310
00000000000000000000000000000000000000000000000000000000000000000000000000000000000000000000000000000000000000000000000000000000000000000000000000F5000000000000000000000000000000F5F500000000000000000000F5F5F500000000000000000000000000000000000000F5F50000
310
000000000000000000F50000000000F5F5F5F5000000000000F5F500000000000000000000000000000000000000000000000000000000000000000000000000000000000000000000000000000000000000000000000000000000000000000000000000000000000000000000000000000000000000000000000000000000
310
000000000000000000000000000000000000000000000000000000000000000000000000000000000000000000000000000000000000000000000000000000000000000000000000000000F50000000000000000000000000000000000F5000000000000000000000000F5F5F5F5F5000000000000000000F5F5F5F5F50000
310
00000000000000000000F5000000000000F50000F5F50000000000F5F50000000000000000000000000000000000000000000000000000000000000000000000000000000000000000000000000000000000000000000000000000000000000000000000000000000000000000000000000000000000000000000000000000
310
0000000000000000000000000000000000000000000000000000000000000000000000000000000000000000000000000000000000000000000000000000000000000000000000000000000000F5000000000000000000000000000000000000F500000000000000000000000000000000F5F5F5F5F5F5F5F5F50000000000
310
000000000000000000F5F5F5000000000000F500000000F50000000000F5F5000000000000000000000000000000000000000000000000000000000000000000000000000000000000000000000000000000000000000000000000000000000000000000000000000000000000000000000000000000000000000000000000
310
00000000000000000000000000000000000000000000000000000000000000000000000000000000000000000000000000000000000000000000000000000000000000000000000000000000000000F500000000000000000000000000000000000000F5F50000000000000000000000000000000000000000000000000000
310
00000000000000000000F5000000000000000000F500000000F50000000000F5F500000000000000000000000000000000000000000000000000000000000000000000000000000000000000000000000000000000000000000000000000000000000000000000000000000000000000000000000000000000000000000000
310
000000000000000000000000000000000000000000000000000000000000000000000000000000000000000000000000000000000000000000000000000000000000000000000000000000000000000000F5000000000000000000000000000000000000000000F5F500000000000000000000000000000000000000000000
310
00000000000000000000F5F500000000000000000000F5F50000F5F50000000000F5F50000000000000000000000000000000000000000000000000000000000000000000000000000000000000000000000000000000000000000000000000000000000000000000000000000000000000000000000000000000000000000
310
0000000000000000000000000000000000000000000000000000000000000000000000000000000000000000000000000000000000000000000000000000000000000000000000000000000000000000000000F50000000000000000000000000000000000000000000000F5F5000000000000000000000000000000000000
310
00000000000000000000F5F500000000000000000000000000F5F5F5F5000000000000F5F5000000000000000000000000000000000000000000000000000000000000000000000000000000000000000000000000000000000000000000000000000000000000000000000000000000000000000000000000000000000000
310
00000000000000000000000000000000000000000000000000000000000000000000000000000000000000000000000000000000000000000000000000000000000000000000000000000000000000000000000000F500000000000000000000000000000000000000000000000000F5F5F500000000000000000000000000
310
0000000000000000F5F5F5F500000000000000000000000000000000000000000000000000F5F500000000000000000000000000000000000000000000000000000000000000000000000000000000000000000000000000000000000000000000000000000000000000000000000000000000000000000000000000000000
310
000000000000000000000000000000000000000000000000000000000000000000000000000000000000000000000000000000000000000000000000000000000000000000000000000000000000000000000000000000F500000000000000000000000000000000000000000000000000000000F5F5F5F5F5F50000000000
310
000000000000F5F5F5F50000000000000000000000000000000000000000000000000000000000F5F50000000000000000000000000000000000000000000000000000000000000000000000000000000000000000000000000000000000000000000000000000000000000000000000000000000000000000000000000000
310
0000000000000000000000000000000000000000000000000000000000000000000000000000000000000000000000000000000000000000000000000000000000000000000000000000000000000000000000000000000000F500000000000000000000000000000000000000000000000000000000000000000000F5F5F5
310
F5F5F5F5F5F5F5F5000000000000000000000000000000000000000000000000000000000000000000F5F5000000000000000000000000000000000000000000000000000000000000000000000000000000000000000000000000000000000000000000000000000000000000000000000000000000000000000000000000
310
00000000000000000000000000000000000000000000000000000000000000000000000000000000000000000000000000000000000000000000000000000000000000000000000000000000000000000000000000000000000000F50000000000000000000000000000000000000000000000000000000000000000000000
310
00000000000000000000000000000000000000000000000000000000000000000000000000000000000000F5F500000000000000000000000000000000000000000000000000000000000000000000000000000000000000000000000000000000000000000000000000000000000000000000000000000000000000000000
310
000000000000000000000000000000000000000000000000000000000000000000000000000000000000000000000000000000000000000000000000000000000000000000000000000000000000000000000000000000000000000000F5000000000000000000000000000000000000000000000000000000000000000000
310
000000000000000000000000000000000000000000000000000000000000000000000000000000000000000000F5F50000000000000000000000000000000000000000000000000000000000000000000000000000000000000000000000000000000000000000000000000000000000000000000000000000000000000000
310
0000000000000000000000000000000000000000000000000000000000000000000000000000000000000000000000000000000000000000000000000000000000000000000000000000000000000000000000000000000000000000000000F500000000000000000000000000000000000000000000000000000000000000
310
0000000000000000000000000000000000000000000000000000000000000000000000000000000000000000000000F5F5000000000000000000000000000000000000000000000000000000000000000000000000000000000000000000000000000000000000000000000000000000000000000000000000000000000000
310
00000000000000000000000000000000000000000000000000000000000000000000000000000000000000000000000000000000000000000000000000000000000000000000000000000000000000000000000000000000000000000000000000F5F5F5F5F5F5F5F5F5F5F5F5F5F5F5F5F5F5F5F5F5F5F5F5F5F5F5F5F5F5
310
F5F5F5F5F5F5F5F5F5F5F5F5F5F5F5F5F5F5F5F5F5F5F5F5F5F5F5F5F5F5F5F5F5F5F5F5F5F5F5F5F5F5F5F5F5F5F5F5F5F5F500000000000000000000000000000000000000000000000000000000000000000000000000000000000000000000000000000000000000000000000000000000000000000000000000000000
310
000000000000000000000000000000000000000000000000000000000000000000000000000000000000000000000000000000000000000000000000000000000000000000000000000000000000000000000000000000000000000000000000000000F5F5F5F5F5F5F5F5F5F5F5F5F5F5F5F5F5F5F5F5F5F5F5F5F5F5F5F5
310
F5F5F5F5F5F5F5F5F5F5F5F5F5F5F5F5F5F5F5F5F5F5F5F5F5F5F5F5F5F5F5F5F5F5F5F5F5F5F5F5F5F5F5F5F5F5F5F5F5F5F5F5000000000000000000000000000000000000000000000000000000000000000000000000000000000000000000000000000000000000000000000000000000000000000000000000000000
310
00000000000000000000000000000000000000000000000000000000000000000000000000000000000000000000000000000000
  0
XRECORD
  5
415
102
{ACAD_REACTORS
330
188
102
}
330
188
100
AcDbXrecord
280
     1
102
MATERIAL
148
0.0
149
0.0
149
0.0
 93
        0
 94
      127
282
     0
 72
     1
 77
     1
171
     1
175
     1
179
     1
273
     0
  0
XRECORD
  5
189
102
{ACAD_REACTORS
330
188
102
}
330
188
100
AcDbXrecord
280
     1
 70
     1
 90
429727718
  1
508B35C9-AEE7-456F-BE74-D52651303AC6
310
504B03040A0000080000B670623B3DEE336E79000000790000001B0000006175746F6465736B2D64657369676E2D7061636B6167652E786D6C3C3F786D6C2076657273696F6E3D22312E302220656E636F64696E673D227574662D3822203F3E3C666F726D6174733E3C666F726D61743E687474703A2F2F736368656D612E
310
6175746F6465736B2E636F6D2F64657369676E2D7061636B6167652F323030393C2F666F726D61743E3C2F666F726D6174733E504B0304140006080800B670623BD486FD9CA0000000F4000000130000005B436F6E74656E745F54797065735D2E786D6C7D8EC10E82300C865F65E91D8A1E8C310C0EEA1BF002731658846E
310
D98AC1B77784ABF1D8FE5FBFBF75BBCE937A534CCEB38643598122B6FEE978D0B0485F9C41B54DDD7D022595594E1A469170414C76A4D9A4D207E29CF43ECE46F218070CC6BECC4078ACAA135ACF422C856C0E68EA1BF5669944DDD7BCDE7B1F8E415D77AECB980613C2E4AC91FC167A2B244592486606FC29C8FD7F045B9A
310
EF7053A7E60B504B0304140006080800B670623B28ED286BEB0000007C01000008000000636F72652E786D6C8D90416EC3201045AF82665B6183218D6D61A254764FD00B204C5C94182C03558F5F9C3852BBEB6A467FFE9B197D71FA9E6FE8CBACC17AD7012D0820E3B41FAD9B3A48F1826B40272956EFE32F1B20A766D3C1
310
268314D3EAD3B24BDABB685CCCAAF3A3D94515828980F42D371D04FD696655A814B3235C8B45E9AB9A4C419F5D8653B2237A1CB163DE672FD6AC209BF3C08E0D1B30EB19C3FC9D72FCC6EB231EFA33EDE96BDD341517E5064B11EDFCBCAF57A3A2194156843498524CAA0FCA5B7268F9E185D42D21A2DCEC7FA0B48CFF8492
310
759155FBBB0F2C80A4F991FB408A72CB22977B50B96EB9C91F504B0304140006080800B670623B55019EA25F0000007C00000007000000636E782E786D6C4DCB3B0E80201045D1AD90E915ED2CF8AC45050C11660C8261F98AB1B07AC9C97D42D718D865D3E909258CFD00CCE24AC6E326A164D74DC0B4128928FF32603847
310
2BA13128B1252AC747C6BAB984FC68F0B87FE8960A5C09FE86CFB69FBA01504B0304140006080800B670623B7BC41AC871010000D40300000C0000006662782F636F72652E786D6CC553ED6E8320147D15C2DF4501B56B6D90A64BBB27D80B50A5CE54C120983EFEAE1F4DD7A56BBA5FF3879273EEE59E7310BE393735EA95
310
ED2AA333CC428A91D2B9292A5D66D8BB63B0C26823B835C67D2BC348CB46657880B1E0A535BE9DA1DC68A7B403549B42CDA0EC3AE530CA6B5864B8CB3F552343E91D5474A7B095F949962A6421D0502778E72C0840D390E18DC5F170E664C205F7BE2A66B62A605A75AC94C522DDEEE3651AEF837817C741F2CE92E02D592D
310
83FD6ECB76EC7595A651C2C9D02CB8AB9A8BBADC2AE954814544691A3016D0E883256BBA58278B17BA5A53CAC9507ED3E4DBE2C9265F691747B3DCA9ADC382819091F8E1162272A8933DE82182932144F88C09DF060D8140C84E1EEA8B8F1340BDCA9DB1093085F157AA97B557309586747CD0EF0B4EA64E983A6E0EAEEFCE
310
889E9EF17847386AA94B30211D2C0FDE0D3AF9A4610EAD5536E8DD1969631B593F67E381C33F5157F17725E5A636F6BF1491F980C8FC7B90E13E8A2F504B0304140006080800B670623B70102A487D0000009D0000000B0000006662782F636E782E786D6C4DCCD10A83201886E15B91FFDC95A5C30335ACCDFB886521330D
310
A76397BF1A1DECE883878F57749FD5A3B74D2F17830472A901D9F088930B8B849267CC01754AA418F3DF0D5018572BE160506249B16C274D761E8BCFBB7A179E27F65CB39A0F14D396184C9921B81F34C3ACA1B4B99ABB6E6F062A25AA5F69DF23ACBE504B0304140006080800B670623B3610CA3329010000120200003100
310
00006662782F42384135303843342D343331462D343546312D424341352D3532343432364645413344462F636F72652E786D6C8D515B6EC32010BC0AE22B55850D0E446E848992B43E412FE000495162B07854397EA176A4F62F3F2C9A9D991D58BEBB8F37F0AD7D30CE76905418026DA553C65E3A98E219B510EC04F7CEC5
310
3F3408EC30EA0E16180A7EF12E4D0B249D8DDAC68C5AA7F4020E21E80881BCE54B0783FCD2E3500D296646B856D320AFC34557A4CAEDCC133C449F0380794839A138B47B86DB2345744D7A44594FD0E1B867883594369BFE63BF7EEF793D0B054FC9A8456E548E63CE46FB674D8A58F068C6477CE9F510B582A2C1F80D1182
310
70F349E816B32D65AFB8DD62CCEB42FF274A937A52948C8DEB66893BCB021484D7734370E5D2E9F608A3EF93F3119479ABA0E50B14B8C298119A43CCC4FCFCECB8A18B6388CEE7EF5D5D4F994BD86CBBA182D76543B9FCAE2FD7B24DF103504B0304140006080800B670623B1B8617914E0100003303000030000000666278
310
2F42384135303843342D343331462D343546312D424341352D3532343432364645413344462F636E782E786D6CD593C16EC32010447F0571AD6CE3D489D20813A9877E410FBD62D82434182CC055F3F75D1292E692438FBD206B7698593D61BEFD1E2DF982108D773D6D6B460938E5B571FB9ECE6957AD29D90A1EBC4F7736
310
4A9C1CA1A759A682EF839FA72269D8C9D92654AD71C72206887E0E0A22CAF926B15E498B01E0AA19451807D01A34B919F16B070157417138917400F2F6FA41FCF0092A45DEE414C19BDC21783E4BD39D891265658C3D8DEA00A3ACE59CBC8678ACB54CB26EEB6BD7839D7E9348BE70AD9C8321B9BCA7F9A4A26C542347DEE0
310
50F09802D22BA6749A800A394DD62899107273365E3C82CFC6A55557BC06C10774B7ABE7AEC3B0F34CF06446280E154026D0542C187BA9DAB6628BF7B6DBB0E5A65B3EB1F58631DE64BBE083F7B65CC218087E22CABB042E51D1F2268F1FE12B3EA24D40D63E9CFE00120194D60B9D5BC67FE6D39CDF37E20AF817881F504B
310
0304140006080800B670623BBFEF2E3B690500003C100000340000006662782F42384135303843342D343331462D343546312D424341352D3532343432364645413344462F6F626A656374732E786D6CAD575D739B3814FD2B0CFB0C98D84E931D4227B6938EA793B6534F3BFB90198F0099B001899144EAECAFDF231018B0
310
D37A3FFC609090EEE7B94757C1FB7D915B2F54C88CB31BDB7727B64559CC938CA53776A576CE956DBD0F03C1B9EA2DB32D460A7A63EB693B0C52C1ABD24C257447AA5C8D66EF177F5832A68CDA569C13296F6C193FD182B8A4523CA1F2D94D88226EBADBBBBEDB2C1C8A4D05299F46424B222853B014F30C52ACC6287F389C
310
D85E1878FA7B18E87FB36AFAF62AAFF667A83F635211161F291B8999FAB3D5DDC5FCDA99CF6653677679E13B8BFBC5CAF1DF4D27CBCBE5F2FAF6EE1A8AA51290642C117467871F101B91C581D77CEA2C36869F3229E68CD1B8F61F1ED6361B89092D294B90C78C4A68EB793D190E7D1D9BDEE7A91E1B95FDE9F3BCEAEFE809
310
6A6D6F9F7D4B79F4275C90E7A04248AA51D5C4C738DAE06F72885AC4796EBE65D22A88A22223B995679120E2D50EB1542F098381188D4EA111AE3DB043FF20AF6F2B4AE3D7D83D65E5AECA730D4D3BAC91BD05FEA992B565D95F549CD6069B90AB2A63EACA38A45E4B6A87D781574F86817E4C2FCCC72690D62E2729520E37
310
9BAF234797BAF6D62B3BFC781FED37BA1E4F2B2F052FA9501A3E80569BB8F6A9A364D4FA67654E6F803383981F82F21591FF84F23D9882BC896C3FDBCF8C162508933B2E0AE4C69DD43F6BD2BE38DDDBF10BF86CB4FA784D37F3AF16075E67EC9030DECA1FC0A55373F5DFF3378C591FA9BDF485C10B0A8C8BA909E5262639
310
A8E72163488806A595734C81CB77D1DE0ED7604A303B76913CEC0272F412782FF88EFF4636D8AA56DF7B322474C4B767303F625997056C7B032C473C592B36CEBD15F3F9FF5233B7ABCDC74D257624A60F8658567497B14CE1EC3C80B76FD02011038F9EE9EB0F2E12387A9C844D3F09855125116D1D731DF8B43D2CF4E0A0
310
79A020C6BE946BCE0B7EA1E1219331CD73C228AF5A2DDD31A4B1DA918CE91350854D40A71723140BFA92E94E62B0626016CEFA5864A50E5977E8753CEDBEE1CBB7F52780D20E17AF0BA0F5F9B02A3AD07DCC732EB6D1EBB661421BE0C39E21BABF0FE16D22EA6929407C8DE596724C88B749B6DB5512BC7B228ADFD7CB7EA6
310
3A22397E690BA8D5D8D4E40CEC8CDA23C2C0B7D5898640101CEC9C6D331CE328CB93CAFBBAC70A642DF70DF95155945B52F08AA973C23469FD69ADEF84F7BB18F983A8F8C90E37F5D35980B2139A1C523540813E824EF83448CF7C72B598CE97D7CEEDDDDD3B6736BFBC771677EF66CE6A7E7139F7A793E9EDF2B2B3A8B624
310
0CDA13AA5F8388264EC4A0129909F3B7F5A16CEDF08128E97D680ACA4B9BE7B7B58BB638F0B00700EF36AE8B32A705658A68F83EE897FC2B41573190D1CCAF0B92D233A47CFEB019D9809933F67DD1A5467F8CF69AD9A5AE859342D45355448C64F968A371DC2D596ADC6E43D93D1B466F877A64E2893E54F23C4B40388995
310
525E5005DA3983ED45412510D3EFCA13737B3863F74BD30F2A12E5B4B5E489A025CE25500DB855B11ACE5BBFA185D35DD48D8DC3CE7DC69F2944DB42AA6F6CF09BCA622ADD08C7A36E7C6AE18000BAB08E040135C2D21C9D75B3A91B77BB746C403F38018DFE6EC939DD92F16B40BC05294B9CDA035AAD6D330AE27FE4786B
310
8E45145EA34A75BE1C263A676A35A8ACC6297337400BF16C54EF515F3F77CB77EB3583889C754FFA29081AA98E2222ADEF05DA3E63D2EDEA8B8756C05A7FB6CABC4A91CBF325398202CC952E70A008A830324BA200D5E5EF8F5F04C75DB4B0EE3340E071C98B823333B83577596BF3849B69F2085AA0FAFA212F26BEFF5877
310
FDE622B28D88A42E49E43326DA82D31E8CB006401E1DA726059ECEC168F97A6599036306A135688F9AD2E61A6EA178F4CD51974A9F2CCB9F36FE5EBD14601068D9C3BF01504B0304140006080000B670623B000000000000000000000000350000006662782F42384135303843342D343331462D343546312D424341352D35
310
32343432364645413344462F76657274696365732E62696E504B0304140006080800B670623BF270F1330600000004000000360000006662782F42384135303843342D343331462D343546312D424341352D3532343432364645413344462F747269616E676C65732E62696E636660600000504B0304140006080000B67062
310
3B000000000000000000000000370000006662782F42384135303843342D343331462D343546312D424341352D3532343432364645413344462F617474726962757465732E62696E504B0304140006080800B670623B08DA0BD19000000041010000360000006662782F42384135303843342D343331462D343546312D4243
310
41352D3532343432364645413344462F6469726563746F72792E786D6C858F410AC3201045AF22B36F53E9A60B35CBEEBAE80D244E44489C6234F4F835464A48035D0DF398FF9F8AF63D0E6CC63039F212F8F9020C7D47C6792B21C5FE7403D62A1188E2E60C98D7234A5830286103A55745067B9D86B8A3CF9C7F90C11DE6
310
07FB144396D7B6A82D282E9A152AD114D5EF2CB866EEE831B8EEA07A7BB5A8D7D61A2BAAEB7FD5F70921FF497D00504B0304140006080800B670623B3B4606F3FE000000A00100003B0000006662782F42384135303843342D343331462D343546312D424341352D3532343432364645413344462F7265736F75726365732F
310
636F72652E786D6C8D504B6E833010BD0A9A6D65B08134808CA354A427E8052C332156828DFCA97AFC9A40A576D7CDCCE87D344F8F9FBEE647F689CE6B6B7A6039850C8DB2A336530F315C4903D94970676DF82583CCC8197B5861107C72362E3BA4AC096842428D1D7107A5F71820538F74F4E0D50D6799CB1892C2DFF345
310
AABB9C306779A2934E701F5C0A906D4FD609C2A1B7D129F4BCD858C163D4E3AED163FAA9AF1A1D88F67CA98E6D35906AA82A52BFB39ABCD5CD915C86331BD86BD3B665CD8BD52C78D0F34F46E550061C419494B6843142CB0F5677F4D0D58717DA7494F26295FF31C565FCA7296A13AA728FBBD93C0896823C09C18BB5AFB4
310
9E65A6BD762BBE01504B010214000A0000080000B670623B3DEE336E79000000790000001B00000000000000000000000000000000006175746F6465736B2D64657369676E2D7061636B6167652E786D6C504B01021400140006080800B670623BD486FD9CA0000000F40000001300000000000000000000000000B2000000
310
5B436F6E74656E745F54797065735D2E786D6C504B01021400140006080800B670623B28ED286BEB0000007C010000080000000000000000000000000083010000636F72652E786D6C504B01021400140006080800B670623B55019EA25F0000007C000000070000000000000000000000000094020000636E782E786D6C50
310
4B01021400140006080800B670623B7BC41AC871010000D40300000C00000000000000000000000000180300006662782F636F72652E786D6C504B01021400140006080800B670623B70102A487D0000009D0000000B00000000000000000000000000B30400006662782F636E782E786D6C504B01021400140006080800B6
310
70623B3610CA3329010000120200003100000000000000000000000000590500006662782F42384135303843342D343331462D343546312D424341352D3532343432364645413344462F636F72652E786D6C504B01021400140006080800B670623B1B8617914E010000330300003000000000000000000000000000D10600
310
006662782F42384135303843342D343331462D343546312D424341352D3532343432364645413344462F636E782E786D6C504B01021400140006080800B670623BBFEF2E3B690500003C10000034000000000000000000000000006D0800006662782F42384135303843342D343331462D343546312D424341352D35323434
310
32364645413344462F6F626A656374732E786D6C504B01021400140006080000B670623B0000000000000000000000003500000000000000000000000000280E00006662782F42384135303843342D343331462D343546312D424341352D3532343432364645413344462F76657274696365732E62696E504B010214001400
310
06080800B670623BF270F133060000000400000036000000000000000000000000007B0E00006662782F42384135303843342D343331462D343546312D424341352D3532343432364645413344462F747269616E676C65732E62696E504B01021400140006080000B670623B00000000000000000000000037000000000000
310
00000000000000D50E00006662782F42384135303843342D343331462D343546312D424341352D3532343432364645413344462F617474726962757465732E62696E504B01021400140006080800B670623B08DA0BD1900000004101000036000000000000000000000000002A0F00006662782F42384135303843342D3433
310
31462D343546312D424341352D3532343432364645413344462F6469726563746F72792E786D6C504B01021400140006080800B670623B3B4606F3FE000000A00100003B000000000000000000000000000E1000006662782F42384135303843342D343331462D343546312D424341352D3532343432364645413344462F72
310
65736F75726365732F636F72652E786D6C504B0506000000000E000E0080040000651100000000
  0
XRECORD
  5
414
102
{ACAD_REACTORS
330
186
102
}
330
186
100
AcDbXrecord
280
     1
102
MATERIAL
148
0.0
149
0.0
149
0.0
 93
        0
 94
      127
282
     0
 72
     1
 77
     1
171
     1
175
     1
179
     1
273
     0
  0
XRECORD
  5
187
102
{ACAD_REACTORS
330
186
102
}
330
186
100
AcDbXrecord
280
     1
 70
     1
 90
429727718
  1
887D55A9-D0DD-414E-B741-A7DCD4DA2B4C
310
504B03040A0000080000B670623B3DEE336E79000000790000001B0000006175746F6465736B2D64657369676E2D7061636B6167652E786D6C3C3F786D6C2076657273696F6E3D22312E302220656E636F64696E673D227574662D3822203F3E3C666F726D6174733E3C666F726D61743E687474703A2F2F736368656D612E
310
6175746F6465736B2E636F6D2F64657369676E2D7061636B6167652F323030393C2F666F726D61743E3C2F666F726D6174733E504B0304140006080800B670623BD486FD9CA0000000F4000000130000005B436F6E74656E745F54797065735D2E786D6C7D8EC10E82300C865F65E91D8A1E8C310C0EEA1BF002731658846E
310
D98AC1B77784ABF1D8FE5FBFBF75BBCE937A534CCEB38643598122B6FEE978D0B0485F9C41B54DDD7D022595594E1A469170414C76A4D9A4D207E29CF43ECE46F218070CC6BECC4078ACAA135ACF422C856C0E68EA1BF5669944DDD7BCDE7B1F8E415D77AECB980613C2E4AC91FC167A2B244592486606FC29C8FD7F045B9A
310
EF7053A7E60B504B0304140006080800B670623BBC1638F5EC0000007C01000008000000636F72652E786D6C8D90416EC3201045AF82665B61836BE2D8C24471DB9CA01740401C94182C03558F5F9C3852BBEB6A467FFE9B197D7EF89E6EE8CB2CC17AD7032D0820E394D7D68D3DA478C67B4007C117EFE32F1B202727D3C3
310
2A83E0E3E2D3BC49CABB685CCCAAF3DA6CA20CC14440EA969B1E82BA98491632C5EC08D76296EA2A4753D06797E194AC468F2356E77DF66CCD02825543D50CACC62D39ED70FDC68EB8FD68F6F8787A6784342D1DDA1D2F5758F068A7E77DB518198D065111D2624A31A93E69DD11D6D5EC85EC3B4278B9DAFF4069D6FF8492
310
75F1B5DADE7D600104CD8FDC0782976B16B9DC83CA75CD4DFC00504B0304140006080800B670623B55019EA25F0000007C00000007000000636E782E786D6C4DCB3B0E80201045D1AD90E915ED2CF8AC45050C11660C8261F98AB1B07AC9C97D42D718D865D3E909258CFD00CCE24AC6E326A164D74DC0B4128928FF326038
310
472BA13128B1252AC747C6BAB984FC68F0B87FE8960A5C09FE86CFB69FBA01504B0304140006080800B670623B3586FFB671010000D40300000C0000006662782F636F72652E786D6CC553ED6E8320147D15C2DF4541A76D6D90A6DDD627D80B50A4CE54C120983EFEAE1F4DD7A55BBA5FF3879273EEE59E7310B6393735EA
310
95ED2AA3731C851423A5A5292A5DE6D8BB63B0C268C39935C67D29C3488B46E578803167A535BE9D2169B453DA01AA4DA16650749D7218C91A1639EEE4876A4428BC838AEE14B6429E44A9C228041AEA38EB9C0501681A32BC313F1ECE8C4C3867DE57C5CC56054CAB8E95B298A7F12E5EEED224C8E87E11242FE936C8DE96
310
AB60BB7F4D295D66D12E5B30323473E6AAE6A24E5A259C2A308F29CD82280A68FC1E256B9AAE93F489AED694323294DF34F9B678B0C957DA3DC7B3DCA9ADC33C022123F1CD2D44E450277AD04338234388F01913BE0D1A0281909D38D4171F27807A259DB1093085F157AA17B557309586747CD0CF0B46A64E983A6E0EAEEF
310
CE881F9EF1FB8E70D44297604238581EBC1B74B249C31C5AAB6CD0BB33D2C636A27ECCC62F0EFF445DC5DF95244D6DEC7F2922F30191F9F720C37DE49F504B0304140006080800B670623B4220A0FF7D0000009D0000000B0000006662782F636E782E786D6C4DCCD10A83201886E15B91FFDCE542CB0335D0EC3E6259C84A
310
C3E9D8E5AF46073BFAE0E1E315DD675BD1DBA5978F41C2FD4600B9F088930F8B849267CC01754AA418F3DF0D50183727E164506249B1EC174D6E1ECB9A0F5D7D785E68DB8151CD286E5A5363CA6B8A39E90D36D40E96B086F55A43A544F52B1D7B86D517504B0304140006080800B670623B2FA3FEDE290100001202000031
310
0000006662782F45374635344235342D363743322D343832342D383044432D4334454645303536354442422F636F72652E786D6C8D515B6EC32010BC0AE22B55850D2E386E848994D7097A0117488A1283C5A3CAF10BB523B57FF961D1ECCCECC0F2ED7DBC816FED8371B687A4C210682B9D32F6D2C314CFA883602BB8772E
310
FEA141608751F7B0C050F08B77695A20E96CD43666D43AA5177008414708E42D5F7A18E4971E876A483133C2B59A06791D2EBA22556E679EE021FA1C00CC43CA09C5717D6274C7286AD7FB06D1AEA1A8C3873DDAD3E3E98859CB0EBB1DAF67A1E02919B5C88DCA71CCD968FFAC49110B1ECDF8882FBD1EA256503418BF2342
310
106E3E08DD60B6A1EC15771B8C795DE8FF4469524F8A92B1F1AD59E2CEB20005E1F5DC105CB9F4797B84D1F7C9F908CABC55D0F2050A5C61CC1AD2F27A26E6E767C7962E8E213A9FBF7775FDCC5CC266DB960A5E970DE5F2BBBE5CCB36C50F504B0304140006080800B670623B1B8617914E01000033030000300000006662
310
782F45374635344235342D363743322D343832342D383044432D4334454645303536354442422F636E782E786D6CD593C16EC32010447F0571AD6CE3D489D20813A9877E410FBD62D82434182CC055F3F75D1292E692438FBD206B7698593D61BEFD1E2DF982108D773D6D6B460938E5B571FB9ECE6957AD29D90A1EBC4F77
310
364A9C1CA1A759A682EF839FA72269D8C9D92654AD71C72206887E0E0A22CAF926B15E498B01E0AA19451807D01A34B919F16B070157417138917400F2F6FA41FCF0092A45DEE414C19BDC21783E4BD39D891265658C3D8DEA00A3ACE59CBC8678ACB54CB26EEB6BD7839D7E9348BE70AD9C8321B9BCA7F9A4A26C542347DE
310
E050F09802D22BA6749A800A394DD62899107273365E3C82CFC6A55557BC06C10774B7ABE7AEC3B0F34CF06446280E154026D0542C187BA9DAB6628BF7B6DBB0E5A65B3EB1F58631DE64BBE083F7B65CC218087E22CABB042E51D1F2268F1FE12B3EA24D40D63E9CFE00120194D60B9D5BC67FE6D39CDF37E20AF817881F50
310
4B0304140006080800B670623B29652116630500003C100000340000006662782F45374635344235342D363743322D343832342D383044432D4334454645303536354442422F6F626A656374732E786D6CAD575D739B3814FD2B0CFB0C989834C90EA1639B24E3E9A6EDD4D3CE3E64C623834CD8006224913AFDF57B040203
310
B65BEF871F0C12D2FD3CF7E8CA7FBFCB33E3957291B2E2D674ED8969D02262715A24B76625B7D6B569BC0F7CCE98EC2D338D82E4F4D654D366E0279C55A59E8AE99654991CCDDECFFF3444440B6A1A514684B83545F44C7362934AB2988A173B2692D8C97667BB76B3702836E1A47C1E092D09A78584A5982F20C5688C7287
310
C389E904BEA3BE07BEFAD7ABA6A75739B53F43FD69212429A20365233153D70BEF2E2E6FAC4BCF9B5ADEBB0BD79ADFCF43CBBD9A4E16EF168B9BD9DD0D140BC921495BC2E9D60C1E101B9E46BED37CEA2CD6861F3329624541A3DA7F7858DBAC25C6B4A4458C3CA654405BCFEBC970E8AAD8F43E4FD558ABEC4F9FE7557F47
310
4F506B7BFBEC5BCA367FC105710E2AB8A00A554D7CB4A30DFE26FBA86D18CBF4B75418399194A72433B274C3097F33032C554B027F2046A1932B842B0FCCC0DDCBEBDB8AD2F835768F59B9ADB24C41D30C6A64AF817F2A456D59FA83F2E3DA60137255A585BCD60EC9B7929AC18DEFD49381AF1ED30BFDB109A4B1CD488294
310
C3CDE6EBC8D185AABD6568061FEE37BB95AAC7E3CA4BCE4ACAA5820FA0D526AE7DAA2869B5EE5999531BE0CC20E6FBA07C41E43FA27CF7A6206F3CDD793B4F6B919C1462CB788EDCD893FA674CDA17AB7B3B7C019F8D561FAEE966FED562DFE98C1D12C6A9FC015C2A35D7FF3D7FC398F591DA4B5FE0BFA2C0189FEA50AE22
310
92817A1ED3020951A03432862970F976B33383259812CC8E5D240BBA801CBCF8CE2BBEE3BF910DB6AAD5F79E05123AE2DB33981FB1ACCB02B69D00CB014FD68AB573A7627EF9BFD4CC2C5C7D58557C4B22FAA88925A4DBB44825CECE3D78FB060D1231F0E885BE7D673C86A3874958F593906B5502D1563157814FDAC3420D
310
F69A070A22EC4B98E23CFF171A1E5311D12C23056555ABA53B8614563B92D17D02AAB009E8F46284624E5F53D5490C560CCCC2591FF1B45421EB0EBD8EA7ED13BE7C5D7E0428CD60FEF60779EB13E6664FF711CB185F6FDED60D139A001FF60CD1FD6D086F1D51474901E26B2CB794A343BC8ED3EDB612E0DD2351FCB65CF4
310
33D511C9E14B5B40ADC6A6263DB0336A8F700DDF56271A024E70B0B3629DE21847591E55DED73D56206AB927E46FAABC5C939C55853C274C93D69FD6FA4E78BF8B11DF898C9ECD60553FAD39283BA6F18984AA23E8884F83F45C5F5F859797B31B2B9C84A1E5B9DE9D35BFF25C6B76152E422F9C5DCC3D847F5801ED09D5AF
310
41441327A25FF15487F9EB725FB666F048A4701E9A827292E6F97569A32DF61DEC01C0BB8DCBBCCC684E0B49147C1FD54BF685A0AB18C868E6973949E819523E3DAC463660E68C7D9F55A9D1EFA3BD7A76A16AE1A810F95CE59B82A4D968A376DC2E8B44BBDD86B27B368CDE0ED548C7137DA860591A83706223A12CA712B4
310
7306DBF39C0A20A6DF95C7FAF670C6EED7A61F946493D1D6926782963813403548A78AE470DEF80D2D9CEAA26E4D1C76F60BFE74219A06527D6B82DF641A51616F703CAAC6A7160E08A00BEB4810A0274592A1B36E3675E36E978A0DE80727A0D6DF2D39A75BD27E0D8837276589537B40ABB56D5A41F48F1C6FCD3188C4EB
310
A6929D2FFB89CE995A4D00AE813BDD032DC48B56BD437DFDDC2DD7AED70C2272D63DE9A72068A45A92F0A4BE17A8A06B9366E16707AD80B1FC649459952097E74BB23805982B55E0401150A165964402AA8BDF9F3E7386BB686EDCA780C0D382E5392BF460A6EFB2C6EA1937D3F809B440D5F5435C4C5CF7A9EEFAF54564BD
310
2182DA24162F98680B4E7930C21A0079709CEAEB99A372305ABE0C0D7D6078105A83F6A0296DAEE1068A47DD1C55A9F4C9B2FC69E3EFD44B81028E963DF81B504B0304140006080000B670623B000000000000000000000000350000006662782F45374635344235342D363743322D343832342D383044432D433445464530
310
3536354442422F76657274696365732E62696E504B0304140006080800B670623BF270F1330600000004000000360000006662782F45374635344235342D363743322D343832342D383044432D4334454645303536354442422F747269616E676C65732E62696E636660600000504B0304140006080000B670623B00000000
310
0000000000000000370000006662782F45374635344235342D363743322D343832342D383044432D4334454645303536354442422F617474726962757465732E62696E504B0304140006080800B670623B08DA0BD19000000041010000360000006662782F45374635344235342D363743322D343832342D383044432D4334
310
454645303536354442422F6469726563746F72792E786D6C858F410AC3201045AF22B36F53E9A60B35CBEEBAE80D244E44489C6234F4F835464A48035D0DF398FF9F8AF63D0E6CC63039F212F8F9020C7D47C6792B21C5FE7403D62A1188E2E60C98D7234A5830286103A55745067B9D86B8A3CF9C7F90C11DE607FB144396
310
D7B6A82D282E9A152AD114D5EF2CB866EEE831B8EEA07A7BB5A8D7D61A2BAAEB7FD5F70921FF497D00504B0304140006080800B670623B6378F24DFF000000A00100003B0000006662782F45374635344235342D363743322D343832342D383044432D4334454645303536354442422F7265736F75726365732F636F72652E
310
786D6C8D504B6E833010BD0A9A6D65B0094E42641C85B639412F6099496225D8C89FAAC7AF09546A77DDCC8CDE47F3F4C4F16B7C149FE88371B603565228D06A37187BED20C50BD9437194C23B177FC9A0B06AC40E6618A4B87A97A615D2CE46B431A3D60DB8822A048C50E8473E3A08FA86A32A558A5911EEE5A4F45D5DB1
310
6465A6B34E8A107D0E502C4FE609D26370C96B0CA25A58295232C3AA3143FE692E063D485EF7F5AEE71BD2D2F39634AFFC44DAF7DD9E9CCE6F9CD25DCBFA762BAAD92C4534E34F46ED51451C40D694B6843142EB0FD61C283F34FC85EE0F948A6A96FF31A569F8A729191B37F51A77B105902C0779125254735F793DCBCC7B
310
EE567E03504B010214000A0000080000B670623B3DEE336E79000000790000001B00000000000000000000000000000000006175746F6465736B2D64657369676E2D7061636B6167652E786D6C504B01021400140006080800B670623BD486FD9CA0000000F40000001300000000000000000000000000B20000005B436F6E
310
74656E745F54797065735D2E786D6C504B01021400140006080800B670623BBC1638F5EC0000007C010000080000000000000000000000000083010000636F72652E786D6C504B01021400140006080800B670623B55019EA25F0000007C000000070000000000000000000000000095020000636E782E786D6C504B010214
310
00140006080800B670623B3586FFB671010000D40300000C00000000000000000000000000190300006662782F636F72652E786D6C504B01021400140006080800B670623B4220A0FF7D0000009D0000000B00000000000000000000000000B40400006662782F636E782E786D6C504B01021400140006080800B670623B2F
310
A3FEDE290100001202000031000000000000000000000000005A0500006662782F45374635344235342D363743322D343832342D383044432D4334454645303536354442422F636F72652E786D6C504B01021400140006080800B670623B1B8617914E010000330300003000000000000000000000000000D2060000666278
310
2F45374635344235342D363743322D343832342D383044432D4334454645303536354442422F636E782E786D6C504B01021400140006080800B670623B29652116630500003C10000034000000000000000000000000006E0800006662782F45374635344235342D363743322D343832342D383044432D4334454645303536
310
354442422F6F626A656374732E786D6C504B01021400140006080000B670623B0000000000000000000000003500000000000000000000000000230E00006662782F45374635344235342D363743322D343832342D383044432D4334454645303536354442422F76657274696365732E62696E504B01021400140006080800
310
B670623BF270F13306000000040000003600000000000000000000000000760E00006662782F45374635344235342D363743322D343832342D383044432D4334454645303536354442422F747269616E676C65732E62696E504B01021400140006080000B670623B0000000000000000000000003700000000000000000000
310
000000D00E00006662782F45374635344235342D363743322D343832342D383044432D4334454645303536354442422F617474726962757465732E62696E504B01021400140006080800B670623B08DA0BD190000000410100003600000000000000000000000000250F00006662782F45374635344235342D363743322D34
310
3832342D383044432D4334454645303536354442422F6469726563746F72792E786D6C504B01021400140006080800B670623B6378F24DFF000000A00100003B00000000000000000000000000091000006662782F45374635344235342D363743322D343832342D383044432D4334454645303536354442422F7265736F75
310
726365732F636F72652E786D6C504B0506000000000E000E0080040000611100000000
  0
XRECORD
  5
416
102
{ACAD_REACTORS
330
110
102
}
330
110
100
AcDbXrecord
280
     1
102
MATERIAL
148
0.0
149
0.0
149
0.0
 93
        0
 94
      127
282
     0
 72
     1
 77
     1
171
     1
175
     1
179
     1
273
     0
  0
XRECORD
  5
112
102
{ACAD_REACTORS
330
110
102
}
330
110
100
AcDbXrecord
280
     1
270
     1
271
     1
  0
XRECORD
  5
111
102
{ACAD_REACTORS
330
110
102
}
330
110
100
AcDbXrecord
280
     1
270
     1
271
     1
  0
XRECORD
  5
18A
102
{ACAD_REACTORS
330
110
102
}
330
110
100
AcDbXrecord
280
     1
 70
     0
 90
1778669749
  1
9BF507EE-FAF7-4A99-A33D-4EE51894BC40
310
504B03040A0000080000B670623B3DEE336E79000000790000001B0000006175746F6465736B2D64657369676E2D7061636B6167652E786D6C3C3F786D6C2076657273696F6E3D22312E302220656E636F64696E673D227574662D3822203F3E3C666F726D6174733E3C666F726D61743E687474703A2F2F736368656D612E
310
6175746F6465736B2E636F6D2F64657369676E2D7061636B6167652F323030393C2F666F726D61743E3C2F666F726D6174733E504B0304140006080800B670623BD486FD9CA0000000F4000000130000005B436F6E74656E745F54797065735D2E786D6C7D8EC10E82300C865F65E91D8A1E8C310C0EEA1BF002731658846E
310
D98AC1B77784ABF1D8FE5FBFBF75BBCE937A534CCEB38643598122B6FEE978D0B0485F9C41B54DDD7D022595594E1A469170414C76A4D9A4D207E29CF43ECE46F218070CC6BECC4078ACAA135ACF422C856C0E68EA1BF5669944DDD7BCDE7B1F8E415D77AECB980613C2E4AC91FC167A2B244592486606FC29C8FD7F045B9A
310
EF7053A7E60B504B0304140006080800B670623BCA089DFFEC0000007C01000008000000636F72652E786D6C8D90416E83301045AF62CDB632D8402020E32882F604BD80653BC44AB011B6AB1EBF262152BBEB6A467FFE9B197D76FA9EEFE84BAFDE38DB03CD08206DA553C64E3DC470C1474027CE56E7C22F1B202B66DDC3
310
260367D3EAE2B24BD2D9A06D48AA754AEFA2F05E0740F29E9A1EBCBCEA59642286E4F0B76C11F226269DD15797E0188D42CF2346A57DE662F40ABCAEC77628C6120F654571D50C04B7F5B9C1E3997CD4F550BE3745C3F20DE62C98F9755FAE5A04AD801784B498524C8A4F5A75E4D055873772EC0861F966FF03C545FD138A
310
C686B2D8DF7D621E384D8F3C069CE55B16A93C824A75CB8DFF00504B0304140006080800B670623B55019EA25F0000007C00000007000000636E782E786D6C4DCB3B0E80201045D1AD90E915ED2CF8AC45050C11660C8261F98AB1B07AC9C97D42D718D865D3E909258CFD00CCE24AC6E326A164D74DC0B4128928FF326038
310
472BA13128B1252AC747C6BAB984FC68F0B87FE8960A5C09FE86CFB69FBA01504B0304140006080800B670623B68FC0B7272010000D40300000C0000006662782F636F72652E786D6CC5535B6E833010BC8AE5DF0A6C1E8124328E22D29EA01770C0A128602363A31CBFCB234A53A555FA553EC09AD9F5CE8C31DB5DDA060D
310
D2F4B556190E7C8A9154852E6B5565D8D993B7C668C799D1DA7E29C3488956667884316795D1AE5BA0422B2B950554E9522EA0E87B69312A1A5864B82F3E642B7CE12C54F467BF13C55954D20F7CA0A18EB3DE1A1080E621E31BF3D3F1C2C88C73E65C5D2E6C5DC2B4FA544B8379921C36797888BC3C8A032F4E73EA6D927D
310
EA1DF6F42D49F2E8350D5346C666CE6CDD5ED515460A2B4BCC434A375E1078347C0FE22D5D6DE3D50B5D6F2965642CBF6B725DF96493AB958DC245EEDCD6631E809089F8E61622B2A81703E8219C913144F84C09DF070D8140C8561C9BAB8F3340832CAC363130A576376A108D933095FA747AD0CF0B46E64E983A6D0EAE1F
310
CE089F9EF1FB8E70D44255604258581E9D1D75B259C3125A278D37D80B52DAB4A279CEC62F0EFF44DDC43F9454E8469BFF5244960322CBEF41C6FBC83F01504B0304140006080800B670623B0F71DDB67E0000009D0000000B0000006662782F636E782E786D6C4DCCD10A83201886E15B91FFDCA54DB73F502386BB8F5816
310
32D3703976F9ABD1C18E3E78F87855FB990379BBFCF2296AE02706C4C5471A7C9C349475A408A4352AA7B4FEDD80C47E761A7606A3A69CCA72D0E0C6BE8475D3E0E3F3409428EA6B27A84079A782899AA2EC1A7AE3ECCC2FD858CB2D544655BFD2B67BD87C01504B0304140006080800B670623BE134B4FB28010000120200
310
00310000006662782F38353834323741342D343835462D343034322D383541392D4331303331363839454531452F636F72652E786D6C8D515B6EC32010BC0AE22B55850D0EA424C24451959EA0172086A42831583CAA1CBF503B52FB971F16CDCECC0EACD8DFC71BF836215AEF7A481A0C817183D7D65D7A98D3197108F652
310
04EFD31F1A044E8DA6871586525C82CFD3020DDE25E352419DD76601558C264130DCCAA58771F832A36A544E8511AFCDA486ABBA988634A55D7852C4144A00300FA927949C71DABD1D28A29C7D208A6987383B6CD13BC16BB2E1DBE3911C453B0BA5C8D9EA456E758963CFD684674DAA588A64C747FC2118958C86B2C3788B
310
0841B8FB247487D98EB257CC77188BB6D2FF89F2A49F1465EBD2BA5BE2CEB2082511EDDC9042FB7CBA3DC298FBE4430275DE2A9AE1054ADC60CC08E3A29D89E5F9C5714317C7987C28DFBBBA9E0A97B0D97643A568EB864AF95D5FA9759BF207504B0304140006080800B670623B1B8617914E010000330300003000000066
310
62782F38353834323741342D343835462D343034322D383541392D4331303331363839454531452F636E782E786D6CD593C16EC32010447F0571AD6CE3D489D20813A9877E410FBD62D82434182CC055F3F75D1292E692438FBD206B7698593D61BEFD1E2DF982108D773D6D6B460938E5B571FB9ECE6957AD29D90A1EBC4F
310
77364A9C1CA1A759A682EF839FA72269D8C9D92654AD71C72206887E0E0A22CAF926B15E498B01E0AA19451807D01A34B919F16B070157417138917400F2F6FA41FCF0092A45DEE414C19BDC21783E4BD39D891265658C3D8DEA00A3ACE59CBC8678ACB54CB26EEB6BD7839D7E9348BE70AD9C8321B9BCA7F9A4A26C542347
310
DEE050F09802D22BA6749A800A394DD62899107273365E3C82CFC6A55557BC06C10774B7ABE7AEC3B0F34CF06446280E154026D0542C187BA9DAB6628BF7B6DBB0E5A65B3EB1F58631DE64BBE083F7B65CC218087E22CABB042E51D1F2268F1FE12B3EA24D40D63E9CFE00120194D60B9D5BC67FE6D39CDF37E20AF817881F
310
504B0304140006080800B670623B5933D422630500003B100000340000006662782F38353834323741342D343835462D343034322D383541392D4331303331363839454531452F6F626A656374732E786D6CAD575B6FA33814FE2B887D0642934E9B156594264D158D3A534DD4D13E548A0C38942D60649B4EBABF7E3F8321
310
40924EF6928780CDF1B97EE762EFF32E4B8D37CA45C2F21BD3B547A641F39045491EDF98A5DC5AD7A6F1D9F73863B243661A39C9E88DA9B64DDF8B392B0BBD15D12D295339D85DDEFE618890E6D434C2940871638AF08566C426A5641115AF764424B1E3EDCE76ED9AB0CF36E6A47819302D08A7B984A6D8CFC1C5A89572FB
310
CB91E9F89EA3BEFB9EFAD754E3D3544E654F5F7E920B49F2F040D880CDD89D2CEE2E2EA7D6E56432B6269F2E5CEB7679BBB0DCABF168FE693E9FCEEEA6102C240727AD09A75BD3BF876F78127A4EFDA9D5582B7E4CA590E5390D2BFB6161A5B3E618D182E611E2985001691DAB47FDA5AB7CD3F93C566B2DB2BB7D9E55DD13
310
1D468DEECDB3AB290BFE8409E21C54704115AA6AFF68436BFC8DF65E0B184BF5B74418199194272435D224E084BF9B3E481589EFF5D828747285706581E9BB7B7E5D5D911ABFC6EE312DB7659A2A689A7E85EC0DF04FA5A8344BFEA2FCB834E8845895492EAFB541F2BDA0A63FF59C6AD3F7D4637CA13FD68E34B629891172
310
98597F1D183A57B9B75A98FE9765B05BAB7C3C2EBCE0ACA05C2AF8005A4DE09AA7F29216EB9E15397500C6F47CBE77CA7778FE2BD277AF0AE2C693DD6437D1522427B9D8329E2136F6A8FA19A3E6C56ADF0E5F50CF06D48734EDCEBF22F69C56D97EC138153F804B85E6FABFC7AFEFB32E523BE1F3BD372418E363EDCA7548
310
52949E8724474014288D94610BB57C1BEC4C7F854A89CA8E5324F55B871CBC78CE1BBEE3BFE68D6A5589EF3C730474506FCFA8FCF0659516D0ED04580EEA6425581B77CAE797FF4BCECC16EB2FEB926F49481F746159D06D922712BD730FDEAE42BD40F42C7AA5EF3F198F60E86110D6DD20645A9480B795CF95E3E3A659A8
310
C55E724F408873315335CFFB8584874484344D494E59D94869DB90C26A5B64F49C802CAC1D3ABE18A098D3B7444D123D8A9E5AE8F5214F0AE5B2B6E9B575DA3E61CBD3EA2B4009FA940524DD1305FB6A1FB294F14DF0BEA90BA109ECE1481FDC3FFAE8D60E75141700BE82725371B4873751B2DD960265F788137FACE6DD40
310
B575E4F0A5C99F46629D92131467A41EE11ABD8D4CCC039CA0AFB37C93A08B232B8F0AEFCA1E0A1015DF13FC83322B362463652ECF71D3A8B1A7D1BE65DE1D62C44F22C317D35F574FEB16153BA2D13E543D10A80E74C4A65E78A6B7CBCBD1D5DD9DB59C2DAFACC96C3AB566E3F1C29ADCDD5DBAD7D3C9ED7C822ED74F80A6
310
41755310DE4443F44A9E68373FADF6596BFA0F440AE7BECE2727AE9F4F2B1B53B1E7E00CF0DD1E5C65454A339A4BA2D0FBA05ED2EF0443458F47BDBFCA484CCFE0F2ED7E3DD0013B679C7B5499467F0ECEEADDB9CA85A34CE44B99053949D2C1416DB85DE4B136BB7165FBAC0B7AB3542BED4F8CA182A549847A1319316519
310
95A83A67147B9E5101C47487F2485F1ECE38FD568F839204296D3479219888530154036E6528FBFBC66F98E0D4107563A2D7D9AFF8D389681A08F58D89F22693900A3B407754734FC51C10C010D6D640809EE4718AC1BA3ED4AEDB53CA37283F68805A7E4B72CEB0A4EDEAD5DD8C14059A76AFAA56BA6901E13F32BC51C720
310
12AF41295B5BF61BAD3195181FB506E6B40F4C10AF5AF40EF9F5B159AE5DD1F43C72D635E94310D45C2D49785C5D0B94D3B54AB3C5A38349C0587D338AB48C11CBF339599C02CCA54A70A008A8D03C0B2201D5F9EFCF8F9CE12A9A19CB0410789EB32C63B95ECCF455D658BFE0621A3DA32C5075FB101723D77DAE867E7D0F
310
D90444509B44E2151B4DC2290B065803200FBAA9BE9D392A0603F2D5C2D00D6302A615680F66D2FA166E2079D4C551A54AB758161FCEFD4E450A14704CECFEDF504B0304140006080000B670623B000000000000000000000000350000006662782F38353834323741342D343835462D343034322D383541392D4331303331
310
363839454531452F76657274696365732E62696E504B0304140006080800B670623BF270F1330600000004000000360000006662782F38353834323741342D343835462D343034322D383541392D4331303331363839454531452F747269616E676C65732E62696E636660600000504B0304140006080000B670623B000000
310
000000000000000000370000006662782F38353834323741342D343835462D343034322D383541392D4331303331363839454531452F617474726962757465732E62696E504B0304140006080800B670623B08DA0BD19000000041010000360000006662782F38353834323741342D343835462D343034322D383541392D43
310
31303331363839454531452F6469726563746F72792E786D6C858F410AC3201045AF22B36F53E9A60B35CBEEBAE80D244E44489C6234F4F835464A48035D0DF398FF9F8AF63D0E6CC63039F212F8F9020C7D47C6792B21C5FE7403D62A1188E2E60C98D7234A5830286103A55745067B9D86B8A3CF9C7F90C11DE607FB1443
310
96D7B6A82D282E9A152AD114D5EF2CB866EEE831B8EEA07A7BB5A8D7D61A2BAAEB7FD5F70921FF497D00504B0304140006080800B670623BD9A3B367FE000000A00100003B0000006662782F38353834323741342D343835462D343034322D383541392D4331303331363839454531452F7265736F75726365732F636F7265
310
2E786D6C8D504B6E833010BD0A9A6D65B01D0201194711694FD00B586642AD043BF2A7EAF16B122AB5BB6E6646EFA3797AE2F8B5DC8A4FF4C1383B002B291468B59B8C9D0748F1420E501CA5F0CEC55F3228AC5A708015062966EFD27D83B4B3116DCCA875136EA00A012314FA968F0182FEC045952AC5AC08D7F2AEF455CD
310
58B232D3592745883E07289E4FD609D26370C96B0CA27AB252A464A64D63A6FCD35C0C7A904D73EE467EE664DCD58CD4ED4849D79C5A723ED1B7A61977AF2D6F45B59AA58866F9C9A83DAA8813484E6947182394BFB3BAA7FBBEDEBFD0434FA9A856F91F53BA4FFF342563E38E6F719FB60092E5200F428A6AED2BAF479979
310
AFDDCA6F504B010214000A0000080000B670623B3DEE336E79000000790000001B00000000000000000000000000000000006175746F6465736B2D64657369676E2D7061636B6167652E786D6C504B01021400140006080800B670623BD486FD9CA0000000F40000001300000000000000000000000000B20000005B436F6E
310
74656E745F54797065735D2E786D6C504B01021400140006080800B670623BCA089DFFEC0000007C010000080000000000000000000000000083010000636F72652E786D6C504B01021400140006080800B670623B55019EA25F0000007C000000070000000000000000000000000095020000636E782E786D6C504B010214
310
00140006080800B670623B68FC0B7272010000D40300000C00000000000000000000000000190300006662782F636F72652E786D6C504B01021400140006080800B670623B0F71DDB67E0000009D0000000B00000000000000000000000000B50400006662782F636E782E786D6C504B01021400140006080800B670623BE1
310
34B4FB280100001202000031000000000000000000000000005C0500006662782F38353834323741342D343835462D343034322D383541392D4331303331363839454531452F636F72652E786D6C504B01021400140006080800B670623B1B8617914E010000330300003000000000000000000000000000D3060000666278
310
2F38353834323741342D343835462D343034322D383541392D4331303331363839454531452F636E782E786D6C504B01021400140006080800B670623B5933D422630500003B10000034000000000000000000000000006F0800006662782F38353834323741342D343835462D343034322D383541392D4331303331363839
310
454531452F6F626A656374732E786D6C504B01021400140006080000B670623B0000000000000000000000003500000000000000000000000000240E00006662782F38353834323741342D343835462D343034322D383541392D4331303331363839454531452F76657274696365732E62696E504B01021400140006080800
310
B670623BF270F13306000000040000003600000000000000000000000000770E00006662782F38353834323741342D343835462D343034322D383541392D4331303331363839454531452F747269616E676C65732E62696E504B01021400140006080000B670623B0000000000000000000000003700000000000000000000
310
000000D10E00006662782F38353834323741342D343835462D343034322D383541392D4331303331363839454531452F617474726962757465732E62696E504B01021400140006080800B670623B08DA0BD190000000410100003600000000000000000000000000260F00006662782F38353834323741342D343835462D34
310
3034322D383541392D4331303331363839454531452F6469726563746F72792E786D6C504B01021400140006080800B670623BD9A3B367FE000000A00100003B000000000000000000000000000A1000006662782F38353834323741342D343835462D343034322D383541392D4331303331363839454531452F7265736F75
310
726365732F636F72652E786D6C504B0506000000000E000E0080040000611100000000
  0
XRECORD
  5
113
102
{ACAD_REACTORS
330
110
102
}
330
110
100
AcDbXrecord
280
     1
270
     1
271
     1
  0
XRECORD
  5
114
102
{ACAD_REACTORS
330
110
102
}
330
110
100
AcDbXrecord
280
     1
270
     1
271
     1
  0
XRECORD
  5
455
102
{ACAD_REACTORS
330
454
102
}
330
454
100
AcDbXrecord
280
     1
102
ACAD_ROUNDTRIP_2012_MLEADER_STYLE
298
     1
  0
CELLSTYLEMAP
  5
453
102
{ACAD_REACTORS
330
104
102
}
330
104
100
AcDbCellStyleMap
 90
        3
300
CELLSTYLE
  1
TABLEFORMAT_BEGIN
 90
        5
170
     1
 91
        0
 92
    32768
 62
   257
 93
        1
300
CONTENTFORMAT
  1
CONTENTFORMAT_BEGIN
 90
        0
 91
        0
 92
      512
 93
        0
300

 40
0.0
140
1.0
 94
        5
 62
     0
340
11
144
0.25
309
CONTENTFORMAT_END
171
     1
301
MARGIN
  1
CELLMARGIN_BEGIN
 40
0.06
 40
0.06
 40
0.06
 40
0.06
 40
0.18
 40
0.18
309
CELLMARGIN_END
 94
        6
 95
        1
302
GRIDFORMAT
  1
GRIDFORMAT_BEGIN
 90
        0
 91
        1
 62
     0
 92
       -2
340
0
 93
        0
 40
0.045
309
GRIDFORMAT_END
 95
        2
302
GRIDFORMAT
  1
GRIDFORMAT_BEGIN
 90
        0
 91
        1
 62
     0
 92
       -2
340
0
 93
        0
 40
0.045
309
GRIDFORMAT_END
 95
        4
302
GRIDFORMAT
  1
GRIDFORMAT_BEGIN
 90
        0
 91
        1
 62
     0
 92
       -2
340
0
 93
        0
 40
0.045
309
GRIDFORMAT_END
 95
        8
302
GRIDFORMAT
  1
GRIDFORMAT_BEGIN
 90
        0
 91
        1
 62
     0
 92
       -2
340
0
 93
        0
 40
0.045
309
GRIDFORMAT_END
 95
       16
302
GRIDFORMAT
  1
GRIDFORMAT_BEGIN
 90
        0
 91
        1
 62
     0
 92
       -2
340
0
 93
        0
 40
0.045
309
GRIDFORMAT_END
 95
       32
302
GRIDFORMAT
  1
GRIDFORMAT_BEGIN
 90
        0
 91
        1
 62
     0
 92
       -2
340
0
 93
        0
 40
0.045
309
GRIDFORMAT_END
309
TABLEFORMAT_END
  1
CELLSTYLE_BEGIN
 90
        1
 91
        1
300
_TITLE
309
CELLSTYLE_END
300
CELLSTYLE
  1
TABLEFORMAT_BEGIN
 90
        5
170
     1
 91
        0
 92
        0
 62
   257
 93
        1
300
CONTENTFORMAT
  1
CONTENTFORMAT_BEGIN
 90
        0
 91
        0
 92
      512
 93
        0
300

 40
0.0
140
1.0
 94
        5
 62
     0
340
11
144
0.18
309
CONTENTFORMAT_END
171
     1
301
MARGIN
  1
CELLMARGIN_BEGIN
 40
0.06
 40
0.06
 40
0.06
 40
0.06
 40
0.18
 40
0.18
309
CELLMARGIN_END
 94
        6
 95
        1
302
GRIDFORMAT
  1
GRIDFORMAT_BEGIN
 90
        0
 91
        1
 62
     0
 92
       -2
340
0
 93
        0
 40
0.045
309
GRIDFORMAT_END
 95
        2
302
GRIDFORMAT
  1
GRIDFORMAT_BEGIN
 90
        0
 91
        1
 62
     0
 92
       -2
340
0
 93
        0
 40
0.045
309
GRIDFORMAT_END
 95
        4
302
GRIDFORMAT
  1
GRIDFORMAT_BEGIN
 90
        0
 91
        1
 62
     0
 92
       -2
340
0
 93
        0
 40
0.045
309
GRIDFORMAT_END
 95
        8
302
GRIDFORMAT
  1
GRIDFORMAT_BEGIN
 90
        0
 91
        1
 62
     0
 92
       -2
340
0
 93
        0
 40
0.045
309
GRIDFORMAT_END
 95
       16
302
GRIDFORMAT
  1
GRIDFORMAT_BEGIN
 90
        0
 91
        1
 62
     0
 92
       -2
340
0
 93
        0
 40
0.045
309
GRIDFORMAT_END
 95
       32
302
GRIDFORMAT
  1
GRIDFORMAT_BEGIN
 90
        0
 91
        1
 62
     0
 92
       -2
340
0
 93
        0
 40
0.045
309
GRIDFORMAT_END
309
TABLEFORMAT_END
  1
CELLSTYLE_BEGIN
 90
        2
 91
        1
300
_HEADER
309
CELLSTYLE_END
300
CELLSTYLE
  1
TABLEFORMAT_BEGIN
 90
        5
170
     1
 91
        0
 92
        0
 62
   257
 93
        1
300
CONTENTFORMAT
  1
CONTENTFORMAT_BEGIN
 90
        0
 91
        0
 92
      512
 93
        0
300

 40
0.0
140
1.0
 94
        2
 62
     0
340
11
144
0.18
309
CONTENTFORMAT_END
171
     1
301
MARGIN
  1
CELLMARGIN_BEGIN
 40
0.06
 40
0.06
 40
0.06
 40
0.06
 40
0.18
 40
0.18
309
CELLMARGIN_END
 94
        6
 95
        1
302
GRIDFORMAT
  1
GRIDFORMAT_BEGIN
 90
        0
 91
        1
 62
     0
 92
       -2
340
0
 93
        0
 40
0.045
309
GRIDFORMAT_END
 95
        2
302
GRIDFORMAT
  1
GRIDFORMAT_BEGIN
 90
        0
 91
        1
 62
     0
 92
       -2
340
0
 93
        0
 40
0.045
309
GRIDFORMAT_END
 95
        4
302
GRIDFORMAT
  1
GRIDFORMAT_BEGIN
 90
        0
 91
        1
 62
     0
 92
       -2
340
0
 93
        0
 40
0.045
309
GRIDFORMAT_END
 95
        8
302
GRIDFORMAT
  1
GRIDFORMAT_BEGIN
 90
        0
 91
        1
 62
     0
 92
       -2
340
0
 93
        0
 40
0.045
309
GRIDFORMAT_END
 95
       16
302
GRIDFORMAT
  1
GRIDFORMAT_BEGIN
 90
        0
 91
        1
 62
     0
 92
       -2
340
0
 93
        0
 40
0.045
309
GRIDFORMAT_END
 95
       32
302
GRIDFORMAT
  1
GRIDFORMAT_BEGIN
 90
        0
 91
        1
 62
     0
 92
       -2
340
0
 93
        0
 40
0.045
309
GRIDFORMAT_END
309
TABLEFORMAT_END
  1
CELLSTYLE_BEGIN
 90
        3
 91
        2
300
_DATA
309
CELLSTYLE_END
  0
XRECORD
  5
457
102
{ACAD_REACTORS
330
104
102
}
330
104
100
AcDbXrecord
280
     1
102
ACAD_ROUNDTRIP_PRE2007_TABLESTYLE
 90
      512
 91
        0
  1

 92
      512
 93
        0
  2

 94
      512
 95
        0
  3

  0
XRECORD
  5
463
102
{ACAD_REACTORS
330
462
102
}
330
462
100
AcDbXrecord
280
     1
102
RTVSPropertyOp0
 70
     1
102
RTVSPropertyOp1
 70
     1
102
RTVSPropertyOp2
 70
     1
102
RTVSPropertyOp3
 70
     1
102
RTVSPropertyOp4
 70
     1
102
RTVSPropertyOp5
 70
     1
102
RTVSPropertyOp6
 70
     1
102
RTVSPropertyOp7
 70
     1
102
RTVSPropertyOp8
 70
     1
102
RTVSPropertyOp9
 70
     1
102
RTVSPropertyOp10
 70
     1
102
RTVSPropertyOp11
 70
     1
102
RTVSPropertyOp12
 70
     1
102
RTVSPropertyOp13
 70
     1
102
RTVSPropertyOp14
 70
     1
102
RTVSPropertyOp15
 70
     1
102
RTVSPropertyOp16
 70
     1
102
RTVSPropertyOp17
 70
     1
102
RTVSPropertyOp18
 70
     1
102
RTVSPropertyOp19
 70
     1
102
RTVSPropertyOp20
 70
     1
102
RTVSPropertyOp21
 70
     1
102
RTVSPropertyOp22
 70
     1
102
RTVSPropertyOp23
 70
     1
102
RTVSPropertyOp24
 70
     1
102
RTVSPropertyOp25
 70
     1
102
RTVSPropertyOp26
 70
     1
102
RTVSPropertyOp27
 70
     1
102
RTVSPropertyOp28
 70
     1
102
RTVSPropertyOp29
 70
     1
102
RTVSPropertyOp30
 70
     1
102
RTVSPropertyOp31
 70
     1
102
RTVSPropertyOp32
 70
     1
  0
XRECORD
  5
461
102
{ACAD_REACTORS
330
460
102
}
330
460
100
AcDbXrecord
280
     1
102
RTVSPropertyOp0
 70
     1
102
RTVSPropertyOp1
 70
     1
102
RTVSPropertyOp2
 70
     1
102
RTVSPropertyOp3
 70
     1
102
RTVSPropertyOp4
 70
     1
102
RTVSPropertyOp5
 70
     1
102
RTVSPropertyOp6
 70
     1
102
RTVSPropertyOp7
 70
     1
102
RTVSPropertyOp8
 70
     1
102
RTVSPropertyOp9
 70
     1
102
RTVSPropertyOp10
 70
     1
102
RTVSPropertyOp11
 70
     1
102
RTVSPropertyOp12
 70
     1
102
RTVSPropertyOp13
 70
     1
102
RTVSPropertyOp14
 70
     1
102
RTVSPropertyOp15
 70
     1
102
RTVSPropertyOp16
 70
     1
102
RTVSPropertyOp17
 70
     1
102
RTVSPropertyOp18
 70
     1
102
RTVSPropertyOp19
 70
     1
102
RTVSPropertyOp20
 70
     1
102
RTVSPropertyOp21
 70
     1
102
RTVSPropertyOp22
 70
     1
102
RTVSPropertyOp23
 70
     1
102
RTVSPropertyOp24
 70
     1
102
RTVSPropertyOp25
 70
     1
102
RTVSPropertyOp26
 70
     1
102
RTVSPropertyOp27
 70
     1
102
RTVSPropertyOp28
 70
     1
102
RTVSPropertyOp29
 70
     1
102
RTVSPropertyOp30
 70
     1
102
RTVSPropertyOp31
 70
     1
102
RTVSPropertyOp32
 70
     1
  0
XRECORD
  5
46F
102
{ACAD_REACTORS
330
46E
102
}
330
46E
100
AcDbXrecord
280
     1
102
RTVSPropertyOp0
 70
     1
102
RTVSPropertyOp1
 70
     1
102
RTVSPropertyOp2
 70
     1
102
RTVSPropertyOp3
 70
     1
102
RTVSPropertyOp4
 70
     1
102
RTVSPropertyOp5
 70
     1
102
RTVSPropertyOp6
 70
     1
102
RTVSPropertyOp7
 70
     1
102
RTVSPropertyOp8
 70
     1
102
RTVSPropertyOp9
 70
     1
102
RTVSPropertyOp10
 70
     1
102
RTVSPropertyOp11
 70
     1
102
RTVSPropertyOp12
 70
     1
102
RTVSPropertyOp13
 70
     1
102
RTVSPropertyOp14
 70
     1
102
RTVSPropertyOp15
 70
     1
102
RTVSPropertyOp16
 70
     1
102
RTVSPropertyOp17
 70
     1
102
RTVSPropertyOp18
 70
     1
102
RTVSPropertyOp19
 70
     1
102
RTVSPropertyOp20
 70
     1
102
RTVSPropertyOp21
 70
     1
102
RTVSPropertyOp22
 70
     1
102
RTVSPropertyOp23
 70
     1
102
RTVSPropertyOp24
 70
     1
102
RTVSPropertyOp25
 70
     1
102
RTVSPropertyOp26
 70
     1
102
RTVSPropertyOp27
 70
     1
102
RTVSPropertyOp28
 70
     1
102
RTVSPropertyOp29
 70
     1
102
RTVSPropertyOp30
 70
     1
102
RTVSPropertyOp31
 70
     1
102
RTVSPropertyOp32
 70
     1
  0
XRECORD
  5
477
102
{ACAD_REACTORS
330
476
102
}
330
476
100
AcDbXrecord
280
     1
102
RTVSPropertyOp0
 70
     1
102
RTVSPropertyOp1
 70
     1
102
RTVSPropertyOp2
 70
     1
102
RTVSPropertyOp3
 70
     1
102
RTVSPropertyOp4
 70
     1
102
RTVSPropertyOp5
 70
     1
102
RTVSPropertyOp6
 70
     1
102
RTVSPropertyOp7
 70
     1
102
RTVSPropertyOp8
 70
     1
102
RTVSPropertyOp9
 70
     1
102
RTVSPropertyOp10
 70
     1
102
RTVSPropertyOp11
 70
     1
102
RTVSPropertyOp12
 70
     1
102
RTVSPropertyOp13
 70
     1
102
RTVSPropertyOp14
 70
     1
102
RTVSPropertyOp15
 70
     1
102
RTVSPropertyOp16
 70
     1
102
RTVSPropertyOp17
 70
     1
102
RTVSPropertyOp18
 70
     1
102
RTVSPropertyOp19
 70
     1
102
RTVSPropertyOp20
 70
     1
102
RTVSPropertyOp21
 70
     1
102
RTVSPropertyOp22
 70
     1
102
RTVSPropertyOp23
 70
     1
102
RTVSPropertyOp24
 70
     1
102
RTVSPropertyOp25
 70
     1
102
RTVSPropertyOp26
 70
     1
102
RTVSPropertyOp27
 70
     1
102
RTVSPropertyOp28
 70
     1
102
RTVSPropertyOp29
 70
     1
102
RTVSPropertyOp30
 70
     1
102
RTVSPropertyOp31
 70
     1
102
RTVSPropertyOp32
 70
     1
  0
XRECORD
  5
469
102
{ACAD_REACTORS
330
468
102
}
330
468
100
AcDbXrecord
280
     1
102
RTVSPropertyOp0
 70
     1
102
RTVSPropertyOp1
 70
     1
102
RTVSPropertyOp2
 70
     1
102
RTVSPropertyOp3
 70
     1
102
RTVSPropertyOp4
 70
     1
102
RTVSPropertyOp5
 70
     1
102
RTVSPropertyOp6
 70
     1
102
RTVSPropertyOp7
 70
     1
102
RTVSPropertyOp8
 70
     1
102
RTVSPropertyOp9
 70
     1
102
RTVSPropertyOp10
 70
     1
102
RTVSPropertyOp11
 70
     1
102
RTVSPropertyOp12
 70
     1
102
RTVSPropertyOp13
 70
     1
102
RTVSPropertyOp14
 70
     1
102
RTVSPropertyOp15
 70
     1
102
RTVSPropertyOp16
 70
     1
102
RTVSPropertyOp17
 70
     1
102
RTVSPropertyOp18
 70
     1
102
RTVSPropertyOp19
 70
     1
102
RTVSPropertyOp20
 70
     1
102
RTVSPropertyOp21
 70
     1
102
RTVSPropertyOp22
 70
     1
102
RTVSPropertyOp23
 70
     1
102
RTVSPropertyOp24
 70
     1
102
RTVSPropertyOp25
 70
     1
102
RTVSPropertyOp26
 70
     1
102
RTVSPropertyOp27
 70
     1
102
RTVSPropertyOp28
 70
     1
102
RTVSPropertyOp29
 70
     1
102
RTVSPropertyOp30
 70
     1
102
RTVSPropertyOp31
 70
     1
102
RTVSPropertyOp32
 70
     1
  0
XRECORD
  5
46D
102
{ACAD_REACTORS
330
46C
102
}
330
46C
100
AcDbXrecord
280
     1
102
RTVSPropertyOp0
 70
     1
102
RTVSPropertyOp1
 70
     1
102
RTVSPropertyOp2
 70
     1
102
RTVSPropertyOp3
 70
     1
102
RTVSPropertyOp4
 70
     1
102
RTVSPropertyOp5
 70
     1
102
RTVSPropertyOp6
 70
     1
102
RTVSPropertyOp7
 70
     1
102
RTVSPropertyOp8
 70
     1
102
RTVSPropertyOp9
 70
     1
102
RTVSPropertyOp10
 70
     1
102
RTVSPropertyOp11
 70
     1
102
RTVSPropertyOp12
 70
     1
102
RTVSPropertyOp13
 70
     1
102
RTVSPropertyOp14
 70
     1
102
RTVSPropertyOp15
 70
     1
102
RTVSPropertyOp16
 70
     1
102
RTVSPropertyOp17
 70
     1
102
RTVSPropertyOp18
 70
     1
102
RTVSPropertyOp19
 70
     1
102
RTVSPropertyOp20
 70
     1
102
RTVSPropertyOp21
 70
     1
102
RTVSPropertyOp22
 70
     1
102
RTVSPropertyOp23
 70
     1
102
RTVSPropertyOp24
 70
     1
102
RTVSPropertyOp25
 70
     1
102
RTVSPropertyOp26
 70
     1
102
RTVSPropertyOp27
 70
     1
102
RTVSPropertyOp28
 70
     1
102
RTVSPropertyOp29
 70
     1
102
RTVSPropertyOp30
 70
     1
102
RTVSPropertyOp31
 70
     1
102
RTVSPropertyOp32
 70
     1
  0
XRECORD
  5
47D
102
{ACAD_REACTORS
330
47C
102
}
330
47C
100
AcDbXrecord
280
     1
102
RTVSPropertyOp0
 70
     0
102
RTVSPropertyOp1
 70
     0
102
RTVSPropertyOp2
 70
     0
102
RTVSPropertyOp3
 70
     0
102
RTVSPropertyOp4
 70
     0
102
RTVSPropertyOp5
 70
     0
102
RTVSPropertyOp6
 70
     0
102
RTVSPropertyOp7
 70
     0
102
RTVSPropertyOp8
 70
     0
102
RTVSPropertyOp9
 70
     0
102
RTVSPropertyOp10
 70
     0
102
RTVSPropertyOp11
 70
     0
102
RTVSPropertyOp12
 70
     0
102
RTVSPropertyOp13
 70
     0
102
RTVSPropertyOp14
 70
     2
102
RTVSPropertyOp15
 70
     0
102
RTVSPropertyOp16
 70
     0
102
RTVSPropertyOp17
 70
     0
102
RTVSPropertyOp18
 70
     0
102
RTVSPropertyOp19
 70
     0
102
RTVSPropertyOp20
 70
     0
102
RTVSPropertyOp21
 70
     0
102
RTVSPropertyOp22
 70
     0
102
RTVSPropertyOp23
 70
     0
102
RTVSPropertyOp24
 70
     0
102
RTVSPropertyOp25
 70
     0
102
RTVSPropertyOp26
 70
     0
102
RTVSPropertyOp27
 70
     0
102
RTVSPropertyOp28
 70
     1
102
RTVSPropertyOp29
 70
     1
102
RTVSPropertyOp30
 70
     1
102
RTVSPropertyOp31
 70
     1
102
RTVSPropertyOp32
 70
     1
  0
XRECORD
  5
475
102
{ACAD_REACTORS
330
474
102
}
330
474
100
AcDbXrecord
280
     1
102
RTVSPropertyOp0
 70
     1
102
RTVSPropertyOp1
 70
     1
102
RTVSPropertyOp2
 70
     1
102
RTVSPropertyOp3
 70
     1
102
RTVSPropertyOp4
 70
     1
102
RTVSPropertyOp5
 70
     1
102
RTVSPropertyOp6
 70
     1
102
RTVSPropertyOp7
 70
     1
102
RTVSPropertyOp8
 70
     1
102
RTVSPropertyOp9
 70
     1
102
RTVSPropertyOp10
 70
     1
102
RTVSPropertyOp11
 70
     1
102
RTVSPropertyOp12
 70
     1
102
RTVSPropertyOp13
 70
     1
102
RTVSPropertyOp14
 70
     1
102
RTVSPropertyOp15
 70
     1
102
RTVSPropertyOp16
 70
     1
102
RTVSPropertyOp17
 70
     1
102
RTVSPropertyOp18
 70
     1
102
RTVSPropertyOp19
 70
     1
102
RTVSPropertyOp20
 70
     1
102
RTVSPropertyOp21
 70
     1
102
RTVSPropertyOp22
 70
     1
102
RTVSPropertyOp23
 70
     1
102
RTVSPropertyOp24
 70
     1
102
RTVSPropertyOp25
 70
     1
102
RTVSPropertyOp26
 70
     1
102
RTVSPropertyOp27
 70
     1
102
RTVSPropertyOp28
 70
     1
102
RTVSPropertyOp29
 70
     1
102
RTVSPropertyOp30
 70
     1
102
RTVSPropertyOp31
 70
     1
102
RTVSPropertyOp32
 70
     1
  0
XRECORD
  5
459
102
{ACAD_REACTORS
330
458
102
}
330
458
100
AcDbXrecord
280
     1
102
RTVSPropertyOp0
 70
     1
102
RTVSPropertyOp1
 70
     1
102
RTVSPropertyOp2
 70
     1
102
RTVSPropertyOp3
 70
     1
102
RTVSPropertyOp4
 70
     1
102
RTVSPropertyOp5
 70
     1
102
RTVSPropertyOp6
 70
     1
102
RTVSPropertyOp7
 70
     1
102
RTVSPropertyOp8
 70
     1
102
RTVSPropertyOp9
 70
     1
102
RTVSPropertyOp10
 70
     1
102
RTVSPropertyOp11
 70
     1
102
RTVSPropertyOp12
 70
     1
102
RTVSPropertyOp13
 70
     1
102
RTVSPropertyOp14
 70
     1
102
RTVSPropertyOp15
 70
     1
102
RTVSPropertyOp16
 70
     1
102
RTVSPropertyOp17
 70
     1
102
RTVSPropertyOp18
 70
     1
102
RTVSPropertyOp19
 70
     1
102
RTVSPropertyOp20
 70
     1
102
RTVSPropertyOp21
 70
     1
102
RTVSPropertyOp22
 70
     1
102
RTVSPropertyOp23
 70
     1
102
RTVSPropertyOp24
 70
     1
102
RTVSPropertyOp25
 70
     1
102
RTVSPropertyOp26
 70
     1
102
RTVSPropertyOp27
 70
     1
102
RTVSPropertyOp28
 70
     1
102
RTVSPropertyOp29
 70
     1
102
RTVSPropertyOp30
 70
     1
102
RTVSPropertyOp31
 70
     1
102
RTVSPropertyOp32
 70
     1
  0
XRECORD
  5
45B
102
{ACAD_REACTORS
330
45A
102
}
330
45A
100
AcDbXrecord
280
     1
102
RTVSPropertyOp0
 70
     1
102
RTVSPropertyOp1
 70
     1
102
RTVSPropertyOp2
 70
     1
102
RTVSPropertyOp3
 70
     1
102
RTVSPropertyOp4
 70
     1
102
RTVSPropertyOp5
 70
     1
102
RTVSPropertyOp6
 70
     1
102
RTVSPropertyOp7
 70
     1
102
RTVSPropertyOp8
 70
     1
102
RTVSPropertyOp9
 70
     1
102
RTVSPropertyOp10
 70
     1
102
RTVSPropertyOp11
 70
     1
102
RTVSPropertyOp12
 70
     1
102
RTVSPropertyOp13
 70
     1
102
RTVSPropertyOp14
 70
     1
102
RTVSPropertyOp15
 70
     1
102
RTVSPropertyOp16
 70
     1
102
RTVSPropertyOp17
 70
     1
102
RTVSPropertyOp18
 70
     1
102
RTVSPropertyOp19
 70
     1
102
RTVSPropertyOp20
 70
     1
102
RTVSPropertyOp21
 70
     1
102
RTVSPropertyOp22
 70
     1
102
RTVSPropertyOp23
 70
     1
102
RTVSPropertyOp24
 70
     1
102
RTVSPropertyOp25
 70
     1
102
RTVSPropertyOp26
 70
     1
102
RTVSPropertyOp27
 70
     1
102
RTVSPropertyOp28
 70
     1
102
RTVSPropertyOp29
 70
     1
102
RTVSPropertyOp30
 70
     1
102
RTVSPropertyOp31
 70
     1
102
RTVSPropertyOp32
 70
     1
  0
XRECORD
  5
45D
102
{ACAD_REACTORS
330
45C
102
}
330
45C
100
AcDbXrecord
280
     1
102
RTVSPropertyOp0
 70
     1
102
RTVSPropertyOp1
 70
     1
102
RTVSPropertyOp2
 70
     1
102
RTVSPropertyOp3
 70
     1
102
RTVSPropertyOp4
 70
     1
102
RTVSPropertyOp5
 70
     1
102
RTVSPropertyOp6
 70
     1
102
RTVSPropertyOp7
 70
     1
102
RTVSPropertyOp8
 70
     1
102
RTVSPropertyOp9
 70
     1
102
RTVSPropertyOp10
 70
     1
102
RTVSPropertyOp11
 70
     1
102
RTVSPropertyOp12
 70
     1
102
RTVSPropertyOp13
 70
     1
102
RTVSPropertyOp14
 70
     1
102
RTVSPropertyOp15
 70
     1
102
RTVSPropertyOp16
 70
     1
102
RTVSPropertyOp17
 70
     1
102
RTVSPropertyOp18
 70
     1
102
RTVSPropertyOp19
 70
     1
102
RTVSPropertyOp20
 70
     1
102
RTVSPropertyOp21
 70
     1
102
RTVSPropertyOp22
 70
     1
102
RTVSPropertyOp23
 70
     1
102
RTVSPropertyOp24
 70
     1
102
RTVSPropertyOp25
 70
     1
102
RTVSPropertyOp26
 70
     1
102
RTVSPropertyOp27
 70
     1
102
RTVSPropertyOp28
 70
     1
102
RTVSPropertyOp29
 70
     1
102
RTVSPropertyOp30
 70
     1
102
RTVSPropertyOp31
 70
     1
102
RTVSPropertyOp32
 70
     1
  0
XRECORD
  5
45F
102
{ACAD_REACTORS
330
45E
102
}
330
45E
100
AcDbXrecord
280
     1
102
RTVSPropertyOp0
 70
     1
102
RTVSPropertyOp1
 70
     1
102
RTVSPropertyOp2
 70
     1
102
RTVSPropertyOp3
 70
     1
102
RTVSPropertyOp4
 70
     1
102
RTVSPropertyOp5
 70
     1
102
RTVSPropertyOp6
 70
     1
102
RTVSPropertyOp7
 70
     1
102
RTVSPropertyOp8
 70
     1
102
RTVSPropertyOp9
 70
     1
102
RTVSPropertyOp10
 70
     1
102
RTVSPropertyOp11
 70
     1
102
RTVSPropertyOp12
 70
     1
102
RTVSPropertyOp13
 70
     1
102
RTVSPropertyOp14
 70
     1
102
RTVSPropertyOp15
 70
     1
102
RTVSPropertyOp16
 70
     1
102
RTVSPropertyOp17
 70
     1
102
RTVSPropertyOp18
 70
     1
102
RTVSPropertyOp19
 70
     1
102
RTVSPropertyOp20
 70
     1
102
RTVSPropertyOp21
 70
     1
102
RTVSPropertyOp22
 70
     1
102
RTVSPropertyOp23
 70
     1
102
RTVSPropertyOp24
 70
     1
102
RTVSPropertyOp25
 70
     1
102
RTVSPropertyOp26
 70
     1
102
RTVSPropertyOp27
 70
     1
102
RTVSPropertyOp28
 70
     1
102
RTVSPropertyOp29
 70
     1
102
RTVSPropertyOp30
 70
     1
102
RTVSPropertyOp31
 70
     1
102
RTVSPropertyOp32
 70
     1
  0
XRECORD
  5
467
102
{ACAD_REACTORS
330
466
102
}
330
466
100
AcDbXrecord
280
     1
102
RTVSPropertyOp0
 70
     1
102
RTVSPropertyOp1
 70
     1
102
RTVSPropertyOp2
 70
     1
102
RTVSPropertyOp3
 70
     1
102
RTVSPropertyOp4
 70
     1
102
RTVSPropertyOp5
 70
     1
102
RTVSPropertyOp6
 70
     1
102
RTVSPropertyOp7
 70
     1
102
RTVSPropertyOp8
 70
     1
102
RTVSPropertyOp9
 70
     1
102
RTVSPropertyOp10
 70
     1
102
RTVSPropertyOp11
 70
     1
102
RTVSPropertyOp12
 70
     1
102
RTVSPropertyOp13
 70
     1
102
RTVSPropertyOp14
 70
     1
102
RTVSPropertyOp15
 70
     1
102
RTVSPropertyOp16
 70
     1
102
RTVSPropertyOp17
 70
     1
102
RTVSPropertyOp18
 70
     1
102
RTVSPropertyOp19
 70
     1
102
RTVSPropertyOp20
 70
     1
102
RTVSPropertyOp21
 70
     1
102
RTVSPropertyOp22
 70
     1
102
RTVSPropertyOp23
 70
     1
102
RTVSPropertyOp24
 70
     1
102
RTVSPropertyOp25
 70
     1
102
RTVSPropertyOp26
 70
     1
102
RTVSPropertyOp27
 70
     1
102
RTVSPropertyOp28
 70
     1
102
RTVSPropertyOp29
 70
     1
102
RTVSPropertyOp30
 70
     1
102
RTVSPropertyOp31
 70
     1
102
RTVSPropertyOp32
 70
     1
  0
XRECORD
  5
479
102
{ACAD_REACTORS
330
478
102
}
330
478
100
AcDbXrecord
280
     1
102
RTVSPropertyOp0
 70
     0
102
RTVSPropertyOp1
 70
     0
102
RTVSPropertyOp2
 70
     0
102
RTVSPropertyOp3
 70
     0
102
RTVSPropertyOp4
 70
     0
102
RTVSPropertyOp5
 70
     0
102
RTVSPropertyOp6
 70
     0
102
RTVSPropertyOp7
 70
     0
102
RTVSPropertyOp8
 70
     0
102
RTVSPropertyOp9
 70
     0
102
RTVSPropertyOp10
 70
     0
102
RTVSPropertyOp11
 70
     0
102
RTVSPropertyOp12
 70
     0
102
RTVSPropertyOp13
 70
     0
102
RTVSPropertyOp14
 70
     2
102
RTVSPropertyOp15
 70
     0
102
RTVSPropertyOp16
 70
     0
102
RTVSPropertyOp17
 70
     0
102
RTVSPropertyOp18
 70
     0
102
RTVSPropertyOp19
 70
     0
102
RTVSPropertyOp20
 70
     0
102
RTVSPropertyOp21
 70
     0
102
RTVSPropertyOp22
 70
     0
102
RTVSPropertyOp23
 70
     0
102
RTVSPropertyOp24
 70
     0
102
RTVSPropertyOp25
 70
     0
102
RTVSPropertyOp26
 70
     0
102
RTVSPropertyOp27
 70
     0
102
RTVSPropertyOp28
 70
     1
102
RTVSPropertyOp29
 70
     1
102
RTVSPropertyOp30
 70
     1
102
RTVSPropertyOp31
 70
     1
102
RTVSPropertyOp32
 70
     1
  0
XRECORD
  5
473
102
{ACAD_REACTORS
330
472
102
}
330
472
100
AcDbXrecord
280
     1
102
RTVSPropertyOp0
 70
     1
102
RTVSPropertyOp1
 70
     1
102
RTVSPropertyOp2
 70
     1
102
RTVSPropertyOp3
 70
     1
102
RTVSPropertyOp4
 70
     1
102
RTVSPropertyOp5
 70
     1
102
RTVSPropertyOp6
 70
     1
102
RTVSPropertyOp7
 70
     1
102
RTVSPropertyOp8
 70
     1
102
RTVSPropertyOp9
 70
     1
102
RTVSPropertyOp10
 70
     1
102
RTVSPropertyOp11
 70
     1
102
RTVSPropertyOp12
 70
     1
102
RTVSPropertyOp13
 70
     1
102
RTVSPropertyOp14
 70
     1
102
RTVSPropertyOp15
 70
     1
102
RTVSPropertyOp16
 70
     1
102
RTVSPropertyOp17
 70
     1
102
RTVSPropertyOp18
 70
     1
102
RTVSPropertyOp19
 70
     1
102
RTVSPropertyOp20
 70
     1
102
RTVSPropertyOp21
 70
     1
102
RTVSPropertyOp22
 70
     1
102
RTVSPropertyOp23
 70
     1
102
RTVSPropertyOp24
 70
     1
102
RTVSPropertyOp25
 70
     1
102
RTVSPropertyOp26
 70
     1
102
RTVSPropertyOp27
 70
     1
102
RTVSPropertyOp28
 70
     1
102
RTVSPropertyOp29
 70
     1
102
RTVSPropertyOp30
 70
     1
102
RTVSPropertyOp31
 70
     1
102
RTVSPropertyOp32
 70
     1
  0
XRECORD
  5
47B
102
{ACAD_REACTORS
330
47A
102
}
330
47A
100
AcDbXrecord
280
     1
102
RTVSPropertyOp0
 70
     0
102
RTVSPropertyOp1
 70
     0
102
RTVSPropertyOp2
 70
     0
102
RTVSPropertyOp3
 70
     0
102
RTVSPropertyOp4
 70
     0
102
RTVSPropertyOp5
 70
     0
102
RTVSPropertyOp6
 70
     0
102
RTVSPropertyOp7
 70
     0
102
RTVSPropertyOp8
 70
     0
102
RTVSPropertyOp9
 70
     0
102
RTVSPropertyOp10
 70
     0
102
RTVSPropertyOp11
 70
     0
102
RTVSPropertyOp12
 70
     0
102
RTVSPropertyOp13
 70
     0
102
RTVSPropertyOp14
 70
     2
102
RTVSPropertyOp15
 70
     0
102
RTVSPropertyOp16
 70
     0
102
RTVSPropertyOp17
 70
     0
102
RTVSPropertyOp18
 70
     0
102
RTVSPropertyOp19
 70
     0
102
RTVSPropertyOp20
 70
     0
102
RTVSPropertyOp21
 70
     0
102
RTVSPropertyOp22
 70
     0
102
RTVSPropertyOp23
 70
     0
102
RTVSPropertyOp24
 70
     0
102
RTVSPropertyOp25
 70
     0
102
RTVSPropertyOp26
 70
     0
102
RTVSPropertyOp27
 70
     0
102
RTVSPropertyOp28
 70
     1
102
RTVSPropertyOp29
 70
     1
102
RTVSPropertyOp30
 70
     1
102
RTVSPropertyOp31
 70
     1
102
RTVSPropertyOp32
 70
     1
  0
XRECORD
  5
46B
102
{ACAD_REACTORS
330
46A
102
}
330
46A
100
AcDbXrecord
280
     1
102
RTVSPropertyOp0
 70
     1
102
RTVSPropertyOp1
 70
     1
102
RTVSPropertyOp2
 70
     1
102
RTVSPropertyOp3
 70
     1
102
RTVSPropertyOp4
 70
     1
102
RTVSPropertyOp5
 70
     1
102
RTVSPropertyOp6
 70
     1
102
RTVSPropertyOp7
 70
     1
102
RTVSPropertyOp8
 70
     1
102
RTVSPropertyOp9
 70
     1
102
RTVSPropertyOp10
 70
     1
102
RTVSPropertyOp11
 70
     1
102
RTVSPropertyOp12
 70
     1
102
RTVSPropertyOp13
 70
     1
102
RTVSPropertyOp14
 70
     1
102
RTVSPropertyOp15
 70
     1
102
RTVSPropertyOp16
 70
     1
102
RTVSPropertyOp17
 70
     1
102
RTVSPropertyOp18
 70
     1
102
RTVSPropertyOp19
 70
     1
102
RTVSPropertyOp20
 70
     1
102
RTVSPropertyOp21
 70
     1
102
RTVSPropertyOp22
 70
     1
102
RTVSPropertyOp23
 70
     1
102
RTVSPropertyOp24
 70
     1
102
RTVSPropertyOp25
 70
     1
102
RTVSPropertyOp26
 70
     1
102
RTVSPropertyOp27
 70
     1
102
RTVSPropertyOp28
 70
     1
102
RTVSPropertyOp29
 70
     1
102
RTVSPropertyOp30
 70
     1
102
RTVSPropertyOp31
 70
     1
102
RTVSPropertyOp32
 70
     1
  0
XRECORD
  5
487
102
{ACAD_REACTORS
330
486
102
}
330
486
100
AcDbXrecord
280
     1
102
RTVSPropertyOp0
 70
     1
102
RTVSPropertyOp1
 70
     1
102
RTVSPropertyOp2
 70
     1
102
RTVSPropertyOp3
 70
     1
102
RTVSPropertyOp4
 70
     1
102
RTVSPropertyOp5
 70
     1
102
RTVSPropertyOp6
 70
     1
102
RTVSPropertyOp7
 70
     1
102
RTVSPropertyOp8
 70
     1
102
RTVSPropertyOp9
 70
     1
102
RTVSPropertyOp10
 70
     1
102
RTVSPropertyOp11
 70
     1
102
RTVSPropertyOp12
 70
     1
102
RTVSPropertyOp13
 70
     1
102
RTVSPropertyOp14
 70
     1
102
RTVSPropertyOp15
 70
     1
102
RTVSPropertyOp16
 70
     1
102
RTVSPropertyOp17
 70
     1
102
RTVSPropertyOp18
 70
     1
102
RTVSPropertyOp19
 70
     1
102
RTVSPropertyOp20
 70
     1
102
RTVSPropertyOp21
 70
     1
102
RTVSPropertyOp22
 70
     1
102
RTVSPropertyOp23
 70
     1
102
RTVSPropertyOp24
 70
     1
102
RTVSPropertyOp25
 70
     1
102
RTVSPropertyOp26
 70
     1
102
RTVSPropertyOp27
 70
     1
102
RTVSPropertyOp28
 70
     1
102
RTVSPropertyOp29
 70
     1
102
RTVSPropertyOp30
 70
     1
102
RTVSPropertyOp31
 70
     1
102
RTVSPropertyOp32
 70
     1
  0
XRECORD
  5
485
102
{ACAD_REACTORS
330
484
102
}
330
484
100
AcDbXrecord
280
     1
102
RTVSPropertyOp0
 70
     1
102
RTVSPropertyOp1
 70
     1
102
RTVSPropertyOp2
 70
     1
102
RTVSPropertyOp3
 70
     1
102
RTVSPropertyOp4
 70
     1
102
RTVSPropertyOp5
 70
     1
102
RTVSPropertyOp6
 70
     1
102
RTVSPropertyOp7
 70
     1
102
RTVSPropertyOp8
 70
     1
102
RTVSPropertyOp9
 70
     1
102
RTVSPropertyOp10
 70
     1
102
RTVSPropertyOp11
 70
     1
102
RTVSPropertyOp12
 70
     1
102
RTVSPropertyOp13
 70
     1
102
RTVSPropertyOp14
 70
     1
102
RTVSPropertyOp15
 70
     1
102
RTVSPropertyOp16
 70
     1
102
RTVSPropertyOp17
 70
     1
102
RTVSPropertyOp18
 70
     1
102
RTVSPropertyOp19
 70
     1
102
RTVSPropertyOp20
 70
     1
102
RTVSPropertyOp21
 70
     1
102
RTVSPropertyOp22
 70
     1
102
RTVSPropertyOp23
 70
     1
102
RTVSPropertyOp24
 70
     1
102
RTVSPropertyOp25
 70
     1
102
RTVSPropertyOp26
 70
     1
102
RTVSPropertyOp27
 70
     1
102
RTVSPropertyOp28
 70
     1
102
RTVSPropertyOp29
 70
     1
102
RTVSPropertyOp30
 70
     1
102
RTVSPropertyOp31
 70
     1
102
RTVSPropertyOp32
 70
     1
  0
XRECORD
  5
47F
102
{ACAD_REACTORS
330
47E
102
}
330
47E
100
AcDbXrecord
280
     1
102
RTVSPropertyOp0
 70
     1
102
RTVSPropertyOp1
 70
     1
102
RTVSPropertyOp2
 70
     1
102
RTVSPropertyOp3
 70
     1
102
RTVSPropertyOp4
 70
     1
102
RTVSPropertyOp5
 70
     1
102
RTVSPropertyOp6
 70
     1
102
RTVSPropertyOp7
 70
     1
102
RTVSPropertyOp8
 70
     1
102
RTVSPropertyOp9
 70
     1
102
RTVSPropertyOp10
 70
     1
102
RTVSPropertyOp11
 70
     1
102
RTVSPropertyOp12
 70
     1
102
RTVSPropertyOp13
 70
     1
102
RTVSPropertyOp14
 70
     1
102
RTVSPropertyOp15
 70
     1
102
RTVSPropertyOp16
 70
     1
102
RTVSPropertyOp17
 70
     1
102
RTVSPropertyOp18
 70
     1
102
RTVSPropertyOp19
 70
     1
102
RTVSPropertyOp20
 70
     1
102
RTVSPropertyOp21
 70
     1
102
RTVSPropertyOp22
 70
     1
102
RTVSPropertyOp23
 70
     1
102
RTVSPropertyOp24
 70
     1
102
RTVSPropertyOp25
 70
     1
102
RTVSPropertyOp26
 70
     1
102
RTVSPropertyOp27
 70
     1
102
RTVSPropertyOp28
 70
     1
102
RTVSPropertyOp29
 70
     1
102
RTVSPropertyOp30
 70
     1
102
RTVSPropertyOp31
 70
     1
102
RTVSPropertyOp32
 70
     1
  0
XRECORD
  5
481
102
{ACAD_REACTORS
330
480
102
}
330
480
100
AcDbXrecord
280
     1
102
RTVSPropertyOp0
 70
     1
102
RTVSPropertyOp1
 70
     1
102
RTVSPropertyOp2
 70
     1
102
RTVSPropertyOp3
 70
     1
102
RTVSPropertyOp4
 70
     1
102
RTVSPropertyOp5
 70
     1
102
RTVSPropertyOp6
 70
     1
102
RTVSPropertyOp7
 70
     1
102
RTVSPropertyOp8
 70
     1
102
RTVSPropertyOp9
 70
     1
102
RTVSPropertyOp10
 70
     1
102
RTVSPropertyOp11
 70
     1
102
RTVSPropertyOp12
 70
     1
102
RTVSPropertyOp13
 70
     1
102
RTVSPropertyOp14
 70
     1
102
RTVSPropertyOp15
 70
     1
102
RTVSPropertyOp16
 70
     1
102
RTVSPropertyOp17
 70
     1
102
RTVSPropertyOp18
 70
     1
102
RTVSPropertyOp19
 70
     1
102
RTVSPropertyOp20
 70
     1
102
RTVSPropertyOp21
 70
     1
102
RTVSPropertyOp22
 70
     1
102
RTVSPropertyOp23
 70
     1
102
RTVSPropertyOp24
 70
     1
102
RTVSPropertyOp25
 70
     1
102
RTVSPropertyOp26
 70
     1
102
RTVSPropertyOp27
 70
     1
102
RTVSPropertyOp28
 70
     1
102
RTVSPropertyOp29
 70
     1
102
RTVSPropertyOp30
 70
     1
102
RTVSPropertyOp31
 70
     1
102
RTVSPropertyOp32
 70
     1
  0
XRECORD
  5
471
102
{ACAD_REACTORS
330
470
102
}
330
470
100
AcDbXrecord
280
     1
102
RTVSPropertyOp0
 70
     1
102
RTVSPropertyOp1
 70
     1
102
RTVSPropertyOp2
 70
     1
102
RTVSPropertyOp3
 70
     1
102
RTVSPropertyOp4
 70
     1
102
RTVSPropertyOp5
 70
     1
102
RTVSPropertyOp6
 70
     1
102
RTVSPropertyOp7
 70
     1
102
RTVSPropertyOp8
 70
     1
102
RTVSPropertyOp9
 70
     1
102
RTVSPropertyOp10
 70
     1
102
RTVSPropertyOp11
 70
     1
102
RTVSPropertyOp12
 70
     1
102
RTVSPropertyOp13
 70
     1
102
RTVSPropertyOp14
 70
     1
102
RTVSPropertyOp15
 70
     1
102
RTVSPropertyOp16
 70
     1
102
RTVSPropertyOp17
 70
     1
102
RTVSPropertyOp18
 70
     1
102
RTVSPropertyOp19
 70
     1
102
RTVSPropertyOp20
 70
     1
102
RTVSPropertyOp21
 70
     1
102
RTVSPropertyOp22
 70
     1
102
RTVSPropertyOp23
 70
     1
102
RTVSPropertyOp24
 70
     1
102
RTVSPropertyOp25
 70
     1
102
RTVSPropertyOp26
 70
     1
102
RTVSPropertyOp27
 70
     1
102
RTVSPropertyOp28
 70
     1
102
RTVSPropertyOp29
 70
     1
102
RTVSPropertyOp30
 70
     1
102
RTVSPropertyOp31
 70
     1
102
RTVSPropertyOp32
 70
     1
  0
XRECORD
  5
465
102
{ACAD_REACTORS
330
464
102
}
330
464
100
AcDbXrecord
280
     1
102
RTVSPropertyOp0
 70
     1
102
RTVSPropertyOp1
 70
     1
102
RTVSPropertyOp2
 70
     1
102
RTVSPropertyOp3
 70
     1
102
RTVSPropertyOp4
 70
     1
102
RTVSPropertyOp5
 70
     1
102
RTVSPropertyOp6
 70
     1
102
RTVSPropertyOp7
 70
     1
102
RTVSPropertyOp8
 70
     1
102
RTVSPropertyOp9
 70
     1
102
RTVSPropertyOp10
 70
     1
102
RTVSPropertyOp11
 70
     1
102
RTVSPropertyOp12
 70
     1
102
RTVSPropertyOp13
 70
     1
102
RTVSPropertyOp14
 70
     1
102
RTVSPropertyOp15
 70
     1
102
RTVSPropertyOp16
 70
     1
102
RTVSPropertyOp17
 70
     1
102
RTVSPropertyOp18
 70
     1
102
RTVSPropertyOp19
 70
     1
102
RTVSPropertyOp20
 70
     1
102
RTVSPropertyOp21
 70
     1
102
RTVSPropertyOp22
 70
     1
102
RTVSPropertyOp23
 70
     1
102
RTVSPropertyOp24
 70
     1
102
RTVSPropertyOp25
 70
     1
102
RTVSPropertyOp26
 70
     1
102
RTVSPropertyOp27
 70
     1
102
RTVSPropertyOp28
 70
     1
102
RTVSPropertyOp29
 70
     1
102
RTVSPropertyOp30
 70
     1
102
RTVSPropertyOp31
 70
     1
102
RTVSPropertyOp32
 70
     1
  0
XRECORD
  5
483
102
{ACAD_REACTORS
330
482
102
}
330
482
100
AcDbXrecord
280
     1
102
RTVSPropertyOp0
 70
     1
102
RTVSPropertyOp1
 70
     1
102
RTVSPropertyOp2
 70
     1
102
RTVSPropertyOp3
 70
     1
102
RTVSPropertyOp4
 70
     1
102
RTVSPropertyOp5
 70
     1
102
RTVSPropertyOp6
 70
     1
102
RTVSPropertyOp7
 70
     1
102
RTVSPropertyOp8
 70
     1
102
RTVSPropertyOp9
 70
     1
102
RTVSPropertyOp10
 70
     1
102
RTVSPropertyOp11
 70
     1
102
RTVSPropertyOp12
 70
     1
102
RTVSPropertyOp13
 70
     1
102
RTVSPropertyOp14
 70
     1
102
RTVSPropertyOp15
 70
     1
102
RTVSPropertyOp16
 70
     1
102
RTVSPropertyOp17
 70
     1
102
RTVSPropertyOp18
 70
     1
102
RTVSPropertyOp19
 70
     1
102
RTVSPropertyOp20
 70
     1
102
RTVSPropertyOp21
 70
     1
102
RTVSPropertyOp22
 70
     1
102
RTVSPropertyOp23
 70
     1
102
RTVSPropertyOp24
 70
     1
102
RTVSPropertyOp25
 70
     1
102
RTVSPropertyOp26
 70
     1
102
RTVSPropertyOp27
 70
     1
102
RTVSPropertyOp28
 70
     1
102
RTVSPropertyOp29
 70
     1
102
RTVSPropertyOp30
 70
     1
102
RTVSPropertyOp31
 70
     1
102
RTVSPropertyOp32
 70
     1
  0
ENDSEC
  0
EOF
