  0
SECTION
  2
HEADER
  9
$ACADVER
  1
AC1015
  9
$ACADMAINTVER
 70
    20
  9
$DWGCODEPAGE
  3
ANSI_1252
  9
$INSBASE
 10
0.0
 20
0.0
 30
0.0
  9
$EXTMIN
 10
72.39557986246508
 20
-51.54280601628261
 30
0.0
  9
$EXTMAX
 10
126.9097154551926
 20
4.660000680921129
 30
0.0
  9
$LIMMIN
 10
0.0
 20
0.0
  9
$LIMMAX
 10
297.0
 20
210.0
  9
$ORTHOMODE
 70
     1
  9
$REGENMODE
 70
     1
  9
$FILLMODE
 70
     1
  9
$QTEXTMODE
 70
     0
  9
$MIRRTEXT
 70
     1
  9
$LTSCALE
 40
1.0
  9
$ATTMODE
 70
     1
  9
$TEXTSIZE
 40
3.0
  9
$TRACEWID
 40
0.5
  9
$TEXTSTYLE
  7
STANDARD
  9
$CLAYER
  8
DIM
  9
$CELTYPE
  6
BYLAYER
  9
$CECOLOR
 62
   256
  9
$CELTSCALE
 40
1.0
  9
$DISPSILH
 70
     0
  9
$DIMSCALE
 40
1.0
  9
$DIMASZ
 40
4.0
  9
$DIMEXO
 40
1.0
  9
$DIMDLI
 40
5.0
  9
$DIMRND
 40
0.0
  9
$DIMDLE
 40
3.0
  9
$DIMEXE
 40
1.0
  9
$DIMTP
 40
0.0
  9
$DIMTM
 40
0.0
  9
$DIMTXT
 40
4.0
  9
$DIMCEN
 40
2.0
  9
$DIMTSZ
 40
0.0
  9
$DIMTOL
 70
     0
  9
$DIMLIM
 70
     0
  9
$DIMTIH
 70
     1
  9
$DIMTOH
 70
     1
  9
$DIMSE1
 70
     0
  9
$DIMSE2
 70
     0
  9
$DIMTAD
 70
     1
  9
$DIMZIN
 70
     8
  9
$DIMBLK
  1

  9
$DIMASO
 70
     1
  9
$DIMSHO
 70
     0
  9
$DIMPOST
  1
mm
  9
$DIMAPOST
  1
"
  9
$DIMALT
 70
     1
  9
$DIMALTD
 70
     4
  9
$DIMALTF
 40
0.03937
  9
$DIMLFAC
 40
3.0
  9
$DIMTOFL
 70
     1
  9
$DIMTVP
 40
1.0
  9
$DIMTIX
 70
     0
  9
$DIMSOXD
 70
     0
  9
$DIMSAH
 70
     0
  9
$DIMBLK1
  1

  9
$DIMBLK2
  1

  9
$DIMSTYLE
  2
STANDARD
  9
$DIMCLRD
 70
     0
  9
$DIMCLRE
 70
     0
  9
$DIMCLRT
 70
     0
  9
$DIMTFAC
 40
1.0
  9
$DIMGAP
 40
0.09
  9
$DIMJUST
 70
     0
  9
$DIMSD1
 70
     0
  9
$DIMSD2
 70
     0
  9
$DIMTOLJ
 70
     1
  9
$DIMTZIN
 70
     0
  9
$DIMALTZ
 70
     0
  9
$DIMALTTZ
 70
     0
  9
$DIMUPT
 70
     0
  9
$DIMDEC
 70
     1
  9
$DIMTDEC
 70
     1
  9
$DIMALTU
 70
     5
  9
$DIMALTTD
 70
     4
  9
$DIMTXSTY
  7
STANDARD
  9
$DIMAUNIT
 70
     0
  9
$DIMADEC
 70
     0
  9
$DIMALTRND
 40
0.0
  9
$DIMAZIN
 70
     0
  9
$DIMDSEP
 70
    46
  9
$DIMATFIT
 70
     3
  9
$DIMFRAC
 70
     0
  9
$DIMLDRBLK
  1

  9
$DIMLUNIT
 70
     2
  9
$DIMLWD
 70
    -2
  9
$DIMLWE
 70
    -2
  9
$DIMTMOVE
 70
     0
  9
$LUNITS
 70
     2
  9
$LUPREC
 70
     4
  9
$SKETCHINC
 40
1.0
  9
$FILLETRAD
 40
0.0
  9
$AUNITS
 70
     0
  9
$AUPREC
 70
     0
  9
$MENU
  1
acad
  9
$ELEVATION
 40
0.0
  9
$PELEVATION
 40
0.0
  9
$THICKNESS
 40
0.0
  9
$LIMCHECK
 70
     0
  9
$CHAMFERA
 40
0.0
  9
$CHAMFERB
 40
0.0
  9
$CHAMFERC
 40
0.0
  9
$CHAMFERD
 40
0.0
  9
$SKPOLY
 70
     0
  9
$TDCREATE
 40
2452723.581504629
  9
$TDUCREATE
 40
2452723.873171296
  9
$TDUPDATE
 40
2455034.615035683
  9
$TDUUPDATE
 40
2455034.906702350
  9
$TDINDWG
 40
0.1438399769
  9
$TDUSRTIMER
 40
0.1438346875
  9
$USRTIMER
 70
     1
  9
$ANGBASE
 50
0.0
  9
$ANGDIR
 70
     0
  9
$PDMODE
 70
     0
  9
$PDSIZE
 40
0.0
  9
$PLINEWID
 40
0.0
  9
$SPLFRAME
 70
     0
  9
$SPLINETYPE
 70
     6
  9
$SPLINESEGS
 70
     8
  9
$HANDSEED
  5
E51
  9
$SURFTAB1
 70
     6
  9
$SURFTAB2
 70
     6
  9
$SURFTYPE
 70
     6
  9
$SURFU
 70
     6
  9
$SURFV
 70
     6
  9
$UCSBASE
  2

  9
$UCSNAME
  2

  9
$UCSORG
 10
0.0
 20
0.0
 30
0.0
  9
$UCSXDIR
 10
1.0
 20
0.0
 30
0.0
  9
$UCSYDIR
 10
0.0
 20
1.0
 30
0.0
  9
$UCSORTHOREF
  2

  9
$UCSORTHOVIEW
 70
     0
  9
$UCSORGTOP
 10
0.0
 20
0.0
 30
0.0
  9
$UCSORGBOTTOM
 10
0.0
 20
0.0
 30
0.0
  9
$UCSORGLEFT
 10
0.0
 20
0.0
 30
0.0
  9
$UCSORGRIGHT
 10
0.0
 20
0.0
 30
0.0
  9
$UCSORGFRONT
 10
0.0
 20
0.0
 30
0.0
  9
$UCSORGBACK
 10
0.0
 20
0.0
 30
0.0
  9
$PUCSBASE
  2

  9
$PUCSNAME
  2

  9
$PUCSORG
 10
0.0
 20
0.0
 30
0.0
  9
$PUCSXDIR
 10
1.0
 20
0.0
 30
0.0
  9
$PUCSYDIR
 10
0.0
 20
1.0
 30
0.0
  9
$PUCSORTHOREF
  2

  9
$PUCSORTHOVIEW
 70
     0
  9
$PUCSORGTOP
 10
0.0
 20
0.0
 30
0.0
  9
$PUCSORGBOTTOM
 10
0.0
 20
0.0
 30
0.0
  9
$PUCSORGLEFT
 10
0.0
 20
0.0
 30
0.0
  9
$PUCSORGRIGHT
 10
0.0
 20
0.0
 30
0.0
  9
$PUCSORGFRONT
 10
0.0
 20
0.0
 30
0.0
  9
$PUCSORGBACK
 10
0.0
 20
0.0
 30
0.0
  9
$USERI1
 70
     0
  9
$USERI2
 70
     0
  9
$USERI3
 70
     0
  9
$USERI4
 70
     0
  9
$USERI5
 70
     0
  9
$USERR1
 40
0.0
  9
$USERR2
 40
0.0
  9
$USERR3
 40
0.0
  9
$USERR4
 40
0.0
  9
$USERR5
 40
0.0
  9
$WORLDVIEW
 70
     1
  9
$SHADEDGE
 70
     3
  9
$SHADEDIF
 70
    70
  9
$TILEMODE
 70
     1
  9
$MAXACTVP
 70
    64
  9
$PINSBASE
 10
0.0
 20
0.0
 30
0.0
  9
$PLIMCHECK
 70
     0
  9
$PEXTMIN
 10
1.000000000000000E+20
 20
1.000000000000000E+20
 30
1.000000000000000E+20
  9
$PEXTMAX
 10
-1.000000000000000E+20
 20
-1.000000000000000E+20
 30
-1.000000000000000E+20
  9
$PLIMMIN
 10
0.0
 20
0.0
  9
$PLIMMAX
 10
12.0
 20
9.0
  9
$UNITMODE
 70
     0
  9
$VISRETAIN
 70
     1
  9
$PLINEGEN
 70
     0
  9
$PSLTSCALE
 70
     1
  9
$TREEDEPTH
 70
  3020
  9
$CMLSTYLE
  2
STANDARD
  9
$CMLJUST
 70
     0
  9
$CMLSCALE
 40
1.0
  9
$PROXYGRAPHICS
 70
     1
  9
$MEASUREMENT
 70
     0
  9
$CELWEIGHT
370
    -1
  9
$ENDCAPS
280
     0
  9
$JOINSTYLE
280
     0
  9
$LWDISPLAY
290
     0
  9
$INSUNITS
 70
     0
  9
$HYPERLINKBASE
  1

  9
$STYLESHEET
  1

  9
$XEDIT
290
     1
  9
$CEPSNTYPE
380
     0
  9
$PSTYLEMODE
290
     1
  9
$FINGERPRINTGUID
  2
{F4F96233-4F03-405B-8094-51F35858CFA2}
  9
$VERSIONGUID
  2
{56AD16A1-EA4F-4454-883F-34A28C49AF22}
  9
$EXTNAMES
290
     1
  9
$PSVPSCALE
 40
0.0
  9
$OLESTARTUP
290
     0
  0
ENDSEC
  0
SECTION
  2
CLASSES
  0
CLASS
  1
ACDBDICTIONARYWDFLT
  2
AcDbDictionaryWithDefault
  3
ObjectDBX Classes
 90
        0
280
     0
281
     0
  0
CLASS
  1
ACDBPLACEHOLDER
  2
AcDbPlaceHolder
  3
ObjectDBX Classes
 90
        0
280
     0
281
     0
  0
CLASS
  1
LAYOUT
  2
AcDbLayout
  3
ObjectDBX Classes
 90
        0
280
     0
281
     0
  0
CLASS
  1
DICTIONARYVAR
  2
AcDbDictionaryVar
  3
ObjectDBX Classes
 90
        0
280
     0
281
     0
  0
CLASS
  1
TABLESTYLE
  2
AcDbTableStyle
  3
ObjectDBX Classes
 90
     4095
280
     0
281
     0
  0
CLASS
  1
MATERIAL
  2
AcDbMaterial
  3
ObjectDBX Classes
 90
     1024
280
     0
281
     0
  0
CLASS
  1
VISUALSTYLE
  2
AcDbVisualStyle
  3
ObjectDBX Classes
 90
     4095
280
     0
281
     0
  0
ENDSEC
  0
SECTION
  2
TABLES
  0
TABLE
  2
VPORT
  5
8
330
0
100
AcDbSymbolTable
 70
     1
  0
VPORT
  5
E27
330
8
100
AcDbSymbolTableRecord
100
AcDbViewportTableRecord
  2
*Active
 70
     0
 10
0.0
 20
0.0
 11
1.0
 21
1.0
 12
99.6193714985352
 22
-19.00867771553551
 13
0.0
 23
0.0
 14
0.0
 24
0.0
 15
0.0
 25
0.0
 16
0.0
 26
0.0
 36
1.0
 17
0.0
 27
0.0
 37
0.0
 40
66.05393234337883
 41
1.873376623376623
 42
50.0
 43
0.0
 44
0.0
 50
0.0
 51
0.0
 71
     0
 72
   100
 73
     1
 74
     0
 75
     0
 76
     0
 77
     0
 78
     0
281
     0
 65
     1
110
0.0
120
0.0
130
0.0
111
1.0
121
0.0
131
0.0
112
0.0
122
1.0
132
0.0
 79
     0
146
0.0
  0
ENDTAB
  0
TABLE
  2
LTYPE
  5
5
330
0
100
AcDbSymbolTable
 70
     5
  0
LTYPE
  5
13
330
5
100
AcDbSymbolTableRecord
100
AcDbLinetypeTableRecord
  2
BYBLOCK
 70
     0
  3

 72
    65
 73
     0
 40
0.0
  0
LTYPE
  5
14
330
5
100
AcDbSymbolTableRecord
100
AcDbLinetypeTableRecord
  2
BYLAYER
 70
     0
  3

 72
    65
 73
     0
 40
0.0
  0
LTYPE
  5
15
330
5
100
AcDbSymbolTableRecord
100
AcDbLinetypeTableRecord
  2
CONTINUOUS
 70
     0
  3
solid line
 72
    65
 73
     0
 40
0.0
  0
LTYPE
  5
23
330
5
100
AcDbSymbolTableRecord
100
AcDbLinetypeTableRecord
  2
DASHED
 70
     0
  3
-- -- -- -- -- -- -- -- -- --
 72
    65
 73
     2
 40
3.0
 49
2.0
 74
     0
 49
-1.0
 74
     0
  0
LTYPE
  5
24
330
5
100
AcDbSymbolTableRecord
100
AcDbLinetypeTableRecord
  2
CENTER
 70
     0
  3
--- - --- - --- - --- - --- -
 72
    65
 73
     4
 40
6.0
 49
3.0
 74
     0
 49
-1.0
 74
     0
 49
1.0
 74
     0
 49
-1.0
 74
     0
  0
LTYPE
  5
25
330
5
100
AcDbSymbolTableRecord
100
AcDbLinetypeTableRecord
  2
PHANTOM
 70
     0
  3
----- - - ----- - - ----- - -
 72
    65
 73
     6
 40
12.0
 49
7.0
 74
     0
 49
-1.0
 74
     0
 49
1.0
 74
     0
 49
-1.0
 74
     0
 49
1.0
 74
     0
 49
-1.0
 74
     0
  0
LTYPE
  5
8F6
330
5
100
AcDbSymbolTableRecord
100
AcDbLinetypeTableRecord
  2
ACAD_ISO07W100
 70
     0
  3
ISO dot . . . . . . . . . . . . . . . . . . . .
 72
    65
 73
     2
 40
3.0
 49
0.0
 74
     0
 49
-3.0
 74
     0
  0
ENDTAB
  0
TABLE
  2
LAYER
  5
2
330
0
100
AcDbSymbolTable
 70
     5
  0
LAYER
  5
10
330
2
100
AcDbSymbolTableRecord
100
AcDbLayerTableRecord
  2
0
 70
     0
 62
     7
  6
CONTINUOUS
370
    -3
390
F
  0
LAYER
  5
26
330
2
100
AcDbSymbolTableRecord
100
AcDbLayerTableRecord
  2
PIC06
 70
     0
 62
     7
  6
CONTINUOUS
370
    -3
390
F
  0
LAYER
  5
27
330
2
100
AcDbSymbolTableRecord
100
AcDbLayerTableRecord
  2
PIC07
 70
     0
 62
     7
  6
CONTINUOUS
370
    -3
390
F
  0
LAYER
  5
7A1
330
2
100
AcDbSymbolTableRecord
100
AcDbLayerTableRecord
  2
DIM
 70
     0
 62
     3
  6
CONTINUOUS
370
    -3
390
F
  0
LAYER
  5
7A3
330
2
100
AcDbSymbolTableRecord
100
AcDbLayerTableRecord
  2
DEFPOINTS
 70
     0
 62
     7
  6
CONTINUOUS
290
     0
370
    -3
390
F
  0
ENDTAB
  0
TABLE
  2
STYLE
  5
3
330
0
100
AcDbSymbolTable
 70
     2
  0
STYLE
  5
11
330
3
100
AcDbSymbolTableRecord
100
AcDbTextStyleTableRecord
  2
STANDARD
 70
     0
 40
0.0
 41
1.0
 50
0.0
 71
     0
 42
3.0
  3
monotxt
  4
extfont
  0
STYLE
  5
8F5
330
3
100
AcDbSymbolTableRecord
100
AcDbTextStyleTableRecord
  2

 70
     1
 40
0.0
 41
1.0
 50
0.0
 71
     0
 42
3.0
  3
ltypeshp.shx
  4

  0
ENDTAB
  0
TABLE
  2
VIEW
  5
6
330
0
100
AcDbSymbolTable
 70
     0
  0
ENDTAB
  0
TABLE
  2
UCS
  5
7
330
0
100
AcDbSymbolTable
 70
     0
  0
ENDTAB
  0
TABLE
  2
APPID
  5
9
330
0
100
AcDbSymbolTable
 70
     3
  0
APPID
  5
12
330
9
100
AcDbSymbolTableRecord
100
AcDbRegAppTableRecord
  2
ACAD
 70
     0
  0
APPID
  5
CC8
330
9
100
AcDbSymbolTableRecord
100
AcDbRegAppTableRecord
  2
DCO15
 70
     0
  0
APPID
  5
E1E
330
9
100
AcDbSymbolTableRecord
100
AcDbRegAppTableRecord
  2
ACAD_EXEMPT_FROM_CAD_STANDARDS
 70
     0
  0
ENDTAB
  0
TABLE
  2
DIMSTYLE
  5
A
330
0
100
AcDbSymbolTable
 70
     1
100
AcDbDimStyleTable
 71
     1
340
700
  0
DIMSTYLE
105
700
330
A
100
AcDbSymbolTableRecord
100
AcDbDimStyleTableRecord
  2
STANDARD
 70
     0
340
11
  0
ENDTAB
  0
TABLE
  2
BLOCK_RECORD
  5
1
330
0
100
AcDbSymbolTable
 70
    39
  0
BLOCK_RECORD
  5
1E
102
{ACAD_XDICTIONARY
360
727
102
}
330
1
100
AcDbSymbolTableRecord
100
AcDbBlockTableRecord
  2
*MODEL_SPACE
340
CC2
  0
BLOCK_RECORD
  5
1A
102
{ACAD_XDICTIONARY
360
725
102
}
330
1
100
AcDbSymbolTableRecord
100
AcDbBlockTableRecord
  2
*PAPER_SPACE
340
CC3
  0
BLOCK_RECORD
  5
2A
330
1
100
AcDbSymbolTableRecord
100
AcDbBlockTableRecord
  2
MARK1_1
340
0
102
{BLKREFS
331
32
331
34
331
3E
331
40
331
4A
331
4C
331
55
331
57
331
61
331
63
331
6D
331
6F
331
79
331
7B
331
84
331
86
331
90
331
92
331
9C
331
A0
331
A9
331
AD
331
B6
331
BA
331
C1
331
C3
331
CD
331
CF
331
D9
331
DB
331
E5
331
E7
331
F1
331
F5
331
FD
331
FF
331
109
331
10B
331
115
331
117
331
121
331
123
331
12D
331
12F
331
139
331
13B
331
145
331
147
331
151
331
153
331
15D
331
15F
331
16A
331
16E
331
175
331
179
331
182
331
186
331
18F
331
191
102
}
  0
BLOCK_RECORD
  5
2F
330
1
100
AcDbSymbolTableRecord
100
AcDbBlockTableRecord
  2
COMP1
340
0
  0
BLOCK_RECORD
  5
3B
330
1
100
AcDbSymbolTableRecord
100
AcDbBlockTableRecord
  2
COMP2
340
0
  0
BLOCK_RECORD
  5
47
330
1
100
AcDbSymbolTableRecord
100
AcDbBlockTableRecord
  2
COMP3
340
0
  0
BLOCK_RECORD
  5
52
330
1
100
AcDbSymbolTableRecord
100
AcDbBlockTableRecord
  2
COMP4
340
0
  0
BLOCK_RECORD
  5
5E
330
1
100
AcDbSymbolTableRecord
100
AcDbBlockTableRecord
  2
COMP5
340
0
  0
BLOCK_RECORD
  5
6A
330
1
100
AcDbSymbolTableRecord
100
AcDbBlockTableRecord
  2
COMP6
340
0
  0
BLOCK_RECORD
  5
76
330
1
100
AcDbSymbolTableRecord
100
AcDbBlockTableRecord
  2
COMP7
340
0
  0
BLOCK_RECORD
  5
81
330
1
100
AcDbSymbolTableRecord
100
AcDbBlockTableRecord
  2
COMP8
340
0
  0
BLOCK_RECORD
  5
8D
330
1
100
AcDbSymbolTableRecord
100
AcDbBlockTableRecord
  2
COMP9
340
0
  0
BLOCK_RECORD
  5
99
330
1
100
AcDbSymbolTableRecord
100
AcDbBlockTableRecord
  2
COMP10
340
0
  0
BLOCK_RECORD
  5
A6
330
1
100
AcDbSymbolTableRecord
100
AcDbBlockTableRecord
  2
COMP11
340
0
  0
BLOCK_RECORD
  5
B3
330
1
100
AcDbSymbolTableRecord
100
AcDbBlockTableRecord
  2
COMP12
340
0
  0
BLOCK_RECORD
  5
BE
330
1
100
AcDbSymbolTableRecord
100
AcDbBlockTableRecord
  2
COMP13
340
0
  0
BLOCK_RECORD
  5
CA
330
1
100
AcDbSymbolTableRecord
100
AcDbBlockTableRecord
  2
COMP14
340
0
  0
BLOCK_RECORD
  5
D6
330
1
100
AcDbSymbolTableRecord
100
AcDbBlockTableRecord
  2
COMP15
340
0
  0
BLOCK_RECORD
  5
E2
330
1
100
AcDbSymbolTableRecord
100
AcDbBlockTableRecord
  2
COMP16
340
0
  0
BLOCK_RECORD
  5
EE
330
1
100
AcDbSymbolTableRecord
100
AcDbBlockTableRecord
  2
COMP17
340
0
  0
BLOCK_RECORD
  5
FA
330
1
100
AcDbSymbolTableRecord
100
AcDbBlockTableRecord
  2
COMP18
340
0
  0
BLOCK_RECORD
  5
106
330
1
100
AcDbSymbolTableRecord
100
AcDbBlockTableRecord
  2
COMP19
340
0
  0
BLOCK_RECORD
  5
112
330
1
100
AcDbSymbolTableRecord
100
AcDbBlockTableRecord
  2
COMP20
340
0
  0
BLOCK_RECORD
  5
11E
330
1
100
AcDbSymbolTableRecord
100
AcDbBlockTableRecord
  2
COMP21
340
0
  0
BLOCK_RECORD
  5
12A
330
1
100
AcDbSymbolTableRecord
100
AcDbBlockTableRecord
  2
COMP22
340
0
  0
BLOCK_RECORD
  5
136
330
1
100
AcDbSymbolTableRecord
100
AcDbBlockTableRecord
  2
COMP23
340
0
  0
BLOCK_RECORD
  5
142
330
1
100
AcDbSymbolTableRecord
100
AcDbBlockTableRecord
  2
COMP24
340
0
  0
BLOCK_RECORD
  5
14E
330
1
100
AcDbSymbolTableRecord
100
AcDbBlockTableRecord
  2
COMP25
340
0
  0
BLOCK_RECORD
  5
15A
330
1
100
AcDbSymbolTableRecord
100
AcDbBlockTableRecord
  2
COMP26
340
0
  0
BLOCK_RECORD
  5
167
330
1
100
AcDbSymbolTableRecord
100
AcDbBlockTableRecord
  2
COMP27
340
0
  0
BLOCK_RECORD
  5
172
330
1
100
AcDbSymbolTableRecord
100
AcDbBlockTableRecord
  2
COMP28
340
0
  0
BLOCK_RECORD
  5
17F
330
1
100
AcDbSymbolTableRecord
100
AcDbBlockTableRecord
  2
COMP29
340
0
  0
BLOCK_RECORD
  5
18C
330
1
100
AcDbSymbolTableRecord
100
AcDbBlockTableRecord
  2
COMP30
340
0
  0
ENDTAB
  0
ENDSEC
  0
SECTION
  2
BLOCKS
  0
BLOCK
  5
1F
330
1E
100
AcDbEntity
  8
0
100
AcDbBlockBegin
  2
*MODEL_SPACE
 70
     0
 10
0.0
 20
0.0
 30
0.0
  3
*MODEL_SPACE
  1

  0
ENDBLK
  5
20
330
1E
100
AcDbEntity
  8
0
100
AcDbBlockEnd
  0
BLOCK
  5
1B
330
1A
100
AcDbEntity
 67
     1
  8
0
100
AcDbBlockBegin
  2
*PAPER_SPACE
 70
     0
 10
0.0
 20
0.0
 30
0.0
  3
*PAPER_SPACE
  1

  0
ENDBLK
  5
1C
330
1A
100
AcDbEntity
 67
     1
  8
0
100
AcDbBlockEnd
  0
BLOCK
  5
2B
330
2A
100
AcDbEntity
  8
0
100
AcDbBlockBegin
  2
MARK1_1
 70
     0
 10
0.0
 20
0.0
 30
0.0
  3
MARK1_1
  1

  0
LINE
  5
2C
330
2A
100
AcDbEntity
  8
0
  6
Continuous
 62
     0
100
AcDbLine
 10
1.0
 20
-0.25
 30
0.0
 11
0.0
 21
0.0
 31
0.0
  0
LINE
  5
2D
330
2A
100
AcDbEntity
  8
0
  6
Continuous
 62
     0
100
AcDbLine
 10
0.0
 20
0.0
 30
0.0
 11
1.0
 21
0.25
 31
0.0
  0
ENDBLK
  5
2E
330
2A
100
AcDbEntity
  8
0
100
AcDbBlockEnd
  0
BLOCK
  5
30
330
2F
100
AcDbEntity
  8
PIC06
100
AcDbBlockBegin
  2
COMP1
 70
     0
 10
0.0
 20
0.0
 30
0.0
  3
COMP1
  1

  0
LINE
  5
31
330
2F
100
AcDbEntity
  8
PIC06
  6
Continuous
 62
     7
100
AcDbLine
 10
-26.58398056030273
 20
71.65473175048828
 30
0.0
 11
-26.58398056030273
 21
54.46726608276367
 31
0.0
  0
INSERT
  5
32
330
2F
100
AcDbEntity
  8
PIC06
  6
Continuous
 62
     7
100
AcDbBlockReference
  2
MARK1_1
 10
-26.58398056030273
 20
71.65473175048828
 30
0.0
 41
2.5
 42
2.5
 50
270.0
  0
LINE
  5
33
330
2F
100
AcDbEntity
  8
PIC06
  6
Continuous
 62
     7
100
AcDbLine
 10
-26.58398056030273
 20
37.27978897094728
 30
0.0
 11
-26.58398056030273
 21
54.46725845336914
 31
0.0
  0
INSERT
  5
34
330
2F
100
AcDbEntity
  8
PIC06
  6
Continuous
 62
     7
100
AcDbBlockReference
  2
MARK1_1
 10
-26.58398056030273
 20
37.27978897094728
 30
0.0
 41
2.5
 42
2.5
 50
90.0
  0
LINE
  5
35
330
2F
100
AcDbEntity
  8
PIC06
  6
Continuous
 62
     7
100
AcDbLine
 10
-62.71012496948242
 20
71.65473175048828
 30
0.0
 11
-25.58398056030273
 21
71.65473175048828
 31
0.0
  0
LINE
  5
36
330
2F
100
AcDbEntity
  8
PIC06
  6
Continuous
 62
     7
100
AcDbLine
 10
-62.71012496948242
 20
37.27978897094728
 30
0.0
 11
-25.58398056030273
 21
37.27978897094728
 31
0.0
  0
TEXT
  5
37
330
2F
100
AcDbEntity
  8
PIC06
  6
Continuous
 62
     7
100
AcDbText
 10
-27.18398094177246
 20
52.12350845336914
 30
0.0
 40
2.5
  1
2
 50
90.0
 41
0.6547619344966496
100
AcDbText
  0
TEXT
  5
38
330
2F
100
AcDbEntity
  8
PIC06
  6
Continuous
 62
     7
100
AcDbText
 10
-27.18398038009373
 20
53.84225845336905
 30
0.0
 40
2.5
  1
7
 50
90.0
 41
0.6547619344966496
100
AcDbText
  0
TEXT
  5
39
330
2F
100
AcDbEntity
  8
PIC06
  6
Continuous
 62
     7
100
AcDbText
 10
-27.183979818415
 20
55.56100845336896
 30
0.0
 40
2.5
  1
5
 50
90.0
 41
0.6547619344966496
100
AcDbText
  0
ENDBLK
  5
3A
330
2F
100
AcDbEntity
  8
PIC06
100
AcDbBlockEnd
  0
BLOCK
  5
3C
330
3B
100
AcDbEntity
  8
PIC06
100
AcDbBlockBegin
  2
COMP2
 70
     0
 10
0.0
 20
0.0
 30
0.0
  3
COMP2
  1

  0
LINE
  5
3D
330
3B
100
AcDbEntity
  8
PIC06
  6
Continuous
 62
     7
100
AcDbLine
 10
-35.71900177001953
 20
15.50708484649658
 30
0.0
 11
-77.90651702880859
 21
15.50708484649658
 31
0.0
  0
INSERT
  5
3E
330
3B
100
AcDbEntity
  8
PIC06
  6
Continuous
 62
     7
100
AcDbBlockReference
  2
MARK1_1
 10
-35.71900177001953
 20
15.50708484649658
 30
0.0
 41
2.5
 42
2.5
 50
180.0
  0
LINE
  5
3F
330
3B
100
AcDbEntity
  8
PIC06
  6
Continuous
 62
     7
100
AcDbLine
 10
-120.0940399169922
 20
15.50708484649658
 30
0.0
 11
-77.90651702880859
 21
15.50708484649658
 31
0.0
  0
INSERT
  5
40
330
3B
100
AcDbEntity
  8
PIC06
  6
Continuous
 62
     7
100
AcDbBlockReference
  2
MARK1_1
 10
-120.0940399169922
 20
15.50708484649658
 30
0.0
 41
2.5
 42
2.5
  0
LINE
  5
41
330
3B
100
AcDbEntity
  8
PIC06
  6
Continuous
 62
     7
100
AcDbLine
 10
-35.71900177001953
 20
54.46725845336914
 30
0.0
 11
-35.71900177001953
 21
14.50708484649658
 31
0.0
  0
LINE
  5
42
330
3B
100
AcDbEntity
  8
PIC06
  6
Continuous
 62
     7
100
AcDbLine
 10
-120.0940399169922
 20
54.46725845336914
 30
0.0
 11
-120.0940399169922
 21
14.50708484649658
 31
0.0
  0
TEXT
  5
43
330
3B
100
AcDbEntity
  8
PIC06
  6
Continuous
 62
     7
100
AcDbText
 10
-80.25026702880859
 20
16.10708427429198
 30
0.0
 40
2.5
  1
6
 41
0.6547619344966496
100
AcDbText
  0
TEXT
  5
44
330
3B
100
AcDbEntity
  8
PIC06
  6
Continuous
 62
     7
100
AcDbText
 10
-78.53151702880859
 20
16.10708427429198
 30
0.0
 40
2.5
  1
7
 41
0.6547619344966496
100
AcDbText
  0
TEXT
  5
45
330
3B
100
AcDbEntity
  8
PIC06
  6
Continuous
 62
     7
100
AcDbText
 10
-76.81276702880859
 20
16.10708427429198
 30
0.0
 40
2.5
  1
5
 41
0.6547619344966496
100
AcDbText
  0
ENDBLK
  5
46
330
3B
100
AcDbEntity
  8
PIC06
100
AcDbBlockEnd
  0
BLOCK
  5
48
330
47
100
AcDbEntity
  8
PIC06
100
AcDbBlockBegin
  2
COMP3
 70
     0
 10
0.0
 20
0.0
 30
0.0
  3
COMP3
  1

  0
LINE
  5
49
330
47
100
AcDbEntity
  8
PIC06
  6
Continuous
 62
     7
100
AcDbLine
 10
-120.0940399169922
 20
19.80693626403809
 30
0.0
 11
-116.0940170288085
 21
19.80693626403809
 31
0.0
  0
INSERT
  5
4A
330
47
100
AcDbEntity
  8
PIC06
  6
Continuous
 62
     7
100
AcDbBlockReference
  2
MARK1_1
 10
-120.0940399169922
 20
19.80693626403809
 30
0.0
 41
2.5
 42
2.5
  0
LINE
  5
4B
330
47
100
AcDbEntity
  8
PIC06
  6
Continuous
 62
     7
100
AcDbLine
 10
-112.0940017700194
 20
19.80693626403809
 30
0.0
 11
-116.0940170288085
 21
19.80693626403809
 31
0.0
  0
INSERT
  5
4C
330
47
100
AcDbEntity
  8
PIC06
  6
Continuous
 62
     7
100
AcDbBlockReference
  2
MARK1_1
 10
-112.0940017700194
 20
19.80693626403809
 30
0.0
 41
2.5
 42
2.5
 50
180.0
  0
LINE
  5
4D
330
47
100
AcDbEntity
  8
PIC06
  6
Continuous
 62
     7
100
AcDbLine
 10
-120.0940399169922
 20
54.46725845336914
 30
0.0
 11
-120.0940399169922
 21
18.80693626403806
 31
0.0
  0
LINE
  5
4E
330
47
100
AcDbEntity
  8
PIC06
  6
Continuous
 62
     7
100
AcDbLine
 10
-112.0940017700194
 20
32.61544799804688
 30
0.0
 11
-112.0940017700194
 21
18.80693626403806
 31
0.0
  0
TEXT
  5
4F
330
47
100
AcDbEntity
  8
PIC06
  6
Continuous
 62
     7
100
AcDbText
 10
-117.5783920288084
 20
20.40693664550781
 30
0.0
 40
2.5
  1
6
 41
0.6547619344966496
100
AcDbText
  0
TEXT
  5
50
330
47
100
AcDbEntity
  8
PIC06
  6
Continuous
 62
     7
100
AcDbText
 10
-115.8596420288086
 20
20.40693664550781
 30
0.0
 40
2.5
  1
4
 41
0.6547619344966496
100
AcDbText
  0
ENDBLK
  5
51
330
47
100
AcDbEntity
  8
PIC06
100
AcDbBlockEnd
  0
BLOCK
  5
53
330
52
100
AcDbEntity
  8
PIC06
100
AcDbBlockBegin
  2
COMP4
 70
     0
 10
0.0
 20
0.0
 30
0.0
  3
COMP4
  1

  0
LINE
  5
54
330
52
100
AcDbEntity
  8
PIC06
  6
Continuous
 62
     7
100
AcDbLine
 10
-88.21900177001953
 20
19.61867904663085
 30
0.0
 11
-61.96900177001953
 21
19.61867904663085
 31
0.0
  0
INSERT
  5
55
330
52
100
AcDbEntity
  8
PIC06
  6
Continuous
 62
     7
100
AcDbBlockReference
  2
MARK1_1
 10
-88.21900177001953
 20
19.61867904663085
 30
0.0
 41
2.5
 42
2.5
  0
LINE
  5
56
330
52
100
AcDbEntity
  8
PIC06
  6
Continuous
 62
     7
100
AcDbLine
 10
-35.71900177001953
 20
19.61867904663085
 30
0.0
 11
-61.96900177001953
 21
19.61867904663085
 31
0.0
  0
INSERT
  5
57
330
52
100
AcDbEntity
  8
PIC06
  6
Continuous
 62
     7
100
AcDbBlockReference
  2
MARK1_1
 10
-35.71900177001953
 20
19.61867904663085
 30
0.0
 41
2.5
 42
2.5
 50
180.0
  0
LINE
  5
58
330
52
100
AcDbEntity
  8
PIC06
  6
Continuous
 62
     7
100
AcDbLine
 10
-88.21900177001953
 20
43.08388519287109
 30
0.0
 11
-88.21900177001953
 21
18.61867904663085
 31
0.0
  0
LINE
  5
59
330
52
100
AcDbEntity
  8
PIC06
  6
Continuous
 62
     7
100
AcDbLine
 10
-35.71900177001953
 20
54.46725845336914
 30
0.0
 11
-35.71900177001953
 21
18.61867904663085
 31
0.0
  0
TEXT
  5
5A
330
52
100
AcDbEntity
  8
PIC06
  6
Continuous
 62
     7
100
AcDbText
 10
-64.31275177001953
 20
20.21867942810059
 30
0.0
 40
2.5
  1
4
 41
0.6547619344966496
100
AcDbText
  0
TEXT
  5
5B
330
52
100
AcDbEntity
  8
PIC06
  6
Continuous
 62
     7
100
AcDbText
 10
-62.59400177001953
 20
20.21867942810059
 30
0.0
 40
2.5
  1
2
 41
0.6547619344966496
100
AcDbText
  0
TEXT
  5
5C
330
52
100
AcDbEntity
  8
PIC06
  6
Continuous
 62
     7
100
AcDbText
 10
-60.87525177001953
 20
20.21867942810059
 30
0.0
 40
2.5
  1
0
 41
0.6547619344966496
100
AcDbText
  0
ENDBLK
  5
5D
330
52
100
AcDbEntity
  8
PIC06
100
AcDbBlockEnd
  0
BLOCK
  5
5F
330
5E
100
AcDbEntity
  8
PIC06
100
AcDbBlockBegin
  2
COMP5
 70
     0
 10
0.0
 20
0.0
 30
0.0
  3
COMP5
  1

  0
LINE
  5
60
330
5E
100
AcDbEntity
  8
PIC06
  6
Continuous
 62
     7
100
AcDbLine
 10
-35.71900177001953
 20
23.73464393615721
 30
0.0
 11
-60.09400177001953
 21
23.73464393615721
 31
0.0
  0
INSERT
  5
61
330
5E
100
AcDbEntity
  8
PIC06
  6
Continuous
 62
     7
100
AcDbBlockReference
  2
MARK1_1
 10
-35.71900177001953
 20
23.73464393615721
 30
0.0
 41
2.5
 42
2.5
 50
180.0
  0
LINE
  5
62
330
5E
100
AcDbEntity
  8
PIC06
  6
Continuous
 62
     7
100
AcDbLine
 10
-84.46900177001953
 20
23.73464393615721
 30
0.0
 11
-60.09400177001953
 21
23.73464393615721
 31
0.0
  0
INSERT
  5
63
330
5E
100
AcDbEntity
  8
PIC06
  6
Continuous
 62
     7
100
AcDbBlockReference
  2
MARK1_1
 10
-84.46900177001953
 20
23.73464393615721
 30
0.0
 41
2.5
 42
2.5
  0
LINE
  5
64
330
5E
100
AcDbEntity
  8
PIC06
  6
Continuous
 62
     7
100
AcDbLine
 10
-35.71900177001953
 20
54.46725845336914
 30
0.0
 11
-35.71900177001953
 21
22.73464393615723
 31
0.0
  0
LINE
  5
65
330
5E
100
AcDbEntity
  8
PIC06
  6
Continuous
 62
     7
100
AcDbLine
 10
-84.46900177001953
 20
42.31525802612305
 30
0.0
 11
-84.46900177001953
 21
22.73464393615723
 31
0.0
  0
TEXT
  5
66
330
5E
100
AcDbEntity
  8
PIC06
  6
Continuous
 62
     7
100
AcDbText
 10
-62.43775177001953
 20
24.33464431762695
 30
0.0
 40
2.5
  1
3
 41
0.6547619344966496
100
AcDbText
  0
TEXT
  5
67
330
5E
100
AcDbEntity
  8
PIC06
  6
Continuous
 62
     7
100
AcDbText
 10
-60.71900177001953
 20
24.33464431762695
 30
0.0
 40
2.5
  1
9
 41
0.6547619344966496
100
AcDbText
  0
TEXT
  5
68
330
5E
100
AcDbEntity
  8
PIC06
  6
Continuous
 62
     7
100
AcDbText
 10
-59.00025177001953
 20
24.33464431762695
 30
0.0
 40
2.5
  1
0
 41
0.6547619344966496
100
AcDbText
  0
ENDBLK
  5
69
330
5E
100
AcDbEntity
  8
PIC06
100
AcDbBlockEnd
  0
BLOCK
  5
6B
330
6A
100
AcDbEntity
  8
PIC06
100
AcDbBlockBegin
  2
COMP6
 70
     0
 10
0.0
 20
0.0
 30
0.0
  3
COMP6
  1

  0
LINE
  5
6C
330
6A
100
AcDbEntity
  8
PIC06
  6
Continuous
 62
     7
100
AcDbLine
 10
-40.71900177001952
 20
28.17731475830078
 30
0.0
 11
-61.65651702880859
 21
28.17731475830078
 31
0.0
  0
INSERT
  5
6D
330
6A
100
AcDbEntity
  8
PIC06
  6
Continuous
 62
     7
100
AcDbBlockReference
  2
MARK1_1
 10
-40.71900177001952
 20
28.17731475830078
 30
0.0
 41
2.5
 42
2.5
 50
180.0
  0
LINE
  5
6E
330
6A
100
AcDbEntity
  8
PIC06
  6
Continuous
 62
     7
100
AcDbLine
 10
-82.59403228759765
 20
28.17731475830078
 30
0.0
 11
-61.65651702880859
 21
28.17731475830078
 31
0.0
  0
INSERT
  5
6F
330
6A
100
AcDbEntity
  8
PIC06
  6
Continuous
 62
     7
100
AcDbBlockReference
  2
MARK1_1
 10
-82.59403228759765
 20
28.17731475830078
 30
0.0
 41
2.5
 42
2.5
  0
LINE
  5
70
330
6A
100
AcDbEntity
  8
PIC06
  6
Continuous
 62
     7
100
AcDbLine
 10
-40.71900177001952
 20
54.46725845336914
 30
0.0
 11
-40.71900177001952
 21
27.17731475830078
 31
0.0
  0
LINE
  5
71
330
6A
100
AcDbEntity
  8
PIC06
  6
Continuous
 62
     7
100
AcDbLine
 10
-82.59403228759765
 20
54.46725845336914
 30
0.0
 11
-82.59403228759765
 21
27.17731475830078
 31
0.0
  0
TEXT
  5
72
330
6A
100
AcDbEntity
  8
PIC06
  6
Continuous
 62
     7
100
AcDbText
 10
-64.00025939941406
 20
28.77731513977051
 30
0.0
 40
2.5
  1
3
 41
0.6547619344966496
100
AcDbText
  0
TEXT
  5
73
330
6A
100
AcDbEntity
  8
PIC06
  6
Continuous
 62
     7
100
AcDbText
 10
-62.28150939941406
 20
28.77731513977051
 30
0.0
 40
2.5
  1
3
 41
0.6547619344966496
100
AcDbText
  0
TEXT
  5
74
330
6A
100
AcDbEntity
  8
PIC06
  6
Continuous
 62
     7
100
AcDbText
 10
-60.56275939941406
 20
28.77731513977051
 30
0.0
 40
2.5
  1
5
 41
0.6547619344966496
100
AcDbText
  0
ENDBLK
  5
75
330
6A
100
AcDbEntity
  8
PIC06
100
AcDbBlockEnd
  0
BLOCK
  5
77
330
76
100
AcDbEntity
  8
PIC06
100
AcDbBlockBegin
  2
COMP7
 70
     0
 10
0.0
 20
0.0
 30
0.0
  3
COMP7
  1

  0
LINE
  5
78
330
76
100
AcDbEntity
  8
PIC06
  6
Continuous
 62
     7
100
AcDbLine
 10
-120.0940399169922
 20
66.71395874023438
 30
0.0
 11
-114.6565170288085
 21
66.71395874023438
 31
0.0
  0
INSERT
  5
79
330
76
100
AcDbEntity
  8
PIC06
  6
Continuous
 62
     7
100
AcDbBlockReference
  2
MARK1_1
 10
-120.0940399169922
 20
66.71395874023438
 30
0.0
 41
2.5
 42
2.5
  0
LINE
  5
7A
330
76
100
AcDbEntity
  8
PIC06
  6
Continuous
 62
     7
100
AcDbLine
 10
-109.2190017700193
 20
66.71395874023438
 30
0.0
 11
-114.6565170288085
 21
66.71395874023438
 31
0.0
  0
INSERT
  5
7B
330
76
100
AcDbEntity
  8
PIC06
  6
Continuous
 62
     7
100
AcDbBlockReference
  2
MARK1_1
 10
-109.2190017700193
 20
66.71395874023438
 30
0.0
 41
2.5
 42
2.5
 50
180.0
  0
LINE
  5
7C
330
76
100
AcDbEntity
  8
PIC06
  6
Continuous
 62
     7
100
AcDbLine
 10
-120.0940399169922
 20
54.46725845336914
 30
0.0
 11
-120.0940399169922
 21
67.71395874023439
 31
0.0
  0
LINE
  5
7D
330
76
100
AcDbEntity
  8
PIC06
  6
Continuous
 62
     7
100
AcDbLine
 10
-109.2190017700193
 20
60.67843246459961
 30
0.0
 11
-109.2190017700193
 21
67.71396636962889
 31
0.0
  0
TEXT
  5
7E
330
76
100
AcDbEntity
  8
PIC06
  6
Continuous
 62
     7
100
AcDbText
 10
-116.1408920288085
 20
67.31395721435545
 30
0.0
 40
2.5
  1
8
 41
0.6547619344966496
100
AcDbText
  0
TEXT
  5
7F
330
76
100
AcDbEntity
  8
PIC06
  6
Continuous
 62
     7
100
AcDbText
 10
-114.4221420288086
 20
67.31395721435545
 30
0.0
 40
2.5
  1
7
 41
0.6547619344966496
100
AcDbText
  0
ENDBLK
  5
80
330
76
100
AcDbEntity
  8
PIC06
100
AcDbBlockEnd
  0
BLOCK
  5
82
330
81
100
AcDbEntity
  8
PIC06
100
AcDbBlockBegin
  2
COMP8
 70
     0
 10
0.0
 20
0.0
 30
0.0
  3
COMP8
  1

  0
LINE
  5
83
330
81
100
AcDbEntity
  8
PIC06
  6
Continuous
 62
     7
100
AcDbLine
 10
-92.48886108398435
 20
45.71725845336914
 30
0.0
 11
-92.48886108398435
 21
54.46725845336914
 31
0.0
  0
INSERT
  5
84
330
81
100
AcDbEntity
  8
PIC06
  6
Continuous
 62
     7
100
AcDbBlockReference
  2
MARK1_1
 10
-92.48886108398435
 20
45.71725845336914
 30
0.0
 41
2.5
 42
2.5
 50
90.0
  0
LINE
  5
85
330
81
100
AcDbEntity
  8
PIC06
  6
Continuous
 62
     7
100
AcDbLine
 10
-92.48886108398435
 20
63.21725845336914
 30
0.0
 11
-92.48886108398435
 21
54.46725845336914
 31
0.0
  0
INSERT
  5
86
330
81
100
AcDbEntity
  8
PIC06
  6
Continuous
 62
     7
100
AcDbBlockReference
  2
MARK1_1
 10
-92.48886108398435
 20
63.21725845336914
 30
0.0
 41
2.5
 42
2.5
 50
270.0
  0
LINE
  5
87
330
81
100
AcDbEntity
  8
PIC06
  6
Continuous
 62
     7
100
AcDbLine
 10
-90.63987731933591
 20
45.71725845336914
 30
0.0
 11
-93.48886108398437
 21
45.71725845336914
 31
0.0
  0
LINE
  5
88
330
81
100
AcDbEntity
  8
PIC06
  6
Continuous
 62
     7
100
AcDbLine
 10
-90.3939971923828
 20
63.21725845336914
 30
0.0
 11
-93.48886108398437
 21
63.21725845336914
 31
0.0
  0
TEXT
  5
89
330
81
100
AcDbEntity
  8
PIC06
  6
Continuous
 62
     7
100
AcDbText
 10
-93.2911376953125
 20
53.3907585144043
 30
0.0
 40
2.5
  1
1
 50
90.0
 41
0.6547619344966496
100
AcDbText
  0
TEXT
  5
8A
330
81
100
AcDbEntity
  8
PIC06
  6
Continuous
 62
     7
100
AcDbText
 10
-93.29113713363376
 20
55.1095085144042
 30
0.0
 40
2.5
  1
4
 50
90.0
 41
0.6547619344966496
100
AcDbText
  0
TEXT
  5
8B
330
81
100
AcDbEntity
  8
PIC06
  6
Continuous
 62
     7
100
AcDbText
 10
-93.29113657195504
 20
56.8282585144041
 30
0.0
 40
2.5
  1
0
 50
90.0
 41
0.6547619344966496
100
AcDbText
  0
ENDBLK
  5
8C
330
81
100
AcDbEntity
  8
PIC06
100
AcDbBlockEnd
  0
BLOCK
  5
8E
330
8D
100
AcDbEntity
  8
PIC06
100
AcDbBlockBegin
  2
COMP9
 70
     0
 10
0.0
 20
0.0
 30
0.0
  3
COMP9
  1

  0
LINE
  5
8F
330
8D
100
AcDbEntity
  8
PIC06
  6
Continuous
 62
     7
100
AcDbLine
 10
-73.62684631347656
 20
44.96725845336913
 30
0.0
 11
-73.62684631347656
 21
54.46725845336914
 31
0.0
  0
INSERT
  5
90
330
8D
100
AcDbEntity
  8
PIC06
  6
Continuous
 62
     7
100
AcDbBlockReference
  2
MARK1_1
 10
-73.62684631347656
 20
44.96725845336913
 30
0.0
 41
2.5
 42
2.5
 50
90.0
  0
LINE
  5
91
330
8D
100
AcDbEntity
  8
PIC06
  6
Continuous
 62
     7
100
AcDbLine
 10
-73.62684631347656
 20
63.96725845336914
 30
0.0
 11
-73.62684631347656
 21
54.46725845336914
 31
0.0
  0
INSERT
  5
92
330
8D
100
AcDbEntity
  8
PIC06
  6
Continuous
 62
     7
100
AcDbBlockReference
  2
MARK1_1
 10
-73.62684631347656
 20
63.96725845336914
 30
0.0
 41
2.5
 42
2.5
 50
270.0
  0
LINE
  5
93
330
8D
100
AcDbEntity
  8
PIC06
  6
Continuous
 62
     7
100
AcDbLine
 10
-83.04187774658203
 20
44.96725845336913
 30
0.0
 11
-72.62684631347656
 21
44.96725845336913
 31
0.0
  0
LINE
  5
94
330
8D
100
AcDbEntity
  8
PIC06
  6
Continuous
 62
     7
100
AcDbLine
 10
-83.04187774658203
 20
63.96725845336914
 30
0.0
 11
-72.62684631347656
 21
63.96725845336914
 31
0.0
  0
TEXT
  5
95
330
8D
100
AcDbEntity
  8
PIC06
  6
Continuous
 62
     7
100
AcDbText
 10
-74.12773895263672
 20
51.33268356323242
 30
0.0
 40
2.5
  1
1
 50
90.0
 41
0.6547619344966496
100
AcDbText
  0
TEXT
  5
96
330
8D
100
AcDbEntity
  8
PIC06
  6
Continuous
 62
     7
100
AcDbText
 10
-74.12773839095798
 20
53.05143356323233
 30
0.0
 40
2.5
  1
5
 50
90.0
 41
0.6547619344966496
100
AcDbText
  0
TEXT
  5
97
330
8D
100
AcDbEntity
  8
PIC06
  6
Continuous
 62
     7
100
AcDbText
 10
-74.12773782927925
 20
54.77018356323224
 30
0.0
 40
2.5
  1
2
 50
90.0
 41
0.6547619344966496
100
AcDbText
  0
ENDBLK
  5
98
330
8D
100
AcDbEntity
  8
PIC06
100
AcDbBlockEnd
  0
BLOCK
  5
9A
330
99
100
AcDbEntity
  8
PIC06
100
AcDbBlockBegin
  2
COMP10
 70
     0
 10
0.0
 20
0.0
 30
0.0
  3
COMP10
  1

  0
LINE
  5
9B
330
99
100
AcDbEntity
  8
PIC06
  6
Continuous
 62
     7
100
AcDbLine
 10
-85.34400177001954
 20
69.98611450195311
 30
0.0
 11
-88.34400177001953
 21
69.98611450195311
 31
0.0
  0
INSERT
  5
9C
330
99
100
AcDbEntity
  8
PIC06
  6
Continuous
 62
     7
100
AcDbBlockReference
  2
MARK1_1
 10
-85.34400177001954
 20
69.98611450195311
 30
0.0
 41
2.5
 42
2.5
 50
180.0
  0
LINE
  5
9D
330
99
100
AcDbEntity
  8
PIC06
  6
Continuous
 62
     7
100
AcDbLine
 10
-85.34400177001954
 20
69.98611450195311
 30
0.0
 11
-84.46900177001953
 21
69.98611450195311
 31
0.0
  0
LINE
  5
9E
330
99
100
AcDbEntity
  8
PIC06
  6
Continuous
 62
     7
100
AcDbLine
 10
-83.59400177001953
 20
69.98611450195311
 30
0.0
 11
-84.46900177001953
 21
69.98611450195311
 31
0.0
  0
LINE
  5
9F
330
99
100
AcDbEntity
  8
PIC06
  6
Continuous
 62
     7
100
AcDbLine
 10
-83.59400177001953
 20
69.98611450195311
 30
0.0
 11
-80.65265655517578
 21
69.98611450195311
 31
0.0
  0
INSERT
  5
A0
330
99
100
AcDbEntity
  8
PIC06
  6
Continuous
 62
     7
100
AcDbBlockReference
  2
MARK1_1
 10
-83.59400177001953
 20
69.98611450195311
 30
0.0
 41
2.5
 42
2.5
  0
LINE
  5
A1
330
99
100
AcDbEntity
  8
PIC06
  6
Continuous
 62
     7
100
AcDbLine
 10
-85.34400177001954
 20
64.65475463867189
 30
0.0
 11
-85.34400177001954
 21
70.98611450195313
 31
0.0
  0
LINE
  5
A2
330
99
100
AcDbEntity
  8
PIC06
  6
Continuous
 62
     7
100
AcDbLine
 10
-83.59400177001953
 20
64.65475463867189
 30
0.0
 11
-83.59400177001953
 21
70.98611450195313
 31
0.0
  0
TEXT
  5
A3
330
99
100
AcDbEntity
  8
PIC06
  6
Continuous
 62
     7
100
AcDbText
 10
-86.3031997680664
 20
71.2808837890625
 30
0.0
 40
2.5
  1
1
 41
0.6547619344966496
100
AcDbText
  0
TEXT
  5
A4
330
99
100
AcDbEntity
  8
PIC06
  6
Continuous
 62
     7
100
AcDbText
 10
-84.5844497680664
 20
71.2808837890625
 30
0.0
 40
2.5
  1
4
 41
0.6547619344966496
100
AcDbText
  0
ENDBLK
  5
A5
330
99
100
AcDbEntity
  8
PIC06
100
AcDbBlockEnd
  0
BLOCK
  5
A7
330
A6
100
AcDbEntity
  8
PIC06
100
AcDbBlockBegin
  2
COMP11
 70
     0
 10
0.0
 20
0.0
 30
0.0
  3
COMP11
  1

  0
LINE
  5
A8
330
A6
100
AcDbEntity
  8
PIC06
  6
Continuous
 62
     7
100
AcDbLine
 10
-76.35917663574218
 20
62.40475845336914
 30
0.0
 11
-76.35917663574218
 21
59.40475845336914
 31
0.0
  0
INSERT
  5
A9
330
A6
100
AcDbEntity
  8
PIC06
  6
Continuous
 62
     7
100
AcDbBlockReference
  2
MARK1_1
 10
-76.35917663574218
 20
62.40475845336914
 30
0.0
 41
2.5
 42
2.5
 50
270.0
  0
LINE
  5
AA
330
A6
100
AcDbEntity
  8
PIC06
  6
Continuous
 62
     7
100
AcDbLine
 10
-76.35917663574218
 20
62.40475845336914
 30
0.0
 11
-76.35917663574218
 21
63.96725845336914
 31
0.0
  0
LINE
  5
AB
330
A6
100
AcDbEntity
  8
PIC06
  6
Continuous
 62
     7
100
AcDbLine
 10
-76.35917663574218
 20
65.52975463867189
 30
0.0
 11
-76.35917663574218
 21
63.96725845336914
 31
0.0
  0
LINE
  5
AC
330
A6
100
AcDbEntity
  8
PIC06
  6
Continuous
 62
     7
100
AcDbLine
 10
-76.35917663574218
 20
65.52975463867189
 30
0.0
 11
-76.35917663574218
 21
72.49850463867187
 31
0.0
  0
INSERT
  5
AD
330
A6
100
AcDbEntity
  8
PIC06
  6
Continuous
 62
     7
100
AcDbBlockReference
  2
MARK1_1
 10
-76.35917663574218
 20
65.52975463867189
 30
0.0
 41
2.5
 42
2.5
 50
90.0
  0
LINE
  5
AE
330
A6
100
AcDbEntity
  8
PIC06
  6
Continuous
 62
     7
100
AcDbLine
 10
-84.46900177001953
 20
62.40475845336914
 30
0.0
 11
-75.35917663574219
 21
62.40475845336914
 31
0.0
  0
LINE
  5
AF
330
A6
100
AcDbEntity
  8
PIC06
  6
Continuous
 62
     7
100
AcDbLine
 10
-84.46900177001953
 20
65.52975463867189
 30
0.0
 11
-75.35917663574219
 21
65.52975463867189
 31
0.0
  0
TEXT
  5
B0
330
A6
100
AcDbEntity
  8
PIC06
  6
Continuous
 62
     7
100
AcDbText
 10
-76.95917510986328
 20
69.02975463867189
 30
0.0
 40
2.5
  1
2
 50
90.0
 41
0.6547619344966496
100
AcDbText
  0
TEXT
  5
B1
330
A6
100
AcDbEntity
  8
PIC06
  6
Continuous
 62
     7
100
AcDbText
 10
-76.95917454818455
 20
70.7485046386718
 30
0.0
 40
2.5
  1
5
 50
90.0
 41
0.6547619344966496
100
AcDbText
  0
ENDBLK
  5
B2
330
A6
100
AcDbEntity
  8
PIC06
100
AcDbBlockEnd
  0
BLOCK
  5
B4
330
B3
100
AcDbEntity
  8
PIC06
100
AcDbBlockBegin
  2
COMP12
 70
     0
 10
0.0
 20
0.0
 30
0.0
  3
COMP12
  1

  0
LINE
  5
B5
330
B3
100
AcDbEntity
  8
PIC06
  6
Continuous
 62
     7
100
AcDbLine
 10
-88.84832763671875
 20
63.8251838684082
 30
0.0
 11
-95.0966339111328
 21
69.86102294921875
 31
0.0
  0
INSERT
  5
B6
330
B3
100
AcDbEntity
  8
PIC06
  6
Continuous
 62
     7
100
AcDbBlockReference
  2
MARK1_1
 10
-88.84832763671875
 20
63.8251838684082
 30
0.0
 41
2.5
 42
2.5
 50
136.0
  0
LINE
  5
B7
330
B3
100
AcDbEntity
  8
PIC06
  6
Continuous
 62
     7
100
AcDbLine
 10
-88.84832763671875
 20
63.8251838684082
 30
0.0
 11
-88.21900177001953
 21
63.21725845336914
 31
0.0
  0
LINE
  5
B8
330
B3
100
AcDbEntity
  8
PIC06
  6
Continuous
 62
     7
100
AcDbLine
 10
-87.58967590332032
 20
62.60933303833008
 30
0.0
 11
-88.21900177001953
 21
63.21725845336914
 31
0.0
  0
LINE
  5
B9
330
B3
100
AcDbEntity
  8
PIC06
  6
Continuous
 62
     7
100
AcDbLine
 10
-87.58967590332032
 20
62.60933303833008
 30
0.0
 11
-85.43198394775391
 21
60.52501678466796
 31
0.0
  0
INSERT
  5
BA
330
B3
100
AcDbEntity
  8
PIC06
  6
Continuous
 62
     7
100
AcDbBlockReference
  2
MARK1_1
 10
-87.58967590332032
 20
62.60933303833008
 30
0.0
 41
2.5
 42
2.5
 50
316.0
  0
TEXT
  5
BB
330
B3
100
AcDbEntity
  8
PIC06
  6
Continuous
 62
     7
100
AcDbText
 10
-94.3220672607422
 20
70.54481506347656
 30
0.0
 40
2.5
  1
1
 50
316.0
 41
0.6547619344966496
100
AcDbText
  0
TEXT
  5
BC
330
B3
100
AcDbEntity
  8
PIC06
  6
Continuous
 62
     7
100
AcDbText
 10
-93.08570334885812
 20
69.35086957062911
 30
0.0
 40
2.5
  1
4
 50
316.0
 41
0.6547619344966496
100
AcDbText
  0
ENDBLK
  5
BD
330
B3
100
AcDbEntity
  8
PIC06
100
AcDbBlockEnd
  0
BLOCK
  5
BF
330
BE
100
AcDbEntity
  8
PIC06
100
AcDbBlockBegin
  2
COMP13
 70
     0
 10
0.0
 20
0.0
 30
0.0
  3
COMP13
  1

  0
LINE
  5
C0
330
BE
100
AcDbEntity
  8
PIC06
  6
Continuous
 62
     7
100
AcDbLine
 10
-125.9489822387694
 20
54.46725845336914
 30
0.0
 11
-125.9489822387694
 21
46.34225845336914
 31
0.0
  0
INSERT
  5
C1
330
BE
100
AcDbEntity
  8
PIC06
  6
Continuous
 62
     7
100
AcDbBlockReference
  2
MARK1_1
 10
-125.9489822387694
 20
54.46725845336914
 30
0.0
 41
2.5
 42
2.5
 50
270.0
  0
LINE
  5
C2
330
BE
100
AcDbEntity
  8
PIC06
  6
Continuous
 62
     7
100
AcDbLine
 10
-125.9489822387694
 20
38.21725845336914
 30
0.0
 11
-125.9489822387694
 21
46.34225845336914
 31
0.0
  0
INSERT
  5
C3
330
BE
100
AcDbEntity
  8
PIC06
  6
Continuous
 62
     7
100
AcDbBlockReference
  2
MARK1_1
 10
-125.9489822387694
 20
38.21725845336914
 30
0.0
 41
2.5
 42
2.5
 50
90.0
  0
LINE
  5
C4
330
BE
100
AcDbEntity
  8
PIC06
  6
Continuous
 62
     7
100
AcDbLine
 10
-121.7381668090819
 20
54.46725845336914
 30
0.0
 11
-126.9489746093749
 21
54.46725845336914
 31
0.0
  0
LINE
  5
C5
330
BE
100
AcDbEntity
  8
PIC06
  6
Continuous
 62
     7
100
AcDbLine
 10
-117.6954727172851
 20
38.21725845336914
 30
0.0
 11
-126.948989868164
 21
38.21725845336914
 31
0.0
  0
TEXT
  5
C6
330
BE
100
AcDbEntity
  8
PIC06
  6
Continuous
 62
     7
100
AcDbText
 10
-126.5489807128904
 20
43.99850845336914
 30
0.0
 40
2.5
  1
1
 50
90.0
 41
0.6547619344966496
100
AcDbText
  0
TEXT
  5
C7
330
BE
100
AcDbEntity
  8
PIC06
  6
Continuous
 62
     7
100
AcDbText
 10
-126.5489801512119
 20
45.71725845336905
 30
0.0
 40
2.5
  1
3
 50
90.0
 41
0.6547619344966496
100
AcDbText
  0
TEXT
  5
C8
330
BE
100
AcDbEntity
  8
PIC06
  6
Continuous
 62
     7
100
AcDbText
 10
-126.5489795895331
 20
47.43600845336895
 30
0.0
 40
2.5
  1
0
 50
90.0
 41
0.6547619344966496
100
AcDbText
  0
ENDBLK
  5
C9
330
BE
100
AcDbEntity
  8
PIC06
100
AcDbBlockEnd
  0
BLOCK
  5
CB
330
CA
100
AcDbEntity
  8
PIC06
100
AcDbBlockBegin
  2
COMP14
 70
     0
 10
0.0
 20
0.0
 30
0.0
  3
COMP14
  1

  0
LINE
  5
CC
330
CA
100
AcDbEntity
  8
PIC06
  6
Continuous
 62
     7
100
AcDbLine
 10
-20.79081153869628
 20
-72.75299835205078
 30
0.0
 11
-20.79081153869628
 21
-29.62801361083984
 31
0.0
  0
INSERT
  5
CD
330
CA
100
AcDbEntity
  8
PIC06
  6
Continuous
 62
     7
100
AcDbBlockReference
  2
MARK1_1
 10
-20.79081153869628
 20
-72.75299835205078
 30
0.0
 41
2.5
 42
2.5
 50
90.0
  0
LINE
  5
CE
330
CA
100
AcDbEntity
  8
PIC06
  6
Continuous
 62
     7
100
AcDbLine
 10
-20.79081153869628
 20
13.49697685241699
 30
0.0
 11
-20.79081153869628
 21
-29.62801551818848
 31
0.0
  0
INSERT
  5
CF
330
CA
100
AcDbEntity
  8
PIC06
  6
Continuous
 62
     7
100
AcDbBlockReference
  2
MARK1_1
 10
-20.79081153869628
 20
13.49697685241699
 30
0.0
 41
2.5
 42
2.5
 50
270.0
  0
LINE
  5
D0
330
CA
100
AcDbEntity
  8
PIC06
  6
Continuous
 62
     7
100
AcDbLine
 10
-48.59887313842771
 20
-72.75299835205078
 30
0.0
 11
-19.79081153869628
 21
-72.75299835205078
 31
0.0
  0
LINE
  5
D1
330
CA
100
AcDbEntity
  8
PIC06
  6
Continuous
 62
     7
100
AcDbLine
 10
-118.2419967651367
 20
13.49697685241699
 30
0.0
 11
-19.79081153869628
 21
13.49697685241699
 31
0.0
  0
TEXT
  5
D2
330
CA
100
AcDbEntity
  8
PIC06
  6
Continuous
 62
     7
100
AcDbText
 10
-21.39081192016602
 20
-31.97176361083984
 30
0.0
 40
2.5
  1
6
 50
90.0
 41
0.6547619344966496
100
AcDbText
  0
TEXT
  5
D3
330
CA
100
AcDbEntity
  8
PIC06
  6
Continuous
 62
     7
100
AcDbText
 10
-21.39081135848728
 20
-30.25301361083994
 30
0.0
 40
2.5
  1
9
 50
90.0
 41
0.6547619344966496
100
AcDbText
  0
TEXT
  5
D4
330
CA
100
AcDbEntity
  8
PIC06
  6
Continuous
 62
     7
100
AcDbText
 10
-21.39081079680856
 20
-28.53426361084002
 30
0.0
 40
2.5
  1
0
 50
90.0
 41
0.6547619344966496
100
AcDbText
  0
ENDBLK
  5
D5
330
CA
100
AcDbEntity
  8
PIC06
100
AcDbBlockEnd
  0
BLOCK
  5
D7
330
D6
100
AcDbEntity
  8
PIC06
100
AcDbBlockBegin
  2
COMP15
 70
     0
 10
0.0
 20
0.0
 30
0.0
  3
COMP15
  1

  0
LINE
  5
D8
330
D6
100
AcDbEntity
  8
PIC06
  6
Continuous
 62
     7
100
AcDbLine
 10
-26.58398056030273
 20
-72.75299835205078
 30
0.0
 11
-26.58398056030273
 21
-49.62799835205078
 31
0.0
  0
INSERT
  5
D9
330
D6
100
AcDbEntity
  8
PIC06
  6
Continuous
 62
     7
100
AcDbBlockReference
  2
MARK1_1
 10
-26.58398056030273
 20
-72.75299835205078
 30
0.0
 41
2.5
 42
2.5
 50
90.0
  0
LINE
  5
DA
330
D6
100
AcDbEntity
  8
PIC06
  6
Continuous
 62
     7
100
AcDbLine
 10
-26.58398056030273
 20
-26.50300025939941
 30
0.0
 11
-26.58398056030273
 21
-49.62799835205078
 31
0.0
  0
INSERT
  5
DB
330
D6
100
AcDbEntity
  8
PIC06
  6
Continuous
 62
     7
100
AcDbBlockReference
  2
MARK1_1
 10
-26.58398056030273
 20
-26.50300025939941
 30
0.0
 41
2.5
 42
2.5
 50
270.0
  0
LINE
  5
DC
330
D6
100
AcDbEntity
  8
PIC06
  6
Continuous
 62
     7
100
AcDbLine
 10
-48.59887313842771
 20
-72.75299835205078
 30
0.0
 11
-25.58398056030273
 21
-72.75299835205078
 31
0.0
  0
LINE
  5
DD
330
D6
100
AcDbEntity
  8
PIC06
  6
Continuous
 62
     7
100
AcDbLine
 10
-36.71900177001953
 20
-26.50300025939941
 30
0.0
 11
-25.58398056030273
 21
-26.50300025939941
 31
0.0
  0
TEXT
  5
DE
330
D6
100
AcDbEntity
  8
PIC06
  6
Continuous
 62
     7
100
AcDbText
 10
-27.18398094177246
 20
-51.97174835205078
 30
0.0
 40
2.5
  1
3
 50
90.0
 41
0.6547619344966496
100
AcDbText
  0
TEXT
  5
DF
330
D6
100
AcDbEntity
  8
PIC06
  6
Continuous
 62
     7
100
AcDbText
 10
-27.18398038009373
 20
-50.25299835205085
 30
0.0
 40
2.5
  1
7
 50
90.0
 41
0.6547619344966496
100
AcDbText
  0
TEXT
  5
E0
330
D6
100
AcDbEntity
  8
PIC06
  6
Continuous
 62
     7
100
AcDbText
 10
-27.183979818415
 20
-48.53424835205097
 30
0.0
 40
2.5
  1
0
 50
90.0
 41
0.6547619344966496
100
AcDbText
  0
ENDBLK
  5
E1
330
D6
100
AcDbEntity
  8
PIC06
100
AcDbBlockEnd
  0
BLOCK
  5
E3
330
E2
100
AcDbEntity
  8
PIC06
100
AcDbBlockBegin
  2
COMP16
 70
     0
 10
0.0
 20
0.0
 30
0.0
  3
COMP16
  1

  0
LINE
  5
E4
330
E2
100
AcDbEntity
  8
PIC06
  6
Continuous
 62
     7
100
AcDbLine
 10
-26.58398056030273
 20
-26.50300025939941
 30
0.0
 11
-26.58398056030273
 21
-6.50301170349121
 31
0.0
  0
INSERT
  5
E5
330
E2
100
AcDbEntity
  8
PIC06
  6
Continuous
 62
     7
100
AcDbBlockReference
  2
MARK1_1
 10
-26.58398056030273
 20
-26.50300025939941
 30
0.0
 41
2.5
 42
2.5
 50
90.0
  0
LINE
  5
E6
330
E2
100
AcDbEntity
  8
PIC06
  6
Continuous
 62
     7
100
AcDbLine
 10
-26.58398056030273
 20
13.49697685241699
 30
0.0
 11
-26.58398056030273
 21
-6.50301170349121
 31
0.0
  0
INSERT
  5
E7
330
E2
100
AcDbEntity
  8
PIC06
  6
Continuous
 62
     7
100
AcDbBlockReference
  2
MARK1_1
 10
-26.58398056030273
 20
13.49697685241699
 30
0.0
 41
2.5
 42
2.5
 50
270.0
  0
LINE
  5
E8
330
E2
100
AcDbEntity
  8
PIC06
  6
Continuous
 62
     7
100
AcDbLine
 10
-36.71900177001953
 20
-26.50300025939941
 30
0.0
 11
-25.58398056030273
 21
-26.50300025939941
 31
0.0
  0
LINE
  5
E9
330
E2
100
AcDbEntity
  8
PIC06
  6
Continuous
 62
     7
100
AcDbLine
 10
-118.2419967651367
 20
13.49697685241699
 30
0.0
 11
-25.58398056030273
 21
13.49697685241699
 31
0.0
  0
TEXT
  5
EA
330
E2
100
AcDbEntity
  8
PIC06
  6
Continuous
 62
     7
100
AcDbText
 10
-27.18398094177246
 20
-8.84676170349121
 30
0.0
 40
2.5
  1
3
 50
90.0
 41
0.6547619344966496
100
AcDbText
  0
TEXT
  5
EB
330
E2
100
AcDbEntity
  8
PIC06
  6
Continuous
 62
     7
100
AcDbText
 10
-27.18398038009373
 20
-7.128011703491302
 30
0.0
 40
2.5
  1
2
 50
90.0
 41
0.6547619344966496
100
AcDbText
  0
TEXT
  5
EC
330
E2
100
AcDbEntity
  8
PIC06
  6
Continuous
 62
     7
100
AcDbText
 10
-27.183979818415
 20
-5.409261703491393
 30
0.0
 40
2.5
  1
0
 50
90.0
 41
0.6547619344966496
100
AcDbText
  0
ENDBLK
  5
ED
330
E2
100
AcDbEntity
  8
PIC06
100
AcDbBlockEnd
  0
BLOCK
  5
EF
330
EE
100
AcDbEntity
  8
PIC06
100
AcDbBlockBegin
  2
COMP17
 70
     0
 10
0.0
 20
0.0
 30
0.0
  3
COMP17
  1

  0
LINE
  5
F0
330
EE
100
AcDbEntity
  8
PIC06
  6
Continuous
 62
     7
100
AcDbLine
 10
-112.0940017700194
 20
4.122012615203856
 30
0.0
 11
-112.0940017700194
 21
0.3123888969421387
 31
0.0
  0
INSERT
  5
F1
330
EE
100
AcDbEntity
  8
PIC06
  6
Continuous
 62
     7
100
AcDbBlockReference
  2
MARK1_1
 10
-112.0940017700194
 20
4.122012615203856
 30
0.0
 41
2.5
 42
2.5
 50
270.0
  0
LINE
  5
F2
330
EE
100
AcDbEntity
  8
PIC06
  6
Continuous
 62
     7
100
AcDbLine
 10
-112.0940017700194
 20
4.122012615203856
 30
0.0
 11
-112.0940017700194
 21
5.997012615203857
 31
0.0
  0
LINE
  5
F3
330
EE
100
AcDbEntity
  8
PIC06
  6
Continuous
 62
     7
100
AcDbLine
 10
-112.0940017700194
 20
7.872012615203857
 30
0.0
 11
-112.0940017700194
 21
5.997012615203857
 31
0.0
  0
LINE
  5
F4
330
EE
100
AcDbEntity
  8
PIC06
  6
Continuous
 62
     7
100
AcDbLine
 10
-112.0940017700194
 20
7.872012615203857
 30
0.0
 11
-112.0940017700194
 21
10.87201309204102
 31
0.0
  0
INSERT
  5
F5
330
EE
100
AcDbEntity
  8
PIC06
  6
Continuous
 62
     7
100
AcDbBlockReference
  2
MARK1_1
 10
-112.0940017700194
 20
7.872012615203857
 30
0.0
 41
2.5
 42
2.5
 50
90.0
  0
LINE
  5
F6
330
EE
100
AcDbEntity
  8
PIC06
  6
Continuous
 62
     7
100
AcDbLine
 10
-108.4286270141602
 20
4.122012615203856
 30
0.0
 11
-113.0940017700194
 21
4.122012615203856
 31
0.0
  0
TEXT
  5
F7
330
EE
100
AcDbEntity
  8
PIC06
  6
Continuous
 62
     7
100
AcDbText
 10
-113.4660720825193
 20
4.144175052642821
 30
0.0
 40
2.5
  1
3
 50
90.0
 41
0.6547619344966496
100
AcDbText
  0
TEXT
  5
F8
330
EE
100
AcDbEntity
  8
PIC06
  6
Continuous
 62
     7
100
AcDbText
 10
-113.4660715208408
 20
5.862925052642731
 30
0.0
 40
2.5
  1
0
 50
90.0
 41
0.6547619344966496
100
AcDbText
  0
ENDBLK
  5
F9
330
EE
100
AcDbEntity
  8
PIC06
100
AcDbBlockEnd
  0
BLOCK
  5
FB
330
FA
100
AcDbEntity
  8
PIC06
100
AcDbBlockBegin
  2
COMP18
 70
     0
 10
0.0
 20
0.0
 30
0.0
  3
COMP18
  1

  0
LINE
  5
FC
330
FA
100
AcDbEntity
  8
PIC06
  6
Continuous
 62
     7
100
AcDbLine
 10
-48.59637451171875
 20
-90.06381225585938
 30
0.0
 11
-82.97137451171876
 21
-90.06381225585938
 31
0.0
  0
INSERT
  5
FD
330
FA
100
AcDbEntity
  8
PIC06
  6
Continuous
 62
     7
100
AcDbBlockReference
  2
MARK1_1
 10
-48.59637451171875
 20
-90.06381225585938
 30
0.0
 41
2.5
 42
2.5
 50
180.0
  0
LINE
  5
FE
330
FA
100
AcDbEntity
  8
PIC06
  6
Continuous
 62
     7
100
AcDbLine
 10
-117.3463745117187
 20
-90.06381225585938
 30
0.0
 11
-82.97137451171876
 21
-90.06381225585938
 31
0.0
  0
INSERT
  5
FF
330
FA
100
AcDbEntity
  8
PIC06
  6
Continuous
 62
     7
100
AcDbBlockReference
  2
MARK1_1
 10
-117.3463745117187
 20
-90.06381225585938
 30
0.0
 41
2.5
 42
2.5
  0
LINE
  5
100
330
FA
100
AcDbEntity
  8
PIC06
  6
Continuous
 62
     7
100
AcDbLine
 10
-48.59637451171875
 20
-72.75299835205078
 30
0.0
 11
-48.59637451171875
 21
-91.06381225585938
 31
0.0
  0
LINE
  5
101
330
FA
100
AcDbEntity
  8
PIC06
  6
Continuous
 62
     7
100
AcDbLine
 10
-117.3463745117187
 20
-72.75299835205078
 30
0.0
 11
-117.3463745117187
 21
-91.06381225585938
 31
0.0
  0
TEXT
  5
102
330
FA
100
AcDbEntity
  8
PIC06
  6
Continuous
 62
     7
100
AcDbText
 10
-85.31512451171876
 20
-89.46381378173828
 30
0.0
 40
2.5
  1
5
 41
0.6547619344966496
100
AcDbText
  0
TEXT
  5
103
330
FA
100
AcDbEntity
  8
PIC06
  6
Continuous
 62
     7
100
AcDbText
 10
-83.59637451171876
 20
-89.46381378173828
 30
0.0
 40
2.5
  1
5
 41
0.6547619344966496
100
AcDbText
  0
TEXT
  5
104
330
FA
100
AcDbEntity
  8
PIC06
  6
Continuous
 62
     7
100
AcDbText
 10
-81.87762451171876
 20
-89.46381378173828
 30
0.0
 40
2.5
  1
0
 41
0.6547619344966496
100
AcDbText
  0
ENDBLK
  5
105
330
FA
100
AcDbEntity
  8
PIC06
100
AcDbBlockEnd
  0
BLOCK
  5
107
330
106
100
AcDbEntity
  8
PIC06
100
AcDbBlockBegin
  2
COMP19
 70
     0
 10
0.0
 20
0.0
 30
0.0
  3
COMP19
  1

  0
LINE
  5
108
330
106
100
AcDbEntity
  8
PIC06
  6
Continuous
 62
     7
100
AcDbLine
 10
-48.59637451171875
 20
-85.5094528198242
 30
0.0
 11
-66.53387451171875
 21
-85.5094528198242
 31
0.0
  0
INSERT
  5
109
330
106
100
AcDbEntity
  8
PIC06
  6
Continuous
 62
     7
100
AcDbBlockReference
  2
MARK1_1
 10
-48.59637451171875
 20
-85.5094528198242
 30
0.0
 41
2.5
 42
2.5
 50
180.0
  0
LINE
  5
10A
330
106
100
AcDbEntity
  8
PIC06
  6
Continuous
 62
     7
100
AcDbLine
 10
-84.47137451171874
 20
-85.5094528198242
 30
0.0
 11
-66.53387451171875
 21
-85.5094528198242
 31
0.0
  0
INSERT
  5
10B
330
106
100
AcDbEntity
  8
PIC06
  6
Continuous
 62
     7
100
AcDbBlockReference
  2
MARK1_1
 10
-84.47137451171874
 20
-85.5094528198242
 30
0.0
 41
2.5
 42
2.5
  0
LINE
  5
10C
330
106
100
AcDbEntity
  8
PIC06
  6
Continuous
 62
     7
100
AcDbLine
 10
-48.59637451171875
 20
-72.75299835205078
 30
0.0
 11
-48.59637451171875
 21
-86.50945281982421
 31
0.0
  0
LINE
  5
10D
330
106
100
AcDbEntity
  8
PIC06
  6
Continuous
 62
     7
100
AcDbLine
 10
-84.47137451171874
 20
-74.73537445068359
 30
0.0
 11
-84.47137451171874
 21
-86.50945281982421
 31
0.0
  0
TEXT
  5
10E
330
106
100
AcDbEntity
  8
PIC06
  6
Continuous
 62
     7
100
AcDbText
 10
-68.87762451171875
 20
-84.90945434570312
 30
0.0
 40
2.5
  1
2
 41
0.6547619344966496
100
AcDbText
  0
TEXT
  5
10F
330
106
100
AcDbEntity
  8
PIC06
  6
Continuous
 62
     7
100
AcDbText
 10
-67.15887451171875
 20
-84.90945434570312
 30
0.0
 40
2.5
  1
8
 41
0.6547619344966496
100
AcDbText
  0
TEXT
  5
110
330
106
100
AcDbEntity
  8
PIC06
  6
Continuous
 62
     7
100
AcDbText
 10
-65.44012451171875
 20
-84.90945434570312
 30
0.0
 40
2.5
  1
7
 41
0.6547619344966496
100
AcDbText
  0
ENDBLK
  5
111
330
106
100
AcDbEntity
  8
PIC06
100
AcDbBlockEnd
  0
BLOCK
  5
113
330
112
100
AcDbEntity
  8
PIC06
100
AcDbBlockBegin
  2
COMP20
 70
     0
 10
0.0
 20
0.0
 30
0.0
  3
COMP20
  1

  0
LINE
  5
114
330
112
100
AcDbEntity
  8
PIC06
  6
Continuous
 62
     7
100
AcDbLine
 10
-84.47137451171874
 20
-85.5094528198242
 30
0.0
 11
-100.9088745117187
 21
-85.5094528198242
 31
0.0
  0
INSERT
  5
115
330
112
100
AcDbEntity
  8
PIC06
  6
Continuous
 62
     7
100
AcDbBlockReference
  2
MARK1_1
 10
-84.47137451171874
 20
-85.5094528198242
 30
0.0
 41
2.5
 42
2.5
 50
180.0
  0
LINE
  5
116
330
112
100
AcDbEntity
  8
PIC06
  6
Continuous
 62
     7
100
AcDbLine
 10
-117.3463745117187
 20
-85.5094528198242
 30
0.0
 11
-100.9088745117187
 21
-85.5094528198242
 31
0.0
  0
INSERT
  5
117
330
112
100
AcDbEntity
  8
PIC06
  6
Continuous
 62
     7
100
AcDbBlockReference
  2
MARK1_1
 10
-117.3463745117187
 20
-85.5094528198242
 30
0.0
 41
2.5
 42
2.5
  0
LINE
  5
118
330
112
100
AcDbEntity
  8
PIC06
  6
Continuous
 62
     7
100
AcDbLine
 10
-84.47137451171874
 20
-86.7166290283203
 30
0.0
 11
-84.47137451171874
 21
-84.50945281982422
 31
0.0
  0
LINE
  5
119
330
112
100
AcDbEntity
  8
PIC06
  6
Continuous
 62
     7
100
AcDbLine
 10
-117.3463745117187
 20
-72.75299835205078
 30
0.0
 11
-117.3463745117187
 21
-86.50945281982421
 31
0.0
  0
TEXT
  5
11A
330
112
100
AcDbEntity
  8
PIC06
  6
Continuous
 62
     7
100
AcDbText
 10
-103.2526245117187
 20
-84.90945434570312
 30
0.0
 40
2.5
  1
2
 41
0.6547619344966496
100
AcDbText
  0
TEXT
  5
11B
330
112
100
AcDbEntity
  8
PIC06
  6
Continuous
 62
     7
100
AcDbText
 10
-101.5338745117188
 20
-84.90945434570312
 30
0.0
 40
2.5
  1
6
 41
0.6547619344966496
100
AcDbText
  0
TEXT
  5
11C
330
112
100
AcDbEntity
  8
PIC06
  6
Continuous
 62
     7
100
AcDbText
 10
-99.81512451171877
 20
-84.90945434570312
 30
0.0
 40
2.5
  1
3
 41
0.6547619344966496
100
AcDbText
  0
ENDBLK
  5
11D
330
112
100
AcDbEntity
  8
PIC06
100
AcDbBlockEnd
  0
BLOCK
  5
11F
330
11E
100
AcDbEntity
  8
PIC06
100
AcDbBlockBegin
  2
COMP21
 70
     0
 10
0.0
 20
0.0
 30
0.0
  3
COMP21
  1

  0
LINE
  5
120
330
11E
100
AcDbEntity
  8
PIC06
  6
Continuous
 62
     7
100
AcDbLine
 10
-78.84630584716797
 20
-81.69586181640625
 30
0.0
 11
-84.47130584716797
 21
-81.69586181640625
 31
0.0
  0
INSERT
  5
121
330
11E
100
AcDbEntity
  8
PIC06
  6
Continuous
 62
     7
100
AcDbBlockReference
  2
MARK1_1
 10
-78.84630584716797
 20
-81.69586181640625
 30
0.0
 41
2.5
 42
2.5
 50
180.0
  0
LINE
  5
122
330
11E
100
AcDbEntity
  8
PIC06
  6
Continuous
 62
     7
100
AcDbLine
 10
-90.09629821777343
 20
-81.69586181640625
 30
0.0
 11
-84.47130584716797
 21
-81.69586181640625
 31
0.0
  0
INSERT
  5
123
330
11E
100
AcDbEntity
  8
PIC06
  6
Continuous
 62
     7
100
AcDbBlockReference
  2
MARK1_1
 10
-90.09629821777343
 20
-81.69586181640625
 30
0.0
 41
2.5
 42
2.5
  0
LINE
  5
124
330
11E
100
AcDbEntity
  8
PIC06
  6
Continuous
 62
     7
100
AcDbLine
 10
-78.84630584716797
 20
-70.87799835205078
 30
0.0
 11
-78.84630584716797
 21
-82.69586181640624
 31
0.0
  0
LINE
  5
125
330
11E
100
AcDbEntity
  8
PIC06
  6
Continuous
 62
     7
100
AcDbLine
 10
-90.09629821777343
 20
-70.87799835205078
 30
0.0
 11
-90.09629821777343
 21
-82.69586181640624
 31
0.0
  0
TEXT
  5
126
330
11E
100
AcDbEntity
  8
PIC06
  6
Continuous
 62
     7
100
AcDbText
 10
-86.03832244873045
 20
-81.02845764160155
 30
0.0
 40
2.5
  1
%%c
 41
0.6547619344966496
100
AcDbText
  0
TEXT
  5
127
330
11E
100
AcDbEntity
  8
PIC06
  6
Continuous
 62
     7
100
AcDbText
 10
-84.31957244873045
 20
-81.02845764160155
 30
0.0
 40
2.5
  1
9
 41
0.6547619344966496
100
AcDbText
  0
TEXT
  5
128
330
11E
100
AcDbEntity
  8
PIC06
  6
Continuous
 62
     7
100
AcDbText
 10
-82.60082244873045
 20
-81.02845764160155
 30
0.0
 40
2.5
  1
0
 41
0.6547619344966496
100
AcDbText
  0
ENDBLK
  5
129
330
11E
100
AcDbEntity
  8
PIC06
100
AcDbBlockEnd
  0
BLOCK
  5
12B
330
12A
100
AcDbEntity
  8
PIC06
100
AcDbBlockBegin
  2
COMP22
 70
     0
 10
0.0
 20
0.0
 30
0.0
  3
COMP22
  1

  0
LINE
  5
12C
330
12A
100
AcDbEntity
  8
PIC06
  6
Continuous
 62
     7
100
AcDbLine
 10
-88.09637451171875
 20
-77.36098480224609
 30
0.0
 11
-84.65887451171875
 21
-77.36098480224609
 31
0.0
  0
INSERT
  5
12D
330
12A
100
AcDbEntity
  8
PIC06
  6
Continuous
 62
     7
100
AcDbBlockReference
  2
MARK1_1
 10
-88.09637451171875
 20
-77.36098480224609
 30
0.0
 41
2.5
 42
2.5
  0
LINE
  5
12E
330
12A
100
AcDbEntity
  8
PIC06
  6
Continuous
 62
     7
100
AcDbLine
 10
-81.22137451171875
 20
-77.36098480224609
 30
0.0
 11
-84.65887451171875
 21
-77.36098480224609
 31
0.0
  0
INSERT
  5
12F
330
12A
100
AcDbEntity
  8
PIC06
  6
Continuous
 62
     7
100
AcDbBlockReference
  2
MARK1_1
 10
-81.22137451171875
 20
-77.36098480224609
 30
0.0
 41
2.5
 42
2.5
 50
180.0
  0
LINE
  5
130
330
12A
100
AcDbEntity
  8
PIC06
  6
Continuous
 62
     7
100
AcDbLine
 10
-88.09637451171875
 20
-72.75299835205078
 30
0.0
 11
-88.09637451171875
 21
-78.3609848022461
 31
0.0
  0
LINE
  5
131
330
12A
100
AcDbEntity
  8
PIC06
  6
Continuous
 62
     7
100
AcDbLine
 10
-81.22137451171875
 20
-71.75299835205078
 30
0.0
 11
-81.22137451171875
 21
-78.3609848022461
 31
0.0
  0
TEXT
  5
132
330
12A
100
AcDbEntity
  8
PIC06
  6
Continuous
 62
     7
100
AcDbText
 10
-86.08095550537109
 20
-76.5135498046875
 30
0.0
 40
2.5
  1
%%c
 41
0.6547619344966496
100
AcDbText
  0
TEXT
  5
133
330
12A
100
AcDbEntity
  8
PIC06
  6
Continuous
 62
     7
100
AcDbText
 10
-84.36220550537109
 20
-76.5135498046875
 30
0.0
 40
2.5
  1
5
 41
0.6547619344966496
100
AcDbText
  0
TEXT
  5
134
330
12A
100
AcDbEntity
  8
PIC06
  6
Continuous
 62
     7
100
AcDbText
 10
-82.64345550537109
 20
-76.5135498046875
 30
0.0
 40
2.5
  1
5
 41
0.6547619344966496
100
AcDbText
  0
ENDBLK
  5
135
330
12A
100
AcDbEntity
  8
PIC06
100
AcDbBlockEnd
  0
BLOCK
  5
137
330
136
100
AcDbEntity
  8
PIC06
100
AcDbBlockBegin
  2
COMP23
 70
     0
 10
0.0
 20
0.0
 30
0.0
  3
COMP23
  1

  0
LINE
  5
138
330
136
100
AcDbEntity
  8
PIC06
  6
Continuous
 62
     7
100
AcDbLine
 10
11.35953521728516
 20
-82.38803100585938
 30
0.0
 11
25.10954666137695
 21
-82.38803100585938
 31
0.0
  0
INSERT
  5
139
330
136
100
AcDbEntity
  8
PIC06
  6
Continuous
 62
     7
100
AcDbBlockReference
  2
MARK1_1
 10
11.35953521728516
 20
-82.38803100585938
 30
0.0
 41
2.5
 42
2.5
  0
LINE
  5
13A
330
136
100
AcDbEntity
  8
PIC06
  6
Continuous
 62
     7
100
AcDbLine
 10
38.85955810546875
 20
-82.38803100585938
 30
0.0
 11
25.10954666137695
 21
-82.38803100585938
 31
0.0
  0
INSERT
  5
13B
330
136
100
AcDbEntity
  8
PIC06
  6
Continuous
 62
     7
100
AcDbBlockReference
  2
MARK1_1
 10
38.85955810546875
 20
-82.38803100585938
 30
0.0
 41
2.5
 42
2.5
 50
180.0
  0
LINE
  5
13C
330
136
100
AcDbEntity
  8
PIC06
  6
Continuous
 62
     7
100
AcDbLine
 10
11.35953521728516
 20
-72.75299835205078
 30
0.0
 11
11.35953521728516
 21
-83.38803100585938
 31
0.0
  0
LINE
  5
13D
330
136
100
AcDbEntity
  8
PIC06
  6
Continuous
 62
     7
100
AcDbLine
 10
38.85955810546875
 20
-72.75299835205078
 30
0.0
 11
38.85955810546875
 21
-83.38803100585938
 31
0.0
  0
TEXT
  5
13E
330
136
100
AcDbEntity
  8
PIC06
  6
Continuous
 62
     7
100
AcDbText
 10
22.76579666137695
 20
-81.78803253173828
 30
0.0
 40
2.5
  1
2
 41
0.6547619344966496
100
AcDbText
  0
TEXT
  5
13F
330
136
100
AcDbEntity
  8
PIC06
  6
Continuous
 62
     7
100
AcDbText
 10
24.48454666137695
 20
-81.78803253173828
 30
0.0
 40
2.5
  1
2
 41
0.6547619344966496
100
AcDbText
  0
TEXT
  5
140
330
136
100
AcDbEntity
  8
PIC06
  6
Continuous
 62
     7
100
AcDbText
 10
26.20329666137695
 20
-81.78803253173828
 30
0.0
 40
2.5
  1
0
 41
0.6547619344966496
100
AcDbText
  0
ENDBLK
  5
141
330
136
100
AcDbEntity
  8
PIC06
100
AcDbBlockEnd
  0
BLOCK
  5
143
330
142
100
AcDbEntity
  8
PIC06
100
AcDbBlockBegin
  2
COMP24
 70
     0
 10
0.0
 20
0.0
 30
0.0
  3
COMP24
  1

  0
LINE
  5
144
330
142
100
AcDbEntity
  8
PIC06
  6
Continuous
 62
     7
100
AcDbLine
 10
-1.125465393066406
 20
19.80693626403809
 30
0.0
 11
25.10954475402832
 21
19.80693626403809
 31
0.0
  0
INSERT
  5
145
330
142
100
AcDbEntity
  8
PIC06
  6
Continuous
 62
     7
100
AcDbBlockReference
  2
MARK1_1
 10
-1.125465393066406
 20
19.80693626403809
 30
0.0
 41
2.5
 42
2.5
  0
LINE
  5
146
330
142
100
AcDbEntity
  8
PIC06
  6
Continuous
 62
     7
100
AcDbLine
 10
51.34455871582031
 20
19.80693626403809
 30
0.0
 11
25.10954475402832
 21
19.80693626403809
 31
0.0
  0
INSERT
  5
147
330
142
100
AcDbEntity
  8
PIC06
  6
Continuous
 62
     7
100
AcDbBlockReference
  2
MARK1_1
 10
51.34455871582031
 20
19.80693626403809
 30
0.0
 41
2.5
 42
2.5
 50
180.0
  0
LINE
  5
148
330
142
100
AcDbEntity
  8
PIC06
  6
Continuous
 62
     7
100
AcDbLine
 10
-1.125465393066406
 20
-20.25300025939939
 30
0.0
 11
-1.125465393066406
 21
20.80693626403808
 31
0.0
  0
LINE
  5
149
330
142
100
AcDbEntity
  8
PIC06
  6
Continuous
 62
     7
100
AcDbLine
 10
51.34455871582031
 20
-20.25300025939939
 30
0.0
 11
51.34455871582031
 21
20.80693626403808
 31
0.0
  0
TEXT
  5
14A
330
142
100
AcDbEntity
  8
PIC06
  6
Continuous
 62
     7
100
AcDbText
 10
22.76579666137695
 20
20.40693664550781
 30
0.0
 40
2.5
  1
4
 41
0.6547619344966496
100
AcDbText
  0
TEXT
  5
14B
330
142
100
AcDbEntity
  8
PIC06
  6
Continuous
 62
     7
100
AcDbText
 10
24.48454666137695
 20
20.40693664550781
 30
0.0
 40
2.5
  1
2
 41
0.6547619344966496
100
AcDbText
  0
TEXT
  5
14C
330
142
100
AcDbEntity
  8
PIC06
  6
Continuous
 62
     7
100
AcDbText
 10
26.20329666137695
 20
20.40693664550781
 30
0.0
 40
2.5
  1
0
 41
0.6547619344966496
100
AcDbText
  0
ENDBLK
  5
14D
330
142
100
AcDbEntity
  8
PIC06
100
AcDbBlockEnd
  0
BLOCK
  5
14F
330
14E
100
AcDbEntity
  8
PIC06
100
AcDbBlockBegin
  2
COMP25
 70
     0
 10
0.0
 20
0.0
 30
0.0
  3
COMP25
  1

  0
LINE
  5
150
330
14E
100
AcDbEntity
  8
PIC06
  6
Continuous
 62
     7
100
AcDbLine
 10
-73.35291290283203
 20
-26.50300025939941
 30
0.0
 11
-73.35291290283203
 21
-36.12799835205078
 31
0.0
  0
INSERT
  5
151
330
14E
100
AcDbEntity
  8
PIC06
  6
Continuous
 62
     7
100
AcDbBlockReference
  2
MARK1_1
 10
-73.35291290283203
 20
-26.50300025939941
 30
0.0
 41
2.5
 42
2.5
 50
270.0
  0
LINE
  5
152
330
14E
100
AcDbEntity
  8
PIC06
  6
Continuous
 62
     7
100
AcDbLine
 10
-73.35291290283203
 20
-45.75299835205078
 30
0.0
 11
-73.35291290283203
 21
-36.12799835205078
 31
0.0
  0
INSERT
  5
153
330
14E
100
AcDbEntity
  8
PIC06
  6
Continuous
 62
     7
100
AcDbBlockReference
  2
MARK1_1
 10
-73.35291290283203
 20
-45.75299835205078
 30
0.0
 41
2.5
 42
2.5
 50
90.0
  0
LINE
  5
154
330
14E
100
AcDbEntity
  8
PIC06
  6
Continuous
 62
     7
100
AcDbLine
 10
-73.58790588378906
 20
-26.50300025939941
 30
0.0
 11
-72.35291290283203
 21
-26.50300025939941
 31
0.0
  0
LINE
  5
155
330
14E
100
AcDbEntity
  8
PIC06
  6
Continuous
 62
     7
100
AcDbLine
 10
-74.22573852539063
 20
-45.75299835205078
 30
0.0
 11
-72.35291290283203
 21
-45.75299835205078
 31
0.0
  0
TEXT
  5
156
330
14E
100
AcDbEntity
  8
PIC06
  6
Continuous
 62
     7
100
AcDbText
 10
-73.95291137695313
 20
-38.47174835205078
 30
0.0
 40
2.5
  1
1
 50
90.0
 41
0.6547619344966496
100
AcDbText
  0
TEXT
  5
157
330
14E
100
AcDbEntity
  8
PIC06
  6
Continuous
 62
     7
100
AcDbText
 10
-73.95291081527439
 20
-36.75299835205086
 30
0.0
 40
2.5
  1
5
 50
90.0
 41
0.6547619344966496
100
AcDbText
  0
TEXT
  5
158
330
14E
100
AcDbEntity
  8
PIC06
  6
Continuous
 62
     7
100
AcDbText
 10
-73.95291025359566
 20
-35.03424835205097
 30
0.0
 40
2.5
  1
4
 50
90.0
 41
0.6547619344966496
100
AcDbText
  0
ENDBLK
  5
159
330
14E
100
AcDbEntity
  8
PIC06
100
AcDbBlockEnd
  0
BLOCK
  5
15B
330
15A
100
AcDbEntity
  8
PIC06
100
AcDbBlockBegin
  2
COMP26
 70
     0
 10
0.0
 20
0.0
 30
0.0
  3
COMP26
  1

  0
LINE
  5
15C
330
15A
100
AcDbEntity
  8
PIC06
  6
Continuous
 62
     7
100
AcDbLine
 10
-73.35291290283203
 20
-45.75299835205078
 30
0.0
 11
-73.35291290283203
 21
-50.00299835205078
 31
0.0
  0
INSERT
  5
15D
330
15A
100
AcDbEntity
  8
PIC06
  6
Continuous
 62
     7
100
AcDbBlockReference
  2
MARK1_1
 10
-73.35291290283203
 20
-45.75299835205078
 30
0.0
 41
2.5
 42
2.5
 50
270.0
  0
LINE
  5
15E
330
15A
100
AcDbEntity
  8
PIC06
  6
Continuous
 62
     7
100
AcDbLine
 10
-73.35291290283203
 20
-54.25299835205078
 30
0.0
 11
-73.35291290283203
 21
-50.00299835205078
 31
0.0
  0
INSERT
  5
15F
330
15A
100
AcDbEntity
  8
PIC06
  6
Continuous
 62
     7
100
AcDbBlockReference
  2
MARK1_1
 10
-73.35291290283203
 20
-54.25299835205078
 30
0.0
 41
2.5
 42
2.5
 50
90.0
  0
LINE
  5
160
330
15A
100
AcDbEntity
  8
PIC06
  6
Continuous
 62
     7
100
AcDbLine
 10
-74.19999694824219
 20
-45.75299835205078
 30
0.0
 11
-72.35291290283203
 21
-45.75299835205078
 31
0.0
  0
LINE
  5
161
330
15A
100
AcDbEntity
  8
PIC06
  6
Continuous
 62
     7
100
AcDbLine
 10
-79.46637725830078
 20
-54.25299835205078
 30
0.0
 11
-72.35291290283203
 21
-54.25299835205078
 31
0.0
  0
TEXT
  5
162
330
15A
100
AcDbEntity
  8
PIC06
  6
Continuous
 62
     7
100
AcDbText
 10
-74.60222625732422
 20
-53.70338439941406
 30
0.0
 40
2.2
  1
6
 50
90.0
 41
0.6547619344966496
100
AcDbText
  0
TEXT
  5
163
330
15A
100
AcDbEntity
  8
PIC06
  6
Continuous
 62
     7
100
AcDbText
 10
-74.60222576304694
 20
-52.19088439941414
 30
0.0
 40
2.2
  1
5
 50
90.0
 41
0.6547619344966496
100
AcDbText
  0
TEXT
  5
164
330
15A
100
AcDbEntity
  8
PIC06
  6
Continuous
 62
     7
100
AcDbText
 10
-74.60222526876963
 20
-50.67838439941422
 30
0.0
 40
2.2
  1
È
 50
90.0
100
AcDbText
  0
TEXT
  5
165
330
15A
100
AcDbEntity
  8
PIC06
  6
Continuous
 62
     7
100
AcDbText
 10
-74.60222441501797
 20
-48.06588439941435
 30
0.0
 40
2.2
  1
ã
 50
90.0
100
AcDbText
  0
ENDBLK
  5
166
330
15A
100
AcDbEntity
  8
PIC06
100
AcDbBlockEnd
  0
BLOCK
  5
168
330
167
100
AcDbEntity
  8
PIC06
100
AcDbBlockBegin
  2
COMP27
 70
     0
 10
0.0
 20
0.0
 30
0.0
  3
COMP27
  1

  0
LINE
  5
169
330
167
100
AcDbEntity
  8
PIC06
  6
Continuous
 62
     7
100
AcDbLine
 10
-111.022819519043
 20
39.67935943603515
 30
0.0
 11
-105.8885574340818
 21
46.68735504150388
 31
0.0
  0
INSERT
  5
16A
330
167
100
AcDbEntity
  8
PIC06
  6
Continuous
 62
     7
100
AcDbBlockReference
  2
MARK1_1
 10
-111.022819519043
 20
39.67935943603515
 30
0.0
 41
2.5
 42
2.5
 50
54.0
  0
LINE
  5
16B
330
167
100
AcDbEntity
  8
PIC06
  6
Continuous
 62
     7
100
AcDbLine
 10
-111.022819519043
 20
39.67935943603515
 30
0.0
 11
-112.0939941406249
 21
38.21725845336914
 31
0.0
  0
LINE
  5
16C
330
167
100
AcDbEntity
  8
PIC06
  6
Continuous
 62
     7
100
AcDbLine
 10
-113.1651763916016
 20
36.75515747070312
 30
0.0
 11
-112.0940017700194
 21
38.21725845336914
 31
0.0
  0
LINE
  5
16D
330
167
100
AcDbEntity
  8
PIC06
  6
Continuous
 62
     7
100
AcDbLine
 10
-113.1651763916016
 20
36.75515747070312
 30
0.0
 11
-114.9381561279297
 21
34.3351287841797
 31
0.0
  0
INSERT
  5
16E
330
167
100
AcDbEntity
  8
PIC06
  6
Continuous
 62
     7
100
AcDbBlockReference
  2
MARK1_1
 10
-113.1651763916016
 20
36.75515747070312
 30
0.0
 41
2.5
 42
2.5
 50
234.0
  0
TEXT
  5
16F
330
167
100
AcDbEntity
  8
PIC06
  6
Continuous
 62
     7
100
AcDbText
 10
-108.927116394043
 20
43.54515838623046
 30
0.0
 40
2.5
  1
2
 50
54.0
 41
0.6547619344966496
100
AcDbText
  0
TEXT
  5
170
330
167
100
AcDbEntity
  8
PIC06
  6
Continuous
 62
     7
100
AcDbText
 10
-107.9168602190207
 20
44.9356561472245
 30
0.0
 40
2.5
  1
9
 50
54.0
 41
0.6547619344966496
100
AcDbText
  0
ENDBLK
  5
171
330
167
100
AcDbEntity
  8
PIC06
100
AcDbBlockEnd
  0
BLOCK
  5
173
330
172
100
AcDbEntity
  8
PIC06
100
AcDbBlockBegin
  2
COMP28
 70
     0
 10
0.0
 20
0.0
 30
0.0
  3
COMP28
  1

  0
LINE
  5
174
330
172
100
AcDbEntity
  8
PIC06
  6
Continuous
 62
     7
100
AcDbLine
 10
-120.0940017700194
 20
-90.06381225585938
 30
0.0
 11
-123.0940017700195
 21
-90.06381225585938
 31
0.0
  0
INSERT
  5
175
330
172
100
AcDbEntity
  8
PIC06
  6
Continuous
 62
     7
100
AcDbBlockReference
  2
MARK1_1
 10
-120.0940017700194
 20
-90.06381225585938
 30
0.0
 41
2.5
 42
2.5
 50
180.0
  0
LINE
  5
176
330
172
100
AcDbEntity
  8
PIC06
  6
Continuous
 62
     7
100
AcDbLine
 10
-120.0940017700194
 20
-90.06381225585938
 30
0.0
 11
-118.7201919555664
 21
-90.06381225585938
 31
0.0
  0
LINE
  5
177
330
172
100
AcDbEntity
  8
PIC06
  6
Continuous
 62
     7
100
AcDbLine
 10
-117.3463745117187
 20
-90.06381225585938
 30
0.0
 11
-118.7201843261719
 21
-90.06381225585938
 31
0.0
  0
LINE
  5
178
330
172
100
AcDbEntity
  8
PIC06
  6
Continuous
 62
     7
100
AcDbLine
 10
-117.3463745117187
 20
-90.06381225585938
 30
0.0
 11
-107.7994995117185
 21
-90.06381225585938
 31
0.0
  0
INSERT
  5
179
330
172
100
AcDbEntity
  8
PIC06
  6
Continuous
 62
     7
100
AcDbBlockReference
  2
MARK1_1
 10
-117.3463745117187
 20
-90.06381225585938
 30
0.0
 41
2.5
 42
2.5
  0
LINE
  5
17A
330
172
100
AcDbEntity
  8
PIC06
  6
Continuous
 62
     7
100
AcDbLine
 10
-120.0940017700194
 20
-20.25300025939939
 30
0.0
 11
-120.0940017700194
 21
-91.06381225585938
 31
0.0
  0
LINE
  5
17B
330
172
100
AcDbEntity
  8
PIC06
  6
Continuous
 62
     7
100
AcDbLine
 10
-117.3463745117187
 20
-72.75299835205078
 30
0.0
 11
-117.3463745117187
 21
-91.06381225585938
 31
0.0
  0
TEXT
  5
17C
330
172
100
AcDbEntity
  8
PIC06
  6
Continuous
 62
     7
100
AcDbText
 10
-124.2733459472654
 20
-88.77691650390625
 30
0.0
 40
2.5
  1
2
 41
0.6547619344966496
100
AcDbText
  0
TEXT
  5
17D
330
172
100
AcDbEntity
  8
PIC06
  6
Continuous
 62
     7
100
AcDbText
 10
-122.5545959472654
 20
-88.77691650390625
 30
0.0
 40
2.5
  1
2
 41
0.6547619344966496
100
AcDbText
  0
ENDBLK
  5
17E
330
172
100
AcDbEntity
  8
PIC06
100
AcDbBlockEnd
  0
BLOCK
  5
180
330
17F
100
AcDbEntity
  8
PIC06
100
AcDbBlockBegin
  2
COMP29
 70
     0
 10
0.0
 20
0.0
 30
0.0
  3
COMP29
  1

  0
LINE
  5
181
330
17F
100
AcDbEntity
  8
PIC06
  6
Continuous
 62
     7
100
AcDbLine
 10
-109.2190017700193
 20
-5.078802108764648
 30
0.0
 11
-112.2190017700193
 21
-5.078802108764648
 31
0.0
  0
INSERT
  5
182
330
17F
100
AcDbEntity
  8
PIC06
  6
Continuous
 62
     7
100
AcDbBlockReference
  2
MARK1_1
 10
-109.2190017700193
 20
-5.078802108764648
 30
0.0
 41
2.5
 42
2.5
 50
180.0
  0
LINE
  5
183
330
17F
100
AcDbEntity
  8
PIC06
  6
Continuous
 62
     7
100
AcDbLine
 10
-109.2190017700193
 20
-5.078802108764648
 30
0.0
 11
-108.4065017700194
 21
-5.078802108764648
 31
0.0
  0
LINE
  5
184
330
17F
100
AcDbEntity
  8
PIC06
  6
Continuous
 62
     7
100
AcDbLine
 10
-107.5940017700194
 20
-5.078802108764648
 30
0.0
 11
-108.4065017700194
 21
-5.078802108764648
 31
0.0
  0
LINE
  5
185
330
17F
100
AcDbEntity
  8
PIC06
  6
Continuous
 62
     7
100
AcDbLine
 10
-107.5940017700194
 20
-5.078802108764648
 30
0.0
 11
-100.6252517700193
 21
-5.078802108764648
 31
0.0
  0
INSERT
  5
186
330
17F
100
AcDbEntity
  8
PIC06
  6
Continuous
 62
     7
100
AcDbBlockReference
  2
MARK1_1
 10
-107.5940017700194
 20
-5.078802108764648
 30
0.0
 41
2.5
 42
2.5
  0
LINE
  5
187
330
17F
100
AcDbEntity
  8
PIC06
  6
Continuous
 62
     7
100
AcDbLine
 10
-109.2190017700193
 20
-21.90388107299805
 30
0.0
 11
-109.2190017700193
 21
-4.078802108764647
 31
0.0
  0
LINE
  5
188
330
17F
100
AcDbEntity
  8
PIC06
  6
Continuous
 62
     7
100
AcDbLine
 10
-107.5940017700194
 20
2.487287521362305
 30
0.0
 11
-107.5940017700194
 21
-6.078802108764647
 31
0.0
  0
TEXT
  5
189
330
17F
100
AcDbEntity
  8
PIC06
  6
Continuous
 62
     7
100
AcDbText
 10
-105.6984100341797
 20
-4.071769714355466
 30
0.0
 40
2.5
  1
1
 41
0.6547619344966496
100
AcDbText
  0
TEXT
  5
18A
330
17F
100
AcDbEntity
  8
PIC06
  6
Continuous
 62
     7
100
AcDbText
 10
-103.9796600341797
 20
-4.071769714355466
 30
0.0
 40
2.5
  1
3
 41
0.6547619344966496
100
AcDbText
  0
ENDBLK
  5
18B
330
17F
100
AcDbEntity
  8
PIC06
100
AcDbBlockEnd
  0
BLOCK
  5
18D
330
18C
100
AcDbEntity
  8
PIC06
100
AcDbBlockBegin
  2
COMP30
 70
     0
 10
0.0
 20
0.0
 30
0.0
  3
COMP30
  1

  0
LINE
  5
18E
330
18C
100
AcDbEntity
  8
PIC06
  6
Continuous
 62
     7
100
AcDbLine
 10
-112.8146362304687
 20
50.55649185180664
 30
0.0
 11
-109.2101745605469
 21
54.47685623168945
 31
0.0
  0
INSERT
  5
18F
330
18C
100
AcDbEntity
  8
PIC06
  6
Continuous
 62
     7
100
AcDbBlockReference
  2
MARK1_1
 10
-112.8146362304687
 20
50.55649185180664
 30
0.0
 41
2.5
 42
2.5
 50
47.0
  0
LINE
  5
190
330
18C
100
AcDbEntity
  8
PIC06
  6
Continuous
 62
     7
100
AcDbLine
 10
-105.6233673095702
 20
58.37802124023438
 30
0.0
 11
-109.2101745605469
 21
54.47685623168945
 31
0.0
  0
INSERT
  5
191
330
18C
100
AcDbEntity
  8
PIC06
  6
Continuous
 62
     7
100
AcDbBlockReference
  2
MARK1_1
 10
-105.6233673095702
 20
58.37802124023438
 30
0.0
 41
2.5
 42
2.5
 50
227.0
  0
TEXT
  5
192
330
18C
100
AcDbEntity
  8
PIC06
  6
Continuous
 62
     7
100
AcDbText
 10
-111.2746505737305
 20
54.4631233215332
 30
0.0
 40
2.5
  1
8
 50
47.0
 41
0.6547619344966496
100
AcDbText
  0
TEXT
  5
193
330
18C
100
AcDbEntity
  8
PIC06
  6
Continuous
 62
     7
100
AcDbText
 10
-110.1024656778516
 20
55.72013729614663
 30
0.0
 40
2.5
  1
5
 50
47.0
 41
0.6547619344966496
100
AcDbText
  0
ENDBLK
  5
194
330
18C
100
AcDbEntity
  8
PIC06
100
AcDbBlockEnd
  0
ENDSEC
  0
SECTION
  2
ENTITIES
  0
LINE
  5
195
330
1E
100
AcDbEntity
  8
PIC06
  6
Continuous
 62
     7
100
AcDbLine
 10
111.9774539811926
 20
-35.77375050003036
 30
0.0
 11
113.0561919811926
 21
-35.77375050003036
 31
0.0
  0
ARC
  5
196
330
1E
100
AcDbEntity
  8
PIC06
  6
Continuous
 62
     7
100
AcDbCircle
 10
119.5362223281925
 20
-36.15382848003037
 30
0.0
 40
7.873984364826443
100
AcDbArc
 50
191.9805543396075
 51
225.4037021517312
  0
ARC
  5
197
330
1E
100
AcDbEntity
  8
PIC06
  6
Continuous
 62
     7
100
AcDbCircle
 10
92.99212664065349
 20
-3.577597173002143
 30
0.0
 40
4.92125
100
AcDbArc
 50
297.5800038977135
 51
62.42020831950011
  0
ARC
  5
198
330
1E
100
AcDbEntity
  8
PIC06
  6
Continuous
 62
     7
100
AcDbCircle
 10
90.98705191065349
 20
-7.416172173002145
 30
0.0
 40
10.82674672040692
100
AcDbArc
 50
62.41983402297986
 51
82.55500147342779
  0
ARC
  5
19A
330
1E
100
AcDbEntity
  8
PIC06
  6
Continuous
 62
     7
100
AcDbCircle
 10
90.98705191065349
 20
-7.416172173002145
 30
0.0
 40
9.251958277748206
100
AcDbArc
 50
62.41998989577168
 51
68.24735144173769
  0
ARC
  5
19B
330
1E
100
AcDbEntity
  8
PIC06
  6
Continuous
 62
     7
100
AcDbCircle
 10
92.99212664065349
 20
-3.577597173002143
 30
0.0
 40
6.496049999999996
100
AcDbArc
 50
297.580104419512
 51
62.41989558048797
  0
CIRCLE
  5
19E
330
1E
100
AcDbEntity
  8
PIC06
  6
Continuous
 62
     7
100
AcDbCircle
 10
82.95277664065356
 20
-0.8216971730022351
 30
0.0
 40
0.27559
  0
ARC
  5
1AE
330
1E
100
AcDbEntity
  8
PIC06
  6
Continuous
 62
     7
100
AcDbCircle
 10
73.81893664065356
 20
-36.28556050003036
 30
0.0
 40
0.1181099999999989
100
AcDbArc
 50
0.0
 51
90.0
  0
LINE
  5
1AF
330
1E
100
AcDbEntity
  8
PIC06
  6
Continuous
 62
     7
100
AcDbLine
 10
73.37602414065357
 20
-36.16745050003036
 30
0.0
 11
73.81893664065356
 21
-36.16745050003036
 31
0.0
  0
LINE
  5
1B0
330
1E
100
AcDbEntity
  8
PIC06
  6
Continuous
 62
     7
100
AcDbLine
 10
73.93704664065356
 20
-37.29106423256608
 30
0.0
 11
73.93704664065356
 21
-36.28556050003036
 31
0.0
  0
ARC
  5
1BE
330
1E
100
AcDbEntity
  8
PIC06
  6
Continuous
 62
     7
100
AcDbCircle
 10
74.88192664065356
 20
-33.80525050003035
 30
0.0
 40
1.9685
100
AcDbArc
 50
180.0
 51
184.9403571851506
  0
ARC
  5
1BF
330
1E
100
AcDbEntity
  8
PIC06
  6
Continuous
 62
     7
100
AcDbCircle
 10
73.39917370065356
 20
-35.85249050003036
 30
0.0
 40
0.3149599999999989
100
AcDbArc
 50
184.9408893298385
 51
270.0
  0
LINE
  5
1C0
330
1E
100
AcDbEntity
  8
PIC06
  6
Continuous
 62
     7
100
AcDbLine
 10
72.92071009065356
 20
-33.97477772003036
 30
0.0
 11
73.08539480065356
 21
-35.87961643003035
 31
0.0
  0
ARC
  5
1C1
330
1E
100
AcDbEntity
  8
PIC06
  6
Continuous
 62
     7
100
AcDbCircle
 10
151.6535053806535
 20
-3.577597173002143
 30
0.0
 40
78.74007873999999
100
AcDbArc
 50
180.0
 51
184.9533090416855
  0
ARC
  5
1C2
330
1E
100
AcDbEntity
  8
PIC06
  6
Continuous
 62
     7
100
AcDbCircle
 10
70.95642268065067
 20
145.618049317073
 30
0.0
 40
157.4800046859121
100
AcDbArc
 50
271.4040017385656
 51
272.7307906763977
  0
ARC
  5
1C3
330
1E
100
AcDbEntity
  8
PIC06
  6
Continuous
 62
     7
100
AcDbCircle
 10
151.6535053806535
 20
-3.577597173002143
 30
0.0
 40
78.74009101167484
100
AcDbArc
 50
175.0466624174479
 51
180.0
  0
ARC
  5
1C4
330
1E
100
AcDbEntity
  8
PIC06
  6
Continuous
 62
     7
100
AcDbCircle
 10
74.77641504065356
 20
-10.2403791230022
 30
0.0
 40
1.574760909533964
100
AcDbArc
 50
184.9521824456859
 51
271.4039219249857
  0
ARC
  5
1C5
330
1E
100
AcDbEntity
  8
PIC06
  6
Continuous
 62
     7
100
AcDbCircle
 10
78.40302196065356
 20
3.348176376997855
 30
0.0
 40
1.181088147602029
100
AcDbArc
 50
6.874858372248084
 51
87.26978277504594
  0
ARC
  5
1C6
330
1E
100
AcDbEntity
  8
PIC06
  6
Continuous
 62
     7
100
AcDbCircle
 10
78.40302196065356
 20
-10.50337072300214
 30
0.0
 40
1.181083435612512
100
AcDbArc
 50
272.7302172249541
 51
353.1270377817066
  0
ARC
  5
1C7
330
1E
100
AcDbEntity
  8
PIC06
  6
Continuous
 62
     7
100
AcDbCircle
 10
74.77641504065354
 20
3.085184776997817
 30
0.0
 40
1.574815903923311
100
AcDbArc
 50
88.5961131695412
 51
175.0463905212404
  0
ARC
  5
1CA
330
1E
100
AcDbEntity
  8
PIC06
  6
Continuous
 62
     7
100
AcDbCircle
 10
72.63437208065051
 20
145.7613561170301
 30
0.0
 40
157.4800104151391
100
AcDbArc
 50
272.9497724531955
 51
277.1890278825651
  0
ARC
  5
1CB
330
1E
100
AcDbEntity
  8
PIC06
  6
Continuous
 62
     7
100
AcDbCircle
 10
90.98705191065349
 20
0.2609778269978555
 30
0.0
 40
10.82674672040692
100
AcDbArc
 50
277.1889505642611
 51
297.5801659770201
  0
LINE
  5
1CC
330
1E
100
AcDbEntity
  8
PIC06
  6
Continuous
 62
     7
100
AcDbLine
 10
111.6796750491926
 20
-37.66351050003036
 30
0.0
 11
111.3427111561926
 21
-37.66351050003036
 31
0.0
  0
ARC
  5
1CD
330
1E
100
AcDbEntity
  8
PIC06
  6
Continuous
 62
     7
100
AcDbCircle
 10
111.3427111561926
 20
-37.86036050003036
 30
0.0
 40
0.19685
100
AcDbArc
 50
90.0
 51
149.109742386747
  0
LINE
  5
1CE
330
1E
100
AcDbEntity
  8
PIC06
  6
Continuous
 62
     7
100
AcDbLine
 10
110.8880112781926
 20
-38.23701329003036
 30
0.0
 11
111.1737823601926
 21
-37.75929771003035
 31
0.0
  0
ARC
  5
1CF
330
1E
100
AcDbEntity
  8
PIC06
  6
Continuous
 62
     7
100
AcDbCircle
 10
110.7190824821926
 20
-38.13595050003035
 30
0.0
 40
0.1968517859725801
100
AcDbArc
 50
270.0
 51
329.1097423867471
  0
LINE
  5
1D0
330
1E
100
AcDbEntity
  8
PIC06
  6
Continuous
 62
     7
100
AcDbLine
 10
110.5223348441926
 20
-38.14232844003035
 30
0.0
 11
110.5019451211926
 21
-37.51106986003036
 31
0.0
  0
ARC
  5
1D1
330
1E
100
AcDbEntity
  8
PIC06
  6
Continuous
 62
     7
100
AcDbCircle
 10
110.7190824821926
 20
-38.13595050003035
 30
0.0
 40
0.1968500000000022
100
AcDbArc
 50
181.8566988876105
 51
270.0
  0
ARC
  5
1D2
330
1E
100
AcDbEntity
  8
PIC06
  6
Continuous
 62
     7
100
AcDbCircle
 10
111.1319714201925
 20
-38.13595050003035
 30
0.0
 40
0.1968551645282251
100
AcDbArc
 50
270.0
 51
329.1103306790418
  0
LINE
  5
1D3
330
1E
100
AcDbEntity
  8
PIC06
  6
Continuous
 62
     7
100
AcDbLine
 10
111.3009041531926
 20
-38.23701329003036
 30
0.0
 11
111.5866712981926
 21
-37.75929771003035
 31
0.0
  0
ARC
  5
1D4
330
1E
100
AcDbEntity
  8
PIC06
  6
Continuous
 62
     7
100
AcDbCircle
 10
111.2375499491926
 20
-35.38005050003036
 30
0.0
 40
0.393707633454037
100
AcDbArc
 50
196.6242804006925
 51
270.0
  0
ARC
  5
1D5
330
1E
100
AcDbEntity
  8
PIC06
  6
Continuous
 62
     7
100
AcDbCircle
 10
116.5190354491927
 20
-33.80340011003035
 30
0.0
 40
5.905505483036425
100
AcDbArc
 50
180.0542399884015
 51
196.6218057851371
  0
ARC
  5
1D6
330
1E
100
AcDbEntity
  8
PIC06
  6
Continuous
 62
     7
100
AcDbCircle
 10
114.3207563811921
 20
-33.80525050003034
 30
0.0
 40
3.936999999999549
100
AcDbArc
 50
177.2103125584574
 51
180.0
  0
LINE
  5
1D7
330
1E
100
AcDbEntity
  8
PIC06
  6
Continuous
 62
     7
100
AcDbLine
 10
110.5018663811926
 20
-37.50603050003035
 30
0.0
 11
110.5018663811926
 21
-37.50855018003034
 31
0.0
  0
LINE
  5
1D8
330
1E
100
AcDbEntity
  8
PIC06
  6
Continuous
 62
     7
100
AcDbLine
 10
110.3837563811926
 20
-33.80525050003035
 30
0.0
 11
110.5019451211926
 21
-37.51106986003036
 31
0.0
  0
ARC
  5
1D9
330
1E
100
AcDbEntity
  8
PIC06
  6
Continuous
 62
     7
100
AcDbCircle
 10
114.5505354491899
 20
-33.80525050003031
 30
0.0
 40
3.937001776568204
100
AcDbArc
 50
177.3732162920128
 51
180.0544309741634
  0
ARC
  5
1DA
330
1E
100
AcDbEntity
  8
PIC06
  6
Continuous
 62
     7
100
AcDbCircle
 10
80.29510479065356
 20
-35.45879050003034
 30
0.0
 40
0.3149600000000023
100
AcDbArc
 50
183.726891368124
 51
270.0
  0
ARC
  5
1DB
330
1E
100
AcDbEntity
  8
PIC06
  6
Continuous
 62
     7
100
AcDbCircle
 10
20.94510538065362
 20
-3.577597173002143
 30
0.0
 40
59.05489890495813
100
AcDbArc
 50
353.1269304459218
 51
6.873107476830849
  0
ARC
  5
1DC
330
1E
100
AcDbEntity
  8
PIC06
  6
Continuous
 62
     7
100
AcDbCircle
 10
127.5391047906536
 20
-3.577597173002143
 30
0.0
 40
47.24400054260061
100
AcDbArc
 50
170.7655880626079
 51
189.2845862978944
  0
LINE
  5
1E0
330
1E
100
AcDbEntity
  8
PIC06
  6
Continuous
 62
     7
100
AcDbLine
 10
73.42523664065357
 20
-36.16745050003036
 30
0.0
 11
73.52303172065356
 21
-37.96055715003034
 31
0.0
  0
ARC
  5
1E1
330
1E
100
AcDbEntity
  8
PIC06
  6
Continuous
 62
     7
100
AcDbCircle
 10
73.91614117065356
 20
-37.93910050003035
 30
0.0
 40
0.3936945865877828
100
AcDbArc
 50
183.1242108811138
 51
270.0
  0
ARC
  5
1E2
330
1E
100
AcDbEntity
  8
PIC06
  6
Continuous
 62
     7
100
AcDbCircle
 10
111.6796750491926
 20
-37.82099050003036
 30
0.0
 40
0.1574746054302027
100
AcDbArc
 50
11.97630229452841
 51
90.0
  0
LINE
  5
1E3
330
1E
100
AcDbEntity
  8
PIC06
  6
Continuous
 62
     7
100
AcDbLine
 10
110.7190824821926
 20
-38.33280050003035
 30
0.0
 11
111.1319714201926
 21
-38.33280050003035
 31
0.0
  0
ARC
  5
1E4
330
1E
100
AcDbEntity
  8
PIC06
  6
Continuous
 62
     7
100
AcDbCircle
 10
111.7556040311926
 20
-37.86036050003036
 30
0.0
 40
0.1968451758954183
100
AcDbArc
 50
101.7560419993647
 51
149.1103306790418
  0
LINE
  5
1E5
330
1E
100
AcDbEntity
  8
PIC06
  6
Continuous
 62
     7
100
AcDbLine
 10
74.15908889226276
 20
-38.33280050003035
 30
0.0
 11
73.91614117065356
 21
-38.33280050003035
 31
0.0
  0
LINE
  5
1E7
330
1E
100
AcDbEntity
  8
PIC06
  6
Continuous
 62
     7
100
AcDbLine
 10
86.29922664065356
 20
-4.751571203002143
 30
0.0
 11
86.29922664065356
 21
-2.403623143002146
 31
0.0
  0
ARC
  5
1E8
330
1E
100
AcDbEntity
  8
PIC06
  6
Continuous
 62
     7
100
AcDbCircle
 10
86.49607664065355
 20
-2.403623143002146
 30
0.0
 40
0.1968350585179503
100
AcDbArc
 50
87.2829556693699
 51
180.0
  0
LINE
  5
1E9
330
1E
100
AcDbEntity
  8
PIC06
  6
Continuous
 62
     7
100
AcDbLine
 10
86.29922664065356
 20
-2.494922173002144
 30
0.0
 11
86.55217889065356
 21
-2.494922173002144
 31
0.0
  0
ARC
  5
1EA
330
1E
100
AcDbEntity
  8
PIC06
  6
Continuous
 62
     7
100
AcDbCircle
 10
86.49607664065355
 20
-4.751571203002143
 30
0.0
 40
0.1968350585179439
100
AcDbArc
 50
180.0
 51
272.7170443306301
  0
ARC
  5
1EB
330
1E
100
AcDbEntity
  8
PIC06
  6
Continuous
 62
     7
100
AcDbCircle
 10
86.55217889065355
 20
4.001127826997944
 30
0.0
 40
8.66141455122937
100
AcDbArc
 50
270.0
 51
286.7599856650881
  0
ARC
  5
1EC
330
1E
100
AcDbEntity
  8
PIC06
  6
Continuous
 62
     7
100
AcDbCircle
 10
89.17209491065355
 20
-4.144958243002147
 30
0.0
 40
0.0393631096470417
100
AcDbArc
 50
242.0252700797107
 51
0.0
  0
ARC
  5
1ED
330
1E
100
AcDbEntity
  8
PIC06
  6
Continuous
 62
     7
100
AcDbCircle
 10
89.01575664065356
 20
-4.179249513002204
 30
0.0
 40
0.1181254451534577
100
AcDbArc
 50
286.755945545576
 51
0.0
  0
LINE
  5
1EE
330
1E
100
AcDbEntity
  8
PIC06
  6
Continuous
 62
     7
100
AcDbLine
 10
89.24311839065357
 20
-2.871299373002187
 30
0.0
 11
89.24311839065357
 21
-4.283894973002208
 31
0.0
  0
LINE
  5
1EF
330
1E
100
AcDbEntity
  8
PIC06
  6
Continuous
 62
     7
100
AcDbLine
 10
89.21146491065355
 20
-3.010236103002185
 30
0.0
 11
89.21146491065355
 21
-4.144958243002147
 31
0.0
  0
LINE
  5
1F0
330
1E
100
AcDbEntity
  8
PIC06
  6
Continuous
 62
     7
100
AcDbLine
 10
89.13181940065355
 20
-4.168147173002143
 30
0.0
 11
89.15363038065356
 21
-4.179721953002211
 31
0.0
  0
ARC
  5
1F1
330
1E
100
AcDbEntity
  8
PIC06
  6
Continuous
 62
     7
100
AcDbCircle
 10
86.09340028065357
 20
3.703411886997798
 30
0.0
 40
8.661395792598607
100
AcDbArc
 50
272.7264844209389
 51
290.7842620734462
  0
LINE
  5
1F2
330
1E
100
AcDbEntity
  8
PIC06
  6
Continuous
 62
     7
100
AcDbLine
 10
86.29922664065356
 20
-4.660272173002145
 30
0.0
 11
86.55217889065356
 21
-4.660272173002145
 31
0.0
  0
ARC
  5
1F3
330
1E
100
AcDbEntity
  8
PIC06
  6
Continuous
 62
     7
100
AcDbCircle
 10
86.55217889065356
 20
-11.15632217300214
 30
0.0
 40
8.661414551229256
100
AcDbArc
 50
73.24001433491186
 51
90.0
  0
ARC
  5
1F4
330
1E
100
AcDbEntity
  8
PIC06
  6
Continuous
 62
     7
100
AcDbCircle
 10
86.09340028065355
 20
-10.85860623300215
 30
0.0
 40
8.661395792598661
100
AcDbArc
 50
69.2157379265539
 51
87.27351557906109
  0
ARC
  5
1F5
330
1E
100
AcDbEntity
  8
PIC06
  6
Continuous
 62
     7
100
AcDbCircle
 10
89.17209491065355
 20
-3.010236103002185
 30
0.0
 40
0.0393631096470437
100
AcDbArc
 50
0.0
 51
117.9747299202893
  0
ARC
  5
1F6
330
1E
100
AcDbEntity
  8
PIC06
  6
Continuous
 62
     7
100
AcDbCircle
 10
89.01575664065354
 20
-2.975944833002145
 30
0.0
 40
0.118125445153471
100
AcDbArc
 50
0.0000000000051703
 51
73.24405445442403
  0
ARC
  5
1F7
330
1E
100
AcDbEntity
  8
PIC06
  6
Continuous
 62
     7
100
AcDbCircle
 10
89.12500839065355
 20
-2.871299373002187
 30
0.0
 40
0.1181107939590015
100
AcDbArc
 50
0.0
 51
69.22712955874203
  0
ARC
  5
1F8
330
1E
100
AcDbEntity
  8
PIC06
  6
Continuous
 62
     7
100
AcDbCircle
 10
99.17321664065353
 20
-36.08871050003034
 30
0.0
 40
0.3149599999999977
100
AcDbArc
 50
354.2680275753754
 51
90.0
  0
LINE
  5
1FB
330
1E
100
AcDbEntity
  8
PIC06
  6
Continuous
 62
     7
100
AcDbLine
 10
73.77881861065356
 20
-50.34065050003035
 30
0.0
 11
95.43153121065357
 21
-50.34065050003035
 31
0.0
  0
ARC
  5
1FE
330
1E
100
AcDbEntity
  8
PIC06
  6
Continuous
 62
     7
100
AcDbCircle
 10
85.38918909065356
 20
-49.19892050003035
 30
0.0
 40
0.4724404806418398
100
AcDbArc
 50
199.6384075487165
 51
270.0
  0
LINE
  5
1FF
330
1E
100
AcDbEntity
  8
PIC06
  6
Continuous
 62
     7
100
AcDbLine
 10
87.954091811369
 20
-50.34065050003035
 30
0.0
 11
87.919643061369
 21
-49.82360429003034
 31
0.0
  0
ARC
  5
204
330
1E
100
AcDbEntity
  8
PIC06
  6
Continuous
 62
     7
100
AcDbCircle
 10
80.86541861065356
 20
-50.81309050003035
 30
0.0
 40
4.330688098253689
100
AcDbArc
 50
19.63728628573047
 51
89.91457726473713
  0
ARC
  5
207
330
1E
100
AcDbEntity
  8
PIC06
  6
Continuous
 62
     7
100
AcDbCircle
 10
87.841060541369
 20
-49.82884050003035
 30
0.0
 40
0.0787399999999955
100
AcDbArc
 50
3.812169611011918
 51
90.0
  0
LINE
  5
20D
330
1E
100
AcDbEntity
  8
PIC06
  6
Continuous
 62
     7
100
AcDbLine
 10
85.38918909065356
 20
-49.67136050003035
 30
0.0
 11
85.61288943065356
 21
-49.67136050003035
 31
0.0
  0
LINE
  5
210
330
1E
100
AcDbEntity
  8
PIC06
  6
Continuous
 62
     7
100
AcDbLine
 10
87.841060541369
 20
-49.75010050003035
 30
0.0
 11
78.74451734065356
 21
-49.75010050003035
 31
0.0
  0
ARC
  5
212
330
1E
100
AcDbEntity
  8
PIC06
  6
Continuous
 62
     7
100
AcDbCircle
 10
82.19132147065353
 20
-49.96340716003036
 30
0.0
 40
0.5905677805366839
100
AcDbArc
 50
21.17324223876754
 51
32.65077107321346
  0
ARC
  5
213
330
1E
100
AcDbEntity
  8
PIC06
  6
Continuous
 62
     7
100
AcDbCircle
 10
80.86541861065356
 20
-50.81309050003035
 30
0.0
 40
2.165363059705434
100
AcDbArc
 50
32.65247988412299
 51
90.0
  0
LINE
  5
215
330
1E
100
AcDbEntity
  8
PIC06
  6
Continuous
 62
     7
100
AcDbLine
 10
78.74451734065356
 20
-49.75010050003035
 30
0.0
 11
77.33940204065357
 21
-49.75010050003035
 31
0.0
  0
LINE
  5
219
330
1E
100
AcDbEntity
  8
PIC06
  6
Continuous
 62
     7
100
AcDbLine
 10
73.82224719447709
 20
-49.75002176003036
 30
0.0
 11
77.33940204065357
 21
-49.75002176003035
 31
0.0
  0
LINE
  5
21A
330
1E
100
AcDbEntity
  8
PIC06
  6
Continuous
 62
     7
100
AcDbLine
 10
114.3160319811925
 20
-50.34065050003035
 30
0.0
 11
114.7075823791926
 21
-43.57932544003035
 31
0.0
  0
ARC
  5
21B
330
1E
100
AcDbEntity
  8
PIC06
  6
Continuous
 62
     7
100
AcDbCircle
 10
112.3493311901926
 20
-43.44275091003035
 30
0.0
 40
2.362215829676751
100
AcDbArc
 50
356.6855043593284
 51
45.40428543658861
  0
ARC
  5
21C
330
1E
100
AcDbEntity
  8
PIC06
  6
Continuous
 62
     7
100
AcDbCircle
 10
89.12500839065357
 20
-4.283894973002208
 30
0.0
 40
0.1181107939589978
100
AcDbArc
 50
290.772870441258
 51
0.0
  0
LINE
  5
21D
330
1E
100
AcDbEntity
  8
PIC06
  6
Continuous
 62
     7
100
AcDbLine
 10
89.85130615065356
 20
-8.920972313002142
 30
0.0
 11
89.39803934065356
 21
-8.864909433002143
 31
0.0
  0
ARC
  5
21E
330
1E
100
AcDbEntity
  8
PIC06
  6
Continuous
 62
     7
100
AcDbCircle
 10
90.05205378065356
 20
-3.577597173002143
 30
0.0
 40
5.327636259662464
100
AcDbArc
 50
96.95664780892526
 51
262.9486123707719
  0
LINE
  5
21F
330
1E
100
AcDbEntity
  8
PIC06
  6
Continuous
 62
     7
100
AcDbLine
 10
89.39803934065356
 20
1.709754456997821
 30
0.0
 11
89.85130615065356
 21
1.765817336997855
 31
0.0
  0
ARC
  5
223
330
1E
100
AcDbEntity
  8
PIC06
  6
Continuous
 62
     7
100
AcDbCircle
 10
78.62132861065356
 20
-43.88397050003035
 30
0.0
 40
4.645640757038536
100
AcDbArc
 50
166.9178186792999
 51
180.0
  0
ARC
  5
226
330
1E
100
AcDbEntity
  8
PIC06
  6
Continuous
 62
     7
100
AcDbCircle
 10
80.86541861065356
 20
-49.43514050003035
 30
0.0
 40
0.7874000000000001
100
AcDbArc
 50
90.0
 51
120.0007277808275
  0
LINE
  5
227
330
1E
100
AcDbEntity
  8
PIC06
  6
Continuous
 62
     7
100
AcDbLine
 10
79.48605129065356
 20
-49.32230608003036
 30
0.0
 11
80.47171861065356
 21
-48.75325210003035
 31
0.0
  0
ARC
  5
228
330
1E
100
AcDbEntity
  8
PIC06
  6
Continuous
 62
     7
100
AcDbCircle
 10
77.33900834065356
 20
-47.26971176003035
 30
0.0
 40
2.1653677382598
100
AcDbArc
 50
233.9799792286965
 51
270.2906433703717
  0
ARC
  5
229
330
1E
100
AcDbEntity
  8
PIC06
  6
Continuous
 62
     7
100
AcDbCircle
 10
77.33900834065356
 20
-47.26971176003035
 30
0.0
 40
2.165346129567631
100
AcDbArc
 50
197.9223517695502
 51
233.9799792286965
  0
ARC
  5
22A
330
1E
100
AcDbEntity
  8
PIC06
  6
Continuous
 62
     7
100
AcDbCircle
 10
74.90413132065356
 20
-48.05719050003035
 30
0.0
 40
0.3937062086000448
100
AcDbArc
 50
17.92038415581636
 51
90.0
  0
LINE
  5
22B
330
1E
100
AcDbEntity
  8
PIC06
  6
Continuous
 62
     7
100
AcDbLine
 10
77.34999257065355
 20
-49.43514050003035
 30
0.0
 11
79.33479175065357
 21
-49.43514050003035
 31
0.0
  0
ARC
  5
22C
330
1E
100
AcDbEntity
  8
PIC06
  6
Continuous
 62
     7
100
AcDbCircle
 10
79.33479175065357
 20
-49.31703050003036
 30
0.0
 40
0.1181112926412612
100
AcDbArc
 50
270.0
 51
332.9139371628925
  0
ARC
  5
22D
330
1E
100
AcDbEntity
  8
PIC06
  6
Continuous
 62
     7
100
AcDbCircle
 10
79.54510629065355
 20
-49.42458934003035
 30
0.0
 40
0.1181112926412492
100
AcDbArc
 50
120.0007277808275
 51
152.913937162897
  0
LINE
  5
237
330
1E
100
AcDbEntity
  8
PIC06
  6
Continuous
 62
     7
100
AcDbLine
 10
77.73270834065356
 20
-47.26971176003035
 30
0.0
 11
78.08369189065356
 21
-47.26971176003035
 31
0.0
  0
ARC
  5
238
330
1E
100
AcDbEntity
  8
PIC06
  6
Continuous
 62
     7
100
AcDbCircle
 10
80.86746585065355
 20
-49.43514050003035
 30
0.0
 40
2.952753292380031
100
AcDbArc
 50
89.91443836618914
 51
121.5847806426668
  0
ARC
  5
239
330
1E
100
AcDbEntity
  8
PIC06
  6
Continuous
 62
     7
100
AcDbCircle
 10
78.08369189065356
 20
-44.90755113003035
 30
0.0
 40
2.3622
100
AcDbArc
 50
270.0
 51
301.5856061934422
  0
ARC
  5
23A
330
1E
100
AcDbEntity
  8
PIC06
  6
Continuous
 62
     7
100
AcDbCircle
 10
77.72959811065355
 20
-46.83668113003037
 30
0.0
 40
0.4330417994245327
100
AcDbArc
 50
210.0007277808276
 51
270.411518206084
  0
ARC
  5
23B
330
1E
100
AcDbEntity
  8
PIC06
  6
Continuous
 62
     7
100
AcDbCircle
 10
76.88904861065356
 20
-45.38077853003035
 30
0.0
 40
0.4330700000000001
100
AcDbArc
 50
180.0
 51
210.0007277808276
  0
LINE
  5
23C
330
1E
100
AcDbEntity
  8
PIC06
  6
Continuous
 62
     7
100
AcDbLine
 10
76.45597861065356
 20
-43.88397050003035
 30
0.0
 11
76.45597861065356
 21
-45.38077853003035
 31
0.0
  0
ARC
  5
23D
330
1E
100
AcDbEntity
  8
PIC06
  6
Continuous
 62
     7
100
AcDbCircle
 10
78.62132861065356
 20
-43.88397050003035
 30
0.0
 40
2.16535
100
AcDbArc
 50
90.0
 51
180.0
  0
ARC
  5
23E
330
1E
100
AcDbEntity
  8
PIC06
  6
Continuous
 62
     7
100
AcDbCircle
 10
78.62132861065356
 20
-44.27767050003035
 30
0.0
 40
2.559052100842905
100
AcDbArc
 50
41.94128342109609
 51
90.0
  0
LINE
  5
23F
330
1E
100
AcDbEntity
  8
PIC06
  6
Continuous
 62
     7
100
AcDbLine
 10
74.29062861065355
 20
-47.62412050003035
 30
0.0
 11
74.29062861065355
 21
-43.88397050003035
 31
0.0
  0
LINE
  5
240
330
1E
100
AcDbEntity
  8
PIC06
  6
Continuous
 62
     7
100
AcDbLine
 10
73.97566861065357
 20
-47.66349050003035
 30
0.0
 11
73.97566861065357
 21
-43.88397050003035
 31
0.0
  0
ARC
  5
241
330
1E
100
AcDbEntity
  8
PIC06
  6
Continuous
 62
     7
100
AcDbCircle
 10
74.32999861065356
 20
-47.62412050003035
 30
0.0
 40
0.03937
100
AcDbArc
 50
180.0
 51
270.0
  0
LINE
  5
242
330
1E
100
AcDbEntity
  8
PIC06
  6
Continuous
 62
     7
100
AcDbLine
 10
74.32999861065356
 20
-47.66349050003035
 30
0.0
 11
74.90413132065356
 21
-47.66349050003035
 31
0.0
  0
LINE
  5
243
330
1E
100
AcDbEntity
  8
PIC06
  6
Continuous
 62
     7
100
AcDbLine
 10
77.35455949065356
 20
-47.05321613003035
 30
0.0
 11
76.51400999065356
 21
-45.59731353003035
 31
0.0
  0
LINE
  5
244
330
1E
100
AcDbEntity
  8
PIC06
  6
Continuous
 62
     7
100
AcDbLine
 10
77.71581861065357
 20
-47.26979050003035
 30
0.0
 11
77.70692099065356
 21
-47.26979050003035
 31
0.0
  0
ARC
  5
246
330
1E
100
AcDbEntity
  8
PIC06
  6
Continuous
 62
     7
100
AcDbCircle
 10
65.88241708065357
 20
-55.72402556003035
 30
0.0
 40
19.68503604229648
100
AcDbArc
 50
33.07777714570013
 51
41.94086018420601
  0
ARC
  5
248
330
1E
100
AcDbEntity
  8
PIC06
  6
Continuous
 62
     7
100
AcDbCircle
 10
78.62132861065356
 20
-44.27767050003035
 30
0.0
 40
4.724404792638902
100
AcDbArc
 50
41.94107595198469
 51
90.0
  0
ARC
  5
24B
330
1E
100
AcDbEntity
  8
PIC06
  6
Continuous
 62
     7
100
AcDbCircle
 10
65.88241708065357
 20
-55.72402556003035
 30
0.0
 40
21.85039860256563
100
AcDbArc
 50
31.95316353182577
 51
41.94085726842663
  0
ARC
  5
24D
330
1E
100
AcDbEntity
  8
PIC06
  6
Continuous
 62
     7
100
AcDbCircle
 10
85.51107861065355
 20
-42.93909050003035
 30
0.0
 40
3.740140967682254
100
AcDbArc
 50
213.0780003786429
 51
270.0
  0
ARC
  5
24E
330
1E
100
AcDbEntity
  8
PIC06
  6
Continuous
 62
     7
100
AcDbCircle
 10
85.74296791065355
 20
-46.63987050003036
 30
0.0
 40
0.15748
100
AcDbArc
 50
270.0
 51
345.5225474508292
  0
LINE
  5
24F
330
1E
100
AcDbEntity
  8
PIC06
  6
Continuous
 62
     7
100
AcDbLine
 10
85.51107861065355
 20
-46.79735050003035
 30
0.0
 11
85.74296791065355
 21
-46.79735050003035
 31
0.0
  0
LINE
  5
267
330
1E
100
AcDbEntity
  8
PIC06
  6
Continuous
 62
     7
100
AcDbLine
 10
90.58126532065356
 20
-47.07294050003035
 30
0.0
 11
89.46313361456759
 21
-47.07294050003035
 31
0.0
  0
LINE
  5
27E
330
1E
100
AcDbEntity
  8
PIC06
  6
Continuous
 62
     7
100
AcDbLine
 10
73.77881861065356
 20
-50.34065050003035
 30
0.0
 11
73.97566861065357
 21
-47.66349050003035
 31
0.0
  0
LINE
  5
280
330
1E
100
AcDbEntity
  8
PIC06
  6
Continuous
 62
     7
100
AcDbLine
 10
95.43231861065352
 20
-50.34065050003035
 30
0.0
 11
95.02330368065356
 21
-43.60704192003035
 31
0.0
  0
ARC
  5
281
330
1E
100
AcDbEntity
  8
PIC06
  6
Continuous
 62
     7
100
AcDbCircle
 10
97.38117298065349
 20
-43.46381386003035
 30
0.0
 40
2.362200069553664
100
AcDbArc
 50
121.5628347443492
 51
183.4761434953725
  0
ARC
  5
28D
330
1E
100
AcDbEntity
  8
PIC06
  6
Continuous
 62
     7
100
AcDbCircle
 10
78.62132861065356
 20
-43.88397050003035
 30
0.0
 40
4.3307
100
AcDbArc
 50
90.0
 51
105.3259280804507
  0
ARC
  5
294
330
1E
100
AcDbEntity
  8
PIC06
  6
Continuous
 62
     7
100
AcDbCircle
 10
78.62132861065356
 20
-43.88397050003035
 30
0.0
 40
4.330710680352012
100
AcDbArc
 50
113.9759749757553
 51
180.0
  0
ARC
  5
295
330
1E
100
AcDbEntity
  8
PIC06
  6
Continuous
 62
     7
100
AcDbCircle
 10
76.65357664065357
 20
-39.45929431003035
 30
0.0
 40
0.5117894181615453
100
AcDbArc
 50
293.9741244525715
 51
337.7181563276292
  0
ARC
  5
296
330
1E
100
AcDbEntity
  8
PIC06
  6
Continuous
 62
     7
100
AcDbCircle
 10
77.36223664065355
 20
-39.28960961003038
 30
0.0
 40
0.433072737995864
100
AcDbArc
 50
237.1261387726035
 51
285.323643362843
  0
ARC
  5
298
330
1E
100
AcDbEntity
  8
PIC06
  6
Continuous
 62
     7
100
AcDbCircle
 10
92.43539547065356
 20
-35.41276697003036
 30
0.0
 40
7.086601883744888
100
AcDbArc
 50
301.5623969099295
 51
354.271068189943
  0
ARC
  5
2A0
330
1E
100
AcDbEntity
  8
PIC06
  6
Continuous
 62
     7
100
AcDbCircle
 10
85.70784987065355
 20
-44.31704050003034
 30
0.0
 40
0.1968569447455014
100
AcDbArc
 50
270.0
 51
359.5187267714224
  0
ARC
  5
2A1
330
1E
100
AcDbEntity
  8
PIC06
  6
Continuous
 62
     7
100
AcDbCircle
 10
84.82635557065355
 20
-44.31704050003035
 30
0.0
 40
0.1968506023600786
100
AcDbArc
 50
232.5983915154614
 51
270.0
  0
ARC
  5
2A2
330
1E
100
AcDbEntity
  8
PIC06
  6
Continuous
 62
     7
100
AcDbCircle
 10
85.4241890206536
 20
-43.53515230003031
 30
0.0
 40
1.181103614160524
100
AcDbArc
 50
211.9539618302584
 51
232.5983915154614
  0
LINE
  5
2A3
330
1E
100
AcDbEntity
  8
PIC06
  6
Continuous
 62
     7
100
AcDbLine
 10
84.82635557065355
 20
-44.51389050003036
 30
0.0
 11
85.70784987065355
 21
-44.51389050003036
 31
0.0
  0
ARC
  5
2A9
330
1E
100
AcDbEntity
  8
PIC06
  6
Continuous
 62
     7
100
AcDbCircle
 10
90.98705191065349
 20
-7.416172173002145
 30
0.0
 40
9.251940705073398
100
AcDbArc
 50
68.24735144173769
 51
97.0512583161852
  0
ARC
  5
2AA
330
1E
100
AcDbEntity
  8
PIC06
  6
Continuous
 62
     7
100
AcDbCircle
 10
90.98705191065304
 20
0.2609778269989569
 30
0.0
 40
9.251923381570907
100
AcDbArc
 50
291.7526485582623
 51
297.5801229862122
  0
ARC
  5
2AB
330
1E
100
AcDbEntity
  8
PIC06
  6
Continuous
 62
     7
100
AcDbCircle
 10
90.98705191065349
 20
0.2609778269978555
 30
0.0
 40
9.251940705073412
100
AcDbArc
 50
262.9487117540618
 51
291.7526485582623
  0
ARC
  5
2AC
330
1E
100
AcDbEntity
  8
PIC06
  6
Continuous
 62
     7
100
AcDbCircle
 10
92.51870239065356
 20
-3.577597173002143
 30
0.0
 40
5.119092981336563
100
AcDbArc
 50
0.0
 51
62.86798287405479
  0
LINE
  5
2B4
330
1E
100
AcDbEntity
  8
PIC06
  6
Continuous
 62
     7
100
AcDbLine
 10
99.17321664065353
 20
-35.77375050003036
 30
0.0
 11
80.29510479065356
 21
-35.77375050003036
 31
0.0
  0
ARC
  5
2BD
330
1E
100
AcDbEntity
  8
PIC06
  6
Continuous
 62
     7
100
AcDbCircle
 10
92.51870239065356
 20
-3.577597173002143
 30
0.0
 40
5.119071093847733
100
AcDbArc
 50
291.7525586199096
 51
0.0
  0
CIRCLE
  5
2BF
330
1E
100
AcDbEntity
  8
PIC06
  6
Continuous
 62
     7
100
AcDbCircle
 10
82.95277664065356
 20
-6.333497173002143
 30
0.0
 40
0.27559
  0
ARC
  5
2C2
330
1E
100
AcDbEntity
  8
PIC06
  6
Continuous
 62
     7
100
AcDbCircle
 10
62.53088770473292
 20
-40.42074117047206
 30
0.0
 40
11.8141478303063
100
AcDbArc
 50
348.2210585604931
 51
14.85448299586925
  0
ARC
  5
2C3
330
1E
100
AcDbEntity
  8
PIC06
  6
Continuous
 62
     7
100
AcDbCircle
 10
74.33074664065355
 20
-37.29106423256608
 30
0.0
 40
0.3937
100
AcDbArc
 50
180.0
 51
194.856290295878
  0
ARC
  5
2CD
330
1E
100
AcDbEntity
  8
PIC06
  6
Continuous
 62
     7
100
AcDbCircle
 10
89.46313361456759
 20
-47.19105050003035
 30
0.0
 40
0.1181099999999988
100
AcDbArc
 50
90.0
 51
174.9956832494917
  0
LINE
  5
2CE
330
1E
100
AcDbEntity
  8
PIC06
  6
Continuous
 62
     7
100
AcDbLine
 10
89.09485399944038
 20
-50.0428618824813
 30
0.0
 11
89.34547383467275
 21
-47.18074767055978
 31
0.0
  0
ARC
  5
2CF
330
1E
100
AcDbEntity
  8
PIC06
  6
Continuous
 62
     7
100
AcDbCircle
 10
88.89875436628232
 20
-50.02569050003035
 30
0.0
 40
0.19685
100
AcDbArc
 50
270.0
 51
354.9956832494918
  0
LINE
  5
2D0
330
1E
100
AcDbEntity
  8
PIC06
  6
Continuous
 62
     7
100
AcDbLine
 10
88.42644275969654
 20
-50.22254050003034
 30
0.0
 11
88.89875436628232
 21
-50.22254050003034
 31
0.0
  0
ARC
  5
2D3
330
1E
100
AcDbEntity
  8
PIC06
  6
Continuous
 62
     7
100
AcDbCircle
 10
88.42644275969654
 20
-50.30128050003035
 30
0.0
 40
0.0787399999999989
100
AcDbArc
 50
90.0
 51
177.274777886145
  0
LINE
  5
2D8
330
1E
100
AcDbEntity
  8
PIC06
  6
Continuous
 62
     7
100
AcDbLine
 10
81.57482664065355
 20
-35.73438050003036
 30
0.0
 11
81.78348764065356
 21
-35.73438050003036
 31
0.0
  0
LINE
  5
2D9
330
1E
100
AcDbEntity
  8
PIC06
  6
Continuous
 62
     7
100
AcDbLine
 10
81.78348764065356
 20
-35.73438050003036
 30
0.0
 11
81.78348764065356
 21
-35.77375050003036
 31
0.0
  0
LINE
  5
2DA
330
1E
100
AcDbEntity
  8
PIC06
  6
Continuous
 62
     7
100
AcDbLine
 10
81.88191264065356
 20
-35.73438050003036
 30
0.0
 11
81.88191264065356
 21
-35.77375050003036
 31
0.0
  0
LINE
  5
2DB
330
1E
100
AcDbEntity
  8
PIC06
  6
Continuous
 62
     7
100
AcDbLine
 10
81.88191264065356
 20
-35.73438050003036
 30
0.0
 11
82.00002264065355
 21
-35.73438050003036
 31
0.0
  0
LINE
  5
2DC
330
1E
100
AcDbEntity
  8
PIC06
  6
Continuous
 62
     7
100
AcDbLine
 10
82.00002264065355
 20
-35.77375050003036
 30
0.0
 11
82.00002264065355
 21
-35.73438050003036
 31
0.0
  0
LINE
  5
2DD
330
1E
100
AcDbEntity
  8
PIC06
  6
Continuous
 62
     7
100
AcDbLine
 10
81.57482664065355
 20
-35.77375050003036
 30
0.0
 11
81.57482664065355
 21
-35.73438050003036
 31
0.0
  0
ARC
  5
2DE
330
1E
100
AcDbEntity
  8
PIC06
  6
Continuous
 62
     7
100
AcDbCircle
 10
72.63437208065356
 20
-152.916392983002
 30
0.0
 40
157.4798541731079
100
AcDbArc
 50
82.81096494724474
 51
87.07105363105847
  0
ARC
  5
2DF
330
1E
100
AcDbEntity
  8
PIC06
  6
Continuous
 62
     7
100
AcDbCircle
 10
80.59650542141483
 20
4.054381099489905
 30
0.0
 40
0.31496
100
AcDbArc
 50
350.7655880626079
 51
85.76852538552097
  0
ARC
  5
2E0
330
1E
100
AcDbEntity
  8
PIC06
  6
Continuous
 62
     7
100
AcDbCircle
 10
80.59650542141483
 20
-11.20957544549413
 30
0.0
 40
0.31496
100
AcDbArc
 50
274.231474614479
 51
9.234411937392101
  0
LINE
  5
2E1
330
1E
100
AcDbEntity
  8
PIC06
  6
Continuous
 62
     7
100
AcDbLine
 10
80.6197450746046
 20
-11.52367689426452
 30
0.0
 11
78.49016978557353
 21
-11.68123933580146
 31
0.0
  0
ARC
  5
2E4
330
1E
100
AcDbEntity
  8
PIC06
  6
Continuous
 62
     7
100
AcDbCircle
 10
20.15778412065548
 20
-3.577597173002143
 30
0.0
 40
59.1335758415488
100
AcDbArc
 50
353.9876995280494
 51
6.01230047195066
  0
ARC
  5
2E5
330
1E
100
AcDbEntity
  8
PIC06
  6
Continuous
 62
     7
100
AcDbCircle
 10
77.79148775065357
 20
2.49246942699785
 30
0.0
 40
1.181098562337948
100
AcDbArc
 50
6.011805023400468
 51
87.52596042774193
  0
ARC
  5
2E7
330
1E
100
AcDbEntity
  8
PIC06
  6
Continuous
 62
     7
100
AcDbCircle
 10
71.03209182065356
 20
-153.9241862430019
 30
0.0
 40
157.7437365201749
100
AcDbArc
 50
87.52556033099514
 51
88.60621368862135
  0
ARC
  5
2E9
330
1E
100
AcDbEntity
  8
PIC06
  6
Continuous
 62
     7
100
AcDbCircle
 10
74.83070627065355
 20
2.198572376997816
 30
0.0
 40
1.574763008005643
100
AcDbArc
 50
88.60613696240182
 51
175.710168173416
  0
ARC
  5
2EC
330
1E
100
AcDbEntity
  8
PIC06
  6
Continuous
 62
     7
100
AcDbCircle
 10
151.8189381206535
 20
-3.577597173002143
 30
0.0
 40
78.77937412699299
100
AcDbArc
 50
175.7093447635128
 51
184.2906552364871
  0
ARC
  5
2EF
330
1E
100
AcDbEntity
  8
PIC06
  6
Continuous
 62
     7
100
AcDbCircle
 10
77.79148775065356
 20
-9.647663773002147
 30
0.0
 40
1.181100262466638
100
AcDbArc
 50
272.4759476509362
 51
353.9881949765995
  0
ARC
  5
2F2
330
1E
100
AcDbEntity
  8
PIC06
  6
Continuous
 62
     7
100
AcDbCircle
 10
71.04075322065355
 20
146.5055278569977
 30
0.0
 40
157.4801605130224
100
AcDbArc
 50
271.3929675512184
 51
272.4754440999277
  0
ARC
  5
2F5
330
1E
100
AcDbEntity
  8
PIC06
  6
Continuous
 62
     7
100
AcDbCircle
 10
74.83070627065356
 20
-9.353727353002206
 30
0.0
 40
1.57476595344021
100
AcDbArc
 50
184.2912602389936
 51
271.3938281951941
  0
LINE
  5
2FB
330
1E
100
AcDbEntity
  8
PIC06
  6
Continuous
 62
     7
100
AcDbLine
 10
72.91342664065357
 20
-33.80525050003035
 30
0.0
 11
73.07393813065356
 21
-25.13623240503036
 31
0.0
  0
ARC
  5
2FC
330
1E
100
AcDbEntity
  8
PIC06
  6
Continuous
 62
     7
100
AcDbCircle
 10
73.19775678065356
 20
-24.82888656303036
 30
0.0
 40
0.1180909194943197
100
AcDbArc
 50
178.9378858176
 51
270.0
  0
LINE
  5
2FD
330
1E
100
AcDbEntity
  8
PIC06
  6
Continuous
 62
     7
100
AcDbLine
 10
73.09700895065356
 20
-25.08201204103043
 30
0.0
 11
73.20897723065357
 21
-24.97005557203042
 31
0.0
  0
ARC
  5
2FE
330
1E
100
AcDbEntity
  8
PIC06
  6
Continuous
 62
     7
100
AcDbCircle
 10
73.15267813065358
 20
-25.13769303203039
 30
0.0
 40
0.0787535461502363
100
AcDbArc
 50
134.9939225917426
 51
178.9372851731202
  0
ARC
  5
2FF
330
1E
100
AcDbEntity
  8
PIC06
  6
Continuous
 62
     7
100
AcDbCircle
 10
73.26464641065356
 20
-25.02573656303036
 30
0.0
 40
0.0787364614433103
100
AcDbArc
 50
90.0
 51
134.9939225917389
  0
ARC
  5
300
330
1E
100
AcDbEntity
  8
PIC06
  6
Continuous
 62
     7
100
AcDbCircle
 10
73.49673256065357
 20
-23.5690465630304
 30
0.0
 40
0.3936887853745203
100
AcDbArc
 50
86.25029535336766
 51
178.9387912629766
  0
ARC
  5
301
330
1E
100
AcDbEntity
  8
PIC06
  6
Continuous
 62
     7
100
AcDbCircle
 10
78.84117069065357
 20
-24.04144325603042
 30
0.0
 40
0.3936984867127089
100
AcDbArc
 50
3.727370000293579
 51
83.64430640641252
  0
LINE
  5
303
330
1E
100
AcDbEntity
  8
PIC06
  6
Continuous
 62
     7
100
AcDbLine
 10
73.10311130065357
 20
-23.56175523903036
 30
0.0
 11
73.07968615065355
 21
-24.82669759103039
 31
0.0
  0
ARC
  5
304
330
1E
100
AcDbEntity
  8
PIC06
  6
Continuous
 62
     7
100
AcDbCircle
 10
79.22829590065358
 20
-25.13918515503033
 30
0.0
 40
0.0787336773178291
100
AcDbArc
 50
3.726425888435312
 51
45.0040517487842
  0
ARC
  5
305
330
1E
100
AcDbEntity
  8
PIC06
  6
Continuous
 62
     7
100
AcDbCircle
 10
79.11487093065357
 20
-25.02573656303036
 30
0.0
 40
0.0787364614433137
100
AcDbArc
 50
45.00607740826104
 51
90.0
  0
LINE
  5
306
330
1E
100
AcDbEntity
  8
PIC06
  6
Continuous
 62
     7
100
AcDbLine
 10
73.19775678065356
 20
-24.94699656303039
 30
0.0
 11
79.16865035065356
 21
-24.94699656303039
 31
0.0
  0
ARC
  5
307
330
1E
100
AcDbEntity
  8
PIC06
  6
Continuous
 62
     7
100
AcDbCircle
 10
79.16865035065356
 20
-24.82888656303036
 30
0.0
 40
0.11811
100
AcDbArc
 50
270.0
 51
3.729573656090123
  0
LINE
  5
308
330
1E
100
AcDbEntity
  8
PIC06
  6
Continuous
 62
     7
100
AcDbLine
 10
79.97605031065356
 20
-35.40564100003036
 30
0.0
 11
79.30687842065356
 21
-25.13406705503042
 31
0.0
  0
LINE
  5
309
330
1E
100
AcDbEntity
  8
PIC06
  6
Continuous
 62
     7
100
AcDbLine
 10
79.28396508065356
 20
-25.08350810103036
 30
0.0
 11
79.17054011065356
 21
-24.97005557203042
 31
0.0
  0
ARC
  5
30B
330
1E
100
AcDbEntity
  8
PIC06
  6
Continuous
 62
     7
100
AcDbCircle
 10
65.80690542065356
 20
-141.0337762000304
 30
0.0
 40
118.1098742603819
100
AcDbArc
 50
83.64282523620973
 51
86.25446311444525
  0
LINE
  5
30C
330
1E
100
AcDbEntity
  8
PIC06
  6
Continuous
 62
     7
100
AcDbLine
 10
79.28648476065356
 20
-24.82120547603043
 30
0.0
 11
79.23404392065356
 21
-24.01584881903052
 31
0.0
  0
ARC
  5
333
330
1E
100
AcDbEntity
  8
PIC06
  6
Continuous
 62
     7
100
AcDbCircle
 10
118.6467359181926
 20
-141.7971605000303
 30
0.0
 40
118.110003937
100
AcDbArc
 50
86.93431421068032
 51
93.06568578931967
  0
ARC
  5
334
330
1E
100
AcDbEntity
  8
PIC06
  6
Continuous
 62
     7
100
AcDbCircle
 10
118.6467359181926
 20
-141.2853505000303
 30
0.0
 40
118.1099958482299
100
AcDbArc
 50
86.86315001264159
 51
93.13684998735842
  0
LINE
  5
335
330
1E
100
AcDbEntity
  8
PIC06
  6
Continuous
 62
     7
100
AcDbLine
 10
111.4321558591926
 20
-24.94699656303039
 30
0.0
 11
125.8613159771926
 21
-24.94699656303039
 31
0.0
  0
ARC
  5
336
330
1E
100
AcDbEntity
  8
PIC06
  6
Continuous
 62
     7
100
AcDbCircle
 10
112.2267243487926
 20
-24.13852967603039
 30
0.0
 40
0.7873908141147902
100
AcDbArc
 50
93.1368858032785
 51
170.1712060131429
  0
ARC
  5
337
330
1E
100
AcDbEntity
  8
PIC06
  6
Continuous
 62
     7
100
AcDbCircle
 10
111.3420261181926
 20
-25.1420670390304
 30
0.0
 40
0.078741098120069
100
AcDbArc
 50
135.0000000000073
 51
170.9992253852757
  0
ARC
  5
338
330
1E
100
AcDbEntity
  8
PIC06
  6
Continuous
 62
     7
100
AcDbCircle
 10
111.4583565941926
 20
-25.02573656303036
 30
0.0
 40
0.0787420288083884
100
AcDbArc
 50
90.0
 51
134.9979743404759
  0
ARC
  5
339
330
1E
100
AcDbEntity
  8
PIC06
  6
Continuous
 62
     7
100
AcDbCircle
 10
111.4321558591926
 20
-24.82888656303036
 30
0.0
 40
0.1181097077430052
100
AcDbArc
 50
170.7640577551711
 51
270.0
  0
ARC
  5
33A
330
1E
100
AcDbEntity
  8
PIC06
  6
Continuous
 62
     7
100
AcDbCircle
 10
189.0351778181926
 20
-37.44563692003036
 30
0.0
 40
78.74006414579143
100
AcDbArc
 50
170.1710422260858
 51
170.7656118528238
  0
LINE
  5
33B
330
1E
100
AcDbEntity
  8
PIC06
  6
Continuous
 62
     7
100
AcDbLine
 10
111.2863490641926
 20
-25.0863899850304
 30
0.0
 11
111.4026795401926
 21
-24.97005557203042
 31
0.0
  0
LINE
  5
33C
330
1E
100
AcDbEntity
  8
PIC06
  6
Continuous
 62
     7
100
AcDbLine
 10
111.2728372801926
 20
-25.10447656303036
 30
0.0
 11
126.0206345561926
 21
-25.10447656303036
 31
0.0
  0
ARC
  5
33D
330
1E
100
AcDbEntity
  8
PIC06
  6
Continuous
 62
     7
100
AcDbCircle
 10
189.0351778181926
 20
-37.44563692003036
 30
0.0
 40
78.74006356912667
100
AcDbArc
 50
171.0013047184177
 51
177.2105153655933
  0
ARC
  5
33E
330
1E
100
AcDbEntity
  8
PIC06
  6
Continuous
 62
     7
100
AcDbCircle
 10
112.3722311443926
 20
-24.64245780203036
 30
0.0
 40
0.7874020025540785
100
AcDbArc
 50
93.06569472641312
 51
170.538224113935
  0
ARC
  5
33F
330
1E
100
AcDbEntity
  8
PIC06
  6
Continuous
 62
     7
100
AcDbCircle
 10
189.2643112181973
 20
-37.45681800003089
 30
0.0
 40
78.7400000000047
100
AcDbArc
 50
171.2933695614781
 51
177.2105099946558
  0
ARC
  5
340
330
1E
100
AcDbEntity
  8
PIC06
  6
Continuous
 62
     7
100
AcDbCircle
 10
189.2643112198896
 20
-37.45681800031051
 30
0.0
 40
78.74000000171993
100
AcDbArc
 50
170.5383936646617
 51
170.8434891729734
  0
LWPOLYLINE
  5
341
330
1E
100
AcDbEntity
  8
PIC06
  6
Continuous
 62
     7
100
AcDbPolyline
 90
       13
 70
     0
 43
0.0
 10
111.4963403858961
 20
-25.12270625142496
 10
111.4908676631871
 20
-25.1572620081917
 10
111.4854102964767
 20
-25.19182018470591
 10
111.479968286563
 20
-25.22638077584904
 10
111.4745416342435
 20
-25.26094377650236
 10
111.4691303403163
 20
-25.29550918154754
 10
111.463734405579
 20
-25.33007698586556
 10
111.4583538308297
 20
-25.36464718433807
 10
111.4529886168662
 20
-25.39921977184639
 10
111.4476387644861
 20
-25.43379474327187
 10
111.4423042744874
 20
-25.46837209349599
 10
111.4369851476679
 20
-25.50295181740002
 10
111.4316813848254
 20
-25.53753390986527
  0
LWPOLYLINE
  5
350
330
1E
100
AcDbEntity
  8
PIC06
  6
Continuous
 62
     7
100
AcDbPolyline
 90
       13
 70
     0
 43
0.0
 10
111.27530714843
 20
-25.78167594206357
 10
111.2668279236231
 20
-25.83845763462141
 10
111.2583900456077
 20
-25.89524544766367
 10
111.2499935176643
 20
-25.952039358605
 10
111.241638343073
 20
-26.00883934486008
 10
111.2333245251142
 20
-26.06564538384346
 10
111.2250520670679
 20
-26.12245745296983
 10
111.2168209722148
 20
-26.17927552965371
 10
111.2086312438348
 20
-26.2360995913098
 10
111.2004828852085
 20
-26.29292961535277
 10
111.1923758996159
 20
-26.34976557919714
 10
111.1843102903375
 20
-26.40660746025762
 10
111.1762860606535
 20
-26.46345523594874
  0
LWPOLYLINE
  5
35F
330
1E
100
AcDbEntity
  8
PIC06
  6
Continuous
 62
     7
100
AcDbPolyline
 90
       13
 70
     0
 43
0.0
 10
111.3141758267637
 20
-25.78728974110975
 10
111.3056959758588
 20
-25.84407470545868
 10
111.2972574971332
 20
-25.90086579411996
 10
111.2888603938707
 20
-25.95766298448198
 10
111.2805046693556
 20
-26.01446625393295
 10
111.2721903268719
 20
-26.07127557986115
 10
111.2639173697039
 20
-26.12809093965462
 10
111.2556858011355
 20
-26.18491231070179
 10
111.2474956244509
 20
-26.24173967039072
 10
111.2393468429343
 20
-26.29857299610975
 10
111.2312394598696
 20
-26.35541226524715
 10
111.2231734785413
 20
-26.41225745519097
 10
111.2151489022332
 20
-26.46910854332964
  0
LINE
  5
36E
330
1E
100
AcDbEntity
  8
PIC06
  6
Continuous
 62
     7
100
AcDbLine
 10
111.3142781421926
 20
-25.78729409503046
 30
0.0
 11
111.2753136531926
 21
-25.78163268903039
 31
0.0
  0
LINE
  5
36F
330
1E
100
AcDbEntity
  8
PIC06
  6
Continuous
 62
     7
100
AcDbLine
 10
111.2152507811926
 20
-26.4691116290304
 30
0.0
 11
111.1762902291926
 21
-26.46345416003037
 31
0.0
  0
LWPOLYLINE
  5
370
330
1E
100
AcDbEntity
  8
PIC06
  6
Continuous
 62
     7
100
AcDbPolyline
 90
       10
 70
     0
 43
0.0
 10
111.2616940739932
 20
-27.9891671134581
 10
111.313253284991
 20
-27.90007988002618
 10
111.3424211887778
 20
-27.88319663230912
 10
111.3742265922466
 20
-27.88439549866814
 10
111.4199473679969
 20
-27.91045862797645
 10
111.4896364908696
 20
-27.97178035967013
 10
111.5915306877437
 20
-28.05254743084093
 10
111.6231279233704
 20
-28.05874208976025
 10
111.6520130383365
 20
-28.04864545362191
 10
111.7027696657672
 20
-27.97881931726595
  0
LINE
  5
37D
330
1E
100
AcDbEntity
  8
PIC06
  6
CENTER
 62
     7
100
AcDbLine
 10
72.39557986246508
 20
-3.577597173002143
 30
0.0
 11
99.82317597065355
 21
-3.577597173002143
 31
0.0
  0
LINE
  5
37F
330
1E
100
AcDbEntity
  8
PIC06
  6
CENTER
 62
     7
100
AcDbLine
 10
82.95277664065356
 20
-7.162904963002144
 30
0.0
 11
82.95277664065356
 21
0.0858600669978529
 31
0.0
  0
LINE
  5
380
330
1E
100
AcDbEntity
  8
PIC06
  6
CENTER
 62
     7
100
AcDbLine
 10
118.6467359181926
 20
-51.06777503003035
 30
0.0
 11
118.6467359181926
 21
-22.96901582152278
 31
0.0
  0
LINE
  5
381
330
1E
100
AcDbEntity
  8
PIC06
  6
CENTER
 62
     7
100
AcDbLine
 10
82.26773864065355
 20
-0.8216971730022351
 30
0.0
 11
83.57096438065356
 21
-0.8216971730022351
 31
0.0
  0
LINE
  5
382
330
1E
100
AcDbEntity
  8
PIC06
  6
CENTER
 62
     7
100
AcDbLine
 10
82.19029785065357
 20
-6.333497173002143
 30
0.0
 11
83.68580667065357
 21
-6.333497173002143
 31
0.0
  0
ARC
  5
3A0
330
1E
100
AcDbEntity
  8
PIC06
  6
DASHED
 62
     7
100
AcDbCircle
 10
87.91217617065356
 20
-3.971297173002145
 30
0.0
 40
0.1968517992007777
100
AcDbArc
 50
5.002499605711193
 51
90.0
  0
LINE
  5
3A1
330
1E
100
AcDbEntity
  8
PIC06
  6
DASHED
 62
     7
100
AcDbLine
 10
85.60824377065356
 20
-3.774447173002144
 30
0.0
 11
87.91301780512453
 21
-3.774447173002144
 31
0.0
  0
LINE
  5
3A3
330
1E
100
AcDbEntity
  8
PIC06
  6
DASHED
 62
     7
100
AcDbLine
 10
85.60824377065356
 20
-3.380747173002145
 30
0.0
 11
87.91301780512371
 21
-3.380747173002145
 31
0.0
  0
ARC
  5
3A6
330
1E
100
AcDbEntity
  8
PIC06
  6
DASHED
 62
     7
100
AcDbCircle
 10
87.91217617065356
 20
-3.183897173002144
 30
0.0
 40
0.1968517992007683
100
AcDbArc
 50
270.0
 51
354.9975003942888
  0
LINE
  5
3A7
330
1E
100
AcDbEntity
  8
PIC06
  6
CENTER
 62
     7
100
AcDbLine
 10
84.13312861065355
 20
-49.35657677401604
 30
0.0
 11
84.13312861065355
 21
-51.54280601628261
 31
0.0
  0
ARC
  5
3B9
330
1E
100
AcDbEntity
  8
PIC06
  6
Continuous
 62
     7
100
AcDbCircle
 10
85.42418902065042
 20
-43.5351523000347
 30
0.0
 40
1.181103614155124
100
AcDbArc
 50
232.5983915154583
 51
235.9617555104013
  0
ARC
  5
3BC
330
1E
100
AcDbEntity
  8
PIC06
  6
DASHED
 62
     7
100
AcDbCircle
 10
87.88973527065357
 20
-49.15955050003034
 30
0.0
 40
0.59055
100
AcDbArc
 50
270.0
 51
354.9975003942888
  0
LINE
  5
3BF
330
1E
100
AcDbEntity
  8
PIC06
  6
CENTER
 62
     7
100
AcDbLine
 10
76.31196315065356
 20
-26.12809656303036
 30
0.0
 11
77.38814210065356
 21
-26.12809656303036
 31
0.0
  0
LINE
  5
3C0
330
1E
100
AcDbEntity
  8
PIC06
  6
CENTER
 62
     7
100
AcDbLine
 10
76.85042664065356
 20
-25.93059695803037
 30
0.0
 11
76.85042664065356
 21
-26.02181724803036
 31
0.0
  0
LINE
  5
3C1
330
1E
100
AcDbEntity
  8
PIC06
  6
CENTER
 62
     7
100
AcDbLine
 10
76.85042664065356
 20
-26.11086037703046
 30
0.0
 11
76.85042664065356
 21
-26.64296954903039
 31
0.0
  0
LINE
  5
3C2
330
1E
100
AcDbEntity
  8
PIC06
  6
CENTER
 62
     7
100
AcDbLine
 10
76.85042664065356
 20
-25.56972760103036
 30
0.0
 11
76.85042664065356
 21
-25.85240813803036
 31
0.0
  0
LWPOLYLINE
  5
3C3
330
1E
100
AcDbEntity
  8
PIC06
  6
DASHED
 62
     7
100
AcDbPolyline
 90
        3
 70
     0
 43
0.0
 10
111.9231803010912
 20
-24.94700906993268
 10
111.6935573073227
 20
-26.46027360176507
 10
111.4935401130386
 20
-27.97773509536552
  0
LINE
  5
3C8
330
1E
100
AcDbEntity
  8
PIC06
  6
DASHED
 62
     7
100
AcDbLine
 10
111.7818165771926
 20
-25.85519553403036
 30
0.0
 11
111.3142781421926
 21
-25.78729409503046
 31
0.0
  0
LINE
  5
3C9
330
1E
100
AcDbEntity
  8
PIC06
  6
DASHED
 62
     7
100
AcDbLine
 10
111.6827892161926
 20
-26.53701700503042
 30
0.0
 11
111.2152507811926
 21
-26.4691116290304
 31
0.0
  0
LINE
  5
3CA
330
1E
100
AcDbEntity
  8
PIC06
  6
CENTER
 62
     7
100
AcDbLine
 10
111.0331133501926
 20
-26.09455726003036
 30
0.0
 11
111.8538951731926
 21
-26.2137696200304
 31
0.0
  0
LINE
  5
3CB
330
1E
100
AcDbEntity
  8
PIC06
  6
Continuous
 62
     7
100
AcDbLine
 10
111.2375499491926
 20
-35.77375813348439
 30
0.0
 11
126.0559218871926
 21
-35.77375813348439
 31
0.0
  0
LINE
  5
3CC
330
1E
100
AcDbEntity
  8
PIC06
  6
Continuous
 62
     7
100
AcDbLine
 10
114.3160319811925
 20
-50.34065050003035
 30
0.0
 11
122.9774398551926
 21
-50.34065050003035
 31
0.0
  0
LINE
  5
3CD
330
1E
100
AcDbEntity
  8
PIC06
  6
Continuous
 62
     7
100
AcDbLine
 10
125.3160178551925
 20
-35.77375050003036
 30
0.0
 11
124.2372798551926
 21
-35.77375050003036
 31
0.0
  0
ARC
  5
3CE
330
1E
100
AcDbEntity
  8
PIC06
  6
Continuous
 62
     7
100
AcDbCircle
 10
117.7572495081925
 20
-36.15382848003037
 30
0.0
 40
7.873984364826443
100
AcDbArc
 50
314.5962978482689
 51
348.0194456603925
  0
LINE
  5
3CF
330
1E
100
AcDbEntity
  8
PIC06
  6
Continuous
 62
     7
100
AcDbLine
 10
125.6137967871925
 20
-37.66351050003036
 30
0.0
 11
125.9507606801926
 21
-37.66351050003036
 31
0.0
  0
ARC
  5
3D0
330
1E
100
AcDbEntity
  8
PIC06
  6
Continuous
 62
     7
100
AcDbCircle
 10
125.9507606801926
 20
-37.86036050003036
 30
0.0
 40
0.19685
100
AcDbArc
 50
30.89025761325292
 51
90.0
  0
LINE
  5
3D1
330
1E
100
AcDbEntity
  8
PIC06
  6
Continuous
 62
     7
100
AcDbLine
 10
126.4054605581926
 20
-38.23701329003036
 30
0.0
 11
126.1196894761926
 21
-37.75929771003035
 31
0.0
  0
ARC
  5
3D2
330
1E
100
AcDbEntity
  8
PIC06
  6
Continuous
 62
     7
100
AcDbCircle
 10
126.5743893541926
 20
-38.13595050003035
 30
0.0
 40
0.1968517859725801
100
AcDbArc
 50
210.8902576132529
 51
270.0
  0
LINE
  5
3D3
330
1E
100
AcDbEntity
  8
PIC06
  6
Continuous
 62
     7
100
AcDbLine
 10
126.7711369921926
 20
-38.14232844003035
 30
0.0
 11
126.7915267151926
 21
-37.51106986003036
 31
0.0
  0
ARC
  5
3D4
330
1E
100
AcDbEntity
  8
PIC06
  6
Continuous
 62
     7
100
AcDbCircle
 10
126.5743893541926
 20
-38.13595050003035
 30
0.0
 40
0.1968500000000022
100
AcDbArc
 50
270.0
 51
358.1433011123894
  0
ARC
  5
3D5
330
1E
100
AcDbEntity
  8
PIC06
  6
Continuous
 62
     7
100
AcDbCircle
 10
126.1615004161926
 20
-38.13595050003035
 30
0.0
 40
0.1968551645282251
100
AcDbArc
 50
210.8896693209582
 51
270.0
  0
LINE
  5
3D6
330
1E
100
AcDbEntity
  8
PIC06
  6
Continuous
 62
     7
100
AcDbLine
 10
125.9925676831926
 20
-38.23701329003036
 30
0.0
 11
125.7068005381925
 21
-37.75929771003035
 31
0.0
  0
ARC
  5
3D7
330
1E
100
AcDbEntity
  8
PIC06
  6
Continuous
 62
     7
100
AcDbCircle
 10
126.0559218871926
 20
-35.38005050003036
 30
0.0
 40
0.393707633454037
100
AcDbArc
 50
270.0
 51
343.3757195993075
  0
ARC
  5
3D8
330
1E
100
AcDbEntity
  8
PIC06
  6
Continuous
 62
     7
100
AcDbCircle
 10
120.7744363871925
 20
-33.80340011003035
 30
0.0
 40
5.905505483036425
100
AcDbArc
 50
343.3781942148629
 51
359.9457600115985
  0
ARC
  5
3D9
330
1E
100
AcDbEntity
  8
PIC06
  6
Continuous
 62
     7
100
AcDbCircle
 10
122.9727154551931
 20
-33.80525050003034
 30
0.0
 40
3.936999999999549
100
AcDbArc
 50
0.0
 51
2.789687441542592
  0
LINE
  5
3DA
330
1E
100
AcDbEntity
  8
PIC06
  6
Continuous
 62
     7
100
AcDbLine
 10
126.7916054551926
 20
-37.50603050003035
 30
0.0
 11
126.7916054551926
 21
-37.50855018003034
 31
0.0
  0
LINE
  5
3DB
330
1E
100
AcDbEntity
  8
PIC06
  6
Continuous
 62
     7
100
AcDbLine
 10
126.9097154551926
 20
-33.80525050003035
 30
0.0
 11
126.7915267151926
 21
-37.51106986003036
 31
0.0
  0
ARC
  5
3DC
330
1E
100
AcDbEntity
  8
PIC06
  6
Continuous
 62
     7
100
AcDbCircle
 10
122.7429363871952
 20
-33.80525050003031
 30
0.0
 40
3.937001776568204
100
AcDbArc
 50
359.9455690258366
 51
2.626783707987147
  0
ARC
  5
3DD
330
1E
100
AcDbEntity
  8
PIC06
  6
Continuous
 62
     7
100
AcDbCircle
 10
125.6137967871925
 20
-37.82099050003036
 30
0.0
 40
0.1574746054302027
100
AcDbArc
 50
90.0
 51
168.0236977054715
  0
LINE
  5
3DE
330
1E
100
AcDbEntity
  8
PIC06
  6
Continuous
 62
     7
100
AcDbLine
 10
126.5743893541926
 20
-38.33280050003035
 30
0.0
 11
126.1615004161926
 21
-38.33280050003035
 31
0.0
  0
ARC
  5
3DF
330
1E
100
AcDbEntity
  8
PIC06
  6
Continuous
 62
     7
100
AcDbCircle
 10
125.5378678051926
 20
-37.86036050003036
 30
0.0
 40
0.1968451758954183
100
AcDbArc
 50
30.88966932095819
 51
78.24395800063529
  0
LINE
  5
3E0
330
1E
100
AcDbEntity
  8
PIC06
  6
Continuous
 62
     7
100
AcDbLine
 10
122.9774398551926
 20
-50.34065050003035
 30
0.0
 11
122.5858894571926
 21
-43.57932544003035
 31
0.0
  0
ARC
  5
3E1
330
1E
100
AcDbEntity
  8
PIC06
  6
Continuous
 62
     7
100
AcDbCircle
 10
124.9441406461926
 20
-43.44275091003035
 30
0.0
 40
2.362215829676751
100
AcDbArc
 50
134.5957145634114
 51
183.3144956406716
  0
ARC
  5
3E2
330
1E
100
AcDbEntity
  8
PIC06
  6
Continuous
 62
     7
100
AcDbCircle
 10
125.0667474875926
 20
-24.13852967603039
 30
0.0
 40
0.7873908141147902
100
AcDbArc
 50
9.828793986857082
 51
86.86311419672149
  0
ARC
  5
3E3
330
1E
100
AcDbEntity
  8
PIC06
  6
Continuous
 62
     7
100
AcDbCircle
 10
125.9514457181925
 20
-25.1420670390304
 30
0.0
 40
0.078741098120069
100
AcDbArc
 50
9.000774614719196
 51
44.99999999999269
  0
ARC
  5
3E4
330
1E
100
AcDbEntity
  8
PIC06
  6
Continuous
 62
     7
100
AcDbCircle
 10
125.8351152421926
 20
-25.02573656303036
 30
0.0
 40
0.0787420288083884
100
AcDbArc
 50
45.00202565952409
 51
90.0
  0
ARC
  5
3E5
330
1E
100
AcDbEntity
  8
PIC06
  6
Continuous
 62
     7
100
AcDbCircle
 10
125.8613159771926
 20
-24.82888656303036
 30
0.0
 40
0.1181097077430052
100
AcDbArc
 50
270.0
 51
9.235942244828828
  0
ARC
  5
3E6
330
1E
100
AcDbEntity
  8
PIC06
  6
Continuous
 62
     7
100
AcDbCircle
 10
48.25829401819262
 20
-37.44563692003036
 30
0.0
 40
78.74006414579143
100
AcDbArc
 50
9.234388147176238
 51
9.828957773914153
  0
LINE
  5
3E7
330
1E
100
AcDbEntity
  8
PIC06
  6
Continuous
 62
     7
100
AcDbLine
 10
126.0071227721926
 20
-25.0863899850304
 30
0.0
 11
125.8907922961926
 21
-24.97005557203042
 31
0.0
  0
ARC
  5
3E8
330
1E
100
AcDbEntity
  8
PIC06
  6
Continuous
 62
     7
100
AcDbCircle
 10
48.25829401819262
 20
-37.44563692003036
 30
0.0
 40
78.74006356912667
100
AcDbArc
 50
2.789484634406689
 51
8.998695281582241
  0
ARC
  5
3E9
330
1E
100
AcDbEntity
  8
PIC06
  6
Continuous
 62
     7
100
AcDbCircle
 10
124.9212406919926
 20
-24.64245780203036
 30
0.0
 40
0.7874020025540785
100
AcDbArc
 50
9.461775886065002
 51
86.93430527358687
  0
LWPOLYLINE
  5
3EA
330
1E
100
AcDbEntity
  8
PIC06
  6
Continuous
 62
     7
100
AcDbPolyline
 90
        9
 70
     0
 43
0.0
 10
125.8617904515596
 20
-25.53753390986527
 10
126.0091693660195
 20
-26.54325598359729
 10
126.143553285111
 20
-27.5507966727396
 10
126.2649198321004
 20
-28.55998820934994
 10
126.3732487800194
 20
-29.57066240354904
 10
126.4685220716389
 20
-30.58265078672403
 10
126.5507238258665
 20
-31.59578467121111
 10
126.6198403433719
 20
-32.60989521005555
 10
126.6758601155552
 20
-33.6248135413234
  0
ARC
  5
3F5
330
1E
100
AcDbEntity
  8
PIC06
  6
Continuous
 62
     7
100
AcDbCircle
 10
48.02916061968264
 20
-37.45681799978657
 30
0.0
 40
78.73999999849018
100
AcDbArc
 50
9.156510827016399
 51
9.46160633534343
  0
LWPOLYLINE
  5
3F6
330
1E
100
AcDbEntity
  8
PIC06
  6
Continuous
 62
     7
100
AcDbPolyline
 90
       13
 70
     0
 43
0.0
 10
125.797131450489
 20
-25.12270625142496
 10
125.8026041731981
 20
-25.1572620081917
 10
125.8080615399084
 20
-25.19182018470591
 10
125.8135035498221
 20
-25.22638077584904
 10
125.8189302021416
 20
-25.26094377650236
 10
125.8243414960689
 20
-25.29550918154754
 10
125.829737430806
 20
-25.33007698586556
 10
125.8351180055554
 20
-25.36464718433807
 10
125.840483219519
 20
-25.39921977184639
 10
125.8458330718991
 20
-25.43379474327187
 10
125.8511675618978
 20
-25.46837209349599
 10
125.8564866887173
 20
-25.50295181740002
 10
125.8617904515596
 20
-25.53753390986527
  0
LINE
  5
408
330
1E
100
AcDbEntity
  8
PIC06
  6
Continuous
 62
     7
100
AcDbLine
 10
88.347791811369
 20
-50.34065050003035
 30
0.0
 11
88.347791811369
 21
-50.29753671488997
 31
0.0
  0
LINE
  5
409
330
1E
100
AcDbEntity
  8
PIC06
  6
DASHED
 62
     7
100
AcDbLine
 10
87.954091811369
 20
-50.34065050003035
 30
0.0
 11
87.954091811369
 21
-50.29753671488997
 31
0.0
  0
LINE
  5
40A
330
1E
100
AcDbEntity
  8
PIC06
  6
DASHED
 62
     7
100
AcDbLine
 10
87.841060541369
 20
-49.75010050003035
 30
0.0
 11
87.88973527065357
 21
-49.75010050003035
 31
0.0
  0
LINE
  5
40F
330
1E
100
AcDbEntity
  8
PIC06
  6
PHANTOM
 62
     7
100
AcDbLine
 10
76.56499414065357
 20
-25.78360906303036
 30
0.0
 11
77.13585914065356
 21
-25.78360906303036
 31
0.0
  0
LINE
  5
410
330
1E
100
AcDbEntity
  8
PIC06
  6
PHANTOM
 62
     7
100
AcDbLine
 10
76.56499414065357
 20
-26.47258406303036
 30
0.0
 11
77.13585914065356
 21
-26.47258406303036
 31
0.0
  0
LINE
  5
411
330
1E
100
AcDbEntity
  8
PIC06
  6
PHANTOM
 62
     7
100
AcDbLine
 10
77.19491414065356
 20
-25.84266406303036
 30
0.0
 11
77.19491414065356
 21
-26.41352906303036
 31
0.0
  0
LINE
  5
412
330
1E
100
AcDbEntity
  8
PIC06
  6
PHANTOM
 62
     7
100
AcDbLine
 10
76.50593914065357
 20
-25.84266406303036
 30
0.0
 11
76.50593914065357
 21
-26.41352906303036
 31
0.0
  0
ARC
  5
413
330
1E
100
AcDbEntity
  8
PIC06
  6
PHANTOM
 62
     7
100
AcDbCircle
 10
77.13585914065356
 20
-26.41352906303036
 30
0.0
 40
0.059055
100
AcDbArc
 50
270.0
 51
0.0
  0
ARC
  5
414
330
1E
100
AcDbEntity
  8
PIC06
  6
PHANTOM
 62
     7
100
AcDbCircle
 10
77.13585914065356
 20
-25.84266406303036
 30
0.0
 40
0.059055
100
AcDbArc
 50
0.0
 51
90.0
  0
ARC
  5
415
330
1E
100
AcDbEntity
  8
PIC06
  6
PHANTOM
 62
     7
100
AcDbCircle
 10
76.56499414065357
 20
-26.41352906303036
 30
0.0
 40
0.059055
100
AcDbArc
 50
180.0
 51
270.0
  0
ARC
  5
416
330
1E
100
AcDbEntity
  8
PIC06
  6
PHANTOM
 62
     7
100
AcDbCircle
 10
76.56499414065357
 20
-25.84266406303036
 30
0.0
 40
0.059055
100
AcDbArc
 50
90.0
 51
180.0
  0
LINE
  5
41D
330
1E
100
AcDbEntity
  8
PIC06
  6
DASHED
 62
     7
100
AcDbLine
 10
76.88979479518481
 20
-39.44197293138231
 30
0.0
 11
76.88979479518481
 21
-38.84183058280565
 31
0.0
  0
ARC
  5
41E
330
1E
100
AcDbEntity
  8
PIC06
  6
DASHED
 62
     7
100
AcDbCircle
 10
76.69294479518481
 20
-38.84183058280565
 30
0.0
 40
0.19685
100
AcDbArc
 50
0.0
 51
61.0257498992902
  0
ARC
  5
41F
330
1E
100
AcDbEntity
  8
PIC06
  6
DASHED
 62
     7
100
AcDbCircle
 10
71.06685891040633
 20
-49.00232455896627
 30
0.0
 40
11.811
100
AcDbArc
 50
61.0257498992902
 51
74.48868007249494
  0
ARC
  5
420
330
1E
100
AcDbEntity
  8
PIC06
  6
DASHED
 62
     7
100
AcDbCircle
 10
74.33074664065355
 20
-37.24214858348267
 30
0.0
 40
0.3937
100
AcDbArc
 50
180.0
 51
254.4886800724949
  0
ARC
  5
421
330
1E
100
AcDbEntity
  8
PIC06
  6
DASHED
 62
     7
100
AcDbCircle
 10
78.62132861065356
 20
-43.88397050003035
 30
0.0
 40
4.645670680352012
100
AcDbArc
 50
113.4668876229308
 51
180.0
  0
ARC
  5
422
330
1E
100
AcDbEntity
  8
PIC06
  6
DASHED
 62
     7
100
AcDbCircle
 10
76.69294479518481
 20
-39.44197293138231
 30
0.0
 40
0.19685
100
AcDbArc
 50
293.4668876229309
 51
0.0
  0
ARC
  5
44B
330
1E
100
AcDbEntity
  8
PIC06
  6
Continuous
 62
     7
100
AcDbCircle
 10
70.95642268065356
 20
-152.773086183002
 30
0.0
 40
157.479886798537
100
AcDbArc
 50
87.26920659386179
 51
88.59757144065445
  0
LINE
  5
44C
330
1E
100
AcDbEntity
  8
PIC06
  6
Continuous
 62
     7
100
AcDbLine
 10
80.6197450746046
 20
4.368482548260171
 30
0.0
 11
78.49016978557353
 21
4.526044989797107
 31
0.0
  0
TEXT
  5
6E4
330
1E
100
AcDbEntity
  8
PIC07
  6
Continuous
 62
     7
100
AcDbText
 10
269.8580024953345
 20
102.8466796874996
 30
0.0
 40
3.5
  1

 50
90.0
 41
0.6547619344966496
100
AcDbText
  0
TEXT
  5
6E6
330
1E
100
AcDbEntity
  8
PIC07
  6
Continuous
 62
     7
100
AcDbText
 10
269.858004068035
 20
107.6591796874996
 30
0.0
 40
3.5
  1

 50
90.0
 41
0.6547619344966496
100
AcDbText
  0
TEXT
  5
6F6
330
1E
100
AcDbEntity
  8
PIC07
  6
Continuous
 62
     7
100
AcDbText
 10
283.9650894633255
 20
130.3529205322263
 30
0.0
 40
7.0
  1

 50
90.0
 41
0.6547619344966496
100
AcDbText
  0
TEXT
  5
6F8
330
1E
100
AcDbEntity
  8
PIC07
  6
Continuous
 62
     7
100
AcDbText
 10
283.9650926087263
 20
139.9779205322257
 30
0.0
 40
7.0
  1

 50
90.0
 41
0.6547619344966496
100
AcDbText
  0
TEXT
  5
6FA
330
1E
100
AcDbEntity
  8
PIC07
  6
Continuous
 62
     7
100
AcDbText
 10
283.9650957541273
 20
149.6029205322253
 30
0.0
 40
7.0
  1

 50
90.0
 41
0.6547619344966496
100
AcDbText
  0
TEXT
  5
6FC
330
1E
100
AcDbEntity
  8
PIC07
  6
Continuous
 62
     7
100
AcDbText
 10
283.9650988995281
 20
159.2279205322248
 30
0.0
 40
7.0
  1

 50
90.0
 41
0.6547619344966496
100
AcDbText
  0
TEXT
  5
6FE
330
1E
100
AcDbEntity
  8
PIC07
  6
Continuous
 62
     7
100
AcDbText
 10
283.9651020449291
 20
168.8529205322243
 30
0.0
 40
7.0
  1

 50
90.0
 41
0.6547619344966496
100
AcDbText
  0
POINT
  5
8DA
330
1E
100
AcDbEntity
  8
DIM
100
AcDbPoint
 10
80.3054295175298
 20
-2.716950060038801
 30
0.0
  0
ENDSEC
  0
SECTION
  2
OBJECTS
  0
DICTIONARY
  5
C
330
0
100
AcDbDictionary
281
     1
  3
ACAD_COLOR
350
CBF
  3
ACAD_GROUP
350
D
  3
ACAD_LAYOUT
350
19
  3
ACAD_MATERIAL
350
CBE
  3
ACAD_MLINESTYLE
350
16
  3
ACAD_PLOTSETTINGS
350
18
  3
ACAD_PLOTSTYLENAME
350
E
  3
ACAD_TABLESTYLE
350
CC0
  3
ACAD_VISUALSTYLE
350
E2C
  3
ACADDIM
350
863
  3
ACDBVARIABLEDICTIONARY
350
702
  3
ASE_INDEX_DICTIONARY
350
E19
  3
DWGPROPS
350
E44
  0
DICTIONARY
  5
727
330
1E
100
AcDbDictionary
280
     1
281
     1
  3
ACAD_LAYOUTSELFREF
360
C7A
  0
DICTIONARY
  5
725
330
1A
100
AcDbDictionary
280
     1
281
     1
  3
ACAD_LAYOUTSELFREF
360
C79
  0
DICTIONARY
  5
CBF
102
{ACAD_REACTORS
330
C
102
}
330
C
100
AcDbDictionary
281
     1
  0
DICTIONARY
  5
D
102
{ACAD_REACTORS
330
C
102
}
330
C
100
AcDbDictionary
281
     1
  0
DICTIONARY
  5
19
102
{ACAD_REACTORS
330
C
102
}
330
C
100
AcDbDictionary
281
     1
  3
Layout1
350
CC3
  3
Model
350
CC2
  0
DICTIONARY
  5
CBE
102
{ACAD_REACTORS
330
C
102
}
330
C
100
AcDbDictionary
281
     1
  3
ByBlock
350
E2A
  3
ByLayer
350
E29
  3
Global
350
E2B
  0
DICTIONARY
  5
16
102
{ACAD_REACTORS
330
C
102
}
330
C
100
AcDbDictionary
281
     1
  3
STANDARD
350
17
  0
DICTIONARY
  5
18
102
{ACAD_REACTORS
330
C
102
}
330
C
100
AcDbDictionary
281
     1
  0
ACDBDICTIONARYWDFLT
  5
E
102
{ACAD_REACTORS
330
C
102
}
330
C
100
AcDbDictionary
281
     1
  3
Normal
350
F
100
AcDbDictionaryWithDefault
340
F
  0
DICTIONARY
  5
CC0
102
{ACAD_REACTORS
330
C
102
}
330
C
100
AcDbDictionary
281
     1
  3
Standard
350
CC1
  0
DICTIONARY
  5
E2C
102
{ACAD_REACTORS
330
C
102
}
330
C
100
AcDbDictionary
281
     1
  3
2dWireframe
350
E32
  3
3D Hidden
350
E34
  3
3dWireframe
350
E33
  3
Basic
350
E31
  3
Brighten
350
E38
  3
ColorChange
350
E3C
  3
Conceptual
350
E35
  3
Dim
350
E37
  3
Facepattern
350
E3B
  3
Flat
350
E2D
  3
FlatWithEdges
350
E2E
  3
Gouraud
350
E2F
  3
GouraudWithEdges
350
E30
  3
Linepattern
350
E3A
  3
Realistic
350
E36
  3
Thicken
350
E39
  0
XRECORD
  5
863
102
{ACAD_REACTORS
330
C
102
}
330
C
100
AcDbXrecord
280
     1
 90
   990106
  3

 60
     0
 61
     0
 62
     1
 63
     3
 64
     0
 65
     0
 66
     0
 67
     3
 68
     1
 69
     0
 70
     0
 71
     0
 72
     0
 40
0.0
170
     0
340
0
  0
DICTIONARY
  5
702
102
{ACAD_REACTORS
330
C
102
}
330
C
100
AcDbDictionary
281
     1
  3
CTABLESTYLE
350
CCB
  3
DIMASSOC
350
703
  3
INDEXCTL
350
E43
  3
SORTENTS
350
E42
  0
DICTIONARY
  5
E19
102
{ACAD_REACTORS
330
C
102
}
330
C
100
AcDbDictionary
281
     1
  3
ASEBlockHierarchyIndexRecord
350
E1A
1001
DCO15
1040
1661160921.721
  0
XRECORD
  5
E44
102
{ACAD_REACTORS
330
C
102
}
330
C
100
AcDbXrecord
280
     1
  1
DWGPROPS COOKIE
  2

  3

  4

  6

  7

  8
jgayle
  9

300
=
301
=
302
=
303
=
304
=
305
=
306
=
307
=
308
=
309
=
 40
0.1438392476851852
 41
2452723.581504629
 42
2455034.615035683
  1

 90
        0
  0
XRECORD
  5
C7A
102
{ACAD_REACTORS
330
727
102
}
330
727
100
AcDbXrecord
280
     1
340
1E
  0
XRECORD
  5
C79
102
{ACAD_REACTORS
330
725
102
}
330
725
100
AcDbXrecord
280
     1
340
1A
  0
LAYOUT
  5
CC3
102
{ACAD_XDICTIONARY
360
E49
102
}
102
{ACAD_REACTORS
330
19
102
}
330
19
100
AcDbPlotSettings
  1

  2
Symantec Fax Starter Edition
  4

  6

 40
0.0
 41
0.0
 42
0.0
 43
0.0
 44
0.0
 45
0.0
 46
0.0
 47
0.0
 48
0.0
 49
0.0
140
0.0
141
0.0
142
1.0
143
1.0
 70
   688
 72
     0
 73
     0
 74
     5
  7

 75
    16
147
1.0
148
0.0
149
0.0
100
AcDbLayout
  1
Layout1
 70
     1
 71
     1
 10
0.0
 20
0.0
 11
12.0
 21
9.0
 12
0.0
 22
0.0
 32
0.0
 14
1.000000000000000E+20
 24
1.000000000000000E+20
 34
1.000000000000000E+20
 15
-1.000000000000000E+20
 25
-1.000000000000000E+20
 35
-1.000000000000000E+20
146
0.0
 13
0.0
 23
0.0
 33
0.0
 16
1.0
 26
0.0
 36
0.0
 17
0.0
 27
1.0
 37
0.0
 76
     0
330
1A
  0
LAYOUT
  5
CC2
102
{ACAD_XDICTIONARY
360
E47
102
}
102
{ACAD_REACTORS
330
19
102
}
330
19
100
AcDbPlotSettings
  1

  2
Symantec Fax Starter Edition
  4

  6

 40
0.0
 41
0.0
 42
0.0
 43
0.0
 44
0.0
 45
0.0
 46
0.0
 47
0.0
 48
0.0
 49
0.0
140
0.0
141
0.0
142
1.0
143
1.0
 70
  1712
 72
     0
 73
     0
 74
     0
  7

 75
     0
147
1.0
148
0.0
149
0.0
100
AcDbLayout
  1
Model
 70
     1
 71
     0
 10
0.0
 20
0.0
 11
12.0
 21
9.0
 12
0.0
 22
0.0
 32
0.0
 14
0.0
 24
0.0
 34
0.0
 15
0.0
 25
0.0
 35
0.0
146
0.0
 13
0.0
 23
0.0
 33
0.0
 16
1.0
 26
0.0
 36
0.0
 17
0.0
 27
1.0
 37
0.0
 76
     0
330
1E
331
E27
  0
MATERIAL
  5
E2A
102
{ACAD_XDICTIONARY
360
E4D
102
}
102
{ACAD_REACTORS
330
CBE
102
}
330
CBE
100
AcDbMaterial
  1
ByBlock
  0
MATERIAL
  5
E29
102
{ACAD_XDICTIONARY
360
E4B
102
}
102
{ACAD_REACTORS
330
CBE
102
}
330
CBE
100
AcDbMaterial
  1
ByLayer
  0
MATERIAL
  5
E2B
102
{ACAD_XDICTIONARY
360
E4F
102
}
102
{ACAD_REACTORS
330
CBE
102
}
330
CBE
100
AcDbMaterial
  1
Global
  0
MLINESTYLE
  5
17
102
{ACAD_REACTORS
330
16
102
}
330
16
100
AcDbMlineStyle
  2
STANDARD
 70
     0
  3

 62
   256
 51
90.0
 52
90.0
 71
     2
 49
0.5
 62
   256
  6
BYLAYER
 49
-0.5
 62
   256
  6
BYLAYER
  0
ACDBPLACEHOLDER
  5
F
102
{ACAD_REACTORS
330
E
102
}
330
E
  0
TABLESTYLE
  5
CC1
102
{ACAD_XDICTIONARY
360
E45
102
}
102
{ACAD_REACTORS
330
CC0
102
}
330
CC0
100
AcDbTableStyle
  3
Standard
 70
     0
 71
     0
 40
0.06
 41
0.06
280
     0
281
     0
  7
STANDARD
140
0.18
170
     2
 62
     0
 63
     7
283
     0
274
    -2
284
     1
 64
     0
275
    -2
285
     1
 65
     0
276
    -2
286
     1
 66
     0
277
    -2
287
     1
 67
     0
278
    -2
288
     1
 68
     0
279
    -2
289
     1
 69
     0
  7
STANDARD
140
0.25
170
     5
 62
     0
 63
     7
283
     0
274
    -2
284
     1
 64
     0
275
    -2
285
     1
 65
     0
276
    -2
286
     1
 66
     0
277
    -2
287
     1
 67
     0
278
    -2
288
     1
 68
     0
279
    -2
289
     1
 69
     0
  7
STANDARD
140
0.18
170
     5
 62
     0
 63
     7
283
     0
274
    -2
284
     1
 64
     0
275
    -2
285
     1
 65
     0
276
    -2
286
     1
 66
     0
277
    -2
287
     1
 67
     0
278
    -2
288
     1
 68
     0
279
    -2
289
     1
 69
     0
  0
VISUALSTYLE
  5
E32
102
{ACAD_REACTORS
330
E2C
102
}
330
E2C
100
AcDbVisualStyle
  2
2dWireframe
 70
     4
 71
     0
 72
     2
 73
     0
 90
        0
 40
-0.6
 41
-30.0
 62
     5
 63
     7
 74
     1
 91
        4
 64
     7
 65
   257
 75
     1
175
     1
 42
1.0
 92
        0
 66
   257
 43
1.0
 76
     1
 77
     6
 78
     2
 67
     7
 79
     5
170
     0
171
     0
290
     0
174
     0
 93
        1
 44
0.0
173
     0
291
     0
 45
0.0
1001
ACAD
1000
AcDbSavedByObjectVersion
1070
     0
  0
VISUALSTYLE
  5
E34
102
{ACAD_REACTORS
330
E2C
102
}
330
E2C
100
AcDbVisualStyle
  2
3D Hidden
 70
     6
 71
     1
 72
     2
 73
     2
 90
        0
 40
-0.6
 41
-30.0
 62
     5
 63
     7
 74
     2
 91
        2
 64
     7
 65
   257
 75
     2
175
     1
 42
40.0
 92
        0
 66
   257
 43
1.0
 76
     1
 77
     6
 78
     2
 67
     7
 79
     3
170
     0
171
     0
290
     0
174
     0
 93
        1
 44
0.0
173
     0
291
     0
 45
0.0
1001
ACAD
1000
AcDbSavedByObjectVersion
1070
     0
  0
VISUALSTYLE
  5
E33
102
{ACAD_REACTORS
330
E2C
102
}
330
E2C
100
AcDbVisualStyle
  2
3dWireframe
 70
     5
 71
     0
 72
     2
 73
     0
 90
        0
 40
-0.6
 41
-30.0
 62
     5
 63
     7
 74
     1
 91
        4
 64
     7
 65
   257
 75
     1
175
     1
 42
1.0
 92
        0
 66
   257
 43
1.0
 76
     1
 77
     6
 78
     2
 67
     7
 79
     5
170
     0
171
     0
290
     0
174
     0
 93
        1
 44
0.0
173
     0
291
     0
 45
0.0
1001
ACAD
1000
AcDbSavedByObjectVersion
1070
     0
  0
VISUALSTYLE
  5
E31
102
{ACAD_REACTORS
330
E2C
102
}
330
E2C
100
AcDbVisualStyle
  2
Basic
 70
     7
 71
     1
 72
     0
 73
     1
 90
        0
 40
-0.6
 41
-30.0
 62
     5
 63
     7
 74
     0
 91
        4
 64
     7
 65
   257
 75
     1
175
     1
 42
1.0
 92
        8
 66
     7
 43
1.0
 76
     1
 77
     6
 78
     2
 67
     7
 79
     5
170
     0
171
     0
290
     0
174
     0
 93
        1
 44
0.0
173
     0
291
     1
 45
0.0
1001
ACAD
1000
AcDbSavedByObjectVersion
1070
     0
  0
VISUALSTYLE
  5
E38
102
{ACAD_REACTORS
330
E2C
102
}
330
E2C
100
AcDbVisualStyle
  2
Brighten
 70
    12
 71
     2
 72
     2
 73
     0
 90
        0
 40
-0.6
 41
-30.0
 62
     5
 63
     7
 74
     1
 91
        4
 64
     7
 65
   257
 75
     1
175
     1
 42
1.0
 92
        8
 66
     7
 43
1.0
 76
     1
 77
     6
 78
     2
 67
     7
 79
     5
170
     0
171
     0
290
     0
174
     0
 93
        1
 44
50.0
173
     0
291
     1
 45
0.0
1001
ACAD
1000
AcDbSavedByObjectVersion
1070
     0
  0
VISUALSTYLE
  5
E3C
102
{ACAD_REACTORS
330
E2C
102
}
330
E2C
100
AcDbVisualStyle
  2
ColorChange
 70
    16
 71
     2
 72
     2
 73
     3
 90
        0
 40
-0.6
 41
-30.0
 62
     5
 63
     8
 74
     1
 91
        4
 64
     7
 65
   257
 75
     1
175
     1
 42
1.0
 92
        8
 66
     8
 43
1.0
 76
     1
 77
     6
 78
     2
 67
     7
 79
     5
170
     0
171
     0
290
     0
174
     0
 93
        1
 44
0.0
173
     0
291
     1
 45
0.0
1001
ACAD
1000
AcDbSavedByObjectVersion
1070
     0
  0
VISUALSTYLE
  5
E35
102
{ACAD_REACTORS
330
E2C
102
}
330
E2C
100
AcDbVisualStyle
  2
Conceptual
 70
     9
 71
     3
 72
     2
 73
     0
 90
        0
 40
-0.6
 41
-30.0
 62
     5
 63
     7
 74
     2
 91
        2
 64
     7
 65
   257
 75
     1
175
     1
 42
40.0
 92
        8
 66
     7
 43
1.0
 76
     1
 77
     6
 78
     2
 67
     7
 79
     3
170
     0
171
     0
290
     0
174
     0
 93
        1
 44
0.0
173
     0
291
     0
 45
0.0
1001
ACAD
1000
AcDbSavedByObjectVersion
1070
     0
  0
VISUALSTYLE
  5
E37
102
{ACAD_REACTORS
330
E2C
102
}
330
E2C
100
AcDbVisualStyle
  2
Dim
 70
    11
 71
     2
 72
     2
 73
     0
 90
        0
 40
-0.6
 41
-30.0
 62
     5
 63
     7
 74
     1
 91
        4
 64
     7
 65
   257
 75
     1
175
     1
 42
1.0
 92
        8
 66
     7
 43
1.0
 76
     1
 77
     6
 78
     2
 67
     7
 79
     5
170
     0
171
     0
290
     0
174
     0
 93
        1
 44
-50.0
173
     0
291
     1
 45
0.0
1001
ACAD
1000
AcDbSavedByObjectVersion
1070
     0
  0
VISUALSTYLE
  5
E3B
102
{ACAD_REACTORS
330
E2C
102
}
330
E2C
100
AcDbVisualStyle
  2
Facepattern
 70
    15
 71
     2
 72
     2
 73
     0
 90
        0
 40
-0.6
 41
-30.0
 62
     5
 63
     7
 74
     1
 91
        4
 64
     7
 65
   257
 75
     1
175
     1
 42
1.0
 92
        8
 66
     7
 43
1.0
 76
     1
 77
     6
 78
     2
 67
     7
 79
     5
170
     0
171
     0
290
     0
174
     0
 93
        1
 44
0.0
173
     0
291
     1
 45
0.0
1001
ACAD
1000
AcDbSavedByObjectVersion
1070
     0
  0
VISUALSTYLE
  5
E2D
102
{ACAD_REACTORS
330
E2C
102
}
330
E2C
100
AcDbVisualStyle
  2
Flat
 70
     0
 71
     2
 72
     1
 73
     1
 90
        2
 40
-0.6
 41
30.0
 62
     5
 63
     7
 74
     0
 91
        4
 64
     7
 65
   257
 75
     1
175
     1
 42
1.0
 92
        8
 66
     7
 43
1.0
 76
     1
 77
     6
 78
     2
 67
     7
 79
     5
170
     0
171
     0
290
     0
174
     0
 93
       13
 44
0.0
173
     0
291
     1
 45
0.0
1001
ACAD
1000
AcDbSavedByObjectVersion
1070
     0
  0
VISUALSTYLE
  5
E2E
102
{ACAD_REACTORS
330
E2C
102
}
330
E2C
100
AcDbVisualStyle
  2
FlatWithEdges
 70
     1
 71
     2
 72
     1
 73
     1
 90
        2
 40
-0.6
 41
30.0
 62
     5
 63
     7
 74
     1
 91
        4
 64
     7
 65
   257
 75
     1
175
     1
 42
1.0
 92
        0
 66
   257
 43
1.0
 76
     1
 77
     6
 78
     2
 67
     7
 79
     5
170
     0
171
     0
290
     0
174
     0
 93
       13
 44
0.0
173
     0
291
     1
 45
0.0
1001
ACAD
1000
AcDbSavedByObjectVersion
1070
     0
  0
VISUALSTYLE
  5
E2F
102
{ACAD_REACTORS
330
E2C
102
}
330
E2C
100
AcDbVisualStyle
  2
Gouraud
 70
     2
 71
     2
 72
     2
 73
     1
 90
        2
 40
-0.6
 41
30.0
 62
     5
 63
     7
 74
     0
 91
        4
 64
     7
 65
   257
 75
     1
175
     1
 42
1.0
 92
        0
 66
     7
 43
1.0
 76
     1
 77
     6
 78
     2
 67
     7
 79
     5
170
     0
171
     0
290
     0
174
     0
 93
       13
 44
0.0
173
     0
291
     1
 45
0.0
1001
ACAD
1000
AcDbSavedByObjectVersion
1070
     0
  0
VISUALSTYLE
  5
E30
102
{ACAD_REACTORS
330
E2C
102
}
330
E2C
100
AcDbVisualStyle
  2
GouraudWithEdges
 70
     3
 71
     2
 72
     2
 73
     1
 90
        2
 40
-0.6
 41
30.0
 62
     5
 63
     7
 74
     1
 91
        4
 64
     7
 65
   257
 75
     1
175
     1
 42
1.0
 92
        0
 66
   257
 43
1.0
 76
     1
 77
     6
 78
     2
 67
     7
 79
     5
170
     0
171
     0
290
     0
174
     0
 93
       13
 44
0.0
173
     0
291
     1
 45
0.0
1001
ACAD
1000
AcDbSavedByObjectVersion
1070
     0
  0
VISUALSTYLE
  5
E3A
102
{ACAD_REACTORS
330
E2C
102
}
330
E2C
100
AcDbVisualStyle
  2
Linepattern
 70
    14
 71
     2
 72
     2
 73
     0
 90
        0
 40
-0.6
 41
-30.0
 62
     5
 63
     7
 74
     1
 91
        4
 64
     7
 65
   257
 75
     7
175
     7
 42
1.0
 92
        8
 66
     7
 43
1.0
 76
     1
 77
     6
 78
     2
 67
     7
 79
     5
170
     0
171
     0
290
     0
174
     0
 93
        1
 44
0.0
173
     0
291
     1
 45
0.0
1001
ACAD
1000
AcDbSavedByObjectVersion
1070
     0
  0
VISUALSTYLE
  5
E36
102
{ACAD_REACTORS
330
E2C
102
}
330
E2C
100
AcDbVisualStyle
  2
Realistic
 70
     8
 71
     2
 72
     2
 73
     0
 90
        0
 40
-0.6
 41
-30.0
 62
     5
 63
     7
 74
     1
 91
        0
 64
     7
 65
   257
 75
     1
175
     1
 42
1.0
 92
        8
 66
     8
 43
1.0
 76
     1
 77
     6
 78
     2
 67
     7
 79
     5
170
     0
171
     0
290
     0
174
     0
 93
       13
 44
0.0
173
     0
291
     0
 45
0.0
1001
ACAD
1000
AcDbSavedByObjectVersion
1070
     0
  0
VISUALSTYLE
  5
E39
102
{ACAD_REACTORS
330
E2C
102
}
330
E2C
100
AcDbVisualStyle
  2
Thicken
 70
    13
 71
     2
 72
     2
 73
     0
 90
        0
 40
-0.6
 41
-30.0
 62
     5
 63
     7
 74
     1
 91
        4
 64
     7
 65
   257
 75
     1
175
     1
 42
1.0
 92
       12
 66
     7
 43
1.0
 76
     1
 77
     6
 78
     2
 67
     7
 79
     5
170
     0
171
     0
290
     0
174
     0
 93
        1
 44
0.0
173
     0
291
     1
 45
0.0
1001
ACAD
1000
AcDbSavedByObjectVersion
1070
     0
  0
DICTIONARYVAR
  5
CCB
102
{ACAD_REACTORS
330
702
102
}
330
702
100
DictionaryVariables
280
     0
  1
STANDARD
  0
DICTIONARYVAR
  5
703
102
{ACAD_REACTORS
330
702
102
}
330
702
100
DictionaryVariables
280
     0
  1
1
  0
DICTIONARYVAR
  5
E43
102
{ACAD_REACTORS
330
702
102
}
330
702
100
DictionaryVariables
280
     0
  1
0
  0
DICTIONARYVAR
  5
E42
102
{ACAD_REACTORS
330
702
102
}
330
702
100
DictionaryVariables
280
     0
  1
127
  0
XRECORD
  5
E1A
102
{ACAD_REACTORS
330
E19
102
}
330
E19
100
AcDbXrecord
280
     1
330
32
330
34
330
3E
330
40
330
4A
330
4C
330
55
330
57
330
61
330
63
330
6D
330
6F
330
79
330
7B
330
84
330
86
330
90
330
92
330
9C
330
A0
330
A9
330
AD
330
B6
330
BA
330
C1
330
C3
330
CD
330
CF
330
D9
330
DB
330
E5
330
E7
330
F1
330
F5
330
FD
330
FF
330
109
330
10B
330
115
330
117
330
121
330
123
330
12D
330
12F
330
139
330
13B
330
145
330
147
330
151
330
153
330
15D
330
15F
330
16A
330
16E
330
175
330
179
330
182
330
186
330
18F
330
191
  0
DICTIONARY
  5
E49
330
CC3
100
AcDbDictionary
280
     1
281
     1
  3
ACAD_XREC_ROUNDTRIP
360
E4A
  0
DICTIONARY
  5
E47
330
CC2
100
AcDbDictionary
280
     1
281
     1
  3
ACAD_XREC_ROUNDTRIP
360
E48
  0
DICTIONARY
  5
E4D
330
E2A
100
AcDbDictionary
280
     1
281
     1
  3
ACAD_XREC_ROUNDTRIP
360
E4E
  0
DICTIONARY
  5
E4B
330
E29
100
AcDbDictionary
280
     1
281
     1
  3
ACAD_XREC_ROUNDTRIP
360
E4C
  0
DICTIONARY
  5
E4F
330
E2B
100
AcDbDictionary
280
     1
281
     1
  3
ACAD_XREC_ROUNDTRIP
360
E50
  0
DICTIONARY
  5
E45
330
CC1
100
AcDbDictionary
280
     1
281
     1
  3
ACAD_XREC_ROUNDTRIP
360
E46
  0
XRECORD
  5
E4A
102
{ACAD_REACTORS
330
E49
102
}
330
E49
100
AcDbXrecord
280
     1
102
SHADEPLOT
 70
     0
102
SHADEPLOTRESLEVEL
 70
     2
102
SHADEPLOTCUSTOMDPI
 70
   300
  0
XRECORD
  5
E48
102
{ACAD_REACTORS
330
E47
102
}
330
E47
100
AcDbXrecord
280
     1
102
SHADEPLOT
 70
     0
102
SHADEPLOTRESLEVEL
 70
     2
102
SHADEPLOTCUSTOMDPI
 70
   300
  0
XRECORD
  5
E4E
102
{ACAD_REACTORS
330
E4D
102
}
330
E4D
100
AcDbXrecord
280
     1
102
MATERIAL
148
0.0
149
0.0
149
0.0
 93
        0
 94
       63
282
     0
 72
     1
 77
     1
171
     1
175
     1
179
     1
273
     0
  0
XRECORD
  5
E4C
102
{ACAD_REACTORS
330
E4B
102
}
330
E4B
100
AcDbXrecord
280
     1
102
MATERIAL
148
0.0
149
0.0
149
0.0
 93
        0
 94
       63
282
     0
 72
     1
 77
     1
171
     1
175
     1
179
     1
273
     0
  0
XRECORD
  5
E50
102
{ACAD_REACTORS
330
E4F
102
}
330
E4F
100
AcDbXrecord
280
     1
102
MATERIAL
148
0.0
149
0.0
149
0.0
 93
        0
 94
       63
282
     0
 72
     1
 77
     1
171
     1
175
     1
179
     1
273
     0
  0
XRECORD
  5
E46
102
{ACAD_REACTORS
330
E45
102
}
330
E45
100
AcDbXrecord
280
     1
102
ACAD_ROUNDTRIP_PRE2007_TABLESTYLE
 90
        4
 91
        0
  1

 92
        4
 93
        0
  2

 94
        4
 95
        0
  3

  0
ENDSEC
  0
EOF
