  0
SECTION
  2
HEADER
  9
$ACADVER
  1
AC1015
  9
$ACADMAINTVER
 70
    20
  9
$DWGCODEPAGE
  3
ANSI_1252
  9
$INSBASE
 10
0.0
 20
0.0
 30
0.0
  9
$EXTMIN
 10
1430.51939566682
 20
1262.856844589248
 30
0.0
  9
$EXTMAX
 10
1457.237741949374
 20
1300.396616866868
 30
0.0
  9
$LIMMIN
 10
0.0
 20
0.0
  9
$LIMMAX
 10
12.0
 20
9.0
  9
$ORTHOMODE
 70
     1
  9
$REGENMODE
 70
     1
  9
$FILLMODE
 70
     1
  9
$QTEXTMODE
 70
     0
  9
$MIRRTEXT
 70
     0
  9
$LTSCALE
 40
1.0
  9
$ATTMODE
 70
     1
  9
$TEXTSIZE
 40
0.2
  9
$TRACEWID
 40
0.05
  9
$TEXTSTYLE
  7
Standard
  9
$CLAYER
  8
0
  9
$CELTYPE
  6
ByLayer
  9
$CECOLOR
 62
   256
  9
$CELTSCALE
 40
1.0
  9
$DISPSILH
 70
     0
  9
$DIMSCALE
 40
1.0
  9
$DIMASZ
 40
0.18
  9
$DIMEXO
 40
0.0625
  9
$DIMDLI
 40
0.38
  9
$DIMRND
 40
0.0
  9
$DIMDLE
 40
0.0
  9
$DIMEXE
 40
0.18
  9
$DIMTP
 40
0.0
  9
$DIMTM
 40
0.0
  9
$DIMTXT
 40
0.18
  9
$DIMCEN
 40
0.09
  9
$DIMTSZ
 40
0.0
  9
$DIMTOL
 70
     0
  9
$DIMLIM
 70
     0
  9
$DIMTIH
 70
     1
  9
$DIMTOH
 70
     1
  9
$DIMSE1
 70
     0
  9
$DIMSE2
 70
     0
  9
$DIMTAD
 70
     0
  9
$DIMZIN
 70
     0
  9
$DIMBLK
  1

  9
$DIMASO
 70
     1
  9
$DIMSHO
 70
     1
  9
$DIMPOST
  1

  9
$DIMAPOST
  1
mm
  9
$DIMALT
 70
     1
  9
$DIMALTD
 70
     2
  9
$DIMALTF
 40
25.4
  9
$DIMLFAC
 40
1.0
  9
$DIMTOFL
 70
     0
  9
$DIMTVP
 40
0.0
  9
$DIMTIX
 70
     0
  9
$DIMSOXD
 70
     0
  9
$DIMSAH
 70
     0
  9
$DIMBLK1
  1

  9
$DIMBLK2
  1

  9
$DIMSTYLE
  2
Standard
  9
$DIMCLRD
 70
     0
  9
$DIMCLRE
 70
     0
  9
$DIMCLRT
 70
     0
  9
$DIMTFAC
 40
1.0
  9
$DIMGAP
 40
0.09
  9
$DIMJUST
 70
     0
  9
$DIMSD1
 70
     0
  9
$DIMSD2
 70
     0
  9
$DIMTOLJ
 70
     1
  9
$DIMTZIN
 70
     0
  9
$DIMALTZ
 70
     0
  9
$DIMALTTZ
 70
     0
  9
$DIMUPT
 70
     0
  9
$DIMDEC
 70
     4
  9
$DIMTDEC
 70
     4
  9
$DIMALTU
 70
     2
  9
$DIMALTTD
 70
     2
  9
$DIMTXSTY
  7
Standard
  9
$DIMAUNIT
 70
     0
  9
$DIMADEC
 70
     0
  9
$DIMALTRND
 40
0.0
  9
$DIMAZIN
 70
     0
  9
$DIMDSEP
 70
    46
  9
$DIMATFIT
 70
     3
  9
$DIMFRAC
 70
     0
  9
$DIMLDRBLK
  1

  9
$DIMLUNIT
 70
     5
  9
$DIMLWD
 70
    -2
  9
$DIMLWE
 70
    -2
  9
$DIMTMOVE
 70
     0
  9
$LUNITS
 70
     2
  9
$LUPREC
 70
     4
  9
$SKETCHINC
 40
0.1
  9
$FILLETRAD
 40
0.0
  9
$AUNITS
 70
     0
  9
$AUPREC
 70
     0
  9
$MENU
  1
.
  9
$ELEVATION
 40
0.0
  9
$PELEVATION
 40
0.0
  9
$THICKNESS
 40
0.0
  9
$LIMCHECK
 70
     0
  9
$CHAMFERA
 40
0.0
  9
$CHAMFERB
 40
0.0
  9
$CHAMFERC
 40
0.0
  9
$CHAMFERD
 40
0.0
  9
$SKPOLY
 70
     0
  9
$TDCREATE
 40
2454741.571576030
  9
$TDUCREATE
 40
2454741.738242697
  9
$TDUPDATE
 40
2456134.629455602
  9
$TDUUPDATE
 40
2456134.796122269
  9
$TDINDWG
 40
0.0690033912
  9
$TDUSRTIMER
 40
0.0690030440
  9
$USRTIMER
 70
     1
  9
$ANGBASE
 50
0.0
  9
$ANGDIR
 70
     0
  9
$PDMODE
 70
     0
  9
$PDSIZE
 40
0.0
  9
$PLINEWID
 40
0.0
  9
$SPLFRAME
 70
     0
  9
$SPLINETYPE
 70
     6
  9
$SPLINESEGS
 70
     8
  9
$HANDSEED
  5
4439
  9
$SURFTAB1
 70
     6
  9
$SURFTAB2
 70
     6
  9
$SURFTYPE
 70
     6
  9
$SURFU
 70
     6
  9
$SURFV
 70
     6
  9
$UCSBASE
  2

  9
$UCSNAME
  2

  9
$UCSORG
 10
0.0
 20
0.0
 30
0.0
  9
$UCSXDIR
 10
1.0
 20
0.0
 30
0.0
  9
$UCSYDIR
 10
0.0
 20
1.0
 30
0.0
  9
$UCSORTHOREF
  2

  9
$UCSORTHOVIEW
 70
     0
  9
$UCSORGTOP
 10
0.0
 20
0.0
 30
0.0
  9
$UCSORGBOTTOM
 10
0.0
 20
0.0
 30
0.0
  9
$UCSORGLEFT
 10
0.0
 20
0.0
 30
0.0
  9
$UCSORGRIGHT
 10
0.0
 20
0.0
 30
0.0
  9
$UCSORGFRONT
 10
0.0
 20
0.0
 30
0.0
  9
$UCSORGBACK
 10
0.0
 20
0.0
 30
0.0
  9
$PUCSBASE
  2

  9
$PUCSNAME
  2

  9
$PUCSORG
 10
0.0
 20
0.0
 30
0.0
  9
$PUCSXDIR
 10
1.0
 20
0.0
 30
0.0
  9
$PUCSYDIR
 10
0.0
 20
1.0
 30
0.0
  9
$PUCSORTHOREF
  2

  9
$PUCSORTHOVIEW
 70
     0
  9
$PUCSORGTOP
 10
0.0
 20
0.0
 30
0.0
  9
$PUCSORGBOTTOM
 10
0.0
 20
0.0
 30
0.0
  9
$PUCSORGLEFT
 10
0.0
 20
0.0
 30
0.0
  9
$PUCSORGRIGHT
 10
0.0
 20
0.0
 30
0.0
  9
$PUCSORGFRONT
 10
0.0
 20
0.0
 30
0.0
  9
$PUCSORGBACK
 10
0.0
 20
0.0
 30
0.0
  9
$USERI1
 70
     0
  9
$USERI2
 70
     0
  9
$USERI3
 70
     0
  9
$USERI4
 70
     0
  9
$USERI5
 70
     0
  9
$USERR1
 40
0.0
  9
$USERR2
 40
0.0
  9
$USERR3
 40
0.0
  9
$USERR4
 40
0.0
  9
$USERR5
 40
0.0
  9
$WORLDVIEW
 70
     1
  9
$SHADEDGE
 70
     3
  9
$SHADEDIF
 70
    70
  9
$TILEMODE
 70
     1
  9
$MAXACTVP
 70
    64
  9
$PINSBASE
 10
0.0
 20
0.0
 30
0.0
  9
$PLIMCHECK
 70
     0
  9
$PEXTMIN
 10
1.000000000000000E+20
 20
1.000000000000000E+20
 30
1.000000000000000E+20
  9
$PEXTMAX
 10
-1.000000000000000E+20
 20
-1.000000000000000E+20
 30
-1.000000000000000E+20
  9
$PLIMMIN
 10
-20.0
 20
-7.5
  9
$PLIMMAX
 10
277.0
 20
202.5
  9
$UNITMODE
 70
     0
  9
$VISRETAIN
 70
     1
  9
$PLINEGEN
 70
     0
  9
$PSLTSCALE
 70
     1
  9
$TREEDEPTH
 70
  3020
  9
$CMLSTYLE
  2
Standard
  9
$CMLJUST
 70
     0
  9
$CMLSCALE
 40
1.0
  9
$PROXYGRAPHICS
 70
     1
  9
$MEASUREMENT
 70
     0
  9
$CELWEIGHT
370
    -1
  9
$ENDCAPS
280
     0
  9
$JOINSTYLE
280
     0
  9
$LWDISPLAY
290
     0
  9
$INSUNITS
 70
     1
  9
$HYPERLINKBASE
  1

  9
$STYLESHEET
  1

  9
$XEDIT
290
     1
  9
$CEPSNTYPE
380
     0
  9
$PSTYLEMODE
290
     1
  9
$FINGERPRINTGUID
  2
{CE3D1872-8BE4-4280-B1B1-C751DCEBB459}
  9
$VERSIONGUID
  2
{B0E7EE3F-283D-4078-B867-43F72091FBA2}
  9
$EXTNAMES
290
     1
  9
$PSVPSCALE
 40
0.0
  9
$OLESTARTUP
290
     0
  0
ENDSEC
  0
SECTION
  2
CLASSES
  0
CLASS
  1
ACDBDICTIONARYWDFLT
  2
AcDbDictionaryWithDefault
  3
ObjectDBX Classes
 90
        0
280
     0
281
     0
  0
CLASS
  1
ACDBPLACEHOLDER
  2
AcDbPlaceHolder
  3
ObjectDBX Classes
 90
        0
280
     0
281
     0
  0
CLASS
  1
LAYOUT
  2
AcDbLayout
  3
ObjectDBX Classes
 90
        0
280
     0
281
     0
  0
CLASS
  1
DICTIONARYVAR
  2
AcDbDictionaryVar
  3
ObjectDBX Classes
 90
        0
280
     0
281
     0
  0
CLASS
  1
TABLESTYLE
  2
AcDbTableStyle
  3
ObjectDBX Classes
 90
     4095
280
     0
281
     0
  0
CLASS
  1
SORTENTSTABLE
  2
AcDbSortentsTable
  3
ObjectDBX Classes
 90
    32768
280
     0
281
     0
  0
CLASS
  1
DIMASSOC
  2
AcDbDimAssoc
  3
"AcDbDimAssoc|Product Desc:     AcDim ARX App For Dimension|Company:          Autodesk, Inc.|WEB Address:      www.autodesk.com"
 90
    32768
280
     0
281
     0
  0
CLASS
  1
MATERIAL
  2
AcDbMaterial
  3
ObjectDBX Classes
 90
     1153
280
     0
281
     0
  0
CLASS
  1
VISUALSTYLE
  2
AcDbVisualStyle
  3
ObjectDBX Classes
 90
     4095
280
     0
281
     0
  0
CLASS
  1
SCALE
  2
AcDbScale
  3
ObjectDBX Classes
 90
     1153
280
     0
281
     0
  0
CLASS
  1
MLEADERSTYLE
  2
AcDbMLeaderStyle
  3
ACDB_MLEADERSTYLE_CLASS
 90
     4095
280
     0
281
     0
  0
CLASS
  1
CELLSTYLEMAP
  2
AcDbCellStyleMap
  3
ObjectDBX Classes
 90
     1152
280
     0
281
     0
  0
ENDSEC
  0
SECTION
  2
TABLES
  0
TABLE
  2
VPORT
  5
8
330
0
100
AcDbSymbolTable
 70
     1
  0
VPORT
  5
439F
330
8
100
AcDbSymbolTableRecord
100
AcDbViewportTableRecord
  2
*Active
 70
     0
 10
0.0
 20
0.0
 11
1.0
 21
1.0
 12
1459.557657785729
 22
1290.291487755427
 13
0.0
 23
0.0
 14
0.5
 24
0.5
 15
0.5
 25
0.5
 16
0.0
 26
0.0
 36
1.0
 17
0.0
 27
0.0
 37
0.0
 40
46.53653348932945
 41
2.408320493066255
 42
50.0
 43
0.0
 44
0.0
 50
0.0
 51
0.0
 71
     0
 72
 20000
 73
     1
 74
     3
 75
     0
 76
     0
 77
     0
 78
     0
281
     0
 65
     1
110
0.0
120
0.0
130
0.0
111
1.0
121
0.0
131
0.0
112
0.0
122
1.0
132
0.0
 79
     0
146
0.0
1001
ACAD_NAV_VCDISPLAY
1070
     3
  0
ENDTAB
  0
TABLE
  2
LTYPE
  5
5
330
0
100
AcDbSymbolTable
 70
     4
  0
LTYPE
  5
14
330
5
100
AcDbSymbolTableRecord
100
AcDbLinetypeTableRecord
  2
ByBlock
 70
     0
  3

 72
    65
 73
     0
 40
0.0
  0
LTYPE
  5
15
330
5
100
AcDbSymbolTableRecord
100
AcDbLinetypeTableRecord
  2
ByLayer
 70
     0
  3

 72
    65
 73
     0
 40
0.0
  0
LTYPE
  5
16
330
5
100
AcDbSymbolTableRecord
100
AcDbLinetypeTableRecord
  2
Continuous
 70
     0
  3
Solid line
 72
    65
 73
     0
 40
0.0
  0
LTYPE
  5
3B32
330
5
100
AcDbSymbolTableRecord
100
AcDbLinetypeTableRecord
  2
DASHED
 70
     0
  3
-- -- -- -- -- -- -- -- -- --
 72
    65
 73
     2
 40
3.0
 49
2.0
 74
     0
 49
-1.0
 74
     0
  0
LTYPE
  5
3B33
330
5
100
AcDbSymbolTableRecord
100
AcDbLinetypeTableRecord
  2
CENTER
 70
     0
  3
--- - --- - --- - --- - --- -
 72
    65
 73
     4
 40
6.0
 49
3.0
 74
     0
 49
-1.0
 74
     0
 49
1.0
 74
     0
 49
-1.0
 74
     0
  0
LTYPE
  5
3B34
330
5
100
AcDbSymbolTableRecord
100
AcDbLinetypeTableRecord
  2
PHANTOM
 70
     0
  3
----- - - ----- - - ----- - -
 72
    65
 73
     6
 40
12.0
 49
7.0
 74
     0
 49
-1.0
 74
     0
 49
1.0
 74
     0
 49
-1.0
 74
     0
 49
1.0
 74
     0
 49
-1.0
 74
     0
  0
ENDTAB
  0
TABLE
  2
LAYER
  5
2
102
{ACAD_XDICTIONARY
360
1D0
102
}
330
0
100
AcDbSymbolTable
 70
     3
  0
LAYER
  5
10
330
2
100
AcDbSymbolTableRecord
100
AcDbLayerTableRecord
  2
0
 70
     0
 62
     7
  6
Continuous
370
    -3
390
F
  0
LAYER
  5
200
330
2
100
AcDbSymbolTableRecord
100
AcDbLayerTableRecord
  2
Defpoints
 70
     0
 62
     7
  6
Continuous
290
     0
370
    -3
390
F
  0
LAYER
  5
3B35
330
2
100
AcDbSymbolTableRecord
100
AcDbLayerTableRecord
  2
PIC01
 70
     0
 62
     7
  6
Continuous
370
    -3
390
F
  0
ENDTAB
  0
TABLE
  2
STYLE
  5
3
330
0
100
AcDbSymbolTable
 70
     1
  0
STYLE
  5
11
330
3
100
AcDbSymbolTableRecord
100
AcDbTextStyleTableRecord
  2
Standard
 70
     0
 40
0.0
 41
1.0
 50
0.0
 71
     0
 42
0.2
  3
txt
  4

  0
ENDTAB
  0
TABLE
  2
VIEW
  5
6
330
0
100
AcDbSymbolTable
 70
     0
  0
ENDTAB
  0
TABLE
  2
UCS
  5
7
330
0
100
AcDbSymbolTable
 70
     0
  0
ENDTAB
  0
TABLE
  2
APPID
  5
9
330
0
100
AcDbSymbolTable
 70
    14
  0
APPID
  5
12
330
9
100
AcDbSymbolTableRecord
100
AcDbRegAppTableRecord
  2
ACAD
 70
     0
  0
APPID
  5
1CA
330
9
100
AcDbSymbolTableRecord
100
AcDbRegAppTableRecord
  2
ACAD_PSEXT
 70
     0
  0
APPID
  5
1CB
330
9
100
AcDbSymbolTableRecord
100
AcDbRegAppTableRecord
  2
ACAD_DSTYLE_DIMEXT_LENGTH
 70
     0
  0
APPID
  5
1CC
330
9
100
AcDbSymbolTableRecord
100
AcDbRegAppTableRecord
  2
ACAD_DSTYLE_DIMEXT_ENABLED
 70
     0
  0
APPID
  5
1CD
330
9
100
AcDbSymbolTableRecord
100
AcDbRegAppTableRecord
  2
ACAD_DSTYLE_DIMJOGGED_JOGANGLE_SYMBOL
 70
     0
  0
APPID
  5
1CE
330
9
100
AcDbSymbolTableRecord
100
AcDbRegAppTableRecord
  2
ACAD_DSTYLE_DIMARC_LENGTH_SYMBOL
 70
     0
  0
APPID
  5
1CF
330
9
100
AcDbSymbolTableRecord
100
AcDbRegAppTableRecord
  2
DCO15
 70
     0
  0
APPID
  5
2A8
330
9
100
AcDbSymbolTableRecord
100
AcDbRegAppTableRecord
  2
ACAD_DSTYLE_DIMTEXT_FILL
 70
     0
  0
APPID
  5
2AB
330
9
100
AcDbSymbolTableRecord
100
AcDbRegAppTableRecord
  2
ACAD_DSTYLE_DIM_LINETYPE
 70
     0
  0
APPID
  5
2AC
330
9
100
AcDbSymbolTableRecord
100
AcDbRegAppTableRecord
  2
ACAD_DSTYLE_DIM_EXT1_LINETYPE
 70
     0
  0
APPID
  5
2AD
330
9
100
AcDbSymbolTableRecord
100
AcDbRegAppTableRecord
  2
ACAD_DSTYLE_DIM_EXT2_LINETYPE
 70
     0
  0
APPID
  5
438E
330
9
100
AcDbSymbolTableRecord
100
AcDbRegAppTableRecord
  2
ACAD_EXEMPT_FROM_CAD_STANDARDS
 70
     0
  0
APPID
  5
43F6
330
9
100
AcDbSymbolTableRecord
100
AcDbRegAppTableRecord
  2
ACAD_NAV_VCDISPLAY
 70
     0
  0
APPID
  5
4438
330
9
100
AcDbSymbolTableRecord
100
AcDbRegAppTableRecord
  2
ACAD_MLEADERVER
 70
     0
  0
ENDTAB
  0
TABLE
  2
DIMSTYLE
  5
A
330
0
100
AcDbSymbolTable
 70
     1
100
AcDbDimStyleTable
 71
     1
340
27
  0
DIMSTYLE
105
27
330
A
100
AcDbSymbolTableRecord
100
AcDbDimStyleTableRecord
  2
Standard
 70
     0
  4
mm
170
     1
277
     5
340
11
1001
ACAD_DSTYLE_DIMJOGGED_JOGANGLE_SYMBOL
1070
   384
1040
0.7853981633974483
1001
ACAD_DSTYLE_DIMEXT_LENGTH
1070
   378
1040
0.18
  0
ENDTAB
  0
TABLE
  2
BLOCK_RECORD
  5
1
330
0
100
AcDbSymbolTable
 70
     0
  0
BLOCK_RECORD
  5
1F
330
1
100
AcDbSymbolTableRecord
100
AcDbBlockTableRecord
  2
*Model_Space
340
22
  0
BLOCK_RECORD
  5
58
330
1
100
AcDbSymbolTableRecord
100
AcDbBlockTableRecord
  2
*Paper_Space
340
59
  0
ENDTAB
  0
ENDSEC
  0
SECTION
  2
BLOCKS
  0
BLOCK
  5
20
330
1F
100
AcDbEntity
  8
0
100
AcDbBlockBegin
  2
*Model_Space
 70
     0
 10
0.0
 20
0.0
 30
0.0
  3
*Model_Space
  1

  0
ENDBLK
  5
21
330
1F
100
AcDbEntity
  8
0
100
AcDbBlockEnd
  0
BLOCK
  5
5A
330
58
100
AcDbEntity
 67
     1
  8
0
100
AcDbBlockBegin
  2
*Paper_Space
 70
     0
 10
0.0
 20
0.0
 30
0.0
  3
*Paper_Space
  1

  0
ENDBLK
  5
5B
330
58
100
AcDbEntity
 67
     1
  8
0
100
AcDbBlockEnd
  0
ENDSEC
  0
SECTION
  2
ENTITIES
  0
LINE
  5
3F4C
330
1F
100
AcDbEntity
  8
PIC01
  6
CENTER
 62
     7
100
AcDbLine
 10
1430.51939566682
 20
1292.508257145712
 30
0.0
 11
1457.237741949374
 21
1292.508257145712
 31
0.0
  0
LINE
  5
3F4D
330
1F
100
AcDbEntity
  8
PIC01
  6
Continuous
 62
     7
100
AcDbLine
 10
1437.819364785984
 20
1285.401952844184
 30
0.0
 11
1446.739909989828
 21
1285.401952844184
 31
0.0
  0
LINE
  5
3F4E
330
1F
100
AcDbEntity
  8
PIC01
  6
Continuous
 62
     7
100
AcDbLine
 10
1437.819364785984
 20
1299.614561447239
 30
0.0
 11
1446.739909989828
 21
1299.614561447239
 31
0.0
  0
LINE
  5
3F4F
330
1F
100
AcDbEntity
  8
PIC01
  6
CENTER
 62
     7
100
AcDbLine
 10
1446.739909989828
 20
1285.401952844184
 30
0.0
 11
1446.739909989828
 21
1299.614561447239
 31
0.0
  0
ARC
  5
3F50
330
1F
100
AcDbEntity
  8
PIC01
  6
Continuous
 62
     7
100
AcDbCircle
 10
1446.739909989828
 20
1285.323212630317
 30
0.0
 40
14.29134881692157
100
AcDbArc
 50
68.7457255800676
 51
90.0
  0
ARC
  5
3F51
330
1F
100
AcDbEntity
  8
PIC01
  6
Continuous
 62
     7
100
AcDbCircle
 10
1448.309825776817
 20
1289.359352964025
 30
0.0
 40
9.960637054218068
100
AcDbArc
 50
40.9644822230211
 51
68.7457255800676
  0
ARC
  5
3F52
330
1F
100
AcDbEntity
  8
PIC01
  6
Continuous
 62
     7
100
AcDbCircle
 10
1448.309825776817
 20
1295.657161327399
 30
0.0
 40
9.960637054218068
100
AcDbArc
 50
291.2542744199324
 51
319.0355177769789
  0
ARC
  5
3F53
330
1F
100
AcDbEntity
  8
PIC01
  6
Continuous
 62
     7
100
AcDbCircle
 10
1446.739909989828
 20
1299.693301661106
 30
0.0
 40
14.29134881692157
100
AcDbArc
 50
270.0
 51
291.2542744199324
  0
ARC
  5
3F54
330
1F
100
AcDbEntity
  8
PIC01
  6
Continuous
 62
     7
100
AcDbCircle
 10
1451.936764105072
 20
1292.508257145712
 30
0.0
 40
5.157484008310548
100
AcDbArc
 50
319.0355177769789
 51
40.9644822230211
  0
ARC
  5
3F55
330
1F
100
AcDbEntity
  8
PIC01
  6
Continuous
 62
     7
100
AcDbCircle
 10
1193.130804492115
 20
1292.508257145712
 30
0.0
 40
244.475240689102
100
AcDbArc
 50
358.3403394119163
 51
1.659660546924392
  0
ARC
  5
3F56
330
1F
100
AcDbEntity
  8
PIC01
  6
Continuous
 62
     7
100
AcDbCircle
 10
1675.191517156927
 20
1292.508257145712
 30
0.0
 40
244.475240689102
100
AcDbArc
 50
178.3218042617597
 51
181.6596605675576
  0
LINE
  5
3F57
330
1F
100
AcDbEntity
  8
PIC01
  6
CENTER
 62
     7
100
AcDbLine
 10
1434.161160824521
 20
1284.700855380444
 30
0.0
 11
1434.161160824521
 21
1300.396616866868
 31
0.0
  0
ARC
  5
3F58
330
1F
100
AcDbEntity
  8
PIC01
  6
Continuous
 62
     7
100
AcDbCircle
 10
1434.161160824521
 20
1355.148557908861
 30
0.0
 40
70.31747161521494
100
AcDbArc
 50
267.5820610956241
 51
272.3531834051908
  0
ARC
  5
3F59
330
1F
100
AcDbEntity
  8
PIC01
  6
Continuous
 62
     7
100
AcDbCircle
 10
1434.161160824521
 20
1229.867956382562
 30
0.0
 40
70.31747161521494
100
AcDbArc
 50
87.64681659480919
 51
92.41793890437589
  0
ARC
  5
3F5A
330
1F
100
AcDbEntity
  8
PIC01
  6
Continuous
 62
     7
100
AcDbCircle
 10
1437.028945585665
 20
1285.362426961206
 30
0.0
 40
0.47244128320403
100
AcDbArc
 50
272.3531834051908
 51
335.8635524505384
  0
ARC
  5
3F5B
330
1F
100
AcDbEntity
  8
PIC01
  6
Continuous
 62
     7
100
AcDbCircle
 10
1437.028945585665
 20
1299.654087330217
 30
0.0
 40
0.4724412832162144
100
AcDbArc
 50
24.13617009718467
 51
87.64681659480919
  0
ARC
  5
3F5C
330
1F
100
AcDbEntity
  8
PIC01
  6
Continuous
 62
     7
100
AcDbCircle
 10
1193.130804499269
 20
1292.508257145493
 30
0.0
 40
244.4752406819453
100
AcDbArc
 50
358.2189274933013
 51
358.3218042617597
  0
ARC
  5
3F5D
330
1F
100
AcDbEntity
  8
PIC01
  6
Continuous
 62
     7
100
AcDbCircle
 10
1434.161160824439
 20
1355.148557910779
 30
0.0
 40
70.31747161713453
100
AcDbArc
 50
272.3531834051908
 51
272.7117199521728
  0
ARC
  5
3F66
330
1F
100
AcDbEntity
  8
PIC01
  6
Continuous
 62
     7
100
AcDbCircle
 10
1437.819364785984
 20
1285.008251774848
 30
0.0
 40
0.3937010693366825
100
AcDbArc
 50
90.0
 51
155.8635524505384
  0
ARC
  5
3F67
330
1F
100
AcDbEntity
  8
PIC01
  6
Continuous
 62
     7
100
AcDbCircle
 10
1437.819364785984
 20
1300.008262516575
 30
0.0
 40
0.3937010693366825
100
AcDbArc
 50
204.1364475494616
 51
270.0
  0
LINE
  5
3F69
330
1F
100
AcDbEntity
  8
PIC01
  6
Continuous
 62
     7
100
AcDbLine
 10
1456.77928673476
 20
1278.070583821363
 30
0.0
 11
1437.950051254219
 21
1278.070583821363
 31
0.0
  0
LINE
  5
3F6A
330
1F
100
AcDbEntity
  8
PIC01
  6
Continuous
 62
     7
100
AcDbLine
 10
1437.339486603607
 20
1279.251687029373
 30
0.0
 11
1430.991866693207
 21
1279.251687029373
 31
0.0
  0
LINE
  5
3F6B
330
1F
100
AcDbEntity
  8
PIC01
  6
Continuous
 62
     7
100
AcDbLine
 10
1453.23597711073
 20
1263.109943186569
 30
0.0
 11
1433.590293750829
 21
1263.109943186569
 31
0.0
  0
ARC
  5
3F6C
330
1F
100
AcDbEntity
  8
PIC01
  6
Continuous
 62
     7
100
AcDbCircle
 10
1456.77928673476
 20
1277.755622965894
 30
0.0
 40
0.3149608554693461
100
AcDbArc
 50
358.5101207031869
 51
92.83088184978177
  0
LINE
  5
3F6D
330
1F
100
AcDbEntity
  8
PIC01
  6
Continuous
 62
     7
100
AcDbLine
 10
1457.021491533531
 20
1274.954203549795
 30
0.0
 11
1457.094141112441
 21
1277.747433867483
 31
0.0
  0
LINE
  5
3F71
330
1F
100
AcDbEntity
  8
PIC01
  6
Continuous
 62
     7
100
AcDbLine
 10
1437.635265231322
 20
1278.375051809402
 30
0.0
 11
1437.614924373641
 21
1278.985277539838
 31
0.0
  0
ARC
  5
3F72
330
1F
100
AcDbEntity
  8
PIC01
  6
Continuous
 62
     7
100
AcDbCircle
 10
1437.950051254219
 20
1278.385544676832
 30
0.0
 40
0.3149608554693458
100
AcDbArc
 50
181.9091524329669
 51
265.657501480739
  0
LINE
  5
3F73
330
1F
100
AcDbEntity
  8
PIC01
  6
Continuous
 62
     7
100
AcDbLine
 10
1453.354087431531
 20
1263.22805350737
 30
0.0
 11
1453.354087431531
 21
1264.100894405054
 31
0.0
  0
ARC
  5
3F75
330
1F
100
AcDbEntity
  8
PIC01
  6
Continuous
 62
     7
100
AcDbCircle
 10
1193.130804492115
 20
1292.508257145712
 30
0.0
 40
244.002799405898
100
AcDbArc
 50
358.409517898779
 51
1.590482057195143
  0
ARC
  5
3F76
330
1F
100
AcDbEntity
  8
PIC01
  6
Continuous
 62
     7
100
AcDbCircle
 10
1675.191517156927
 20
1292.508257145712
 30
0.0
 40
244.002799405898
100
AcDbArc
 50
178.3909655904801
 51
181.5904821012211
  0
ARC
  5
3F77
330
1F
100
AcDbEntity
  8
PIC01
  6
Continuous
 62
     7
100
AcDbCircle
 10
1446.739909989828
 20
1299.693301661106
 30
0.0
 40
11.73229186623314
100
AcDbArc
 50
270.0
 51
291.2542744199324
  0
ARC
  5
3F78
330
1F
100
AcDbEntity
  8
PIC01
  6
Continuous
 62
     7
100
AcDbCircle
 10
1448.309825776817
 20
1295.657161327399
 30
0.0
 40
7.401580103529632
100
AcDbArc
 50
291.2542744199324
 51
319.0355177769789
  0
ARC
  5
3F79
330
1F
100
AcDbEntity
  8
PIC01
  6
Continuous
 62
     7
100
AcDbCircle
 10
1451.936764105072
 20
1292.508257145712
 30
0.0
 40
2.598427057622113
100
AcDbArc
 50
319.0355177769789
 51
40.9644822230211
  0
ARC
  5
3F7A
330
1F
100
AcDbEntity
  8
PIC01
  6
Continuous
 62
     7
100
AcDbCircle
 10
1448.309825776817
 20
1289.359352964025
 30
0.0
 40
7.401580103529632
100
AcDbArc
 50
40.9644822230211
 51
68.7457255800676
  0
ARC
  5
3F7B
330
1F
100
AcDbEntity
  8
PIC01
  6
Continuous
 62
     7
100
AcDbCircle
 10
1446.739909989828
 20
1285.323212630317
 30
0.0
 40
11.73229186623314
100
AcDbArc
 50
68.7457255800676
 51
90.0
  0
ARC
  5
3F7E
330
1F
100
AcDbEntity
  8
PIC01
  6
Continuous
 62
     7
100
AcDbCircle
 10
1457.210946895514
 20
1269.026125174214
 30
0.0
 40
9.055124594743697
100
AcDbArc
 50
92.83088184978177
 51
104.8753179761241
  0
ARC
  5
3F7F
330
1F
100
AcDbEntity
  8
PIC01
  6
Continuous
 62
     7
100
AcDbCircle
 10
1457.210946895514
 20
1269.026125174214
 30
0.0
 40
8.740163739274349
100
AcDbArc
 50
92.83088184978177
 51
104.8753179761241
  0
LINE
  5
3F80
330
1F
100
AcDbEntity
  8
PIC01
  6
Continuous
 62
     7
100
AcDbLine
 10
1456.727912744781
 20
1275.780396288727
 30
0.0
 11
1456.77928673476
 21
1277.755622965894
 31
0.0
  0
LINE
  5
3F81
330
1F
100
AcDbEntity
  8
PIC01
  6
Continuous
 62
     7
100
AcDbLine
 10
1456.621806307025
 20
1275.432786957177
 30
0.0
 11
1456.621806307025
 21
1275.106785359596
 31
0.0
  0
ARC
  5
3F82
330
1F
100
AcDbEntity
  8
PIC01
  6
Continuous
 62
     7
100
AcDbCircle
 10
1450.309779042218
 20
1279.43140893917
 30
0.0
 40
7.874021386733652
100
AcDbArc
 50
287.2895106598894
 51
322.4438582276513
  0
ARC
  5
3F83
330
1F
100
AcDbEntity
  8
PIC01
  6
Continuous
 62
     7
100
AcDbCircle
 10
1456.739225796671
 20
1274.487904090399
 30
0.0
 40
0.2362206416020095
100
AcDbArc
 50
90.0
 51
142.4438582276513
  0
ARC
  5
3F84
330
1F
100
AcDbEntity
  8
PIC01
  6
Continuous
 62
     7
100
AcDbCircle
 10
1456.739225796671
 20
1274.487904090399
 30
0.0
 40
0.6299217109386909
100
AcDbArc
 50
100.7429592165295
 51
142.4438582276513
  0
LINE
  5
3F85
330
1F
100
AcDbEntity
  8
PIC01
  6
Continuous
 62
     7
100
AcDbLine
 10
1454.859681581597
 20
1276.831535726574
 30
0.0
 11
1455.373342608715
 21
1276.739810593146
 31
0.0
  0
LINE
  5
3F86
330
1F
100
AcDbEntity
  8
PIC01
  6
Continuous
 62
     7
100
AcDbLine
 10
1455.690189343505
 20
1276.429451529575
 30
0.0
 11
1455.835795422746
 21
1275.701421133376
 31
0.0
  0
LINE
  5
3F87
330
1F
100
AcDbEntity
  8
PIC01
  6
DASHED
 62
     7
100
AcDbLine
 10
1455.97942866781
 20
1275.672121280479
 30
0.0
 11
1456.562163400144
 21
1275.526437597395
 31
0.0
  0
ARC
  5
3F88
330
1F
100
AcDbEntity
  8
PIC01
  6
DASHED
 62
     7
100
AcDbCircle
 10
1456.036720588767
 20
1275.901288964308
 30
0.0
 40
0.23622064160201
100
AcDbArc
 50
191.3099324739986
 51
255.9637565320735
  0
ARC
  5
3F89
330
1F
100
AcDbEntity
  8
PIC01
  6
Continuous
 62
     7
100
AcDbCircle
 10
1455.304133682915
 20
1276.352240397457
 30
0.0
 40
0.3937010693366827
100
AcDbArc
 50
11.30993247399858
 51
79.87533374791773
  0
LINE
  5
3F8A
330
1F
100
AcDbEntity
  8
PIC01
  6
Continuous
 62
     7
100
AcDbLine
 10
1456.104159395573
 20
1275.965592817297
 30
0.0
 11
1456.728668809654
 21
1275.809465463776
 31
0.0
  0
LINE
  5
3F8B
330
1F
100
AcDbEntity
  8
PIC01
  6
Continuous
 62
     7
100
AcDbLine
 10
1455.999033871978
 20
1276.49122043527
 30
0.0
 11
1456.131980353729
 21
1275.826488026514
 31
0.0
  0
ARC
  5
3F8C
330
1F
100
AcDbEntity
  8
PIC01
  6
Continuous
 62
     7
100
AcDbCircle
 10
1455.304133682915
 20
1276.352240397457
 30
0.0
 40
0.7086619248060289
100
AcDbArc
 50
11.30993247399858
 51
79.87533374791773
  0
LINE
  5
3F8D
330
1F
100
AcDbEntity
  8
PIC01
  6
Continuous
 62
     7
100
AcDbLine
 10
1454.915049322977
 20
1277.14159177585
 30
0.0
 11
1455.428709749355
 21
1277.049866749697
 31
0.0
  0
ARC
  5
3F8E
330
1F
100
AcDbEntity
  8
PIC01
  6
Continuous
 62
     7
100
AcDbCircle
 10
1454.928891108137
 20
1277.219105814988
 30
0.0
 40
0.0787402138673365
100
AcDbArc
 50
180.0
 51
259.8753337479177
  0
ARC
  5
3F91
330
1F
100
AcDbEntity
  8
PIC01
  6
DASHED
 62
     7
100
AcDbCircle
 10
1456.543066093158
 20
1275.450048369452
 30
0.0
 40
0.0787402138673361
100
AcDbArc
 50
0.0
 51
75.96375653207353
  0
ARC
  5
3F92
330
1F
100
AcDbEntity
  8
PIC01
  6
DASHED
 62
     7
100
AcDbCircle
 10
1445.090101007734
 20
1293.155470208809
 30
0.0
 40
7.007879034192948
100
AcDbArc
 50
229.0664857550567
 51
251.1950751830884
  0
ARC
  5
3F93
330
1F
100
AcDbEntity
  8
PIC01
  6
DASHED
 62
     7
100
AcDbCircle
 10
1446.739909989828
 20
1299.693301661106
 30
0.0
 40
13.81890753371755
100
AcDbArc
 50
270.0
 51
291.2542744199324
  0
ARC
  5
3F94
330
1F
100
AcDbEntity
  8
PIC01
  6
DASHED
 62
     7
100
AcDbCircle
 10
1446.739909989828
 20
1298.000387156505
 30
0.0
 40
12.12599293556982
100
AcDbArc
 50
251.1950751830884
 51
270.0
  0
ARC
  5
3F95
330
1F
100
AcDbEntity
  8
PIC01
  6
DASHED
 62
     7
100
AcDbCircle
 10
1448.309825776817
 20
1295.657161327399
 30
0.0
 40
9.488195771014048
100
AcDbArc
 50
291.2542744199324
 51
319.0355177769789
  0
ARC
  5
3F96
330
1F
100
AcDbEntity
  8
PIC01
  6
DASHED
 62
     7
100
AcDbCircle
 10
1451.936764105072
 20
1292.508257145712
 30
0.0
 40
4.685042725106539
100
AcDbArc
 50
319.0355177769789
 51
40.9644822230211
  0
ARC
  5
3F97
330
1F
100
AcDbEntity
  8
PIC01
  6
Continuous
 62
     7
100
AcDbCircle
 10
1446.739909989828
 20
1298.000387156505
 30
0.0
 40
10.0393772680854
100
AcDbArc
 50
244.1011952414462
 51
270.0
  0
ARC
  5
3F98
330
1F
100
AcDbEntity
  8
PIC01
  6
Continuous
 62
     7
100
AcDbCircle
 10
1446.739909989828
 20
1287.016127134918
 30
0.0
 40
10.0393772680854
100
AcDbArc
 50
90.0
 51
115.8988047585538
  0
ARC
  5
3F99
330
1F
100
AcDbEntity
  8
PIC01
  6
Continuous
 62
     7
100
AcDbCircle
 10
1443.70841206452
 20
1292.508257145712
 30
0.0
 40
3.740160158698484
100
AcDbArc
 50
127.926546526653
 51
232.073453473347
  0
ARC
  5
3F9A
330
1F
100
AcDbEntity
  8
PIC01
  6
Continuous
 62
     7
100
AcDbCircle
 10
1444.676366672614
 20
1293.750461794157
 30
0.0
 40
5.314964436045213
100
AcDbArc
 50
232.073453473347
 51
244.1011952414462
  0
ARC
  5
3F9B
330
1F
100
AcDbEntity
  8
PIC01
  6
Continuous
 62
     7
100
AcDbCircle
 10
1444.676366672614
 20
1291.266052497266
 30
0.0
 40
5.314964436045213
100
AcDbArc
 50
115.8988047585538
 51
127.926546526653
  0
LINE
  5
3F9C
330
1F
100
AcDbEntity
  8
PIC01
  6
Continuous
 62
     7
100
AcDbLine
 10
1437.56667455113
 20
1264.094195859911
 30
0.0
 11
1433.965743976656
 21
1264.094195859911
 31
0.0
  0
LINE
  5
3F9D
330
1F
100
AcDbEntity
  8
PIC01
  6
CENTER
 62
     7
100
AcDbLine
 10
1436.81864251939
 20
1262.856844589248
 30
0.0
 11
1436.81864251939
 21
1264.244942336467
 31
0.0
  0
LINE
  5
3F9F
330
1F
100
AcDbEntity
  8
PIC01
  6
Continuous
 62
     7
100
AcDbLine
 10
1437.802895192732
 20
1264.261431534758
 30
0.0
 11
1437.802895192732
 21
1265.438616932284
 31
0.0
  0
LINE
  5
3FA0
330
1F
100
AcDbEntity
  8
PIC01
  6
Continuous
 62
     7
100
AcDbLine
 10
1437.724154978864
 20
1264.015455646043
 30
0.0
 11
1433.961617376907
 21
1264.015455646043
 31
0.0
  0
ARC
  5
3FA1
330
1F
100
AcDbEntity
  8
PIC01
  6
Continuous
 62
     7
100
AcDbCircle
 10
1437.56667455113
 20
1264.330416501513
 30
0.0
 40
0.2362206416020095
100
AcDbArc
 50
270.0
 51
0.0
  0
LINE
  5
3FA2
330
1F
100
AcDbEntity
  8
PIC01
  6
Continuous
 62
     7
100
AcDbLine
 10
1437.684784871931
 20
1265.556727253085
 30
0.0
 11
1433.59406196149
 21
1265.556727253085
 31
0.0
  0
LINE
  5
3FA3
330
1F
100
AcDbEntity
  8
PIC01
  6
Continuous
 62
     7
100
AcDbLine
 10
1437.802895192732
 20
1264.582016862683
 30
0.0
 11
1433.542979554485
 21
1264.582016862683
 31
0.0
  0
LINE
  5
3FA4
330
1F
100
AcDbEntity
  8
PIC01
  6
DASHED
 62
     7
100
AcDbLine
 10
1437.133603374859
 20
1264.015455646043
 30
0.0
 11
1437.133603374859
 21
1263.621754576707
 31
0.0
  0
LINE
  5
3FA5
330
1F
100
AcDbEntity
  8
PIC01
  6
DASHED
 62
     7
100
AcDbLine
 10
1436.503681663921
 20
1264.015455646043
 30
0.0
 11
1436.503681663921
 21
1263.621754576707
 31
0.0
  0
LINE
  5
3FA9
330
1F
100
AcDbEntity
  8
PIC01
  6
Continuous
 62
     7
100
AcDbLine
 10
1440.676913354922
 20
1270.354042862364
 30
0.0
 11
1440.676913354922
 21
1270.669003717833
 31
0.0
  0
LINE
  5
3FAA
330
1F
100
AcDbEntity
  8
PIC01
  6
Continuous
 62
     7
100
AcDbLine
 10
1442.608399666211
 20
1270.669003717833
 30
0.0
 11
1440.473779476474
 21
1270.669003717833
 31
0.0
  0
LINE
  5
3FAD
330
1F
100
AcDbEntity
  8
PIC01
  6
Continuous
 62
     7
100
AcDbLine
 10
1442.409198060004
 20
1270.354042862364
 30
0.0
 11
1442.409198060004
 21
1270.669003717833
 31
0.0
  0
LINE
  5
3FAE
330
1F
100
AcDbEntity
  8
PIC01
  6
Continuous
 62
     7
100
AcDbLine
 10
1442.487936360326
 20
1271.731996605042
 30
0.0
 11
1440.630788405543
 21
1271.731996605042
 31
0.0
  0
LINE
  5
3FAF
330
1F
100
AcDbEntity
  8
PIC01
  6
Continuous
 62
     7
100
AcDbLine
 10
1442.409198060004
 20
1271.968217246645
 30
0.0
 11
1440.676913354922
 21
1271.968217246645
 31
0.0
  0
LINE
  5
3FB0
330
1F
100
AcDbEntity
  8
PIC01
  6
Continuous
 62
     7
100
AcDbLine
 10
1442.409198060004
 20
1271.731996605042
 30
0.0
 11
1442.409198060004
 21
1271.968217246645
 31
0.0
  0
LINE
  5
3FB1
330
1F
100
AcDbEntity
  8
PIC01
  6
Continuous
 62
     7
100
AcDbLine
 10
1440.676913354922
 20
1271.731996605042
 30
0.0
 11
1440.676913354922
 21
1271.968217246645
 31
0.0
  0
ARC
  5
3FB2
330
1F
100
AcDbEntity
  8
PIC01
  6
Continuous
 62
     7
100
AcDbCircle
 10
1440.630788405543
 20
1272.125697674379
 30
0.0
 40
0.3937010693366832
100
AcDbArc
 50
225.0
 51
270.0
  0
LINE
  5
3FB6
330
1F
100
AcDbEntity
  8
PIC01
  6
Continuous
 62
     7
100
AcDbLine
 10
1442.802896370347
 20
1272.361918315981
 30
0.0
 11
1440.283212285585
 21
1272.361918315981
 31
0.0
  0
LINE
  5
3FB7
330
1F
100
AcDbEntity
  8
PIC01
  6
Continuous
 62
     7
100
AcDbLine
 10
1442.665091591549
 20
1272.224112691735
 30
0.0
 11
1442.409196146458
 21
1271.968217246645
 31
0.0
  0
LINE
  5
3FB8
330
1F
100
AcDbEntity
  8
PIC01
  6
Continuous
 62
     7
100
AcDbLine
 10
1442.641733362767
 20
1272.200754462953
 30
0.0
 11
1442.656501857531
 21
1272.215522957718
 31
0.0
  0
LINE
  5
3FB9
330
1F
100
AcDbEntity
  8
PIC01
  6
Continuous
 62
     7
100
AcDbLine
 10
1440.283212285585
 20
1272.361918315981
 30
0.0
 11
1440.444376138614
 21
1272.200754462953
 31
0.0
  0
LINE
  5
3FBA
330
1F
100
AcDbEntity
  8
PIC01
  6
Continuous
 62
     7
100
AcDbLine
 10
1440.444376138614
 20
1272.200754462953
 30
0.0
 11
1440.676913354922
 21
1271.968217246645
 31
0.0
  0
LINE
  5
3FBB
330
1F
100
AcDbEntity
  8
PIC01
  6
Continuous
 62
     7
100
AcDbLine
 10
1440.216962366842
 20
1271.982746321303
 30
0.0
 11
1440.352399709654
 21
1271.847308978491
 31
0.0
  0
LINE
  5
3FBC
330
1F
100
AcDbEntity
  8
PIC01
  6
Continuous
 62
     7
100
AcDbLine
 10
1451.971493367893
 20
1265.745970883236
 30
0.0
 11
1451.68401030773
 21
1270.514560338263
 31
0.0
  0
LINE
  5
3FBD
330
1F
100
AcDbEntity
  8
PIC01
  6
Continuous
 62
     7
100
AcDbLine
 10
1451.840078975195
 20
1263.22805350737
 30
0.0
 11
1452.901331201793
 21
1263.22805350737
 31
0.0
  0
LINE
  5
3FBE
330
1F
100
AcDbEntity
  8
PIC01
  6
Continuous
 62
     7
100
AcDbLine
 10
1453.039126576061
 20
1263.522749835502
 30
0.0
 11
1453.039126576061
 21
1264.096389880773
 31
0.0
  0
ARC
  5
3FBF
330
1F
100
AcDbEntity
  8
PIC01
  6
Continuous
 62
     7
100
AcDbCircle
 10
1452.921016255261
 20
1263.188683400436
 30
0.0
 40
0.3543309624030142
100
AcDbArc
 50
70.52877936555586
 51
90.0
  0
LINE
  5
3FC0
330
1F
100
AcDbEntity
  8
PIC01
  6
Continuous
 62
     7
100
AcDbLine
 10
1452.025419420681
 20
1263.543014362839
 30
0.0
 11
1452.921016255261
 21
1263.543014362839
 31
0.0
  0
LINE
  5
3FC1
330
1F
100
AcDbEntity
  8
PIC01
  6
Continuous
 62
     7
100
AcDbLine
 10
1439.968250473343
 20
1276.95336960346
 30
0.0
 11
1439.968250473343
 21
1277.3234405625
 31
0.0
  0
ARC
  5
3FC3
330
1F
100
AcDbEntity
  8
PIC01
  6
Continuous
 62
     7
100
AcDbCircle
 10
1440.027507332299
 20
1271.782457181602
 30
0.0
 40
0.5905516040050231
100
AcDbArc
 50
45.0
 51
66.92088555988532
  0
ARC
  5
3FC4
330
1F
100
AcDbEntity
  8
PIC01
  6
Continuous
 62
     7
100
AcDbCircle
 10
1450.309779042218
 20
1279.43140893917
 30
0.0
 40
7.480320317396967
100
AcDbArc
 50
316.3046036747563
 51
322.4438582276513
  0
CIRCLE
  5
3FC5
330
1F
100
AcDbEntity
  8
PIC01
  6
Continuous
 62
     7
100
AcDbCircle
 10
1435.007618687446
 20
1292.508257145712
 30
0.0
 40
0.6889768713391945
  0
LINE
  5
3FC6
330
1F
100
AcDbEntity
  8
PIC01
  6
CENTER
 62
     7
100
AcDbLine
 10
1435.007618687446
 20
1291.167634316277
 30
0.0
 11
1435.007618687446
 21
1293.857468794718
 31
0.0
  0
CIRCLE
  5
3FC7
330
1F
100
AcDbEntity
  8
PIC01
  6
Continuous
 62
     7
100
AcDbCircle
 10
1434.259586655706
 20
1296.504322999479
 30
0.0
 40
0.6889768713391945
  0
CIRCLE
  5
3FC9
330
1F
100
AcDbEntity
  8
PIC01
  6
Continuous
 62
     7
100
AcDbCircle
 10
1432.724152485293
 20
1292.508257145712
 30
0.0
 40
0.5511814970713555
  0
LINE
  5
3FCA
330
1F
100
AcDbEntity
  8
PIC01
  6
CENTER
 62
     7
100
AcDbLine
 10
1432.724152485293
 20
1291.638667553904
 30
0.0
 11
1432.724152485293
 21
1293.341726484216
 31
0.0
  0
ARC
  5
3FCC
330
1F
100
AcDbEntity
  8
PIC01
  6
DASHED
 62
     7
100
AcDbCircle
 10
1435.007618687446
 20
1292.508257145712
 30
0.0
 40
0.9842526733417038
100
AcDbArc
 50
89.99936417143798
 51
270.000635828562
  0
ARC
  5
3FCD
330
1F
100
AcDbEntity
  8
PIC01
  6
DASHED
 62
     7
100
AcDbCircle
 10
1435.007618687446
 20
1292.508257145712
 30
0.0
 40
1.299213528811049
100
AcDbArc
 50
89.99936417143798
 51
270.000635828562
  0
LINE
  5
3FCF
330
1F
100
AcDbEntity
  8
PIC01
  6
DASHED
 62
     7
100
AcDbLine
 10
1435.007604269682
 20
1293.492509818973
 30
0.0
 11
1437.575300710584
 21
1293.492509818973
 31
0.0
  0
LINE
  5
3FD0
330
1F
100
AcDbEntity
  8
PIC01
  6
DASHED
 62
     7
100
AcDbLine
 10
1435.007604269682
 20
1293.807470674443
 30
0.0
 11
1437.575300710584
 21
1293.807470674443
 31
0.0
  0
LINE
  5
3FD1
330
1F
100
AcDbEntity
  8
PIC01
  6
DASHED
 62
     7
100
AcDbLine
 10
1435.007604269682
 20
1291.52400447245
 30
0.0
 11
1437.575300710584
 21
1291.52400447245
 31
0.0
  0
LINE
  5
3FD2
330
1F
100
AcDbEntity
  8
PIC01
  6
DASHED
 62
     7
100
AcDbLine
 10
1435.007604269682
 20
1291.209043616981
 30
0.0
 11
1437.575300710584
 21
1291.209043616981
 31
0.0
  0
CIRCLE
  5
3FD3
330
1F
100
AcDbEntity
  8
PIC01
  6
Continuous
 62
     7
100
AcDbCircle
 10
1434.259586655706
 20
1288.512191291944
 30
0.0
 40
0.6889768713391945
  0
ARC
  5
3FD5
330
1F
100
AcDbEntity
  8
PIC01
  6
PHANTOM
 62
     7
100
AcDbCircle
 10
1434.259586655706
 20
1296.504322999479
 30
0.0
 40
1.181103208010046
100
AcDbArc
 50
91.77409041999954
 51
90.0
  0
CIRCLE
  5
3FD6
330
1F
100
AcDbEntity
  8
PIC01
  6
PHANTOM
 62
     7
100
AcDbCircle
 10
1432.724152485293
 20
1292.508257145712
 30
0.0
 40
0.7874021386733651
  0
ARC
  5
3FD7
330
1F
100
AcDbEntity
  8
PIC01
  6
PHANTOM
 62
     7
100
AcDbCircle
 10
1434.259586655706
 20
1288.512191291944
 30
0.0
 40
1.181103208010048
100
AcDbArc
 50
271.3260314004286
 51
268.2613302261922
  0
LINE
  5
3FF3
330
1F
100
AcDbEntity
  8
PIC01
  6
Continuous
 62
     7
100
AcDbLine
 10
1438.787147265333
 20
1275.117825801338
 30
0.0
 11
1438.787147265333
 21
1275.45004864707
 31
0.0
  0
ARC
  5
3FF4
330
1F
100
AcDbEntity
  8
PIC01
  6
DASHED
 62
     7
100
AcDbCircle
 10
1445.090101007734
 20
1291.861044082614
 30
0.0
 40
7.007879034192962
100
AcDbArc
 50
108.8049248169116
 51
130.9335124030958
  0
ARC
  5
3FF5
330
1F
100
AcDbEntity
  8
PIC01
  6
DASHED
 62
     7
100
AcDbCircle
 10
1446.739909989828
 20
1287.016127134918
 30
0.0
 40
12.12599293556982
100
AcDbArc
 50
90.0
 51
108.8049248169116
  0
LINE
  5
3FF6
330
1F
100
AcDbEntity
  8
PIC01
  6
CENTER
 62
     7
100
AcDbLine
 10
1432.960373126895
 20
1296.504322999479
 30
0.0
 11
1435.558800184518
 21
1296.504322999479
 31
0.0
  0
LINE
  5
3FF7
330
1F
100
AcDbEntity
  8
PIC01
  6
CENTER
 62
     7
100
AcDbLine
 10
1434.259586655706
 20
1295.205109470668
 30
0.0
 11
1434.259586655706
 21
1297.80353652829
 31
0.0
  0
LINE
  5
3FF8
330
1F
100
AcDbEntity
  8
PIC01
  6
CENTER
 62
     7
100
AcDbLine
 10
1432.960373126895
 20
1288.512191291944
 30
0.0
 11
1435.558800184518
 21
1288.512191291944
 31
0.0
  0
LINE
  5
3FF9
330
1F
100
AcDbEntity
  8
PIC01
  6
CENTER
 62
     7
100
AcDbLine
 10
1434.259586655706
 20
1287.212977763133
 30
0.0
 11
1434.259586655706
 21
1289.811404820756
 31
0.0
  0
LINE
  5
3FFA
330
1F
100
AcDbEntity
  8
PIC01
  6
Continuous
 62
     7
100
AcDbLine
 10
1436.899315426681
 20
1279.054836494705
 30
0.0
 11
1431.420294482231
 21
1279.054836494705
 31
0.0
  0
LINE
  5
3FFB
330
1F
100
AcDbEntity
  8
PIC01
  6
Continuous
 62
     7
100
AcDbLine
 10
1442.676708899186
 20
1270.354042862364
 30
0.0
 11
1440.408896245438
 21
1270.354042862364
 31
0.0
  0
LINE
  5
3FFC
330
1F
100
AcDbEntity
  8
PIC01
  6
Continuous
 62
     7
100
AcDbLine
 10
1438.393446195997
 20
1275.235936122139
 30
0.0
 11
1438.393446195997
 21
1275.658768539035
 31
0.0
  0
ARC
  5
3FFD
330
1F
100
AcDbEntity
  8
PIC01
  6
Continuous
 62
     7
100
AcDbCircle
 10
1438.275335875196
 20
1275.235936122139
 30
0.0
 40
0.1181103208010048
100
AcDbArc
 50
270.0
 51
0.0
  0
LINE
  5
3FFE
330
1F
100
AcDbEntity
  8
PIC01
  6
Continuous
 62
     7
100
AcDbLine
 10
1434.105953140669
 20
1277.676882752026
 30
0.0
 11
1436.256933476846
 21
1277.676882752026
 31
0.0
  0
LINE
  5
3FFF
330
1F
100
AcDbEntity
  8
PIC01
  6
Continuous
 62
     7
100
AcDbLine
 10
1434.105953140669
 20
1277.991843607496
 30
0.0
 11
1436.256933476846
 21
1277.991843607496
 31
0.0
  0
LINE
  5
4000
330
1F
100
AcDbEntity
  8
PIC01
  6
Continuous
 62
     7
100
AcDbLine
 10
1435.696607624187
 20
1277.676882752026
 30
0.0
 11
1435.696607624187
 21
1277.991843607496
 31
0.0
  0
LINE
  5
4001
330
1F
100
AcDbEntity
  8
PIC01
  6
Continuous
 62
     7
100
AcDbLine
 10
1435.696593206423
 20
1278.739875639235
 30
0.0
 11
1435.696593206423
 21
1279.054836494705
 31
0.0
  0
LINE
  5
4002
330
1F
100
AcDbEntity
  8
PIC01
  6
Continuous
 62
     7
100
AcDbLine
 10
1434.318639463745
 20
1278.739875639235
 30
0.0
 11
1434.318639463745
 21
1279.054836494705
 31
0.0
  0
LINE
  5
4003
330
1F
100
AcDbEntity
  8
PIC01
  6
Continuous
 62
     7
100
AcDbLine
 10
1434.318653881509
 20
1277.676882752026
 30
0.0
 11
1434.318653881509
 21
1277.991843607496
 31
0.0
  0
LINE
  5
4004
330
1F
100
AcDbEntity
  8
PIC01
  6
Continuous
 62
     7
100
AcDbLine
 10
1434.105953140669
 20
1277.991843607496
 30
0.0
 11
1434.033620565938
 21
1278.594622811587
 31
0.0
  0
ARC
  5
4005
330
1F
100
AcDbEntity
  8
PIC01
  6
Continuous
 62
     7
100
AcDbCircle
 10
1433.603634147145
 20
1278.543025104567
 30
0.0
 40
0.4330711762703498
100
AcDbArc
 50
6.842686290946932
 51
27.0356917894059
  0
ARC
  5
4006
330
1F
100
AcDbEntity
  8
PIC01
  6
Continuous
 62
     7
100
AcDbCircle
 10
1433.603634147145
 20
1278.543025104567
 30
0.0
 40
0.1181103208010057
100
AcDbArc
 50
6.842686290946932
 51
90.0
  0
LINE
  5
4007
330
1F
100
AcDbEntity
  8
PIC01
  6
Continuous
 62
     7
100
AcDbLine
 10
1433.793235745183
 20
1277.95431800239
 30
0.0
 11
1433.720903170452
 21
1278.557097206482
 31
0.0
  0
ARC
  5
4008
330
1F
100
AcDbEntity
  8
PIC01
  6
Continuous
 62
     7
100
AcDbCircle
 10
1434.105953140669
 20
1277.991843607496
 30
0.0
 40
0.3149608554693443
100
AcDbArc
 50
186.8426862909469
 51
270.0
  0
LINE
  5
4009
330
1F
100
AcDbEntity
  8
PIC01
  6
CENTER
 62
     7
100
AcDbLine
 10
1435.007617855707
 20
1277.433546793819
 30
0.0
 11
1435.007617855707
 21
1279.252055132904
 31
0.0
  0
LINE
  5
400A
330
1F
100
AcDbEntity
  8
PIC01
  6
Continuous
 62
     7
100
AcDbLine
 10
1431.16001061487
 20
1278.661135425368
 30
0.0
 11
1433.603634147145
 21
1278.661135425368
 31
0.0
  0
ARC
  5
400B
330
1F
100
AcDbEntity
  8
PIC01
  6
Continuous
 62
     7
100
AcDbCircle
 10
1437.950051254219
 20
1278.385544676832
 30
0.0
 40
0.6299217109386918
100
AcDbArc
 50
181.9091524329669
 51
270.0
  0
LINE
  5
400C
330
1F
100
AcDbEntity
  8
PIC01
  6
Continuous
 62
     7
100
AcDbLine
 10
1436.899315426681
 20
1278.739875639235
 30
0.0
 11
1433.98938083957
 21
1278.739875639235
 31
0.0
  0
LINE
  5
400D
330
1F
100
AcDbEntity
  8
PIC01
  6
Continuous
 62
     7
100
AcDbLine
 10
1437.320479208426
 20
1278.364558941972
 30
0.0
 11
1437.303087823481
 21
1278.886300490314
 31
0.0
  0
LINE
  5
400E
330
1F
100
AcDbEntity
  8
PIC01
  6
Continuous
 62
     7
100
AcDbLine
 10
1438.055382045065
 20
1274.802864945868
 30
0.0
 11
1438.275335875196
 21
1274.802864945868
 31
0.0
  0
ARC
  5
400F
330
1F
100
AcDbEntity
  8
PIC01
  6
Continuous
 62
     7
100
AcDbCircle
 10
1438.275335875196
 20
1275.235936122139
 30
0.0
 40
0.433071176270409
100
AcDbArc
 50
270.0
 51
305.588705472765
  0
CIRCLE
  5
4010
330
1F
100
AcDbEntity
  8
PIC01
  6
Continuous
 62
     7
100
AcDbCircle
 10
1449.417076969162
 20
1292.508257145712
 30
0.0
 40
0.4921263366708532
  0
LINE
  5
4011
330
1F
100
AcDbEntity
  8
PIC01
  6
CENTER
 62
     7
100
AcDbLine
 10
1449.417076969162
 20
1293.768100567589
 30
0.0
 11
1449.417076969162
 21
1291.248413723834
 31
0.0
  0
LINE
  5
4012
330
1F
100
AcDbEntity
  8
PIC01
  6
Continuous
 62
     7
100
AcDbLine
 10
1448.924949800753
 20
1272.870403267865
 30
0.0
 11
1448.924949800753
 21
1273.264104337202
 31
0.0
  0
LINE
  5
4013
330
1F
100
AcDbEntity
  8
PIC01
  6
Continuous
 62
     7
100
AcDbLine
 10
1449.909202474095
 20
1272.870403267865
 30
0.0
 11
1449.909202474095
 21
1273.264104337202
 31
0.0
  0
LINE
  5
4014
330
1F
100
AcDbEntity
  8
PIC01
  6
Continuous
 62
     7
100
AcDbLine
 10
1449.417076969162
 20
1293.610620139854
 30
0.0
 11
1450.401329642504
 21
1293.610620139854
 31
0.0
  0
ARC
  5
4015
330
1F
100
AcDbEntity
  8
PIC01
  6
Continuous
 62
     7
100
AcDbCircle
 10
1449.417076969162
 20
1292.508257145712
 30
0.0
 40
1.102362994142711
100
AcDbArc
 50
90.0
 51
270.0
  0
ARC
  5
4016
330
1F
100
AcDbEntity
  8
PIC01
  6
Continuous
 62
     7
100
AcDbCircle
 10
1450.401329642504
 20
1294.004321209191
 30
0.0
 40
0.3937010693366825
100
AcDbArc
 50
270.0
 51
0.0
  0
LINE
  5
4017
330
1F
100
AcDbEntity
  8
PIC01
  6
Continuous
 62
     7
100
AcDbLine
 10
1449.417076969162
 20
1291.405894151569
 30
0.0
 11
1450.401329642504
 21
1291.405894151569
 31
0.0
  0
ARC
  5
4018
330
1F
100
AcDbEntity
  8
PIC01
  6
Continuous
 62
     7
100
AcDbCircle
 10
1450.401329642504
 20
1291.012193082232
 30
0.0
 40
0.3937010693366825
100
AcDbArc
 50
0.0
 51
90.0
  0
CIRCLE
  5
401A
330
1F
100
AcDbEntity
  8
PIC01
  6
Continuous
 62
     7
100
AcDbCircle
 10
1441.543055582429
 20
1292.508257145712
 30
0.0
 40
1.259843421877384
  0
CIRCLE
  5
401B
330
1F
100
AcDbEntity
  8
PIC01
  6
Continuous
 62
     7
100
AcDbCircle
 10
1441.543055582429
 20
1292.508257145712
 30
0.0
 40
0.8661423525407016
  0
LINE
  5
401C
330
1F
100
AcDbEntity
  8
PIC01
  6
CENTER
 62
     7
100
AcDbLine
 10
1441.543055582429
 20
1291.130303403033
 30
0.0
 11
1441.543055582429
 21
1293.88621088839
 31
0.0
  0
ARC
  5
401D
330
1F
100
AcDbEntity
  8
PIC01
  6
Continuous
 62
     7
100
AcDbCircle
 10
1453.019441522595
 20
1263.16899834697
 30
0.0
 40
0.0590551604005024
100
AcDbArc
 50
180.0
 51
270.0
  0
ARC
  5
401E
330
1F
100
AcDbEntity
  8
PIC01
  6
Continuous
 62
     7
100
AcDbCircle
 10
1452.901331201793
 20
1263.16899834697
 30
0.0
 40
0.0590551604005024
100
AcDbArc
 50
0.0
 51
90.0
  0
LINE
  5
401F
330
1F
100
AcDbEntity
  8
PIC01
  6
CENTER
 62
     7
100
AcDbLine
 10
1449.417076137424
 20
1272.301441250456
 30
0.0
 11
1449.417076137424
 21
1273.32674460801
 31
0.0
  0
LINE
  5
4020
330
1F
100
AcDbEntity
  8
PIC01
  6
Continuous
 62
     7
100
AcDbLine
 10
1433.275333150626
 20
1278.661135425368
 30
0.0
 11
1433.275333150626
 21
1279.054836494705
 31
0.0
  0
LINE
  5
4021
330
1F
100
AcDbEntity
  8
PIC01
  6
Continuous
 62
     7
100
AcDbLine
 10
1432.172970156483
 20
1278.661135425368
 30
0.0
 11
1432.172970156483
 21
1279.054836494705
 31
0.0
  0
LINE
  5
4022
330
1F
100
AcDbEntity
  8
PIC01
  6
CENTER
 62
     7
100
AcDbLine
 10
1432.724151653555
 20
1278.557907516165
 30
0.0
 11
1432.724151653555
 21
1279.197064718712
 31
0.0
  0
LINE
  5
4023
330
1F
100
AcDbEntity
  8
PIC01
  6
Continuous
 62
     7
100
AcDbLine
 10
1442.783513028484
 20
1271.897112215249
 30
0.0
 11
1442.710647317036
 21
1271.824246503801
 31
0.0
  0
ARC
  5
4024
330
1F
100
AcDbEntity
  8
PIC01
  6
Continuous
 62
     7
100
AcDbCircle
 10
1442.487936360326
 20
1272.046957460512
 30
0.0
 40
0.3149608554693461
100
AcDbArc
 50
270.0
 51
315.0
  0
ARC
  5
4025
330
1F
100
AcDbEntity
  8
PIC01
  6
Continuous
 62
     7
100
AcDbCircle
 10
1440.408896245438
 20
1270.590263503966
 30
0.0
 40
0.2362206416020081
100
AcDbArc
 50
188.2547414773686
 51
270.0
  0
LINE
  5
4027
330
1F
100
AcDbEntity
  8
PIC01
  6
Continuous
 62
     7
100
AcDbLine
 10
1440.175122965718
 20
1270.556348238853
 30
0.0
 11
1440.163207805565
 21
1270.63847780671
 31
0.0
  0
LINE
  5
4028
330
1F
100
AcDbEntity
  8
PIC01
  6
Continuous
 62
     7
100
AcDbLine
 10
1439.771399938675
 20
1272.361918315981
 30
0.0
 11
1440.283212285585
 21
1272.361918315981
 31
0.0
  0
LINE
  5
4034
330
1F
100
AcDbEntity
  8
PIC01
  6
CENTER
 62
     7
100
AcDbLine
 10
1441.543054949203
 20
1263.109942123263
 30
0.0
 11
1441.543054949203
 21
1278.070583884445
 31
0.0
  0
LINE
  5
4035
330
1F
100
AcDbEntity
  8
PIC01
  6
Continuous
 62
     7
100
AcDbLine
 10
1456.739225796671
 20
1274.724124732001
 30
0.0
 11
1456.785350750269
 21
1274.724124732001
 31
0.0
  0
ARC
  5
4036
330
1F
100
AcDbEntity
  8
PIC01
  6
Continuous
 62
     7
100
AcDbCircle
 10
1456.785350750269
 20
1274.960345373603
 30
0.0
 40
0.2362206416020077
100
AcDbArc
 50
270.0
 51
358.5101207031869
  0
LINE
  5
4037
330
1F
100
AcDbEntity
  8
PIC01
  6
Continuous
 62
     7
100
AcDbLine
 10
1433.472345296118
 20
1263.234234923952
 30
0.0
 11
1433.883481895009
 21
1271.07918856472
 31
0.0
  0
ARC
  5
4038
330
1F
100
AcDbEntity
  8
PIC01
  6
Continuous
 62
     7
100
AcDbCircle
 10
1433.590293750829
 20
1263.22805350737
 30
0.0
 40
0.1181103208010048
100
AcDbArc
 50
177.0000000000263
 51
270.0
  0
LINE
  5
4039
330
1F
100
AcDbEntity
  8
PIC01
  6
Continuous
 62
     7
100
AcDbLine
 10
1438.840855623434
 20
1275.511527171045
 30
0.0
 11
1456.543066093158
 21
1275.511527171045
 31
0.0
  0
LINE
  5
403A
330
1F
100
AcDbEntity
  8
PIC01
  6
Continuous
 62
     7
100
AcDbLine
 10
1439.968250473343
 20
1277.676882566212
 30
0.0
 11
1454.535189438061
 21
1277.676882566212
 31
0.0
  0
LINE
  5
403B
330
1F
100
AcDbEntity
  8
PIC01
  6
Continuous
 62
     7
100
AcDbLine
 10
1440.016647501083
 20
1276.889480720628
 30
0.0
 11
1454.535189438061
 21
1276.889480720628
 31
0.0
  0
LINE
  5
403C
330
1F
100
AcDbEntity
  8
PIC01
  6
Continuous
 62
     7
100
AcDbLine
 10
1439.574549404007
 20
1275.708377405343
 30
0.0
 11
1455.834404168352
 21
1275.708377405343
 31
0.0
  0
LINE
  5
403D
330
1F
100
AcDbEntity
  8
PIC01
  6
Continuous
 62
     7
100
AcDbLine
 10
1439.448748676532
 20
1275.676927271463
 30
0.0
 11
1438.846790199641
 21
1275.52643788187
 31
0.0
  0
LINE
  5
403E
330
1F
100
AcDbEntity
  8
PIC01
  6
Continuous
 62
     7
100
AcDbLine
 10
1439.615555417231
 20
1275.831395456188
 30
0.0
 11
1439.948047036304
 21
1276.828870404003
 31
0.0
  0
ARC
  5
403F
330
1F
100
AcDbEntity
  8
PIC01
  6
Continuous
 62
     7
100
AcDbCircle
 10
1439.574549404007
 20
1276.95336960346
 30
0.0
 40
0.3937010693366825
100
AcDbArc
 50
341.565052738216
 51
0.0
  0
ARC
  5
4040
330
1F
100
AcDbEntity
  8
PIC01
  6
Continuous
 62
     7
100
AcDbCircle
 10
1438.865887479201
 20
1275.45004864707
 30
0.0
 40
0.0787402138673355
100
AcDbArc
 50
104.0362228970258
 51
180.0
  0
ARC
  5
4041
330
1F
100
AcDbEntity
  8
PIC01
  6
Continuous
 62
     7
100
AcDbCircle
 10
1439.391456837853
 20
1275.906094975862
 30
0.0
 40
0.2362206416020088
100
AcDbArc
 50
284.0362228970258
 51
341.565052738216
  0
LINE
  5
4042
330
1F
100
AcDbEntity
  8
PIC01
  6
Continuous
 62
     7
100
AcDbLine
 10
1439.330425982468
 20
1275.972000832702
 30
0.0
 11
1439.653289617874
 21
1276.940591826894
 31
0.0
  0
LINE
  5
4043
330
1F
100
AcDbEntity
  8
PIC01
  6
Continuous
 62
     7
100
AcDbLine
 10
1439.330425982468
 20
1275.972000832702
 30
0.0
 11
1438.681252166602
 21
1275.809707626376
 31
0.0
  0
LINE
  5
4044
330
1F
100
AcDbEntity
  8
PIC01
  6
Continuous
 62
     7
100
AcDbLine
 10
1455.690189343505
 20
1276.429451529575
 30
0.0
 11
1455.637553633684
 21
1276.692630078685
 31
0.0
  0
LINE
  5
4045
330
1F
100
AcDbEntity
  8
PIC01
  6
Continuous
 62
     7
100
AcDbLine
 10
1455.373342608715
 20
1276.739810593146
 30
0.0
 11
1455.637553633684
 21
1276.692630078685
 31
0.0
  0
ARC
  5
4047
330
1F
100
AcDbEntity
  8
PIC01
  6
Continuous
 62
     7
100
AcDbCircle
 10
1455.007630721265
 20
1277.321174942749
 30
0.0
 40
0.4724412832040191
100
AcDbArc
 50
104.8753179761241
 51
180.0
  0
ARC
  5
4048
330
1F
100
AcDbEntity
  8
PIC01
  6
Continuous
 62
     7
100
AcDbCircle
 10
1454.928890507397
 20
1277.219105922263
 30
0.0
 40
0.3937010693366825
100
AcDbArc
 50
180.0
 51
259.8753337479177
  0
LINE
  5
4049
330
1F
100
AcDbEntity
  8
PIC01
  6
Continuous
 62
     7
100
AcDbLine
 10
1454.535189438061
 20
1277.219105922263
 30
0.0
 11
1454.535189438061
 21
1277.321174942749
 31
0.0
  0
ARC
  5
404A
330
1F
100
AcDbEntity
  8
PIC01
  6
Continuous
 62
     7
100
AcDbCircle
 10
1455.007630721265
 20
1277.321174942749
 30
0.0
 40
0.157480427734673
100
AcDbArc
 50
104.8753179761241
 51
180.0
  0
LINE
  5
404B
330
1F
100
AcDbEntity
  8
PIC01
  6
Continuous
 62
     7
100
AcDbLine
 10
1454.85015089427
 20
1277.219105814988
 30
0.0
 11
1454.85015029353
 21
1277.321174942749
 31
0.0
  0
LINE
  5
404D
330
1F
100
AcDbEntity
  8
PIC01
  6
Continuous
 62
     7
100
AcDbLine
 10
1438.915624497709
 20
1274.645384518134
 30
0.0
 11
1438.58806721541
 21
1274.645384518134
 31
0.0
  0
LINE
  5
404E
330
1F
100
AcDbEntity
  8
PIC01
  6
Continuous
 62
     7
100
AcDbLine
 10
1455.590700152091
 20
1274.133573127996
 30
0.0
 11
1439.115012872405
 21
1274.133573127996
 31
0.0
  0
LINE
  5
404F
330
1F
100
AcDbEntity
  8
PIC01
  6
Continuous
 62
     7
100
AcDbLine
 10
1439.072863506886
 20
1274.133573127996
 30
0.0
 11
1438.741940358405
 21
1274.133573127996
 31
0.0
  0
ARC
  5
4050
330
1F
100
AcDbEntity
  8
PIC01
  6
Continuous
 62
     7
100
AcDbCircle
 10
1437.684784871931
 20
1265.438616932284
 30
0.0
 40
0.1181103208010048
100
AcDbArc
 50
0.0
 51
90.0
  0
ARC
  5
4051
330
1F
100
AcDbEntity
  8
PIC01
  6
Continuous
 62
     7
100
AcDbCircle
 10
1433.961617376907
 20
1263.543014362839
 30
0.0
 40
0.4724412832040191
100
AcDbArc
 50
90.0
 51
177.0000000000263
  0
ARC
  5
4052
330
1F
100
AcDbEntity
  8
PIC01
  6
Continuous
 62
     7
100
AcDbCircle
 10
1433.965743976656
 20
1263.621754576707
 30
0.0
 40
0.4724412832040191
100
AcDbArc
 50
90.0
 51
177.0000000000263
  0
ARC
  5
4053
330
1F
100
AcDbEntity
  8
PIC01
  6
DASHED
 62
     7
100
AcDbCircle
 10
1446.739909989828
 20
1287.016127134918
 30
0.0
 40
12.5196940049065
100
AcDbArc
 50
90.0
 51
108.8049248169116
  0
ARC
  5
4054
330
1F
100
AcDbEntity
  8
PIC01
  6
DASHED
 62
     7
100
AcDbCircle
 10
1445.090101007734
 20
1291.861044082614
 30
0.0
 40
7.401580103529632
100
AcDbArc
 50
108.8049248169116
 51
130.9335120699284
  0
ARC
  5
4059
330
1F
100
AcDbEntity
  8
PIC01
  6
Continuous
 62
     7
100
AcDbCircle
 10
1457.210946895515
 20
1269.026125174212
 30
0.0
 40
9.05512459474521
100
AcDbArc
 50
104.8753179761241
 51
107.1873109569515
  0
LINE
  5
405A
330
1F
100
AcDbEntity
  8
PIC01
  6
Continuous
 62
     7
100
AcDbLine
 10
1454.535189438061
 20
1277.321174942749
 30
0.0
 11
1454.535189438061
 21
1277.676882566212
 31
0.0
  0
LINE
  5
405B
330
1F
100
AcDbEntity
  8
PIC01
  6
Continuous
 62
     7
100
AcDbLine
 10
1454.859681581597
 20
1276.831535726574
 30
0.0
 11
1454.535189438061
 21
1276.889480720628
 31
0.0
  0
LINE
  5
405C
330
1F
100
AcDbEntity
  8
PIC01
  6
Continuous
 62
     7
100
AcDbLine
 10
1454.535189438061
 20
1277.219105922263
 30
0.0
 11
1454.535189438061
 21
1276.889480720628
 31
0.0
  0
LINE
  5
4061
330
1F
100
AcDbEntity
  8
PIC01
  6
DASHED
 62
     7
100
AcDbLine
 10
1434.290909654149
 20
1288.790931649035
 30
0.0
 11
1439.316696479265
 21
1288.790931649035
 31
0.0
  0
ARC
  5
4062
330
1F
100
AcDbEntity
  8
PIC01
  6
DASHED
 62
     7
100
AcDbCircle
 10
1434.290909654149
 20
1288.987782183703
 30
0.0
 40
0.1968505346683413
100
AcDbArc
 50
180.0
 51
270.0
  0
ARC
  5
4063
330
1F
100
AcDbEntity
  8
PIC01
  6
DASHED
 62
     7
100
AcDbCircle
 10
1445.090101007734
 20
1293.155470208809
 30
0.0
 40
7.401580103529632
100
AcDbArc
 50
229.0664857550567
 51
251.1950751830884
  0
ARC
  5
4064
330
1F
100
AcDbEntity
  8
PIC01
  6
DASHED
 62
     7
100
AcDbCircle
 10
1446.739909989828
 20
1298.000387156505
 30
0.0
 40
12.5196940049065
100
AcDbArc
 50
251.1950751830884
 51
270.0
  0
ARC
  5
406A
330
1F
100
AcDbEntity
  8
PIC01
  6
Continuous
 62
     7
100
AcDbCircle
 10
1446.739909989828
 20
1298.000387156505
 30
0.0
 40
12.4015836841055
100
AcDbArc
 50
244.1011952414462
 51
270.0
  0
ARC
  5
406B
330
1F
100
AcDbEntity
  8
PIC01
  6
Continuous
 62
     7
100
AcDbCircle
 10
1443.70841206452
 20
1292.508257145712
 30
0.0
 40
6.102366574718579
100
AcDbArc
 50
127.926546526653
 51
232.073453473347
  0
ARC
  5
406C
330
1F
100
AcDbEntity
  8
PIC01
  6
Continuous
 62
     7
100
AcDbCircle
 10
1446.739909989828
 20
1287.016127134918
 30
0.0
 40
12.4015836841055
100
AcDbArc
 50
90.0
 51
115.8988047585538
  0
ARC
  5
406D
330
1F
100
AcDbEntity
  8
PIC01
  6
Continuous
 62
     7
100
AcDbCircle
 10
1444.676366672614
 20
1291.266052497266
 30
0.0
 40
7.677170852065309
100
AcDbArc
 50
115.8988047585538
 51
127.926546526653
  0
ARC
  5
406E
330
1F
100
AcDbEntity
  8
PIC01
  6
Continuous
 62
     7
100
AcDbCircle
 10
1444.676366672614
 20
1293.750461794157
 30
0.0
 40
7.677170852065309
100
AcDbArc
 50
232.073453473347
 51
244.1011952414462
  0
ARC
  5
406F
330
1F
100
AcDbEntity
  8
PIC01
  6
Continuous
 62
     7
100
AcDbCircle
 10
1437.339486603607
 20
1278.976096280837
 30
0.0
 40
0.2755907485356779
100
AcDbArc
 50
1.909152432966979
 51
138.1896851042358
  0
ARC
  5
4070
330
1F
100
AcDbEntity
  8
PIC01
  6
Continuous
 62
     7
100
AcDbCircle
 10
1437.240563775943
 20
1269.042358450364
 30
0.0
 40
9.0551245947437
100
AcDbArc
 50
74.76569398361014
 51
85.65750148073895
  0
ARC
  5
4071
330
1F
100
AcDbEntity
  8
PIC01
  6
Continuous
 62
     7
100
AcDbCircle
 10
1439.495809190139
 20
1277.3234405625
 30
0.0
 40
0.4724412832040191
100
AcDbArc
 50
0.0
 51
74.76569398361014
  0
ARC
  5
4072
330
1F
100
AcDbEntity
  8
PIC01
  6
Continuous
 62
     7
100
AcDbCircle
 10
1437.240563775943
 20
1269.042358450364
 30
0.0
 40
8.740163739274354
100
AcDbArc
 50
74.76569398361014
 51
85.65750148073895
  0
LINE
  5
4073
330
1F
100
AcDbEntity
  8
PIC01
  6
Continuous
 62
     7
100
AcDbLine
 10
1439.653289617874
 20
1276.940591826894
 30
0.0
 11
1439.653289617874
 21
1277.3234405625
 31
0.0
  0
ARC
  5
4074
330
1F
100
AcDbEntity
  8
PIC01
  6
Continuous
 62
     7
100
AcDbCircle
 10
1439.495809190139
 20
1277.3234405625
 30
0.0
 40
0.157480427734673
100
AcDbArc
 50
0.0
 51
74.76569398361014
  0
ARC
  5
4075
330
1F
100
AcDbEntity
  8
PIC01
  6
Continuous
 62
     7
100
AcDbCircle
 10
1431.105550012384
 20
1275.708377405343
 30
0.0
 40
0.1968505346683408
100
AcDbArc
 50
181.3031311142822
 51
270.0
  0
ARC
  5
4076
330
1F
100
AcDbEntity
  8
PIC01
  6
Continuous
 62
     7
100
AcDbCircle
 10
1454.045711891126
 20
1279.01360001906
 30
0.0
 40
15.74804277346729
100
AcDbArc
 50
194.3226159267369
 51
201.6938368125771
  0
ARC
  5
4077
330
1F
100
AcDbEntity
  8
PIC01
  6
Continuous
 62
     7
100
AcDbCircle
 10
1440.876330725836
 20
1273.774507617582
 30
0.0
 40
1.574804277346729
100
AcDbArc
 50
201.6938368125771
 51
246.9208855598854
  0
ARC
  5
4078
330
1F
100
AcDbEntity
  8
PIC01
  6
Continuous
 62
     7
100
AcDbCircle
 10
1454.045711891126
 20
1279.01360001906
 30
0.0
 40
16.85040576761001
100
AcDbArc
 50
193.7082409848551
 51
202.5839895702437
  0
ARC
  5
4079
330
1F
100
AcDbEntity
  8
PIC01
  6
Continuous
 62
     7
100
AcDbCircle
 10
1441.759036262372
 20
1273.903178337022
 30
0.0
 40
3.543309624030142
100
AcDbArc
 50
202.5839895702437
 51
241.3699610627096
  0
ARC
  5
407A
330
1F
100
AcDbEntity
  8
PIC01
  6
Continuous
 62
     7
100
AcDbCircle
 10
1454.045711891126
 20
1279.01360001906
 30
0.0
 40
16.53544491214066
100
AcDbArc
 50
194.7527897672514
 51
202.5839895702437
  0
ARC
  5
407B
330
1F
100
AcDbEntity
  8
PIC01
  6
Continuous
 62
     7
100
AcDbCircle
 10
1441.759036262372
 20
1273.903178337022
 30
0.0
 40
3.228348768560798
100
AcDbArc
 50
202.5839895702437
 51
241.3699610627096
  0
ARC
  5
407C
330
1F
100
AcDbEntity
  8
PIC01
  6
Continuous
 62
     7
100
AcDbCircle
 10
1440.876330725836
 20
1273.774507617582
 30
0.0
 40
1.889765132816076
100
AcDbArc
 50
201.6938368125771
 51
247.1254622241225
  0
ARC
  5
407D
330
1F
100
AcDbEntity
  8
PIC01
  6
Continuous
 62
     7
100
AcDbCircle
 10
1454.045711891126
 20
1279.01360001906
 30
0.0
 40
16.06300362893664
100
AcDbArc
 50
194.9085191499858
 51
201.6938368125771
  0
LINE
  5
407E
330
1F
100
AcDbEntity
  8
PIC01
  6
Continuous
 62
     7
100
AcDbLine
 10
1453.179981352677
 20
1264.378099434006
 30
0.0
 11
1452.64871930835
 21
1264.64373045617
 31
0.0
  0
LINE
  5
407F
330
1F
100
AcDbEntity
  8
PIC01
  6
Continuous
 62
     7
100
AcDbLine
 10
1452.519497379525
 20
1264.763393986137
 30
0.0
 11
1452.015806710815
 21
1265.602878433987
 31
0.0
  0
ARC
  5
4080
330
1F
100
AcDbEntity
  8
PIC01
  6
Continuous
 62
     7
100
AcDbCircle
 10
1452.285883416256
 20
1265.764924457252
 30
0.0
 40
0.3149608554693452
100
AcDbArc
 50
183.4500043014061
 51
210.9637565320546
  0
ARC
  5
4081
330
1F
100
AcDbEntity
  8
PIC01
  6
Continuous
 62
     7
100
AcDbCircle
 10
1453.039126576061
 20
1264.096389880773
 30
0.0
 40
0.3149608554693475
100
AcDbArc
 50
0.0
 51
63.43494882287268
  0
ARC
  5
4082
330
1F
100
AcDbEntity
  8
PIC01
  6
Continuous
 62
     7
100
AcDbCircle
 10
1452.789574084966
 20
1264.925440009402
 30
0.0
 40
0.3149608554693475
100
AcDbArc
 50
210.9637565320546
 51
243.4349488228727
  0
LINE
  5
4083
330
1F
100
AcDbEntity
  8
PIC01
  6
Continuous
 62
     7
100
AcDbLine
 10
1452.249420674083
 20
1264.601347962872
 30
0.0
 11
1451.929467610149
 21
1265.134603069429
 31
0.0
  0
LINE
  5
4084
330
1F
100
AcDbEntity
  8
PIC01
  6
Continuous
 62
     7
100
AcDbLine
 10
1453.039126576061
 20
1264.096389880773
 30
0.0
 11
1452.507864531734
 21
1264.362020902937
 31
0.0
  0
ARC
  5
4085
330
1F
100
AcDbEntity
  8
PIC01
  6
Continuous
 62
     7
100
AcDbCircle
 10
1452.789574084966
 20
1264.925440009402
 30
0.0
 40
0.6299217109386936
100
AcDbArc
 50
210.9637565320546
 51
243.4349488228727
  0
ARC
  5
4086
330
1F
100
AcDbEntity
  8
PIC01
  6
Continuous
 62
     7
100
AcDbCircle
 10
1453.23597711073
 20
1263.22805350737
 30
0.0
 40
0.1181103208010048
100
AcDbArc
 50
270.0
 51
0.0
  0
ARC
  5
408B
330
1F
100
AcDbEntity
  8
PIC01
  6
Continuous
 62
     7
100
AcDbCircle
 10
1439.966930669468
 20
1270.620320503274
 30
0.0
 40
0.1968505346683421
100
AcDbArc
 50
8.254741477368677
 51
61.36996106270957
  0
ARC
  5
408C
330
1F
100
AcDbEntity
  8
PIC01
  6
Continuous
 62
     7
100
AcDbCircle
 10
1439.966930669468
 20
1270.620320503274
 30
0.0
 40
0.5118113901376874
100
AcDbArc
 50
5.458194547400231
 51
61.36996106270957
  0
LINE
  5
408E
330
1F
100
AcDbEntity
  8
PIC01
  6
Continuous
 62
     7
100
AcDbLine
 10
1442.676708899186
 20
1270.354042862364
 30
0.0
 11
1442.881636598112
 21
1270.354042862364
 31
0.0
  0
LINE
  5
408F
330
1F
100
AcDbEntity
  8
PIC01
  6
Continuous
 62
     7
100
AcDbLine
 10
1440.408896245438
 20
1270.354042862364
 30
0.0
 11
1440.204472943122
 21
1270.354042862364
 31
0.0
  0
LINE
  5
4090
330
1F
100
AcDbEntity
  8
PIC01
  6
Continuous
 62
     7
100
AcDbLine
 10
1440.175122965718
 20
1270.556348238853
 30
0.0
 11
1440.204472943122
 21
1270.354042862364
 31
0.0
  0
LINE
  5
4091
330
1F
100
AcDbEntity
  8
PIC01
  6
Continuous
 62
     7
100
AcDbLine
 10
1437.9997457274
 20
1263.22805350737
 30
0.0
 11
1437.9997457274
 21
1263.985840786223
 31
0.0
  0
LINE
  5
4092
330
1F
100
AcDbEntity
  8
PIC01
  6
Continuous
 62
     7
100
AcDbLine
 10
1437.802895192732
 20
1263.22805350737
 30
0.0
 11
1437.802895192732
 21
1263.936715432176
 31
0.0
  0
ARC
  5
4093
330
1F
100
AcDbEntity
  8
PIC01
  6
Continuous
 62
     7
100
AcDbCircle
 10
1437.684784871931
 20
1263.22805350737
 30
0.0
 40
0.1181103208010048
100
AcDbArc
 50
270.0
 51
0.0
  0
ARC
  5
4094
330
1F
100
AcDbEntity
  8
PIC01
  6
Continuous
 62
     7
100
AcDbCircle
 10
1437.881635406599
 20
1263.22805350737
 30
0.0
 40
0.1181103208010048
100
AcDbArc
 50
270.0
 51
0.0
  0
LINE
  5
40C2
330
1F
100
AcDbEntity
  8
PIC01
  6
Continuous
 62
     7
100
AcDbLine
 10
1437.950051254219
 20
1278.070583821363
 30
0.0
 11
1437.645414164257
 21
1278.070583821363
 31
0.0
  0
LINE
  5
40C3
330
1F
100
AcDbEntity
  8
PIC01
  6
Continuous
 62
     7
100
AcDbLine
 10
1437.635265231322
 20
1278.375051809402
 30
0.0
 11
1437.645414164257
 21
1278.070583821363
 31
0.0
  0
LINE
  5
40C4
330
1F
100
AcDbEntity
  8
PIC01
  6
Continuous
 62
     7
100
AcDbLine
 10
1437.614924373641
 20
1278.985277539838
 30
0.0
 11
1437.606044057323
 21
1279.251687029373
 31
0.0
  0
LINE
  5
40C5
330
1F
100
AcDbEntity
  8
PIC01
  6
Continuous
 62
     7
100
AcDbLine
 10
1437.339486603607
 20
1279.251687029373
 30
0.0
 11
1437.606044057323
 21
1279.251687029373
 31
0.0
  0
ARC
  5
40C7
330
1F
100
AcDbEntity
  8
PIC01
  6
DASHED
 62
     7
100
AcDbCircle
 10
1450.598179888784
 20
1292.508257145712
 30
0.0
 40
11.81103208010047
100
AcDbArc
 50
171.2513296720071
 51
188.7486703279929
  0
ARC
  5
40C8
330
1F
100
AcDbEntity
  8
PIC01
  6
DASHED
 62
     7
100
AcDbCircle
 10
1443.594013168295
 20
1291.430379175543
 30
0.0
 40
4.724412832040188
100
AcDbArc
 50
188.7486703279929
 51
229.0664857550567
  0
ARC
  5
40C9
330
1F
100
AcDbEntity
  8
PIC01
  6
DASHED
 62
     7
100
AcDbCircle
 10
1450.598179888784
 20
1292.508257145712
 30
0.0
 40
12.20473314943715
100
AcDbArc
 50
171.2513296720071
 51
188.7486703279929
  0
ARC
  5
40CA
330
1F
100
AcDbEntity
  8
PIC01
  6
DASHED
 62
     7
100
AcDbCircle
 10
1443.594013168295
 20
1291.430379175543
 30
0.0
 40
5.11811390137687
100
AcDbArc
 50
188.7486703279929
 51
229.0664857550567
  0
ARC
  5
40CB
330
1F
100
AcDbEntity
  8
PIC01
  6
DASHED
 62
     7
100
AcDbCircle
 10
1443.594013168295
 20
1293.586135115881
 30
0.0
 40
5.118113901376873
100
AcDbArc
 50
130.9335142449432
 51
171.2513296720071
  0
ARC
  5
40CC
330
1F
100
AcDbEntity
  8
PIC01
  6
DASHED
 62
     7
100
AcDbCircle
 10
1450.598179888784
 20
1292.508257145712
 30
0.0
 40
12.4015836841055
100
AcDbArc
 50
171.2513296720071
 51
188.7486703279929
  0
ARC
  5
40CD
330
1F
100
AcDbEntity
  8
PIC01
  6
DASHED
 62
     7
100
AcDbCircle
 10
1443.594013168295
 20
1291.430379175543
 30
0.0
 40
5.314964436045211
100
AcDbArc
 50
188.7486703279929
 51
227.8880274170818
  0
ARC
  5
40CE
330
1F
100
AcDbEntity
  8
PIC01
  6
DASHED
 62
     7
100
AcDbCircle
 10
1443.594013168295
 20
1291.430379175543
 30
0.0
 40
5.000003580575866
100
AcDbArc
 50
189.6050558821645
 51
229.0664857550567
  0
ARC
  5
40CF
330
1F
100
AcDbEntity
  8
PIC01
  6
DASHED
 62
     7
100
AcDbCircle
 10
1443.594013168295
 20
1293.586135115881
 30
0.0
 40
5.000003580575869
100
AcDbArc
 50
130.9335142449432
 51
170.3949441178355
  0
ARC
  5
40D0
330
1F
100
AcDbEntity
  8
PIC01
  6
DASHED
 62
     7
100
AcDbCircle
 10
1437.575300710584
 20
1294.594872813116
 30
0.0
 40
0.7874021386733651
100
AcDbArc
 50
270.0
 51
350.8970471573714
  0
ARC
  5
40D1
330
1F
100
AcDbEntity
  8
PIC01
  6
DASHED
 62
     7
100
AcDbCircle
 10
1437.575300710584
 20
1290.421641478307
 30
0.0
 40
0.7874021386733651
100
AcDbArc
 50
9.102952842628614
 51
90.0
  0
ARC
  5
40D2
330
1F
100
AcDbEntity
  8
PIC01
  6
DASHED
 62
     7
100
AcDbCircle
 10
1437.575300710584
 20
1294.594872813116
 30
0.0
 40
1.102362994142711
100
AcDbArc
 50
270.0
 51
350.8970471573714
  0
ARC
  5
40D3
330
1F
100
AcDbEntity
  8
PIC01
  6
DASHED
 62
     7
100
AcDbCircle
 10
1437.575300710584
 20
1290.421641478307
 30
0.0
 40
1.102362994142711
100
AcDbArc
 50
9.102952842628614
 51
90.0
  0
LINE
  5
40D5
330
1F
100
AcDbEntity
  8
PIC01
  6
DASHED
 62
     7
100
AcDbLine
 10
1431.36779193605
 20
1286.937387014598
 30
0.0
 11
1439.819910158639
 21
1286.937387014598
 31
0.0
  0
ARC
  5
40D6
330
1F
100
AcDbEntity
  8
PIC01
  6
DASHED
 62
     7
100
AcDbCircle
 10
1439.819910158639
 20
1287.252347870067
 30
0.0
 40
0.3149608554693461
100
AcDbArc
 50
270.0
 51
48.24215280392285
  0
ARC
  5
40D7
330
1F
100
AcDbEntity
  8
PIC01
  6
DASHED
 62
     7
100
AcDbCircle
 10
1439.819910158639
 20
1297.764166421356
 30
0.0
 40
0.3149608554693461
100
AcDbArc
 50
311.7578471960771
 51
90.0
  0
ARC
  5
40D8
330
1F
100
AcDbEntity
  8
PIC01
  6
DASHED
 62
     7
100
AcDbCircle
 10
1443.594013168295
 20
1293.586135115881
 30
0.0
 40
5.3149644360452
100
AcDbArc
 50
132.1119725829182
 51
171.2513296720071
  0
LINE
  5
40D9
330
1F
100
AcDbEntity
  8
PIC01
  6
DASHED
 62
     7
100
AcDbLine
 10
1431.36779193605
 20
1298.079127276826
 30
0.0
 11
1439.819910158639
 21
1298.079127276826
 31
0.0
  0
LINE
  5
40DF
330
1F
100
AcDbEntity
  8
PIC01
  6
Continuous
 62
     7
100
AcDbLine
 10
1455.97942866781
 20
1275.672121280479
 30
0.0
 11
1455.834404168352
 21
1275.708377405343
 31
0.0
  0
LINE
  5
40E0
330
1F
100
AcDbEntity
  8
PIC01
  6
Continuous
 62
     7
100
AcDbLine
 10
1455.805087192413
 20
1275.854962285037
 30
0.0
 11
1455.834404168352
 21
1275.708377405343
 31
0.0
  0
ARC
  5
40E1
330
1F
100
AcDbEntity
  8
PIC01
  6
Continuous
 62
     7
100
AcDbCircle
 10
1456.0674288191
 20
1275.747747812647
 30
0.0
 40
0.2362206416020117
100
AcDbArc
 50
191.3099324739986
 51
270.0
  0
ARC
  5
40E2
330
1F
100
AcDbEntity
  8
PIC01
  6
Continuous
 62
     7
100
AcDbCircle
 10
1456.543066093158
 20
1275.432786957177
 30
0.0
 40
0.0787402138673365
100
AcDbArc
 50
0.0
 51
90.0
  0
LINE
  5
40E3
330
1F
100
AcDbEntity
  8
PIC01
  6
Continuous
 62
     7
100
AcDbLine
 10
1456.131980353729
 20
1275.826488026514
 30
0.0
 11
1456.543066093158
 21
1275.826488026514
 31
0.0
  0
ARC
  5
40E4
330
1F
100
AcDbEntity
  8
PIC01
  6
Continuous
 62
     7
100
AcDbCircle
 10
1456.543066093158
 20
1275.432786957177
 30
0.0
 40
0.3937010693366825
100
AcDbArc
 50
61.99749541178474
 51
90.0
  0
ARC
  5
40F3
330
1F
100
AcDbEntity
  8
PIC01
  6
Continuous
 62
     7
100
AcDbCircle
 10
1454.045711891124
 20
1279.013600019059
 30
0.0
 40
15.74804277346531
100
AcDbArc
 50
201.6938368125771
 51
204.9850321893543
  0
ARC
  5
40F7
330
1F
100
AcDbEntity
  8
PIC01
  6
Continuous
 62
     7
100
AcDbCircle
 10
1437.240563775945
 20
1269.042358450372
 30
0.0
 40
9.055124594735412
100
AcDbArc
 50
72.46842883185357
 51
74.76569398361014
  0
LINE
  5
4102
330
1F
100
AcDbEntity
  8
PIC01
  6
Continuous
 62
     7
100
AcDbLine
 10
1439.615555417231
 20
1275.831395456188
 30
0.0
 11
1439.574549404007
 21
1275.708377405343
 31
0.0
  0
LINE
  5
4103
330
1F
100
AcDbEntity
  8
PIC01
  6
Continuous
 62
     7
100
AcDbLine
 10
1439.448748676532
 20
1275.676927271463
 30
0.0
 11
1439.574549404007
 21
1275.708377405343
 31
0.0
  0
LINE
  5
4110
330
1F
100
AcDbEntity
  8
PIC01
  6
DASHED
 62
     7
100
AcDbLine
 10
1433.86593875091
 20
1263.221872090789
 30
0.0
 11
1433.881029758663
 21
1263.509825672487
 31
0.0
  0
ARC
  5
4111
330
1F
100
AcDbEntity
  8
PIC01
  6
DASHED
 62
     7
100
AcDbCircle
 10
1433.998978213375
 20
1263.503644255905
 30
0.0
 40
0.1181103208010048
100
AcDbArc
 50
90.0
 51
177.0000000000263
  0
ARC
  5
4112
330
1F
100
AcDbEntity
  8
PIC01
  6
DASHED
 62
     7
100
AcDbCircle
 10
1433.747990296199
 20
1263.22805350737
 30
0.0
 40
0.1181103208010045
100
AcDbArc
 50
270.0
 51
357.0000000000263
  0
ARC
  5
4113
330
1F
100
AcDbEntity
  8
PIC01
  6
Continuous
 62
     7
100
AcDbCircle
 10
1437.724154978864
 20
1263.936715432176
 30
0.0
 40
0.0787402138673365
100
AcDbArc
 50
0.0
 51
90.0
  0
LINE
  5
4114
330
1F
100
AcDbEntity
  8
PIC01
  6
DASHED
 62
     7
100
AcDbLine
 10
1437.409194123395
 20
1263.188683400436
 30
0.0
 11
1437.409194123395
 21
1263.543014362839
 31
0.0
  0
ARC
  5
4115
330
1F
100
AcDbEntity
  8
PIC01
  6
DASHED
 62
     7
100
AcDbCircle
 10
1437.330453909528
 20
1263.543014362839
 30
0.0
 40
0.0787402138673365
100
AcDbArc
 50
0.0
 51
90.0
  0
ARC
  5
4116
330
1F
100
AcDbEntity
  8
PIC01
  6
DASHED
 62
     7
100
AcDbCircle
 10
1437.487934337262
 20
1263.188683400436
 30
0.0
 40
0.0787402138673365
100
AcDbArc
 50
180.0
 51
270.0
  0
LWPOLYLINE
  5
4118
330
1F
100
AcDbEntity
  8
PIC01
  6
Continuous
 62
     7
100
AcDbPolyline
 90
       15
 70
     0
 43
0.0
 10
1440.186600810616
 20
1287.418252856907
 10
1440.197211437204
 20
1287.494760101726
 10
1440.210412813366
 20
1287.552219252515
 10
1440.227216571919
 20
1287.595122578579
 10
1440.247489815039
 20
1287.622665943183
 10
1440.272290884761
 20
1287.636761686799
 10
1440.312199332805
 20
1287.644454882302
 10
1440.349687149679
 20
1287.65077651493
 10
1440.378210935072
 20
1287.66041572619
 10
1440.404233388876
 20
1287.675551137581
 10
1440.427982221005
 20
1287.69660259141
 10
1440.465403351475
 20
1287.746543196634
 10
1440.505501922499
 20
1287.819872400211
 10
1440.547750510748
 20
1287.915270766786
 10
1440.595426983168
 20
1288.040190544938
  0
LINE
  5
411C
330
1F
100
AcDbEntity
  8
PIC01
  6
Continuous
 62
     7
100
AcDbLine
 10
1452.025419420681
 20
1263.543014362839
 30
0.0
 11
1451.929467610149
 21
1265.134603069429
 31
0.0
  0
ARC
  5
4122
330
1F
100
AcDbEntity
  8
PIC01
  6
DASHED
 62
     7
100
AcDbCircle
 10
1448.309825776817
 20
1289.359352964025
 30
0.0
 40
9.488195771014048
100
AcDbArc
 50
40.9644822230211
 51
68.7457255800676
  0
ARC
  5
4123
330
1F
100
AcDbEntity
  8
PIC01
  6
DASHED
 62
     7
100
AcDbCircle
 10
1446.739909989828
 20
1285.323212630317
 30
0.0
 40
13.81890753371755
100
AcDbArc
 50
68.7457255800676
 51
90.0
  0
ARC
  5
4124
330
1F
100
AcDbEntity
  8
PIC01
  6
DASHED
 62
     7
100
AcDbCircle
 10
1443.594013168295
 20
1293.586135115881
 30
0.0
 40
4.724412832040188
100
AcDbArc
 50
130.9335142449432
 51
171.2513296720071
  0
LINE
  5
4125
330
1F
100
AcDbEntity
  8
PIC01
  6
DASHED
 62
     7
100
AcDbLine
 10
1456.326529846893
 20
1292.016130809041
 30
0.0
 11
1456.462742762487
 21
1292.016130809041
 31
0.0
  0
CIRCLE
  5
4126
330
1F
100
AcDbEntity
  8
PIC01
  6
DASHED
 62
     7
100
AcDbCircle
 10
1456.330125690114
 20
1291.414093382984
 30
0.0
 40
0.0590551604005024
  0
CIRCLE
  5
4127
330
1F
100
AcDbEntity
  8
PIC01
  6
DASHED
 62
     7
100
AcDbCircle
 10
1455.30406945382
 20
1289.481175235768
 30
0.0
 40
0.0590551604005024
  0
CIRCLE
  5
4128
330
1F
100
AcDbEntity
  8
PIC01
  6
DASHED
 62
     7
100
AcDbCircle
 10
1455.935479194594
 20
1290.384793468271
 30
0.0
 40
0.0590551604005024
  0
CIRCLE
  5
4129
330
1F
100
AcDbEntity
  8
PIC01
  6
DASHED
 62
     7
100
AcDbCircle
 10
1454.526878853932
 20
1288.699395892027
 30
0.0
 40
0.0590551604005024
  0
CIRCLE
  5
412A
330
1F
100
AcDbEntity
  8
PIC01
  6
DASHED
 62
     7
100
AcDbCircle
 10
1453.662911391139
 20
1288.014732183269
 30
0.0
 40
0.0590551604005024
  0
CIRCLE
  5
412B
330
1F
100
AcDbEntity
  8
PIC01
  6
DASHED
 62
     7
100
AcDbCircle
 10
1452.724226217125
 20
1287.436740561408
 30
0.0
 40
0.0590551604005024
  0
CIRCLE
  5
412C
330
1F
100
AcDbEntity
  8
PIC01
  6
DASHED
 62
     7
100
AcDbCircle
 10
1451.723933641031
 20
1286.973470733914
 30
0.0
 40
0.0590551604005024
  0
CIRCLE
  5
412D
330
1F
100
AcDbEntity
  8
PIC01
  6
DASHED
 62
     7
100
AcDbCircle
 10
1450.682159455077
 20
1286.613039441799
 30
0.0
 40
0.0590551604005024
  0
CIRCLE
  5
412E
330
1F
100
AcDbEntity
  8
PIC01
  6
DASHED
 62
     7
100
AcDbCircle
 10
1449.614716726234
 20
1286.337775583845
 30
0.0
 40
0.0590551604005024
  0
CIRCLE
  5
412F
330
1F
100
AcDbEntity
  8
PIC01
  6
DASHED
 62
     7
100
AcDbCircle
 10
1448.528555724826
 20
1286.149471441897
 30
0.0
 40
0.0590551604005024
  0
CIRCLE
  5
4130
330
1F
100
AcDbEntity
  8
PIC01
  6
DASHED
 62
     7
100
AcDbCircle
 10
1447.486001314097
 20
1286.05226290638
 30
0.0
 40
0.0590551604005024
  0
CIRCLE
  5
4131
330
1F
100
AcDbEntity
  8
PIC01
  6
DASHED
 62
     7
100
AcDbCircle
 10
1446.501913643932
 20
1286.034241185912
 30
0.0
 40
0.0590551604005024
  0
CIRCLE
  5
4132
330
1F
100
AcDbEntity
  8
PIC01
  6
DASHED
 62
     7
100
AcDbCircle
 10
1445.519492597147
 20
1286.094259614863
 30
0.0
 40
0.0590551604005024
  0
CIRCLE
  5
4133
330
1F
100
AcDbEntity
  8
PIC01
  6
DASHED
 62
     7
100
AcDbCircle
 10
1444.545325108949
 20
1286.234797972328
 30
0.0
 40
0.0590551604005024
  0
CIRCLE
  5
4134
330
1F
100
AcDbEntity
  8
PIC01
  6
DASHED
 62
     7
100
AcDbCircle
 10
1443.585999374891
 20
1286.454905811702
 30
0.0
 40
0.0590551604005024
  0
CIRCLE
  5
4135
330
1F
100
AcDbEntity
  8
PIC01
  6
DASHED
 62
     7
100
AcDbCircle
 10
1442.648587261376
 20
1286.754925568413
 30
0.0
 40
0.0590551604005024
  0
CIRCLE
  5
4136
330
1F
100
AcDbEntity
  8
PIC01
  6
DASHED
 62
     7
100
AcDbCircle
 10
1441.756545445733
 20
1287.170875955026
 30
0.0
 40
0.0590551604005024
  0
CIRCLE
  5
4137
330
1F
100
AcDbEntity
  8
PIC01
  6
DASHED
 62
     7
100
AcDbCircle
 10
1440.933319597398
 20
1287.710368797995
 30
0.0
 40
0.0590551604005024
  0
CIRCLE
  5
4138
330
1F
100
AcDbEntity
  8
PIC01
  6
DASHED
 62
     7
100
AcDbCircle
 10
1439.62667763086
 20
1289.168273890879
 30
0.0
 40
0.0590551604005024
  0
CIRCLE
  5
4139
330
1F
100
AcDbEntity
  8
PIC01
  6
DASHED
 62
     7
100
AcDbCircle
 10
1440.203498287537
 20
1288.37075821391
 30
0.0
 40
0.0590551604005024
  0
CIRCLE
  5
413A
330
1F
100
AcDbEntity
  8
PIC01
  6
DASHED
 62
     7
100
AcDbCircle
 10
1439.234130510962
 20
1290.070859113249
 30
0.0
 40
0.0590551604005024
  0
CIRCLE
  5
413B
330
1F
100
AcDbEntity
  8
PIC01
  6
DASHED
 62
     7
100
AcDbCircle
 10
1439.038079345658
 20
1291.035388669853
 30
0.0
 40
0.0590551604005024
  0
CIRCLE
  5
413C
330
1F
100
AcDbEntity
  8
PIC01
  6
DASHED
 62
     7
100
AcDbCircle
 10
1438.955024054427
 20
1292.016130809041
 30
0.0
 40
0.0590551604005024
  0
LINE
  5
413D
330
1F
100
AcDbEntity
  8
PIC01
  6
DASHED
 62
     7
100
AcDbLine
 10
1456.326529846893
 20
1293.000383482383
 30
0.0
 11
1456.462742762487
 21
1293.000383482383
 31
0.0
  0
ARC
  5
413E
330
1F
100
AcDbEntity
  8
PIC01
  6
DASHED
 62
     7
100
AcDbCircle
 10
1456.326529846893
 20
1292.508257145712
 30
0.0
 40
0.4921263366708532
100
AcDbArc
 50
90.0
 51
270.0
  0
ARC
  5
413F
330
1F
100
AcDbEntity
  8
PIC01
  6
DASHED
 62
     7
100
AcDbCircle
 10
1456.462742762487
 20
1291.89802048824
 30
0.0
 40
0.1181103208010048
100
AcDbArc
 50
352.3211313804454
 51
90.0
  0
ARC
  5
4140
330
1F
100
AcDbEntity
  8
PIC01
  6
DASHED
 62
     7
100
AcDbCircle
 10
1456.462742762487
 20
1293.118493803183
 30
0.0
 40
0.1181103208010048
100
AcDbArc
 50
270.0
 51
7.678868619554635
  0
CIRCLE
  5
4156
330
1F
100
AcDbEntity
  8
PIC01
  6
DASHED
 62
     7
100
AcDbCircle
 10
1456.330125690114
 20
1293.602420908439
 30
0.0
 40
0.0590551604005024
  0
CIRCLE
  5
4157
330
1F
100
AcDbEntity
  8
PIC01
  6
DASHED
 62
     7
100
AcDbCircle
 10
1455.935479194594
 20
1294.631720823153
 30
0.0
 40
0.0590551604005024
  0
CIRCLE
  5
4158
330
1F
100
AcDbEntity
  8
PIC01
  6
DASHED
 62
     7
100
AcDbCircle
 10
1455.30406945382
 20
1295.535339055655
 30
0.0
 40
0.0590551604005024
  0
CIRCLE
  5
4159
330
1F
100
AcDbEntity
  8
PIC01
  6
DASHED
 62
     7
100
AcDbCircle
 10
1454.526878853932
 20
1296.317118399396
 30
0.0
 40
0.0590551604005024
  0
CIRCLE
  5
415A
330
1F
100
AcDbEntity
  8
PIC01
  6
DASHED
 62
     7
100
AcDbCircle
 10
1453.662911391139
 20
1297.001782108155
 30
0.0
 40
0.0590551604005024
  0
CIRCLE
  5
415B
330
1F
100
AcDbEntity
  8
PIC01
  6
DASHED
 62
     7
100
AcDbCircle
 10
1452.724226217125
 20
1297.579773730015
 30
0.0
 40
0.0590551604005024
  0
CIRCLE
  5
415C
330
1F
100
AcDbEntity
  8
PIC01
  6
DASHED
 62
     7
100
AcDbCircle
 10
1451.723933641031
 20
1298.043043557508
 30
0.0
 40
0.0590551604005024
  0
CIRCLE
  5
415D
330
1F
100
AcDbEntity
  8
PIC01
  6
DASHED
 62
     7
100
AcDbCircle
 10
1450.682159455077
 20
1298.403474849624
 30
0.0
 40
0.0590551604005024
  0
CIRCLE
  5
415E
330
1F
100
AcDbEntity
  8
PIC01
  6
DASHED
 62
     7
100
AcDbCircle
 10
1449.614716726234
 20
1298.678738707578
 30
0.0
 40
0.0590551604005024
  0
CIRCLE
  5
415F
330
1F
100
AcDbEntity
  8
PIC01
  6
DASHED
 62
     7
100
AcDbCircle
 10
1448.528555724826
 20
1298.867042849526
 30
0.0
 40
0.0590551604005024
  0
CIRCLE
  5
4160
330
1F
100
AcDbEntity
  8
PIC01
  6
DASHED
 62
     7
100
AcDbCircle
 10
1447.486001314097
 20
1298.964251385043
 30
0.0
 40
0.0590551604005024
  0
CIRCLE
  5
4161
330
1F
100
AcDbEntity
  8
PIC01
  6
DASHED
 62
     7
100
AcDbCircle
 10
1446.501913643932
 20
1298.982273105512
 30
0.0
 40
0.0590551604005024
  0
CIRCLE
  5
4162
330
1F
100
AcDbEntity
  8
PIC01
  6
DASHED
 62
     7
100
AcDbCircle
 10
1445.519492597147
 20
1298.92225467656
 30
0.0
 40
0.0590551604005024
  0
CIRCLE
  5
4163
330
1F
100
AcDbEntity
  8
PIC01
  6
DASHED
 62
     7
100
AcDbCircle
 10
1444.545325108949
 20
1298.781716319095
 30
0.0
 40
0.0590551604005024
  0
CIRCLE
  5
4164
330
1F
100
AcDbEntity
  8
PIC01
  6
DASHED
 62
     7
100
AcDbCircle
 10
1443.585999374891
 20
1298.561608479721
 30
0.0
 40
0.0590551604005024
  0
CIRCLE
  5
4165
330
1F
100
AcDbEntity
  8
PIC01
  6
DASHED
 62
     7
100
AcDbCircle
 10
1442.648587261376
 20
1298.261588723011
 30
0.0
 40
0.0590551604005024
  0
CIRCLE
  5
4166
330
1F
100
AcDbEntity
  8
PIC01
  6
DASHED
 62
     7
100
AcDbCircle
 10
1441.756545445733
 20
1297.845638336397
 30
0.0
 40
0.0590551604005024
  0
CIRCLE
  5
4167
330
1F
100
AcDbEntity
  8
PIC01
  6
DASHED
 62
     7
100
AcDbCircle
 10
1440.933319597398
 20
1297.306145493428
 30
0.0
 40
0.0590551604005024
  0
CIRCLE
  5
4168
330
1F
100
AcDbEntity
  8
PIC01
  6
DASHED
 62
     7
100
AcDbCircle
 10
1440.203498287537
 20
1296.645756077513
 30
0.0
 40
0.0590551604005024
  0
CIRCLE
  5
4169
330
1F
100
AcDbEntity
  8
PIC01
  6
DASHED
 62
     7
100
AcDbCircle
 10
1439.62667763086
 20
1295.848240400544
 30
0.0
 40
0.0590551604005024
  0
CIRCLE
  5
416A
330
1F
100
AcDbEntity
  8
PIC01
  6
DASHED
 62
     7
100
AcDbCircle
 10
1439.234130510962
 20
1294.945655178175
 30
0.0
 40
0.0590551604005024
  0
CIRCLE
  5
416B
330
1F
100
AcDbEntity
  8
PIC01
  6
DASHED
 62
     7
100
AcDbCircle
 10
1439.038079345658
 20
1293.98112562157
 30
0.0
 40
0.0590551604005024
  0
CIRCLE
  5
416C
330
1F
100
AcDbEntity
  8
PIC01
  6
DASHED
 62
     7
100
AcDbCircle
 10
1438.955024054427
 20
1293.000383482383
 30
0.0
 40
0.0590551604005024
  0
ARC
  5
4180
330
1F
100
AcDbEntity
  8
PIC01
  6
DASHED
 62
     7
100
AcDbCircle
 10
1437.527304444196
 20
1263.346163828171
 30
0.0
 40
0.1181103208010048
100
AcDbArc
 50
180.0
 51
270.0
  0
LINE
  5
4188
330
1F
100
AcDbEntity
  8
PIC01
  6
Continuous
 62
     7
100
AcDbLine
 10
1437.921005513533
 20
1264.06458100009
 30
0.0
 11
1437.212343588727
 21
1264.06458100009
 31
0.0
  0
LINE
  5
4189
330
1F
100
AcDbEntity
  8
PIC01
  6
Continuous
 62
     7
100
AcDbLine
 10
1437.785104157866
 20
1264.011015775519
 30
0.0
 11
1437.939741781411
 21
1264.049606618151
 31
0.0
  0
ARC
  5
418A
330
1F
100
AcDbEntity
  8
PIC01
  6
Continuous
 62
     7
100
AcDbCircle
 10
1437.921005513533
 20
1263.985840786223
 30
0.0
 40
0.0787402138673365
100
AcDbArc
 50
0.0
 51
90.0
  0
ARC
  5
418B
330
1F
100
AcDbEntity
  8
PIC01
  6
Continuous
 62
     7
100
AcDbCircle
 10
1437.606044658063
 20
1264.261431534758
 30
0.0
 40
0.1968505346683413
100
AcDbArc
 50
270.0
 51
0.0
  0
LINE
  5
418E
330
1F
100
AcDbEntity
  8
PIC01
  6
Continuous
 62
     7
100
AcDbLine
 10
1456.785350605905
 20
1274.72412516993
 30
0.0
 11
1456.621807508506
 21
1274.72412516993
 31
0.0
  0
LINE
  5
418F
330
1F
100
AcDbEntity
  8
PIC01
  6
Continuous
 62
     7
100
AcDbLine
 10
1456.621807508506
 20
1274.72412516993
 30
0.0
 11
1456.551960357221
 21
1274.631889668519
 31
0.0
  0
LINE
  5
41AA
330
1F
100
AcDbEntity
  8
PIC01
  6
DASHED
 62
     7
100
AcDbLine
 10
1434.290909654149
 20
1296.225582642388
 30
0.0
 11
1439.316696479265
 21
1296.225582642388
 31
0.0
  0
ARC
  5
41AB
330
1F
100
AcDbEntity
  8
PIC01
  6
DASHED
 62
     7
100
AcDbCircle
 10
1434.290909654149
 20
1296.02873210772
 30
0.0
 40
0.1968505346683413
100
AcDbArc
 50
90.0
 51
180.0
  0
ARC
  5
41AC
330
1F
100
AcDbEntity
  8
PIC01
  6
DASHED
 62
     7
100
AcDbCircle
 10
1439.276976494415
 20
1297.012984781062
 30
0.0
 40
0.7874021386733651
100
AcDbArc
 50
270.0
 51
321.5575681523049
  0
ARC
  5
41AD
330
1F
100
AcDbEntity
  8
PIC01
  6
DASHED
 62
     7
100
AcDbCircle
 10
1438.784457983921
 20
1297.012984781062
 30
0.0
 40
0.7874021386733651
100
AcDbArc
 50
270.0
 51
324.5297991562204
  0
LINE
  5
41B0
330
1F
100
AcDbEntity
  8
PIC01
  6
DASHED
 62
     7
100
AcDbLine
 10
1433.603634147145
 20
1278.661135425368
 30
0.0
 11
1437.081625626926
 21
1278.661135425368
 31
0.0
  0
LINE
  5
41B1
330
1F
100
AcDbEntity
  8
PIC01
  6
Continuous
 62
     7
100
AcDbLine
 10
1436.149350701518
 20
1275.117825801338
 30
0.0
 11
1436.063090354865
 21
1277.676882752026
 31
0.0
  0
LINE
  5
41B2
330
1F
100
AcDbEntity
  8
PIC01
  6
DASHED
 62
     7
100
AcDbLine
 10
1436.063090354865
 20
1277.676882752026
 30
0.0
 11
1436.036325171151
 21
1278.470916535546
 31
0.0
  0
LINE
  5
41B3
330
1F
100
AcDbEntity
  8
PIC01
  6
DASHED
 62
     7
100
AcDbLine
 10
1438.393446195997
 20
1275.511526870675
 30
0.0
 11
1436.136079878956
 21
1275.511526870675
 31
0.0
  0
LINE
  5
41B4
330
1F
100
AcDbEntity
  8
PIC01
  6
Continuous
 62
     7
100
AcDbLine
 10
1436.136079878956
 20
1275.511526870675
 30
0.0
 11
1431.105550012384
 21
1275.511526870675
 31
0.0
  0
LINE
  5
41B5
330
1F
100
AcDbEntity
  8
PIC01
  6
DASHED
 62
     7
100
AcDbLine
 10
1436.031240924067
 20
1288.311403746583
 30
0.0
 11
1436.031240924067
 21
1289.177546099123
 31
0.0
  0
LINE
  5
41B6
330
1F
100
AcDbEntity
  8
PIC01
  6
DASHED
 62
     7
100
AcDbLine
 10
1436.228091458735
 20
1289.374396633792
 30
0.0
 11
1438.240051805348
 21
1289.374396633792
 31
0.0
  0
LINE
  5
41B7
330
1F
100
AcDbEntity
  8
PIC01
  6
DASHED
 62
     7
100
AcDbLine
 10
1436.228091458735
 20
1288.114553211914
 30
0.0
 11
1439.291287768934
 21
1288.114553211914
 31
0.0
  0
ARC
  5
41B8
330
1F
100
AcDbEntity
  8
PIC01
  6
DASHED
 62
     7
100
AcDbCircle
 10
1436.228091458735
 20
1288.311403746583
 30
0.0
 40
0.1968505346683413
100
AcDbArc
 50
180.0
 51
270.0
  0
ARC
  5
41B9
330
1F
100
AcDbEntity
  8
PIC01
  6
DASHED
 62
     7
100
AcDbCircle
 10
1436.228091458735
 20
1289.177546099123
 30
0.0
 40
0.1968505346683413
100
AcDbArc
 50
90.0
 51
180.0
  0
ARC
  5
41BA
330
1F
100
AcDbEntity
  8
PIC01
  6
DASHED
 62
     7
100
AcDbCircle
 10
1438.240051805348
 20
1289.689357489261
 30
0.0
 40
0.3149608554693461
100
AcDbArc
 50
270.0
 51
18.01368778092987
  0
ARC
  5
41BB
330
1F
100
AcDbEntity
  8
PIC01
  6
DASHED
 62
     7
100
AcDbCircle
 10
1439.291287768934
 20
1287.799592356445
 30
0.0
 40
0.3149608554693461
100
AcDbArc
 50
40.15881738141386
 51
90.0
  0
LINE
  5
41BC
330
1F
100
AcDbEntity
  8
PIC01
  6
DASHED
 62
     7
100
AcDbLine
 10
1434.212169440281
 20
1289.184632718371
 30
0.0
 11
1439.316696479265
 21
1289.184632718371
 31
0.0
  0
LINE
  5
41BD
330
1F
100
AcDbEntity
  8
PIC01
  6
DASHED
 62
     7
100
AcDbLine
 10
1434.094059119481
 20
1288.987782183703
 30
0.0
 11
1434.094059119481
 21
1289.06652239757
 31
0.0
  0
ARC
  5
41BE
330
1F
100
AcDbEntity
  8
PIC01
  6
DASHED
 62
     7
100
AcDbCircle
 10
1434.212169440281
 20
1289.06652239757
 30
0.0
 40
0.1181103208010048
100
AcDbArc
 50
90.0
 51
180.0
  0
ARC
  5
41BF
330
1F
100
AcDbEntity
  8
PIC01
  6
DASHED
 62
     7
100
AcDbCircle
 10
1439.291287768934
 20
1297.216921934978
 30
0.0
 40
0.3149608554693461
100
AcDbArc
 50
270.0
 51
319.8411826185861
  0
ARC
  5
41C0
330
1F
100
AcDbEntity
  8
PIC01
  6
DASHED
 62
     7
100
AcDbCircle
 10
1438.240051805348
 20
1295.327156802162
 30
0.0
 40
0.3149608554693461
100
AcDbArc
 50
341.9863122190701
 51
90.0
  0
LINE
  5
41C1
330
1F
100
AcDbEntity
  8
PIC01
  6
DASHED
 62
     7
100
AcDbLine
 10
1436.228091458735
 20
1295.642117657632
 30
0.0
 11
1438.240051805348
 21
1295.642117657632
 31
0.0
  0
LINE
  5
41C2
330
1F
100
AcDbEntity
  8
PIC01
  6
DASHED
 62
     7
100
AcDbLine
 10
1436.228091458735
 20
1296.901961079509
 30
0.0
 11
1439.291287768934
 21
1296.901961079509
 31
0.0
  0
ARC
  5
41C3
330
1F
100
AcDbEntity
  8
PIC01
  6
DASHED
 62
     7
100
AcDbCircle
 10
1436.228091458735
 20
1296.705110544841
 30
0.0
 40
0.1968505346683413
100
AcDbArc
 50
90.0
 51
180.0
  0
LINE
  5
41C4
330
1F
100
AcDbEntity
  8
PIC01
  6
DASHED
 62
     7
100
AcDbLine
 10
1436.031240924067
 20
1296.705110544841
 30
0.0
 11
1436.031240924067
 21
1295.8389681923
 31
0.0
  0
ARC
  5
41C5
330
1F
100
AcDbEntity
  8
PIC01
  6
DASHED
 62
     7
100
AcDbCircle
 10
1436.228091458735
 20
1295.8389681923
 30
0.0
 40
0.1968505346683413
100
AcDbArc
 50
180.0
 51
270.0
  0
LINE
  5
41C6
330
1F
100
AcDbEntity
  8
PIC01
  6
DASHED
 62
     7
100
AcDbLine
 10
1434.212169440281
 20
1295.831881573052
 30
0.0
 11
1439.316696479265
 21
1295.831881573052
 31
0.0
  0
ARC
  5
41C7
330
1F
100
AcDbEntity
  8
PIC01
  6
DASHED
 62
     7
100
AcDbCircle
 10
1434.212169440281
 20
1295.949991893853
 30
0.0
 40
0.1181103208010048
100
AcDbArc
 50
180.0
 51
270.0
  0
LINE
  5
41C8
330
1F
100
AcDbEntity
  8
PIC01
  6
DASHED
 62
     7
100
AcDbLine
 10
1434.094059119481
 20
1295.949991893853
 30
0.0
 11
1434.094059119481
 21
1296.02873210772
 31
0.0
  0
LINE
  5
41CA
330
1F
100
AcDbEntity
  8
PIC01
  6
Continuous
 62
     7
100
AcDbLine
 10
1436.149350701518
 20
1271.771366711976
 30
0.0
 11
1436.149350701518
 21
1275.117825801338
 31
0.0
  0
LINE
  5
41CB
330
1F
100
AcDbEntity
  8
PIC01
  6
Continuous
 62
     7
100
AcDbLine
 10
1435.755649632181
 20
1271.37766564264
 30
0.0
 11
1434.198011107573
 21
1271.37766564264
 31
0.0
  0
ARC
  5
41CC
330
1F
100
AcDbEntity
  8
PIC01
  6
Continuous
 62
     7
100
AcDbCircle
 10
1435.755649632181
 20
1271.771366711976
 30
0.0
 40
0.3937010693366825
100
AcDbArc
 50
270.0
 51
0.0
  0
LINE
  5
41CE
330
1F
100
AcDbEntity
  8
PIC01
  6
Continuous
 62
     7
100
AcDbLine
 10
1434.123289434637
 20
1271.37766564264
 30
0.0
 11
1433.89912441583
 21
1271.37766564264
 31
0.0
  0
LINE
  5
41CF
330
1F
100
AcDbEntity
  8
PIC01
  6
Continuous
 62
     7
100
AcDbLine
 10
1433.887392525214
 20
1271.1538078342
 30
0.0
 11
1433.89912441583
 21
1271.37766564264
 31
0.0
  0
ARC
  5
41D4
330
1F
100
AcDbEntity
  8
PIC01
  6
DASHED
 62
     7
100
AcDbCircle
 10
1448.309825776817
 20
1295.657161327399
 30
0.0
 40
8.503943097672344
100
AcDbArc
 50
291.2542744199324
 51
319.0355177769789
  0
ARC
  5
41D5
330
1F
100
AcDbEntity
  8
PIC01
  6
DASHED
 62
     7
100
AcDbCircle
 10
1451.936764105072
 20
1292.508257145712
 30
0.0
 40
3.700790051764824
100
AcDbArc
 50
319.0355177769789
 51
40.9644822230211
  0
ARC
  5
41D6
330
1F
100
AcDbEntity
  8
PIC01
  6
DASHED
 62
     7
100
AcDbCircle
 10
1446.739909989828
 20
1299.693301661106
 30
0.0
 40
12.83465486037585
100
AcDbArc
 50
270.0
 51
291.2542744199324
  0
ARC
  5
41D7
330
1F
100
AcDbEntity
  8
PIC01
  6
DASHED
 62
     7
100
AcDbCircle
 10
1446.739909989828
 20
1298.000387156505
 30
0.0
 40
11.14174026222813
100
AcDbArc
 50
251.81015799684
 51
270.0
  0
ARC
  5
41D8
330
1F
100
AcDbEntity
  8
PIC01
  6
DASHED
 62
     7
100
AcDbCircle
 10
1446.739909989828
 20
1287.016127134918
 30
0.0
 40
11.14174026222811
100
AcDbArc
 50
90.0
 51
108.1898406108613
  0
ARC
  5
41D9
330
1F
100
AcDbEntity
  8
PIC01
  6
DASHED
 62
     7
100
AcDbCircle
 10
1444.93526841507
 20
1292.508257145712
 30
0.0
 40
5.36071757858426
100
AcDbArc
 50
108.18984427328
 51
251.81015799684
  0
ARC
  5
41DA
330
1F
100
AcDbEntity
  8
PIC01
  6
DASHED
 62
     7
100
AcDbCircle
 10
1448.309825776817
 20
1289.359352964025
 30
0.0
 40
8.503943097672344
100
AcDbArc
 50
40.9644822230211
 51
68.7457255800676
  0
ARC
  5
41DB
330
1F
100
AcDbEntity
  8
PIC01
  6
DASHED
 62
     7
100
AcDbCircle
 10
1446.739909989828
 20
1285.323212630317
 30
0.0
 40
12.83465486037585
100
AcDbArc
 50
68.7457255800676
 51
90.0
  0
ARC
  5
41EE
330
1F
100
AcDbEntity
  8
PIC01
  6
Continuous
 62
     7
100
AcDbCircle
 10
1436.899315426681
 20
1279.369797350174
 30
0.0
 40
0.3149608554693461
100
AcDbArc
 50
270.0
 51
318.1896851042358
  0
LINE
  5
41EF
330
1F
100
AcDbEntity
  8
PIC01
  6
Continuous
 62
     7
100
AcDbLine
 10
1438.358021542877
 20
1275.74310790256
 30
0.0
 11
1436.477428590664
 21
1277.586826865956
 31
0.0
  0
LINE
  5
41F0
330
1F
100
AcDbEntity
  8
PIC01
  6
Continuous
 62
     7
100
AcDbLine
 10
1438.578516656695
 20
1275.968012871959
 30
0.0
 11
1436.697923704482
 21
1277.811731835355
 31
0.0
  0
ARC
  5
41F1
330
1F
100
AcDbEntity
  8
PIC01
  6
Continuous
 62
     7
100
AcDbCircle
 10
1436.256933476846
 20
1277.361921896557
 30
0.0
 40
0.3149608554693458
100
AcDbArc
 50
45.56726046313365
 51
90.0
  0
ARC
  5
41F2
330
1F
100
AcDbEntity
  8
PIC01
  6
Continuous
 62
     7
100
AcDbCircle
 10
1436.256933476846
 20
1277.361921896557
 30
0.0
 40
0.6299217109386909
100
AcDbArc
 50
45.56726046313365
 51
90.0
  0
ARC
  5
41F5
330
1F
100
AcDbEntity
  8
PIC01
  6
Continuous
 62
     7
100
AcDbCircle
 10
1438.275335875196
 20
1275.658768539035
 30
0.0
 40
0.1181103208010048
100
AcDbArc
 50
0.0
 51
45.56726046313365
  0
ARC
  5
41F6
330
1F
100
AcDbEntity
  8
PIC01
  6
Continuous
 62
     7
100
AcDbCircle
 10
1438.275335875196
 20
1275.658768539035
 30
0.0
 40
0.433071176270351
100
AcDbArc
 50
20.39754122939785
 51
45.56726046313365
  0
ARC
  5
41F7
330
1F
100
AcDbEntity
  8
PIC01
  6
Continuous
 62
     7
100
AcDbCircle
 10
1436.899315426681
 20
1279.369797350174
 30
0.0
 40
0.6299217109386922
100
AcDbArc
 50
270.0
 51
309.8655481724049
  0
LINE
  5
41FD
330
1F
100
AcDbEntity
  8
PIC01
  6
Continuous
 62
     7
100
AcDbLine
 10
1443.695611326326
 20
1276.692630516613
 30
0.0
 11
1455.400715962089
 21
1276.692630516613
 31
0.0
  0
LINE
  5
41FE
330
1F
100
AcDbEntity
  8
PIC01
  6
Continuous
 62
     7
100
AcDbLine
 10
1436.477428590664
 20
1277.586826865956
 30
0.0
 11
1436.385571605944
 21
1277.676882752026
 31
0.0
  0
LINE
  5
41FF
330
1F
100
AcDbEntity
  8
PIC01
  6
Continuous
 62
     7
100
AcDbLine
 10
1436.256933476846
 20
1277.676882752026
 30
0.0
 11
1436.385571605944
 21
1277.676882752026
 31
0.0
  0
ARC
  5
4213
330
1F
100
AcDbEntity
  8
PIC01
  6
Continuous
 62
     7
100
AcDbCircle
 10
1439.318644290263
 20
1263.16899834697
 30
0.0
 40
0.0590551604005024
100
AcDbArc
 50
270.0
 51
0.0
  0
ARC
  5
4214
330
1F
100
AcDbEntity
  8
PIC01
  6
Continuous
 62
     7
100
AcDbCircle
 10
1439.436754611064
 20
1263.16899834697
 30
0.0
 40
0.0590551604005024
100
AcDbArc
 50
90.0
 51
180.0
  0
ARC
  5
4215
330
1F
100
AcDbEntity
  8
PIC01
  6
Continuous
 62
     7
100
AcDbCircle
 10
1441.405259957747
 20
1263.16899834697
 30
0.0
 40
0.0590551604005024
100
AcDbArc
 50
180.0
 51
270.0
  0
ARC
  5
4216
330
1F
100
AcDbEntity
  8
PIC01
  6
Continuous
 62
     7
100
AcDbCircle
 10
1441.287149636947
 20
1263.16899834697
 30
0.0
 40
0.0590551604005024
100
AcDbArc
 50
0.0
 51
90.0
  0
ARC
  5
4217
330
1F
100
AcDbEntity
  8
PIC01
  6
Continuous
 62
     7
100
AcDbCircle
 10
1442.861953914293
 20
1263.16899834697
 30
0.0
 40
0.0590551604005024
100
AcDbArc
 50
270.0
 51
0.0
  0
ARC
  5
4218
330
1F
100
AcDbEntity
  8
PIC01
  6
Continuous
 62
     7
100
AcDbCircle
 10
1442.980064235094
 20
1263.16899834697
 30
0.0
 40
0.0590551604005024
100
AcDbArc
 50
90.0
 51
180.0
  0
ARC
  5
4219
330
1F
100
AcDbEntity
  8
PIC01
  6
Continuous
 62
     7
100
AcDbCircle
 10
1444.948569581778
 20
1263.16899834697
 30
0.0
 40
0.0590551604005024
100
AcDbArc
 50
180.0
 51
270.0
  0
ARC
  5
421A
330
1F
100
AcDbEntity
  8
PIC01
  6
Continuous
 62
     7
100
AcDbCircle
 10
1444.830459260977
 20
1263.16899834697
 30
0.0
 40
0.0590551604005024
100
AcDbArc
 50
0.0
 51
90.0
  0
ARC
  5
421B
330
1F
100
AcDbEntity
  8
PIC01
  6
Continuous
 62
     7
100
AcDbCircle
 10
1446.405263538323
 20
1263.16899834697
 30
0.0
 40
0.0590551604005024
100
AcDbArc
 50
270.0
 51
0.0
  0
ARC
  5
421C
330
1F
100
AcDbEntity
  8
PIC01
  6
Continuous
 62
     7
100
AcDbCircle
 10
1446.523373859124
 20
1263.16899834697
 30
0.0
 40
0.0590551604005024
100
AcDbArc
 50
90.0
 51
180.0
  0
ARC
  5
421D
330
1F
100
AcDbEntity
  8
PIC01
  6
Continuous
 62
     7
100
AcDbCircle
 10
1448.491879205808
 20
1263.16899834697
 30
0.0
 40
0.0590551604005024
100
AcDbArc
 50
180.0
 51
270.0
  0
ARC
  5
421E
330
1F
100
AcDbEntity
  8
PIC01
  6
Continuous
 62
     7
100
AcDbCircle
 10
1448.373768885007
 20
1263.16899834697
 30
0.0
 40
0.0590551604005024
100
AcDbArc
 50
0.0
 51
90.0
  0
ARC
  5
421F
330
1F
100
AcDbEntity
  8
PIC01
  6
Continuous
 62
     7
100
AcDbCircle
 10
1450.145423697022
 20
1263.16899834697
 30
0.0
 40
0.0590551604005024
100
AcDbArc
 50
270.0
 51
0.0
  0
ARC
  5
4220
330
1F
100
AcDbEntity
  8
PIC01
  6
Continuous
 62
     7
100
AcDbCircle
 10
1450.263534017823
 20
1263.16899834697
 30
0.0
 40
0.0590551604005024
100
AcDbArc
 50
90.0
 51
180.0
  0
LINE
  5
4221
330
1F
100
AcDbEntity
  8
PIC01
  6
DASHED
 62
     7
100
AcDbLine
 10
1451.656358819838
 20
1263.22805350737
 30
0.0
 11
1448.373768885007
 21
1263.22805350737
 31
0.0
  0
LINE
  5
4222
330
1F
100
AcDbEntity
  8
PIC01
  6
Continuous
 62
     7
100
AcDbLine
 10
1448.373768885007
 20
1263.22805350737
 30
0.0
 11
1446.523373859124
 21
1263.22805350737
 31
0.0
  0
LINE
  5
4223
330
1F
100
AcDbEntity
  8
PIC01
  6
DASHED
 62
     7
100
AcDbLine
 10
1446.523373859124
 20
1263.22805350737
 30
0.0
 11
1444.830459260977
 21
1263.22805350737
 31
0.0
  0
LINE
  5
4224
330
1F
100
AcDbEntity
  8
PIC01
  6
Continuous
 62
     7
100
AcDbLine
 10
1444.830459260977
 20
1263.22805350737
 30
0.0
 11
1442.980064235094
 21
1263.22805350737
 31
0.0
  0
LINE
  5
4225
330
1F
100
AcDbEntity
  8
PIC01
  6
DASHED
 62
     7
100
AcDbLine
 10
1442.980064235094
 20
1263.22805350737
 30
0.0
 11
1441.287149636947
 21
1263.22805350737
 31
0.0
  0
LINE
  5
4226
330
1F
100
AcDbEntity
  8
PIC01
  6
Continuous
 62
     7
100
AcDbLine
 10
1441.287149636947
 20
1263.22805350737
 30
0.0
 11
1439.436754611064
 21
1263.22805350737
 31
0.0
  0
LINE
  5
4227
330
1F
100
AcDbEntity
  8
PIC01
  6
DASHED
 62
     7
100
AcDbLine
 10
1439.436754611064
 20
1263.22805350737
 30
0.0
 11
1437.527304444196
 21
1263.22805350737
 31
0.0
  0
CIRCLE
  5
4243
330
1F
100
AcDbEntity
  8
PIC01
  6
PHANTOM
 62
     7
100
AcDbCircle
 10
1449.417076969162
 20
1292.508257145712
 30
0.0
 40
0.7086619248060285
  0
LINE
  5
4246
330
1F
100
AcDbEntity
  8
PIC01
  6
Continuous
 62
     7
100
AcDbLine
 10
1430.908750389561
 20
1275.703900636836
 30
0.0
 11
1430.872825141142
 21
1277.283181613397
 31
0.0
  0
LINE
  5
4247
330
1F
100
AcDbEntity
  8
PIC01
  6
DASHED
 62
     7
100
AcDbLine
 10
1430.872825141142
 20
1277.283181613397
 30
0.0
 11
1430.834457542057
 21
1278.969828804928
 31
0.0
  0
ARC
  5
4248
330
1F
100
AcDbEntity
  8
PIC01
  6
DASHED
 62
     7
100
AcDbCircle
 10
1431.109977014008
 20
1278.976096280837
 30
0.0
 40
0.2755907485356774
100
AcDbArc
 50
90.0
 51
181.3031311142822
  0
ARC
  5
4249
330
1F
100
AcDbEntity
  8
PIC01
  6
Continuous
 62
     7
100
AcDbCircle
 10
1675.191517156927
 20
1292.508257145712
 30
0.0
 40
244.5539809029693
100
AcDbArc
 50
178.323117423263
 51
181.6768825767369
  0
ARC
  5
424A
330
1F
100
AcDbEntity
  8
PIC01
  6
Continuous
 62
     7
100
AcDbCircle
 10
1431.21450585898
 20
1285.365712691762
 30
0.0
 40
0.4724412832040068
100
AcDbArc
 50
181.6768825767369
 51
267.5820610956241
  0
ARC
  5
424B
330
1F
100
AcDbEntity
  8
PIC01
  6
Continuous
 62
     7
100
AcDbCircle
 10
1431.21450585898
 20
1299.650801599661
 30
0.0
 40
0.4724412832040158
100
AcDbArc
 50
92.41793890437589
 51
178.323117423263
  0
CIRCLE
  5
4251
330
1F
100
AcDbEntity
  8
PIC01
  6
DASHED
 62
     7
100
AcDbCircle
 10
1456.346216081643
 20
1292.508257145712
 30
0.0
 40
0.1968505346683413
  0
LINE
  5
4252
330
1F
100
AcDbEntity
  8
PIC01
  6
Continuous
 62
     7
100
AcDbLine
 10
1456.543066072962
 20
1275.511527171045
 30
0.0
 11
1456.543066072962
 21
1275.826488026514
 31
0.0
  0
LINE
  5
4253
330
1F
100
AcDbEntity
  8
PIC01
  6
Continuous
 62
     7
100
AcDbLine
 10
1456.149365003625
 20
1275.511527171045
 30
0.0
 11
1456.149365003625
 21
1275.826488026514
 31
0.0
  0
LINE
  5
4254
330
1F
100
AcDbEntity
  8
PIC01
  6
CENTER
 62
     7
100
AcDbLine
 10
1456.346215538293
 20
1275.443912489971
 30
0.0
 11
1456.346215538293
 21
1275.861693300709
 31
0.0
  0
LINE
  5
4255
330
1F
100
AcDbEntity
  8
PIC01
  6
DASHED
 62
     7
100
AcDbLine
 10
1434.948562983695
 20
1278.661135425368
 30
0.0
 11
1434.948562983695
 21
1279.054836494705
 31
0.0
  0
LINE
  5
4256
330
1F
100
AcDbEntity
  8
PIC01
  6
DASHED
 62
     7
100
AcDbLine
 10
1433.570609241017
 20
1278.661135425368
 30
0.0
 11
1433.570609241017
 21
1279.054836494705
 31
0.0
  0
ARC
  5
4258
330
1F
100
AcDbEntity
  8
PIC01
  6
DASHED
 62
     7
100
AcDbCircle
 10
1435.839586374047
 20
1278.4642848907
 30
0.0
 40
0.1968505346683411
100
AcDbArc
 50
1.930587441191763
 51
90.0
  0
ARC
  5
425B
330
1F
100
AcDbEntity
  8
PIC01
  6
Continuous
 62
     7
100
AcDbCircle
 10
1440.049929149309
 20
1271.81571310377
 30
0.0
 40
0.2362206416020087
100
AcDbArc
 50
45.0
 51
67.12546222412246
  0
LINE
  5
425C
330
1F
100
AcDbEntity
  8
PIC01
  6
Continuous
 62
     7
100
AcDbLine
 10
1435.184783081643
 20
1275.393416549873
 30
0.0
 11
1431.365882709077
 21
1275.393416549873
 31
0.0
  0
ARC
  5
425D
330
1F
100
AcDbEntity
  8
PIC01
  6
Continuous
 62
     7
100
AcDbCircle
 10
1435.184783081643
 20
1275.452471710274
 30
0.0
 40
0.0590551604005024
100
AcDbArc
 50
270.0
 51
0.0
  0
ARC
  5
425E
330
1F
100
AcDbEntity
  8
PIC01
  6
Continuous
 62
     7
100
AcDbCircle
 10
1435.302893402444
 20
1275.452471710274
 30
0.0
 40
0.0590551604005024
100
AcDbArc
 50
90.0
 51
180.0
  0
ARC
  5
425F
330
1F
100
AcDbEntity
  8
PIC01
  6
Continuous
 62
     7
100
AcDbCircle
 10
1431.365882709077
 20
1275.452471710274
 30
0.0
 40
0.0590551604005024
100
AcDbArc
 50
180.0
 51
270.0
  0
ARC
  5
4260
330
1F
100
AcDbEntity
  8
PIC01
  6
Continuous
 62
     7
100
AcDbCircle
 10
1431.247772388276
 20
1275.452471710274
 30
0.0
 40
0.0590551604005024
100
AcDbArc
 50
0.0
 51
90.0
  0
ARC
  5
4265
330
1F
100
AcDbEntity
  8
PIC01
  6
Continuous
 62
     7
100
AcDbCircle
 10
1434.198011107573
 20
1271.06270478717
 30
0.0
 40
0.3149608554693461
100
AcDbArc
 50
90.0
 51
177.0000000000263
  0
LINE
  5
4282
330
1F
100
AcDbEntity
  8
PIC01
  6
Continuous
 62
     7
100
AcDbLine
 10
1456.621806307025
 20
1275.432786957177
 30
0.0
 11
1456.621806307025
 21
1275.511526870675
 31
0.0
  0
LINE
  5
4283
330
1F
100
AcDbEntity
  8
PIC01
  6
Continuous
 62
     7
100
AcDbLine
 10
1456.562163400144
 20
1275.526437597395
 30
0.0
 11
1456.621806307025
 21
1275.511526870675
 31
0.0
  0
LINE
  5
428E
330
1F
100
AcDbEntity
  8
PIC01
  6
Continuous
 62
     7
100
AcDbLine
 10
1431.883937151773
 20
1298.079282055043
 30
0.0
 11
1431.883937151773
 21
1299.063534728385
 31
0.0
  0
LINE
  5
428F
330
1F
100
AcDbEntity
  8
PIC01
  6
Continuous
 62
     7
100
AcDbLine
 10
1431.883927089375
 20
1298.079282055043
 30
0.0
 11
1431.883927667382
 21
1299.063535726215
 31
0.0
  0
LINE
  5
4290
330
1F
100
AcDbEntity
  8
PIC01
  6
Continuous
 62
     7
100
AcDbLine
 10
1431.922471481366
 20
1298.141197017335
 30
0.0
 11
1431.922472059373
 21
1299.022304805018
 31
0.0
  0
LINE
  5
4291
330
1F
100
AcDbEntity
  8
PIC01
  6
Continuous
 62
     7
100
AcDbLine
 10
1432.100472739908
 20
1299.063534728385
 30
0.0
 11
1431.883927089375
 21
1299.063535726215
 31
0.0
  0
LINE
  5
4292
330
1F
100
AcDbEntity
  8
PIC01
  6
Continuous
 62
     7
100
AcDbLine
 10
1432.10046267751
 20
1298.079282055043
 30
0.0
 11
1432.100463255518
 21
1299.063535726215
 31
0.0
  0
LINE
  5
4293
330
1F
100
AcDbEntity
  8
PIC01
  6
Continuous
 62
     7
100
AcDbLine
 10
1432.100472739908
 20
1298.079282055043
 30
0.0
 11
1431.883927089375
 21
1298.079283052873
 31
0.0
  0
LINE
  5
429E
330
1F
100
AcDbEntity
  8
PIC01
  6
Continuous
 62
     7
100
AcDbLine
 10
1431.931243747797
 20
1298.581750911176
 30
0.0
 11
1432.070598802593
 21
1298.581750911176
 31
0.0
  0
ARC
  5
42A8
330
1F
100
AcDbEntity
  8
PIC01
  6
Continuous
 62
     7
100
AcDbCircle
 10
1453.05946676932
 20
1270.597482224584
 30
0.0
 40
1.37795374267839
100
AcDbArc
 50
107.2895106598894
 51
183.4500043014061
  0
LINE
  5
42AA
330
1F
100
AcDbEntity
  8
PIC01
  6
Continuous
 62
     7
100
AcDbLine
 10
1450.925781108635
 20
1273.267430775455
 30
0.0
 11
1448.629674830489
 21
1273.267430775455
 31
0.0
  0
LINE
  5
42AB
330
1F
100
AcDbEntity
  8
PIC01
  6
Continuous
 62
     7
100
AcDbLine
 10
1442.910564211847
 20
1270.556918575426
 30
0.0
 11
1443.103519485004
 21
1271.910156315307
 31
0.0
  0
ARC
  5
42AC
330
1F
100
AcDbEntity
  8
PIC01
  6
Continuous
 62
     7
100
AcDbCircle
 10
1442.676708899186
 20
1270.590263503966
 30
0.0
 40
0.2362206416020093
100
AcDbArc
 50
270.0
 51
351.8850184214698
  0
LINE
  5
42AD
330
1F
100
AcDbEntity
  8
PIC01
  6
Continuous
 62
     7
100
AcDbLine
 10
1442.910564211847
 20
1270.556918575426
 30
0.0
 11
1442.881636598112
 21
1270.354042862364
 31
0.0
  0
LINE
  5
42AF
330
1F
100
AcDbEntity
  8
PIC01
  6
Continuous
 62
     7
100
AcDbLine
 10
1442.608399666211
 20
1270.669003717833
 30
0.0
 11
1442.783513028484
 21
1271.897112215249
 31
0.0
  0
LINE
  5
42B0
330
1F
100
AcDbEntity
  8
PIC01
  6
Continuous
 62
     7
100
AcDbLine
 10
1450.296374202448
 20
1272.873729706119
 30
0.0
 11
1448.714043278268
 21
1272.873729706119
 31
0.0
  0
ARC
  5
42B1
330
1F
100
AcDbEntity
  8
PIC01
  6
Continuous
 62
     7
100
AcDbCircle
 10
1437.751786476488
 20
1275.039086208693
 30
0.0
 40
0.0787402138673365
100
AcDbArc
 50
90.0
 51
193.7082409848551
  0
LINE
  5
42B2
330
1F
100
AcDbEntity
  8
PIC01
  6
Continuous
 62
     7
100
AcDbLine
 10
1437.751786476488
 20
1275.11782642256
 30
0.0
 11
1438.275718948555
 21
1275.117825801338
 31
0.0
  0
LINE
  5
42B3
330
1F
100
AcDbEntity
  8
PIC01
  6
Continuous
 62
     7
100
AcDbLine
 10
1451.722182707059
 20
1263.339056237915
 30
0.0
 11
1451.31545751502
 21
1270.085559704084
 31
0.0
  0
ARC
  5
42B4
330
1F
100
AcDbEntity
  8
PIC01
  6
Continuous
 62
     7
100
AcDbCircle
 10
1451.840078975195
 20
1263.346163828171
 30
0.0
 40
0.118110320801005
100
AcDbArc
 50
183.4500043014061
 51
270.0
  0
LINE
  5
42B5
330
1F
100
AcDbEntity
  8
PIC01
  6
Continuous
 62
     7
100
AcDbLine
 10
1451.197561246884
 20
1270.196562434629
 30
0.0
 11
1450.893138257366
 21
1270.196562434629
 31
0.0
  0
LINE
  5
42B6
330
1F
100
AcDbEntity
  8
PIC01
  6
Continuous
 62
     7
100
AcDbLine
 10
1450.697652383664
 20
1270.370274123556
 30
0.0
 11
1450.413665726669
 21
1272.769502692763
 31
0.0
  0
ARC
  5
42B7
330
1F
100
AcDbEntity
  8
PIC01
  6
Continuous
 62
     7
100
AcDbCircle
 10
1451.197561246884
 20
1270.078452113828
 30
0.0
 40
0.118110320801005
100
AcDbArc
 50
3.450004301406165
 51
90.0
  0
ARC
  5
42B8
330
1F
100
AcDbEntity
  8
PIC01
  6
Continuous
 62
     7
100
AcDbCircle
 10
1450.296374202448
 20
1272.755619385318
 30
0.0
 40
0.1181103208010039
100
AcDbArc
 50
6.750453184579024
 51
90.0
  0
LINE
  5
42B9
330
1F
100
AcDbEntity
  8
PIC01
  6
Continuous
 62
     7
100
AcDbLine
 10
1450.998092865683
 20
1270.511523290099
 30
0.0
 11
1450.726443124592
 21
1272.80652484595
 31
0.0
  0
ARC
  5
42BA
330
1F
100
AcDbEntity
  8
PIC01
  6
Continuous
 62
     7
100
AcDbCircle
 10
1450.296374202448
 20
1272.755619385318
 30
0.0
 40
0.4330711762703513
100
AcDbArc
 50
6.750453184579024
 51
22.99457883811594
  0
LINE
  5
42BB
330
1F
100
AcDbEntity
  8
PIC01
  6
Continuous
 62
     7
100
AcDbLine
 10
1451.197561246884
 20
1270.511523290099
 30
0.0
 11
1450.998092865683
 21
1270.511523290099
 31
0.0
  0
ARC
  5
42BC
330
1F
100
AcDbEntity
  8
PIC01
  6
Continuous
 62
     7
100
AcDbCircle
 10
1451.197561246884
 20
1270.078452113828
 30
0.0
 40
0.4330711762703528
100
AcDbArc
 50
66.39612483761645
 51
90.0
  0
ARC
  5
42BD
330
1F
100
AcDbEntity
  8
PIC01
  6
Continuous
 62
     7
100
AcDbCircle
 10
1450.309779042218
 20
1279.43140893917
 30
0.0
 40
7.559060531264307
100
AcDbArc
 50
287.2895106598894
 51
307.3173855349963
  0
ARC
  5
42BE
330
1F
100
AcDbEntity
  8
PIC01
  6
Continuous
 62
     7
100
AcDbCircle
 10
1453.05946676932
 20
1270.597482224584
 30
0.0
 40
1.692914598147735
100
AcDbArc
 50
107.2895106598894
 51
184.1391062928178
  0
LINE
  5
42C0
330
1F
100
AcDbEntity
  8
PIC01
  6
Continuous
 62
     7
100
AcDbLine
 10
1450.413665726669
 20
1272.769502692763
 30
0.0
 11
1450.401328810765
 21
1272.873729706119
 31
0.0
  0
LINE
  5
42C1
330
1F
100
AcDbEntity
  8
PIC01
  6
Continuous
 62
     7
100
AcDbLine
 10
1450.296374202448
 20
1272.873729706119
 30
0.0
 11
1450.401328810765
 21
1272.873729706119
 31
0.0
  0
ARC
  5
42C7
330
1F
100
AcDbEntity
  8
PIC01
  6
Continuous
 62
     7
100
AcDbCircle
 10
1450.893138257366
 20
1270.393412969298
 30
0.0
 40
0.1968505346683413
100
AcDbArc
 50
186.750453184579
 51
270.0
  0
ARC
  5
42C8
330
1F
100
AcDbEntity
  8
PIC01
  6
DASHED
 62
     7
100
AcDbCircle
 10
1431.36779193605
 20
1287.055497335399
 30
0.0
 40
0.1181103208010048
100
AcDbArc
 50
181.2811224824906
 51
270.0
  0
ARC
  5
42C9
330
1F
100
AcDbEntity
  8
PIC01
  6
DASHED
 62
     7
100
AcDbCircle
 10
1431.36779193605
 20
1297.961016956025
 30
0.0
 40
0.1181103208010048
100
AcDbArc
 50
90.0
 51
178.7188775175094
  0
LINE
  5
42CF
330
1F
100
AcDbEntity
  8
PIC01
  6
Continuous
 62
     7
100
AcDbLine
 10
1448.119125097131
 20
1272.954554026624
 30
0.0
 11
1443.008657437764
 21
1272.384855958988
 31
0.0
  0
ARC
  5
42D0
330
1F
100
AcDbEntity
  8
PIC01
  6
Continuous
 62
     7
100
AcDbCircle
 10
1448.629674830489
 20
1272.952469919986
 30
0.0
 40
0.3149608554693461
100
AcDbArc
 50
90.0
 51
149.9847548549003
  0
ARC
  5
42D1
330
1F
100
AcDbEntity
  8
PIC01
  6
Continuous
 62
     7
100
AcDbCircle
 10
1448.084230449878
 20
1273.267575917346
 30
0.0
 40
0.3149608554693453
100
AcDbArc
 50
276.3608821400547
 51
329.9847548549004
  0
ARC
  5
42D2
330
1F
100
AcDbEntity
  8
PIC01
  6
Continuous
 62
     7
100
AcDbCircle
 10
1454.294946138866
 20
1275.623713115818
 30
0.0
 40
1.968505346683413
100
AcDbArc
 50
276.3608821400547
 51
316.3046036747563
  0
ARC
  5
42D3
330
1F
100
AcDbEntity
  8
PIC01
  6
Continuous
 62
     7
100
AcDbCircle
 10
1454.294946138866
 20
1275.623713115818
 30
0.0
 40
2.283466202152757
100
AcDbArc
 50
276.3608821400547
 51
285.165164567992
  0
LINE
  5
42D4
330
1F
100
AcDbEntity
  8
PIC01
  6
Continuous
 62
     7
100
AcDbLine
 10
1450.695034330889
 20
1272.924796055421
 30
0.0
 11
1454.547932331451
 21
1273.354304408085
 31
0.0
  0
ARC
  5
42D5
330
1F
100
AcDbEntity
  8
PIC01
  6
Continuous
 62
     7
100
AcDbCircle
 10
1443.074084901364
 20
1271.797939913885
 30
0.0
 40
0.5905516040050235
100
AcDbArc
 50
96.36088214005466
 51
135.0
  0
LINE
  5
42D7
330
1F
100
AcDbEntity
  8
PIC01
  6
Continuous
 62
     7
100
AcDbLine
 10
1443.008657437764
 20
1272.384855958988
 30
0.0
 11
1442.802897410017
 21
1272.361918510203
 31
0.0
  0
LINE
  5
42D8
330
1F
100
AcDbEntity
  8
PIC01
  6
Continuous
 62
     7
100
AcDbLine
 10
1442.665091591549
 20
1272.224112691735
 30
0.0
 11
1442.802897410017
 21
1272.361918510203
 31
0.0
  0
LINE
  5
42D9
330
1F
100
AcDbEntity
  8
PIC01
  6
DASHED
 62
     7
100
AcDbLine
 10
1448.119125097131
 20
1272.954554026624
 30
0.0
 11
1450.925781108635
 21
1273.267430775455
 31
0.0
  0
LINE
  5
42DA
330
1F
100
AcDbEntity
  8
PIC01
  6
Continuous
 62
     7
100
AcDbLine
 10
1450.925781108635
 20
1273.267430775455
 30
0.0
 11
1454.513037684198
 21
1273.667326298807
 31
0.0
  0
ARC
  5
42EF
330
1F
100
AcDbEntity
  8
PIC01
  6
Continuous
 62
     7
100
AcDbCircle
 10
1450.309779042217
 20
1279.431408939171
 30
0.0
 40
7.480320317397544
100
AcDbArc
 50
310.4592151305303
 51
316.3046036747563
  0
LINE
  5
42F0
330
1F
100
AcDbEntity
  8
PIC01
  6
Continuous
 62
     7
100
AcDbLine
 10
1454.513037684198
 20
1273.667326298807
 30
0.0
 11
1455.163808295183
 21
1273.739872058659
 31
0.0
  0
LINE
  5
42F1
330
1F
100
AcDbEntity
  8
PIC01
  6
Continuous
 62
     7
100
AcDbLine
 10
1448.162743406198
 20
1272.563276663222
 30
0.0
 11
1443.207361648614
 21
1272.010867060058
 31
0.0
  0
ARC
  5
42F2
330
1F
100
AcDbEntity
  8
PIC01
  6
Continuous
 62
     7
100
AcDbCircle
 10
1443.220447141334
 20
1271.893483851037
 30
0.0
 40
0.118110320801005
100
AcDbArc
 50
96.36088214005466
 51
171.8850184214698
  0
LINE
  5
42F3
330
1F
100
AcDbEntity
  8
PIC01
  6
Continuous
 62
     7
100
AcDbLine
 10
1443.207361648614
 20
1272.010867060058
 30
0.0
 11
1443.116434304049
 21
1272.00073077979
 31
0.0
  0
LINE
  5
42F4
330
1F
100
AcDbEntity
  8
PIC01
  6
Continuous
 62
     7
100
AcDbLine
 10
1443.103519485004
 20
1271.910156315307
 30
0.0
 11
1443.116434304049
 21
1272.00073077979
 31
0.0
  0
ARC
  5
42F6
330
1F
100
AcDbEntity
  8
PIC01
  6
Continuous
 62
     7
100
AcDbCircle
 10
1448.084230449878
 20
1273.267575917346
 30
0.0
 40
0.7086619248060276
100
AcDbArc
 50
276.3608821400547
 51
323.1168995445039
  0
ARC
  5
42F7
330
1F
100
AcDbEntity
  8
PIC01
  6
Continuous
 62
     7
100
AcDbCircle
 10
1448.714043278268
 20
1272.794989492251
 30
0.0
 40
0.0787402138673365
100
AcDbArc
 50
90.0
 51
143.1168995445038
  0
LINE
  5
4303
330
1F
100
AcDbEntity
  8
PIC01
  6
DASHED
 62
     7
100
AcDbLine
 10
1436.031236633575
 20
1263.188683400436
 30
0.0
 11
1436.031236633575
 21
1263.543014362839
 31
0.0
  0
LINE
  5
4304
330
1F
100
AcDbEntity
  8
PIC01
  6
DASHED
 62
     7
100
AcDbLine
 10
1435.637535564239
 20
1263.188683400436
 30
0.0
 11
1435.637535564239
 21
1263.543014362839
 31
0.0
  0
ARC
  5
4305
330
1F
100
AcDbEntity
  8
PIC01
  6
DASHED
 62
     7
100
AcDbCircle
 10
1436.109976847443
 20
1263.543014362839
 30
0.0
 40
0.0787402138673365
100
AcDbArc
 50
90.0
 51
180.0
  0
ARC
  5
4306
330
1F
100
AcDbEntity
  8
PIC01
  6
DASHED
 62
     7
100
AcDbCircle
 10
1435.558795350371
 20
1263.543014362839
 30
0.0
 40
0.0787402138673365
100
AcDbArc
 50
0.0
 51
90.0
  0
ARC
  5
4307
330
1F
100
AcDbEntity
  8
PIC01
  6
DASHED
 62
     7
100
AcDbCircle
 10
1435.952496419708
 20
1263.188683400436
 30
0.0
 40
0.0787402138673365
100
AcDbArc
 50
270.0
 51
0.0
  0
ARC
  5
4308
330
1F
100
AcDbEntity
  8
PIC01
  6
DASHED
 62
     7
100
AcDbCircle
 10
1435.716275778106
 20
1263.188683400436
 30
0.0
 40
0.0787402138673365
100
AcDbArc
 50
180.0
 51
270.0
  0
LINE
  5
4309
330
1F
100
AcDbEntity
  8
PIC01
  6
DASHED
 62
     7
100
AcDbLine
 10
1437.330453909528
 20
1263.621754576707
 30
0.0
 11
1436.109976847443
 21
1263.621754576707
 31
0.0
  0
LINE
  5
430A
330
1F
100
AcDbEntity
  8
PIC01
  6
DASHED
 62
     7
100
AcDbLine
 10
1435.558795350371
 20
1263.621754576707
 30
0.0
 11
1433.998978213375
 21
1263.621754576707
 31
0.0
  0
LINE
  5
430B
330
1F
100
AcDbEntity
  8
PIC01
  6
Continuous
 62
     7
100
AcDbLine
 10
1430.795016357052
 20
1277.283181613397
 30
0.0
 11
1430.873831241722
 21
1277.283181613397
 31
0.0
  0
ARC
  5
430C
330
1F
100
AcDbEntity
  8
PIC01
  6
Continuous
 62
     7
100
AcDbCircle
 10
1430.795016357052
 20
1277.440662041131
 30
0.0
 40
0.157480427734673
100
AcDbArc
 50
177.5057314395426
 51
270.0
  0
LINE
  5
430D
330
1F
100
AcDbEntity
  8
PIC01
  6
Continuous
 62
     7
100
AcDbLine
 10
1430.704793656973
 20
1278.988089838602
 30
0.0
 11
1430.637685129434
 21
1277.447515502711
 31
0.0
  0
ARC
  5
430E
330
1F
100
AcDbEntity
  8
PIC01
  6
Continuous
 62
     7
100
AcDbCircle
 10
1430.980123305305
 20
1278.976096280837
 30
0.0
 40
0.2755907485356781
100
AcDbArc
 50
41.81031489576417
 51
177.5057314395426
  0
ARC
  5
430F
330
1F
100
AcDbEntity
  8
PIC01
  6
Continuous
 62
     7
100
AcDbCircle
 10
1431.420294482231
 20
1279.369797350174
 30
0.0
 40
0.3149608554693461
100
AcDbArc
 50
221.8103148957642
 51
270.0
  0
LINE
  5
4310
330
1F
100
AcDbEntity
  8
PIC01
  6
Continuous
 62
     7
100
AcDbLine
 10
1431.081345001061
 20
1278.58582194229
 30
0.0
 11
1431.03116246934
 21
1277.433808579552
 31
0.0
  0
ARC
  5
4311
330
1F
100
AcDbEntity
  8
PIC01
  6
Continuous
 62
     7
100
AcDbCircle
 10
1431.16001061487
 20
1278.582395211501
 30
0.0
 40
0.0787402138673365
100
AcDbArc
 50
90.0
 51
177.5057314395426
  0
ARC
  5
4312
330
1F
100
AcDbEntity
  8
PIC01
  6
Continuous
 62
     7
100
AcDbCircle
 10
1430.873831241722
 20
1277.440662041131
 30
0.0
 40
0.1574804277346726
100
AcDbArc
 50
270.0
 51
357.5057314395426
  0
ARC
  5
4343
330
1F
100
AcDbEntity
  8
PIC01
  6
Continuous
 62
     7
100
AcDbCircle
 10
1434.161160824521
 20
1355.148557908861
 30
0.0
 40
70.23873140134764
100
AcDbArc
 50
267.6422696415082
 51
272.3577303584918
  0
ARC
  5
4344
330
1F
100
AcDbEntity
  8
PIC01
  6
Continuous
 62
     7
100
AcDbCircle
 10
1431.291077151323
 20
1285.441328322843
 30
0.0
 40
0.4724412832040199
100
AcDbArc
 50
181.6596605675576
 51
267.6422696415082
  0
ARC
  5
4345
330
1F
100
AcDbEntity
  8
PIC01
  6
Continuous
 62
     7
100
AcDbCircle
 10
1437.03124449772
 20
1285.441328322843
 30
0.0
 40
0.4724412832040109
100
AcDbArc
 50
272.3577303584918
 51
358.3403394324424
  0
ARC
  5
4346
330
1F
100
AcDbEntity
  8
PIC01
  6
Continuous
 62
     7
100
AcDbCircle
 10
1434.161160824521
 20
1355.148557908861
 30
0.0
 40
69.76629011814357
100
AcDbArc
 50
267.884608168211
 51
272.1153918317889
  0
ARC
  5
4347
330
1F
100
AcDbEntity
  8
PIC01
  6
Continuous
 62
     7
100
AcDbCircle
 10
1436.724759757067
 20
1285.74455876713
 30
0.0
 40
0.3149608554692754
100
AcDbArc
 50
272.1153918317889
 51
358.409517898779
  0
ARC
  5
4348
330
1F
100
AcDbEntity
  8
PIC01
  6
Continuous
 62
     7
100
AcDbCircle
 10
1431.597561891975
 20
1285.74455876713
 30
0.0
 40
0.3149608554693418
100
AcDbArc
 50
181.5904821012211
 51
267.884608168211
  0
ARC
  5
434B
330
1F
100
AcDbEntity
  8
PIC01
  6
Continuous
 62
     7
100
AcDbCircle
 10
1434.161160824521
 20
1229.867956382562
 30
0.0
 40
69.76629011814357
100
AcDbArc
 50
87.88460816821107
 51
92.1153918317889
  0
ARC
  5
434C
330
1F
100
AcDbEntity
  8
PIC01
  6
Continuous
 62
     7
100
AcDbCircle
 10
1436.724759757067
 20
1299.271955524293
 30
0.0
 40
0.3149608554692754
100
AcDbArc
 50
1.590482101221068
 51
87.88460816821107
  0
ARC
  5
434D
330
1F
100
AcDbEntity
  8
PIC01
  6
Continuous
 62
     7
100
AcDbCircle
 10
1431.597561891975
 20
1299.271955524293
 30
0.0
 40
0.3149608554693418
100
AcDbArc
 50
92.1153918317889
 51
178.4095178987789
  0
ARC
  5
434E
330
1F
100
AcDbEntity
  8
PIC01
  6
Continuous
 62
     7
100
AcDbCircle
 10
1434.161160824521
 20
1229.867956382562
 30
0.0
 40
70.23873140134764
100
AcDbArc
 50
87.64226964150825
 51
92.35773035849176
  0
ARC
  5
434F
330
1F
100
AcDbEntity
  8
PIC01
  6
Continuous
 62
     7
100
AcDbCircle
 10
1431.291077151323
 20
1299.57518596858
 30
0.0
 40
0.4724412832040199
100
AcDbArc
 50
92.35773035849176
 51
178.3403394324424
  0
ARC
  5
4350
330
1F
100
AcDbEntity
  8
PIC01
  6
Continuous
 62
     7
100
AcDbCircle
 10
1437.03124449772
 20
1299.57518596858
 30
0.0
 40
0.4724412832040109
100
AcDbArc
 50
1.65966056755758
 51
87.64226964150825
  0
VIEWPORT
  5
220
102
{ACAD_XDICTIONARY
360
4403
102
}
330
58
100
AcDbEntity
 67
     1
  8
0
100
AcDbViewport
 10
133.1884465048756
 20
109.1175889154594
 30
0.0
 40
445.141553439829
 41
249.3387543209733
 68
     1
 69
     1
 12
133.1884465048756
 22
109.1175889154594
 13
0.0
 23
0.0
 14
0.5
 24
0.5
 15
0.5
 25
0.5
 16
0.0
 26
0.0
 36
1.0
 17
0.0
 27
0.0
 37
0.0
 42
50.0
 43
0.0
 44
0.0
 45
249.3387543209733
 50
0.0
 51
0.0
 72
  1000
 90
    32800
  1

281
     0
 71
     1
 74
     0
110
0.0
120
0.0
130
0.0
111
1.0
121
0.0
131
0.0
112
0.0
122
1.0
132
0.0
 79
     0
146
0.0
  0
ENDSEC
  0
SECTION
  2
OBJECTS
  0
DICTIONARY
  5
C
330
0
100
AcDbDictionary
281
     1
  3
ACAD_2007HEADERVARS_RT
350
43FD
  3
ACAD_CIP_PREVIOUS_PRODUCT_INFO
350
43F0
  3
ACAD_COLOR
350
73
  3
ACAD_GROUP
350
D
  3
ACAD_LAYOUT
350
1A
  3
ACAD_MATERIAL
350
72
  3
ACAD_MLEADERSTYLE
350
43EC
  3
ACAD_MLINESTYLE
350
17
  3
ACAD_PLOTSETTINGS
350
19
  3
ACAD_PLOTSTYLENAME
350
E
  3
ACAD_SCALELIST
350
43DA
  3
ACAD_TABLESTYLE
350
86
  3
ACAD_VISUALSTYLE
350
43C1
  3
ACDB_RECOMPOSE_DATA
350
43FB
  3
AcDbVariableDictionary
350
66
  3
ASE_INDEX_DICTIONARY
350
3385
  3
DWGPROPS
350
43FC
  0
DICTIONARY
  5
1D0
330
2
100
AcDbDictionary
280
     1
281
     1
  3
ACAD_LAYERSTATES
360
1D1
  0
DICTIONARY
  5
4403
330
220
100
AcDbDictionary
280
     1
281
     1
  3
ACAD_XREC_ROUNDTRIP
360
4404
  0
DICTIONARY
  5
43FD
102
{ACAD_REACTORS
330
C
102
}
330
C
100
AcDbDictionary
281
     1
  3
DIMFXL
350
43FE
  0
XRECORD
  5
43F0
102
{ACAD_REACTORS
330
C
102
}
330
C
100
AcDbXrecord
280
     1
300
ACD
300
2012
300
85730ACD_2012_0F
  0
DICTIONARY
  5
73
102
{ACAD_REACTORS
330
C
102
}
330
C
100
AcDbDictionary
281
     1
  0
DICTIONARY
  5
D
102
{ACAD_REACTORS
330
C
102
}
330
C
100
AcDbDictionary
281
     1
  0
DICTIONARY
  5
1A
102
{ACAD_REACTORS
330
C
102
}
330
C
100
AcDbDictionary
281
     1
  3
Layout1
350
59
  3
Model
350
22
  0
DICTIONARY
  5
72
102
{ACAD_REACTORS
330
C
102
}
330
C
100
AcDbDictionary
281
     1
  3
ByBlock
350
43B1
  3
ByLayer
350
43A9
  3
Global
350
43B9
  0
DICTIONARY
  5
43EC
102
{ACAD_REACTORS
330
C
102
}
330
C
100
AcDbDictionary
281
     1
  3
Standard
350
43ED
  0
DICTIONARY
  5
17
102
{ACAD_REACTORS
330
C
102
}
330
C
100
AcDbDictionary
281
     1
  3
Standard
350
18
  0
DICTIONARY
  5
19
102
{ACAD_REACTORS
330
C
102
}
330
C
100
AcDbDictionary
281
     1
  0
ACDBDICTIONARYWDFLT
  5
E
102
{ACAD_REACTORS
330
C
102
}
330
C
100
AcDbDictionary
281
     1
  3
Normal
350
F
100
AcDbDictionaryWithDefault
340
F
  0
DICTIONARY
  5
43DA
102
{ACAD_REACTORS
330
C
102
}
330
C
100
AcDbDictionary
281
     1
  3
A0
350
43DB
  3
A1
350
43DC
  3
A2
350
43DD
  3
A3
350
43DE
  3
A4
350
43DF
  3
A5
350
43E0
  3
A6
350
43E1
  3
A7
350
43E2
  3
A8
350
43E3
  3
A9
350
43E4
  3
B0
350
43E5
  3
B1
350
43E6
  3
B2
350
43E7
  3
B3
350
43E8
  3
B4
350
43E9
  3
B5
350
43EA
  3
B6
350
43EB
  0
DICTIONARY
  5
86
102
{ACAD_REACTORS
330
C
102
}
330
C
100
AcDbDictionary
281
     1
  3
Standard
350
87
  0
DICTIONARY
  5
43C1
102
{ACAD_REACTORS
330
C
102
}
330
C
100
AcDbDictionary
281
     1
  3
2dWireframe
350
43C7
  3
Basic
350
43C6
  3
Brighten
350
43CD
  3
ColorChange
350
43D1
  3
Conceptual
350
43CA
  3
Dim
350
43CC
  3
EdgeColorOff
350
43D9
  3
Facepattern
350
43D0
  3
Flat
350
43C2
  3
FlatWithEdges
350
43C3
  3
Gouraud
350
43C4
  3
GouraudWithEdges
350
43C5
  3
Hidden
350
43C9
  3
JitterOff
350
43D7
  3
Linepattern
350
43CF
  3
OverhangOff
350
43D8
  3
Realistic
350
43CB
  3
Shaded
350
43D6
  3
Shaded with edges
350
43D5
  3
Shades of Gray
350
43D2
  3
Sketchy
350
43D3
  3
Thicken
350
43CE
  3
Wireframe
350
43C8
  3
X-Ray
350
43D4
  0
XRECORD
  5
43FB
102
{ACAD_REACTORS
330
C
102
}
330
C
100
AcDbXrecord
280
     1
 90
        1
330
87
  0
DICTIONARY
  5
66
102
{ACAD_REACTORS
330
C
102
}
330
C
100
AcDbDictionary
281
     1
  3
CANNOSCALE
350
43F2
  3
CMLEADERSTYLE
350
43F1
  3
CTABLESTYLE
350
1FB
  3
DIMASSOC
350
67
  3
HIDETEXT
350
6B
  3
INDEXCTL
350
43F4
  3
PROJECTNAME
350
43A7
  3
SORTENTS
350
43F3
  3
XCLIPFRAME
350
43F5
  0
DICTIONARY
  5
3385
102
{ACAD_REACTORS
330
C
102
}
330
C
100
AcDbDictionary
281
     1
  3
ASEBlockHierarchyIndexRecord
350
3386
1001
DCO15
1040
1691405461.543
  0
XRECORD
  5
43FC
102
{ACAD_REACTORS
330
C
102
}
330
C
100
AcDbXrecord
280
     1
  1
DWGPROPS COOKIE
  2

  3

  4

  6

  7

  8
jgayle
  9

300
=
301
=
302
=
303
=
304
=
305
=
306
=
307
=
308
=
309
=
 40
0.069003275462963
 41
2454741.57157603
 42
2456134.629455602
  1

 90
        0
  0
DICTIONARY
  5
1D1
102
{ACAD_REACTORS
330
1D0
102
}
330
1D0
100
AcDbDictionary
281
     1
  0
XRECORD
  5
4404
102
{ACAD_REACTORS
330
4403
102
}
330
4403
100
AcDbXrecord
280
     1
102
SHADEPLOT
 70
     0
  0
XRECORD
  5
43FE
102
{ACAD_REACTORS
330
43FD
102
}
330
43FD
100
AcDbXrecord
280
     1
 40
0.18
  0
LAYOUT
  5
59
102
{ACAD_XDICTIONARY
360
227
102
}
102
{ACAD_REACTORS
330
1A
102
}
330
1A
100
AcDbPlotSettings
  1

  2
none_device
  4
ISO_A4_(210.00_x_297.00_MM)
  6

 40
7.5
 41
20.0
 42
7.5
 43
20.0
 44
210.0
 45
297.0
 46
0.0
 47
0.0
 48
0.0
 49
0.0
140
0.0
141
0.0
142
1.0
143
1.0
 70
   688
 72
     1
 73
     1
 74
     5
  7

 75
    16
147
1.0
148
0.0
149
0.0
100
AcDbLayout
  1
Layout1
 70
     1
 71
     1
 10
-20.0
 20
-7.5
 11
277.0
 21
202.5
 12
0.0
 22
0.0
 32
0.0
 14
1.000000000000000E+20
 24
1.000000000000000E+20
 34
1.000000000000000E+20
 15
-1.000000000000000E+20
 25
-1.000000000000000E+20
 35
-1.000000000000000E+20
146
0.0
 13
0.0
 23
0.0
 33
0.0
 16
1.0
 26
0.0
 36
0.0
 17
0.0
 27
1.0
 37
0.0
 76
     0
330
58
331
220
1001
ACAD_PSEXT
1000
None
1000
None
1000
Not applicable
1000
The layout will not be plotted unless a new plotter configuration name is selected.
1070
     0
  0
LAYOUT
  5
22
102
{ACAD_XDICTIONARY
360
43FF
102
}
102
{ACAD_REACTORS
330
1A
102
}
330
1A
100
AcDbPlotSettings
  1

  2
none_device
  4
ANSI_A_(8.50_x_11.00_Inches)
  6

 40
6.349999904632568
 41
19.04999923706055
 42
6.350006103515625
 43
19.04998779296875
 44
215.8999938964844
 45
279.3999938964844
 46
0.0
 47
0.0
 48
0.0
 49
0.0
140
0.0
141
0.0
142
1.0
143
2.584895464708373
 70
 11952
 72
     0
 73
     1
 74
     0
  7

 75
     0
147
0.3868628397755418
148
0.0
149
0.0
100
AcDbLayout
  1
Model
 70
     1
 71
     0
 10
0.0
 20
0.0
 11
12.0
 21
9.0
 12
0.0
 22
0.0
 32
0.0
 14
0.0
 24
0.0
 34
0.0
 15
0.0
 25
0.0
 35
0.0
146
0.0
 13
0.0
 23
0.0
 33
0.0
 16
1.0
 26
0.0
 36
0.0
 17
0.0
 27
1.0
 37
0.0
 76
     0
330
1F
331
439F
  0
MATERIAL
  5
43B1
102
{ACAD_XDICTIONARY
360
43B2
102
}
102
{ACAD_REACTORS
330
72
102
}
330
72
100
AcDbMaterial
  1
ByBlock
 72
     0
 43
0.0208333333333333
 43
0.0
 43
0.0
 43
0.0
 43
0.0
 43
0.0208333333333333
 43
0.0
 43
0.0
 43
0.0
 43
0.0
 43
1.0
 43
0.0
 43
0.0
 43
0.0
 43
0.0
 43
1.0
 77
     0
 47
0.0208333333333333
 47
0.0
 47
0.0
 47
0.0
 47
0.0
 47
0.0208333333333333
 47
0.0
 47
0.0
 47
0.0
 47
0.0
 47
1.0
 47
0.0
 47
0.0
 47
0.0
 47
0.0
 47
1.0
171
     0
 49
0.0208333333333333
 49
0.0
 49
0.0
 49
0.0
 49
0.0
 49
0.0208333333333333
 49
0.0
 49
0.0
 49
0.0
 49
0.0
 49
1.0
 49
0.0
 49
0.0
 49
0.0
 49
0.0
 49
1.0
175
     0
142
0.0208333333333333
142
0.0
142
0.0
142
0.0
142
0.0
142
0.0208333333333333
142
0.0
142
0.0
142
0.0
142
0.0
142
1.0
142
0.0
142
0.0
142
0.0
142
0.0
142
1.0
179
     0
144
0.0208333333333333
144
0.0
144
0.0
144
0.0
144
0.0
144
0.0208333333333333
144
0.0
144
0.0
144
0.0
144
0.0
144
1.0
144
0.0
144
0.0
144
0.0
144
0.0
144
1.0
147
0.0208333333333333
147
0.0
147
0.0
147
0.0
147
0.0
147
0.0208333333333333
147
0.0
147
0.0
147
0.0
147
0.0
147
1.0
147
0.0
147
0.0
147
0.0
147
0.0
147
1.0
  0
MATERIAL
  5
43A9
102
{ACAD_XDICTIONARY
360
43AA
102
}
102
{ACAD_REACTORS
330
72
102
}
330
72
100
AcDbMaterial
  1
ByLayer
 72
     0
 43
0.0208333333333333
 43
0.0
 43
0.0
 43
0.0
 43
0.0
 43
0.0208333333333333
 43
0.0
 43
0.0
 43
0.0
 43
0.0
 43
1.0
 43
0.0
 43
0.0
 43
0.0
 43
0.0
 43
1.0
 77
     0
 47
0.0208333333333333
 47
0.0
 47
0.0
 47
0.0
 47
0.0
 47
0.0208333333333333
 47
0.0
 47
0.0
 47
0.0
 47
0.0
 47
1.0
 47
0.0
 47
0.0
 47
0.0
 47
0.0
 47
1.0
171
     0
 49
0.0208333333333333
 49
0.0
 49
0.0
 49
0.0
 49
0.0
 49
0.0208333333333333
 49
0.0
 49
0.0
 49
0.0
 49
0.0
 49
1.0
 49
0.0
 49
0.0
 49
0.0
 49
0.0
 49
1.0
175
     0
142
0.0208333333333333
142
0.0
142
0.0
142
0.0
142
0.0
142
0.0208333333333333
142
0.0
142
0.0
142
0.0
142
0.0
142
1.0
142
0.0
142
0.0
142
0.0
142
0.0
142
1.0
179
     0
144
0.0208333333333333
144
0.0
144
0.0
144
0.0
144
0.0
144
0.0208333333333333
144
0.0
144
0.0
144
0.0
144
0.0
144
1.0
144
0.0
144
0.0
144
0.0
144
0.0
144
1.0
147
0.0208333333333333
147
0.0
147
0.0
147
0.0
147
0.0
147
0.0208333333333333
147
0.0
147
0.0
147
0.0
147
0.0
147
1.0
147
0.0
147
0.0
147
0.0
147
0.0
147
1.0
  0
MATERIAL
  5
43B9
102
{ACAD_XDICTIONARY
360
43BA
102
}
102
{ACAD_REACTORS
330
72
102
}
330
72
100
AcDbMaterial
  1
Global
 72
     0
 43
0.0208333333333333
 43
0.0
 43
0.0
 43
0.0
 43
0.0
 43
0.0208333333333333
 43
0.0
 43
0.0
 43
0.0
 43
0.0
 43
1.0
 43
0.0
 43
0.0
 43
0.0
 43
0.0
 43
1.0
 77
     0
 47
0.0208333333333333
 47
0.0
 47
0.0
 47
0.0
 47
0.0
 47
0.0208333333333333
 47
0.0
 47
0.0
 47
0.0
 47
0.0
 47
1.0
 47
0.0
 47
0.0
 47
0.0
 47
0.0
 47
1.0
171
     0
 49
0.0208333333333333
 49
0.0
 49
0.0
 49
0.0
 49
0.0
 49
0.0208333333333333
 49
0.0
 49
0.0
 49
0.0
 49
0.0
 49
1.0
 49
0.0
 49
0.0
 49
0.0
 49
0.0
 49
1.0
175
     0
142
0.0208333333333333
142
0.0
142
0.0
142
0.0
142
0.0
142
0.0208333333333333
142
0.0
142
0.0
142
0.0
142
0.0
142
1.0
142
0.0
142
0.0
142
0.0
142
0.0
142
1.0
179
     0
144
0.0208333333333333
144
0.0
144
0.0
144
0.0
144
0.0
144
0.0208333333333333
144
0.0
144
0.0
144
0.0
144
0.0
144
1.0
144
0.0
144
0.0
144
0.0
144
0.0
144
1.0
147
0.0208333333333333
147
0.0
147
0.0
147
0.0
147
0.0
147
0.0208333333333333
147
0.0
147
0.0
147
0.0
147
0.0
147
1.0
147
0.0
147
0.0
147
0.0
147
0.0
147
1.0
  0
MLEADERSTYLE
  5
43ED
102
{ACAD_XDICTIONARY
360
43F9
102
}
102
{ACAD_REACTORS
330
43EC
102
}
330
43EC
100
AcDbMLeaderStyle
170
     2
171
     1
172
     0
 90
        2
 40
0.0
 41
0.0
173
     1
 91
-1056964608
340
14
 92
       -2
290
     1
 42
0.09
291
     1
 43
0.36
  3
Standard
 44
0.18
300

342
11
174
     1
178
     6
175
     1
176
     0
 93
-1056964608
 45
0.18
292
     0
297
     0
 46
0.18
 94
-1056964608
 47
1.0
 49
1.0
140
1.0
293
     1
141
0.0
294
     1
177
     0
142
1.0
295
     0
296
     0
143
0.125
1001
ACAD_MLEADERVER
1070
     2
  0
MLINESTYLE
  5
18
102
{ACAD_REACTORS
330
17
102
}
330
17
100
AcDbMlineStyle
  2
STANDARD
 70
     0
  3

 62
   256
 51
90.0
 52
90.0
 71
     2
 49
0.5
 62
   256
  6
BYLAYER
 49
-0.5
 62
   256
  6
BYLAYER
  0
ACDBPLACEHOLDER
  5
F
102
{ACAD_REACTORS
330
E
102
}
330
E
  0
SCALE
  5
43DB
102
{ACAD_REACTORS
330
43DA
102
}
330
43DA
100
AcDbScale
 70
     0
300
1:1
140
1.0
141
1.0
290
     1
  0
SCALE
  5
43DC
102
{ACAD_REACTORS
330
43DA
102
}
330
43DA
100
AcDbScale
 70
     0
300
1/128" = 1'-0"
140
0.0078125
141
12.0
290
     0
  0
SCALE
  5
43DD
102
{ACAD_REACTORS
330
43DA
102
}
330
43DA
100
AcDbScale
 70
     0
300
1/64" = 1'-0"
140
0.015625
141
12.0
290
     0
  0
SCALE
  5
43DE
102
{ACAD_REACTORS
330
43DA
102
}
330
43DA
100
AcDbScale
 70
     0
300
1/32" = 1'-0"
140
0.03125
141
12.0
290
     0
  0
SCALE
  5
43DF
102
{ACAD_REACTORS
330
43DA
102
}
330
43DA
100
AcDbScale
 70
     0
300
1/16" = 1'-0"
140
0.0625
141
12.0
290
     0
  0
SCALE
  5
43E0
102
{ACAD_REACTORS
330
43DA
102
}
330
43DA
100
AcDbScale
 70
     0
300
3/32" = 1'-0"
140
0.09375
141
12.0
290
     0
  0
SCALE
  5
43E1
102
{ACAD_REACTORS
330
43DA
102
}
330
43DA
100
AcDbScale
 70
     0
300
1/8" = 1'-0"
140
0.125
141
12.0
290
     0
  0
SCALE
  5
43E2
102
{ACAD_REACTORS
330
43DA
102
}
330
43DA
100
AcDbScale
 70
     0
300
3/16" = 1'-0"
140
0.1875
141
12.0
290
     0
  0
SCALE
  5
43E3
102
{ACAD_REACTORS
330
43DA
102
}
330
43DA
100
AcDbScale
 70
     0
300
1/4" = 1'-0"
140
0.25
141
12.0
290
     0
  0
SCALE
  5
43E4
102
{ACAD_REACTORS
330
43DA
102
}
330
43DA
100
AcDbScale
 70
     0
300
3/8" = 1'-0"
140
0.375
141
12.0
290
     0
  0
SCALE
  5
43E5
102
{ACAD_REACTORS
330
43DA
102
}
330
43DA
100
AcDbScale
 70
     0
300
1/2" = 1'-0"
140
0.5
141
12.0
290
     0
  0
SCALE
  5
43E6
102
{ACAD_REACTORS
330
43DA
102
}
330
43DA
100
AcDbScale
 70
     0
300
3/4" = 1'-0"
140
0.75
141
12.0
290
     0
  0
SCALE
  5
43E7
102
{ACAD_REACTORS
330
43DA
102
}
330
43DA
100
AcDbScale
 70
     0
300
1" = 1'-0"
140
1.0
141
12.0
290
     0
  0
SCALE
  5
43E8
102
{ACAD_REACTORS
330
43DA
102
}
330
43DA
100
AcDbScale
 70
     0
300
1-1/2" = 1'-0"
140
1.5
141
12.0
290
     0
  0
SCALE
  5
43E9
102
{ACAD_REACTORS
330
43DA
102
}
330
43DA
100
AcDbScale
 70
     0
300
3" = 1'-0"
140
3.0
141
12.0
290
     0
  0
SCALE
  5
43EA
102
{ACAD_REACTORS
330
43DA
102
}
330
43DA
100
AcDbScale
 70
     0
300
6" = 1'-0"
140
6.0
141
12.0
290
     0
  0
SCALE
  5
43EB
102
{ACAD_REACTORS
330
43DA
102
}
330
43DA
100
AcDbScale
 70
     0
300
1'-0" = 1'-0"
140
12.0
141
12.0
290
     0
  0
TABLESTYLE
  5
87
102
{ACAD_XDICTIONARY
360
43F7
102
}
102
{ACAD_REACTORS
330
86
102
}
330
86
100
AcDbTableStyle
  3
Standard
 70
     0
 71
     0
 40
0.06
 41
0.06
280
     0
281
     0
  7
Standard
140
0.18
170
     2
 62
     0
 63
     7
283
     0
274
    -2
284
     1
 64
     0
275
    -2
285
     1
 65
     0
276
    -2
286
     1
 66
     0
277
    -2
287
     1
 67
     0
278
    -2
288
     1
 68
     0
279
    -2
289
     1
 69
     0
  7
Standard
140
0.25
170
     5
 62
     0
 63
     7
283
     0
274
    -2
284
     1
 64
     0
275
    -2
285
     1
 65
     0
276
    -2
286
     1
 66
     0
277
    -2
287
     1
 67
     0
278
    -2
288
     1
 68
     0
279
    -2
289
     1
 69
     0
  7
Standard
140
0.18
170
     5
 62
     0
 63
     7
283
     0
274
    -2
284
     1
 64
     0
275
    -2
285
     1
 65
     0
276
    -2
286
     1
 66
     0
277
    -2
287
     1
 67
     0
278
    -2
288
     1
 68
     0
279
    -2
289
     1
 69
     0
  0
VISUALSTYLE
  5
43C7
102
{ACAD_XDICTIONARY
360
4412
102
}
102
{ACAD_REACTORS
330
43C1
102
}
330
43C1
100
AcDbVisualStyle
  2
2dWireframe
 70
     4
 71
     0
 72
     2
 73
     0
 90
        0
 40
-0.6
 41
-30.0
 62
     5
 63
     7
 74
     1
 91
        4
 64
     7
 65
   257
 75
     1
175
     1
 42
1.0
 92
        0
 66
   257
 43
1.0
 76
     1
 77
     6
 78
     2
 67
     7
 79
     5
170
     0
171
     0
290
     0
174
     0
 93
        1
 44
0.0
173
     0
291
     0
 45
0.0
1001
ACAD
1000
AcDbSavedByObjectVersion
1070
     0
  0
VISUALSTYLE
  5
43C6
102
{ACAD_XDICTIONARY
360
4410
102
}
102
{ACAD_REACTORS
330
43C1
102
}
330
43C1
100
AcDbVisualStyle
  2
Basic
 70
     7
 71
     1
 72
     0
 73
     1
 90
        0
 40
-0.6
 41
-30.0
 62
     5
 63
     7
 74
     0
 91
        4
 64
     7
 65
   257
 75
     1
175
     1
 42
1.0
 92
        8
 66
     7
 43
1.0
 76
     1
 77
     6
 78
     2
 67
     7
 79
     5
170
     0
171
     0
290
     0
174
     0
 93
        1
 44
0.0
173
     0
291
     1
 45
0.0
1001
ACAD
1000
AcDbSavedByObjectVersion
1070
     0
  0
VISUALSTYLE
  5
43CD
102
{ACAD_XDICTIONARY
360
441E
102
}
102
{ACAD_REACTORS
330
43C1
102
}
330
43C1
100
AcDbVisualStyle
  2
Brighten
 70
    12
 71
     2
 72
     2
 73
     0
 90
        0
 40
-0.6
 41
-30.0
 62
     5
 63
     7
 74
     1
 91
        4
 64
     7
 65
   257
 75
     1
175
     1
 42
1.0
 92
        8
 66
     7
 43
1.0
 76
     1
 77
     6
 78
     2
 67
     7
 79
     5
170
     0
171
     0
290
     0
174
     0
 93
        1
 44
50.0
173
     0
291
     1
 45
0.0
1001
ACAD
1000
AcDbSavedByObjectVersion
1070
     0
  0
VISUALSTYLE
  5
43D1
102
{ACAD_XDICTIONARY
360
4426
102
}
102
{ACAD_REACTORS
330
43C1
102
}
330
43C1
100
AcDbVisualStyle
  2
ColorChange
 70
    16
 71
     2
 72
     2
 73
     3
 90
        0
 40
-0.6
 41
-30.0
 62
     5
 63
     8
 74
     1
 91
        4
 64
     7
 65
   257
 75
     1
175
     1
 42
1.0
 92
        8
 66
     8
 43
1.0
 76
     1
 77
     6
 78
     2
 67
     7
 79
     5
170
     0
171
     0
290
     0
174
     0
 93
        1
 44
0.0
173
     0
291
     1
 45
0.0
1001
ACAD
1000
AcDbSavedByObjectVersion
1070
     0
  0
VISUALSTYLE
  5
43CA
102
{ACAD_XDICTIONARY
360
4418
102
}
102
{ACAD_REACTORS
330
43C1
102
}
330
43C1
100
AcDbVisualStyle
  2
Conceptual
 70
     9
 71
     3
 72
     2
 73
     0
 90
        0
 40
-0.6
 41
-30.0
 62
     5
 63
     7
 74
     2
 91
        2
 64
     7
 65
   257
 75
     1
175
     1
 42
179.0
 92
        8
 66
     7
 43
1.0
 76
     1
 77
     6
 78
     2
 67
     7
 79
     3
170
     0
171
     0
290
     0
174
     0
 93
        1
 44
0.0
173
     0
291
     0
 45
0.0
1001
ACAD
1000
AcDbSavedByObjectVersion
1070
     0
  0
VISUALSTYLE
  5
43CC
102
{ACAD_XDICTIONARY
360
441C
102
}
102
{ACAD_REACTORS
330
43C1
102
}
330
43C1
100
AcDbVisualStyle
  2
Dim
 70
    11
 71
     2
 72
     2
 73
     0
 90
        0
 40
-0.6
 41
-30.0
 62
     5
 63
     7
 74
     1
 91
        4
 64
     7
 65
   257
 75
     1
175
     1
 42
1.0
 92
        8
 66
     7
 43
1.0
 76
     1
 77
     6
 78
     2
 67
     7
 79
     5
170
     0
171
     0
290
     0
174
     0
 93
        1
 44
-50.0
173
     0
291
     1
 45
0.0
1001
ACAD
1000
AcDbSavedByObjectVersion
1070
     0
  0
VISUALSTYLE
  5
43D9
102
{ACAD_XDICTIONARY
360
4436
102
}
102
{ACAD_REACTORS
330
43C1
102
}
330
43C1
100
AcDbVisualStyle
  2
EdgeColorOff
 70
    22
 71
     2
 72
     2
 73
     0
 90
        0
 40
-0.6
 41
-30.0
 62
     5
 63
     7
 74
     1
 91
        4
 64
     7
 65
   257
 75
     1
175
     1
 42
1.0
 92
        8
 66
     7
 43
1.0
 76
     1
 77
     6
 78
     2
 67
     7
 79
     5
170
     0
171
     0
290
     0
174
     0
 93
        1
 44
0.0
173
     0
291
     1
 45
0.0
1001
ACAD
1000
AcDbSavedByObjectVersion
1070
     0
  0
VISUALSTYLE
  5
43D0
102
{ACAD_XDICTIONARY
360
4424
102
}
102
{ACAD_REACTORS
330
43C1
102
}
330
43C1
100
AcDbVisualStyle
  2
Facepattern
 70
    15
 71
     2
 72
     2
 73
     0
 90
        0
 40
-0.6
 41
-30.0
 62
     5
 63
     7
 74
     1
 91
        4
 64
     7
 65
   257
 75
     1
175
     1
 42
1.0
 92
        8
 66
     7
 43
1.0
 76
     1
 77
     6
 78
     2
 67
     7
 79
     5
170
     0
171
     0
290
     0
174
     0
 93
        1
 44
0.0
173
     0
291
     1
 45
0.0
1001
ACAD
1000
AcDbSavedByObjectVersion
1070
     0
  0
VISUALSTYLE
  5
43C2
102
{ACAD_XDICTIONARY
360
4408
102
}
102
{ACAD_REACTORS
330
43C1
102
}
330
43C1
100
AcDbVisualStyle
  2
Flat
 70
     0
 71
     2
 72
     1
 73
     1
 90
        2
 40
-0.6
 41
30.0
 62
     5
 63
     7
 74
     0
 91
        0
 64
     7
 65
   257
 75
     1
175
     1
 42
1.0
 92
        8
 66
     7
 43
1.0
 76
     1
 77
     6
 78
     2
 67
     7
 79
     5
170
     0
171
     0
290
     0
174
     0
 93
       13
 44
0.0
173
     0
291
     1
 45
0.0
1001
ACAD
1000
AcDbSavedByObjectVersion
1070
     0
  0
VISUALSTYLE
  5
43C3
102
{ACAD_XDICTIONARY
360
440A
102
}
102
{ACAD_REACTORS
330
43C1
102
}
330
43C1
100
AcDbVisualStyle
  2
FlatWithEdges
 70
     1
 71
     2
 72
     1
 73
     1
 90
        2
 40
-0.6
 41
30.0
 62
     5
 63
     7
 74
     1
 91
        0
 64
     7
 65
   257
 75
     1
175
     1
 42
1.0
 92
        0
 66
   257
 43
1.0
 76
     1
 77
     6
 78
     2
 67
     7
 79
     5
170
     0
171
     0
290
     0
174
     0
 93
       13
 44
0.0
173
     0
291
     1
 45
0.0
1001
ACAD
1000
AcDbSavedByObjectVersion
1070
     0
  0
VISUALSTYLE
  5
43C4
102
{ACAD_XDICTIONARY
360
440C
102
}
102
{ACAD_REACTORS
330
43C1
102
}
330
43C1
100
AcDbVisualStyle
  2
Gouraud
 70
     2
 71
     2
 72
     2
 73
     1
 90
        2
 40
-0.6
 41
30.0
 62
     5
 63
     7
 74
     0
 91
        0
 64
     7
 65
   257
 75
     1
175
     1
 42
1.0
 92
        0
 66
     7
 43
1.0
 76
     1
 77
     6
 78
     2
 67
     7
 79
     5
170
     0
171
     0
290
     0
174
     0
 93
       13
 44
0.0
173
     0
291
     1
 45
0.0
1001
ACAD
1000
AcDbSavedByObjectVersion
1070
     0
  0
VISUALSTYLE
  5
43C5
102
{ACAD_XDICTIONARY
360
440E
102
}
102
{ACAD_REACTORS
330
43C1
102
}
330
43C1
100
AcDbVisualStyle
  2
GouraudWithEdges
 70
     3
 71
     2
 72
     2
 73
     1
 90
        2
 40
-0.6
 41
30.0
 62
     5
 63
     7
 74
     1
 91
        0
 64
     7
 65
   257
 75
     1
175
     1
 42
1.0
 92
        0
 66
   257
 43
1.0
 76
     1
 77
     6
 78
     2
 67
     7
 79
     5
170
     0
171
     0
290
     0
174
     0
 93
       13
 44
0.0
173
     0
291
     1
 45
0.0
1001
ACAD
1000
AcDbSavedByObjectVersion
1070
     0
  0
VISUALSTYLE
  5
43C9
102
{ACAD_XDICTIONARY
360
4416
102
}
102
{ACAD_REACTORS
330
43C1
102
}
330
43C1
100
AcDbVisualStyle
  2
Hidden
 70
     6
 71
     1
 72
     2
 73
     2
 90
        0
 40
-0.6
 41
-30.0
 62
     5
 63
     7
 74
     2
 91
        2
 64
     7
 65
   257
 75
     2
175
     1
 42
40.0
 92
        0
 66
   257
 43
1.0
 76
     1
 77
     6
 78
     2
 67
     7
 79
     3
170
     0
171
     0
290
     0
174
     0
 93
        1
 44
0.0
173
     0
291
     0
 45
0.0
1001
ACAD
1000
AcDbSavedByObjectVersion
1070
     0
  0
VISUALSTYLE
  5
43D7
102
{ACAD_XDICTIONARY
360
4432
102
}
102
{ACAD_REACTORS
330
43C1
102
}
330
43C1
100
AcDbVisualStyle
  2
JitterOff
 70
    20
 71
     2
 72
     2
 73
     0
 90
        0
 40
-0.6
 41
-30.0
 62
     5
 63
     7
 74
     1
 91
        4
 64
     7
 65
   257
 75
     1
175
     1
 42
1.0
 92
       10
 66
     7
 43
1.0
 76
     1
 77
     6
 78
     2
 67
     7
 79
     5
170
     0
171
     0
290
     0
174
     0
 93
        1
 44
0.0
173
     0
291
     1
 45
0.0
1001
ACAD
1000
AcDbSavedByObjectVersion
1070
     0
  0
VISUALSTYLE
  5
43CF
102
{ACAD_XDICTIONARY
360
4422
102
}
102
{ACAD_REACTORS
330
43C1
102
}
330
43C1
100
AcDbVisualStyle
  2
Linepattern
 70
    14
 71
     2
 72
     2
 73
     0
 90
        0
 40
-0.6
 41
-30.0
 62
     5
 63
     7
 74
     1
 91
        4
 64
     7
 65
   257
 75
     7
175
     7
 42
1.0
 92
        8
 66
     7
 43
1.0
 76
     1
 77
     6
 78
     2
 67
     7
 79
     5
170
     0
171
     0
290
     0
174
     0
 93
        1
 44
0.0
173
     0
291
     1
 45
0.0
1001
ACAD
1000
AcDbSavedByObjectVersion
1070
     0
  0
VISUALSTYLE
  5
43D8
102
{ACAD_XDICTIONARY
360
4434
102
}
102
{ACAD_REACTORS
330
43C1
102
}
330
43C1
100
AcDbVisualStyle
  2
OverhangOff
 70
    21
 71
     2
 72
     2
 73
     0
 90
        0
 40
-0.6
 41
-30.0
 62
     5
 63
     7
 74
     1
 91
        4
 64
     7
 65
   257
 75
     1
175
     1
 42
1.0
 92
        9
 66
     7
 43
1.0
 76
     1
 77
     6
 78
     2
 67
     7
 79
     5
170
     0
171
     0
290
     0
174
     0
 93
        1
 44
0.0
173
     0
291
     1
 45
0.0
1001
ACAD
1000
AcDbSavedByObjectVersion
1070
     0
  0
VISUALSTYLE
  5
43CB
102
{ACAD_XDICTIONARY
360
441A
102
}
102
{ACAD_REACTORS
330
43C1
102
}
330
43C1
100
AcDbVisualStyle
  2
Realistic
 70
     8
 71
     2
 72
     3
 73
     0
 90
        2
 40
-0.6
 41
30.0
 62
     5
 63
     7
 74
     0
 91
        0
 64
     7
 65
   257
 75
     1
175
     1
 42
1.0
 92
        8
 66
   257
 43
1.0
 76
     1
 77
     6
 78
     2
 67
     7
 79
     3
170
     0
171
     0
290
     0
174
     0
 93
       13
 44
0.0
173
     0
291
     0
 45
0.0
1001
ACAD
1000
AcDbSavedByObjectVersion
1070
     0
  0
VISUALSTYLE
  5
43D6
102
{ACAD_XDICTIONARY
360
4430
102
}
102
{ACAD_REACTORS
330
43C1
102
}
330
43C1
100
AcDbVisualStyle
  2
Shaded
 70
    27
 71
     2
 72
     2
 73
     1
 90
        2
 40
-0.6
 41
30.0
 62
     5
 63
     7
 74
     0
 91
        4
 64
     7
 65
   257
 75
     1
175
     1
 42
1.0
 92
        8
 66
   257
 43
1.0
 76
     1
 77
     6
 78
     2
 67
     8
 79
     3
170
     0
171
     0
290
     0
174
     0
 93
        5
 44
0.0
173
     0
291
     0
 45
0.0
1001
ACAD
1000
AcDbSavedByObjectVersion
1070
     0
  0
VISUALSTYLE
  5
43D5
102
{ACAD_XDICTIONARY
360
442E
102
}
102
{ACAD_REACTORS
330
43C1
102
}
330
43C1
100
AcDbVisualStyle
  2
Shaded with edges
 70
    26
 71
     2
 72
     2
 73
     1
 90
        2
 40
-0.6
 41
30.0
 62
     5
 63
     7
 74
     1
 91
       10
 64
     7
 65
   257
 75
     2
175
     1
 42
1.0
 92
        8
 66
   257
 43
1.0
 76
     1
 77
     6
 78
     2
 67
     7
 79
     3
170
     0
171
     0
290
     0
174
     0
 93
        5
 44
0.0
173
     0
291
     0
 45
0.0
1001
ACAD
1000
AcDbSavedByObjectVersion
1070
     0
  0
VISUALSTYLE
  5
43D2
102
{ACAD_XDICTIONARY
360
4428
102
}
102
{ACAD_REACTORS
330
43C1
102
}
330
43C1
100
AcDbVisualStyle
  2
Shades of Gray
 70
    23
 71
     2
 72
     2
 73
     3
 90
        0
 40
-0.6
 41
-30.0
 62
     5
 63
     7
 74
     2
 91
        2
 64
     7
 65
     7
 75
     1
175
     1
 42
40.0
 92
        8
 66
     7
 43
1.0
 76
     1
 77
     6
 78
     2
 67
     7
 79
     3
170
     0
171
     0
290
     0
174
     0
 93
        1
 44
0.0
173
     0
291
     0
 45
0.0
1001
ACAD
1000
AcDbSavedByObjectVersion
1070
     0
  0
VISUALSTYLE
  5
43D3
102
{ACAD_XDICTIONARY
360
442A
102
}
102
{ACAD_REACTORS
330
43C1
102
}
330
43C1
100
AcDbVisualStyle
  2
Sketchy
 70
    24
 71
     1
 72
     2
 73
     2
 90
        0
 40
-0.6
 41
-30.0
 62
     5
 63
     7
 74
     2
 91
        2
 64
     7
 65
     7
 75
     1
175
     1
 42
40.0
 92
       11
 66
     7
 43
1.0
 76
     1
 77
     6
 78
     2
 67
     7
 79
     6
170
     0
171
     0
290
     0
174
     0
 93
        1
 44
0.0
173
     0
291
     0
 45
0.0
1001
ACAD
1000
AcDbSavedByObjectVersion
1070
     0
  0
VISUALSTYLE
  5
43CE
102
{ACAD_XDICTIONARY
360
4420
102
}
102
{ACAD_REACTORS
330
43C1
102
}
330
43C1
100
AcDbVisualStyle
  2
Thicken
 70
    13
 71
     2
 72
     2
 73
     0
 90
        0
 40
-0.6
 41
-30.0
 62
     5
 63
     7
 74
     1
 91
        4
 64
     7
 65
   257
 75
     1
175
     1
 42
1.0
 92
       12
 66
     7
 43
1.0
 76
     1
 77
     6
 78
     2
 67
     7
 79
     5
170
     0
171
     0
290
     0
174
     0
 93
        1
 44
0.0
173
     0
291
     1
 45
0.0
1001
ACAD
1000
AcDbSavedByObjectVersion
1070
     0
  0
VISUALSTYLE
  5
43C8
102
{ACAD_XDICTIONARY
360
4414
102
}
102
{ACAD_REACTORS
330
43C1
102
}
330
43C1
100
AcDbVisualStyle
  2
Wireframe
 70
     5
 71
     0
 72
     2
 73
     0
 90
        0
 40
-0.6
 41
-30.0
 62
     5
 63
     7
 74
     1
 91
        4
 64
     7
 65
   257
 75
     1
175
     1
 42
1.0
 92
        0
 66
   257
 43
1.0
 76
     1
 77
     6
 78
     2
 67
     7
 79
     3
170
     0
171
     0
290
     0
174
     0
 93
        1
 44
0.0
173
     0
291
     0
 45
0.0
1001
ACAD
1000
AcDbSavedByObjectVersion
1070
     0
  0
VISUALSTYLE
  5
43D4
102
{ACAD_XDICTIONARY
360
442C
102
}
102
{ACAD_REACTORS
330
43C1
102
}
330
43C1
100
AcDbVisualStyle
  2
X-Ray
 70
    25
 71
     2
 72
     2
 73
     1
 90
        1
 40
0.5
 41
-30.0
 62
     5
 63
     7
 74
     1
 91
        0
 64
     7
 65
   257
 75
     1
175
     1
 42
1.0
 92
        8
 66
     7
 43
1.0
 76
     1
 77
     6
 78
     2
 67
     7
 79
     3
170
     0
171
     0
290
     0
174
     0
 93
       13
 44
0.0
173
     0
291
     0
 45
0.0
1001
ACAD
1000
AcDbSavedByObjectVersion
1070
     0
  0
DICTIONARYVAR
  5
43F2
102
{ACAD_REACTORS
330
66
102
}
330
66
100
DictionaryVariables
280
     0
  1
1:1
  0
DICTIONARYVAR
  5
43F1
102
{ACAD_REACTORS
330
66
102
}
330
66
100
DictionaryVariables
280
     0
  1
STANDARD
  0
DICTIONARYVAR
  5
1FB
102
{ACAD_REACTORS
330
66
102
}
330
66
100
DictionaryVariables
280
     0
  1
STANDARD
  0
DICTIONARYVAR
  5
67
102
{ACAD_REACTORS
330
66
102
}
330
66
100
DictionaryVariables
280
     0
  1
2
  0
DICTIONARYVAR
  5
6B
102
{ACAD_REACTORS
330
66
102
}
330
66
100
DictionaryVariables
280
     0
  1
1
  0
DICTIONARYVAR
  5
43F4
102
{ACAD_REACTORS
330
66
102
}
330
66
100
DictionaryVariables
280
     0
  1
0
  0
DICTIONARYVAR
  5
43A7
102
{ACAD_REACTORS
330
66
102
}
330
66
100
DictionaryVariables
280
     0
  1

  0
DICTIONARYVAR
  5
43F3
102
{ACAD_REACTORS
330
66
102
}
330
66
100
DictionaryVariables
280
     0
  1
127
  0
DICTIONARYVAR
  5
43F5
102
{ACAD_REACTORS
330
66
102
}
330
66
100
DictionaryVariables
280
     0
  1
2
  0
XRECORD
  5
3386
102
{ACAD_REACTORS
330
3385
102
}
330
3385
100
AcDbXrecord
280
     1
330
0
330
0
330
0
330
0
330
0
330
0
330
0
330
0
330
0
330
0
330
0
330
0
330
0
330
0
330
0
330
0
330
0
330
0
330
0
330
0
330
0
330
0
330
0
330
0
330
0
330
0
330
0
330
0
330
0
330
0
330
0
330
0
330
0
330
0
330
0
330
0
330
0
330
0
330
0
330
0
330
0
330
0
330
0
330
0
330
0
330
0
330
0
330
0
330
0
330
0
330
0
330
0
330
0
330
0
330
0
330
0
330
0
330
0
330
0
330
0
330
0
330
0
330
0
330
0
330
0
330
0
330
0
330
0
330
0
330
0
330
0
330
0
330
0
330
0
330
0
330
0
330
0
330
0
330
0
330
0
330
0
330
0
330
0
330
0
330
0
330
0
330
0
330
0
330
0
330
0
330
0
330
0
330
0
330
0
330
0
330
0
330
0
330
0
  0
DICTIONARY
  5
227
330
59
100
AcDbDictionary
280
     1
281
     1
  3
ACAD_XREC_ROUNDTRIP
360
4401
  3
ADSK_XREC_LAYOUTTHUMBNAIL
360
228
  0
DICTIONARY
  5
43FF
330
22
100
AcDbDictionary
280
     1
281
     1
  3
ACAD_XREC_ROUNDTRIP
360
4400
  0
DICTIONARY
  5
43B2
330
43B1
100
AcDbDictionary
280
     1
281
     1
  3
ACAD_XREC_ROUNDTRIP
360
4406
  3
BUMPTILE
360
43B4
  3
DIFFUSETILE
360
43B3
  3
OPACITYTILE
360
43B7
  3
REFLECTIONTILE
360
43B6
  3
REFRACTIONTILE
360
43B8
  3
SPECULARTILE
360
43B5
  0
DICTIONARY
  5
43AA
330
43A9
100
AcDbDictionary
280
     1
281
     1
  3
ACAD_XREC_ROUNDTRIP
360
4405
  3
BUMPTILE
360
43AC
  3
DIFFUSETILE
360
43AB
  3
OPACITYTILE
360
43AF
  3
REFLECTIONTILE
360
43AE
  3
REFRACTIONTILE
360
43B0
  3
SPECULARTILE
360
43AD
  0
DICTIONARY
  5
43BA
330
43B9
100
AcDbDictionary
280
     1
281
     1
  3
ACAD_XREC_ROUNDTRIP
360
4407
  3
BUMPTILE
360
43BC
  3
DIFFUSETILE
360
43BB
  3
OPACITYTILE
360
43BF
  3
REFLECTIONTILE
360
43BE
  3
REFRACTIONTILE
360
43C0
  3
SPECULARTILE
360
43BD
  0
DICTIONARY
  5
43F9
330
43ED
100
AcDbDictionary
280
     1
281
     1
  3
ACAD_XREC_ROUNDTRIP
360
43FA
  0
DICTIONARY
  5
43F7
330
87
100
AcDbDictionary
280
     1
281
     1
  3
ACAD_ROUNDTRIP_2008_TABLESTYLE_CELLSTYLEMAP
360
43F8
  3
ACAD_XREC_ROUNDTRIP
360
4402
  0
DICTIONARY
  5
4412
330
43C7
100
AcDbDictionary
280
     1
281
     1
  3
ACAD_XREC_ROUNDTRIP
360
4413
  0
DICTIONARY
  5
4410
330
43C6
100
AcDbDictionary
280
     1
281
     1
  3
ACAD_XREC_ROUNDTRIP
360
4411
  0
DICTIONARY
  5
441E
330
43CD
100
AcDbDictionary
280
     1
281
     1
  3
ACAD_XREC_ROUNDTRIP
360
441F
  0
DICTIONARY
  5
4426
330
43D1
100
AcDbDictionary
280
     1
281
     1
  3
ACAD_XREC_ROUNDTRIP
360
4427
  0
DICTIONARY
  5
4418
330
43CA
100
AcDbDictionary
280
     1
281
     1
  3
ACAD_XREC_ROUNDTRIP
360
4419
  0
DICTIONARY
  5
441C
330
43CC
100
AcDbDictionary
280
     1
281
     1
  3
ACAD_XREC_ROUNDTRIP
360
441D
  0
DICTIONARY
  5
4436
330
43D9
100
AcDbDictionary
280
     1
281
     1
  3
ACAD_XREC_ROUNDTRIP
360
4437
  0
DICTIONARY
  5
4424
330
43D0
100
AcDbDictionary
280
     1
281
     1
  3
ACAD_XREC_ROUNDTRIP
360
4425
  0
DICTIONARY
  5
4408
330
43C2
100
AcDbDictionary
280
     1
281
     1
  3
ACAD_XREC_ROUNDTRIP
360
4409
  0
DICTIONARY
  5
440A
330
43C3
100
AcDbDictionary
280
     1
281
     1
  3
ACAD_XREC_ROUNDTRIP
360
440B
  0
DICTIONARY
  5
440C
330
43C4
100
AcDbDictionary
280
     1
281
     1
  3
ACAD_XREC_ROUNDTRIP
360
440D
  0
DICTIONARY
  5
440E
330
43C5
100
AcDbDictionary
280
     1
281
     1
  3
ACAD_XREC_ROUNDTRIP
360
440F
  0
DICTIONARY
  5
4416
330
43C9
100
AcDbDictionary
280
     1
281
     1
  3
ACAD_XREC_ROUNDTRIP
360
4417
  0
DICTIONARY
  5
4432
330
43D7
100
AcDbDictionary
280
     1
281
     1
  3
ACAD_XREC_ROUNDTRIP
360
4433
  0
DICTIONARY
  5
4422
330
43CF
100
AcDbDictionary
280
     1
281
     1
  3
ACAD_XREC_ROUNDTRIP
360
4423
  0
DICTIONARY
  5
4434
330
43D8
100
AcDbDictionary
280
     1
281
     1
  3
ACAD_XREC_ROUNDTRIP
360
4435
  0
DICTIONARY
  5
441A
330
43CB
100
AcDbDictionary
280
     1
281
     1
  3
ACAD_XREC_ROUNDTRIP
360
441B
  0
DICTIONARY
  5
4430
330
43D6
100
AcDbDictionary
280
     1
281
     1
  3
ACAD_XREC_ROUNDTRIP
360
4431
  0
DICTIONARY
  5
442E
330
43D5
100
AcDbDictionary
280
     1
281
     1
  3
ACAD_XREC_ROUNDTRIP
360
442F
  0
DICTIONARY
  5
4428
330
43D2
100
AcDbDictionary
280
     1
281
     1
  3
ACAD_XREC_ROUNDTRIP
360
4429
  0
DICTIONARY
  5
442A
330
43D3
100
AcDbDictionary
280
     1
281
     1
  3
ACAD_XREC_ROUNDTRIP
360
442B
  0
DICTIONARY
  5
4420
330
43CE
100
AcDbDictionary
280
     1
281
     1
  3
ACAD_XREC_ROUNDTRIP
360
4421
  0
DICTIONARY
  5
4414
330
43C8
100
AcDbDictionary
280
     1
281
     1
  3
ACAD_XREC_ROUNDTRIP
360
4415
  0
DICTIONARY
  5
442C
330
43D4
100
AcDbDictionary
280
     1
281
     1
  3
ACAD_XREC_ROUNDTRIP
360
442D
  0
XRECORD
  5
4401
102
{ACAD_REACTORS
330
227
102
}
330
227
100
AcDbXrecord
280
     1
102
SHADEPLOT
 70
     0
102
SHADEPLOTRESLEVEL
 70
     2
102
SHADEPLOTCUSTOMDPI
 70
   300
  0
XRECORD
  5
228
102
{ACAD_REACTORS
330
227
102
}
330
227
100
AcDbXrecord
280
     1
310
28000000B40000007F00000001000800000000004C59000000000000000000000001000000000000FFFFFF0000000000FFFFFF000000000000000000000000000000000000000000000000000000000000000000330000006600000099000000CC000000FF00000000330000333300006633000099330000CC330000FF3300
310
0000660000336600006666000099660000CC660000FF66000000990000339900006699000099990000CC990000FF99000000CC000033CC000066CC000099CC0000CCCC0000FFCC000000FF000033FF000066FF000099FF0000CCFF0000FFFF000000003300330033006600330099003300CC003300FF003300003333003333
310
33006633330099333300CC333300FF33330000663300336633006666330099663300CC663300FF66330000993300339933006699330099993300CC993300FF99330000CC330033CC330066CC330099CC3300CCCC3300FFCC330000FF330033FF330066FF330099FF3300CCFF3300FFFF330000006600330066006600660099
310
006600CC006600FF00660000336600333366006633660099336600CC336600FF33660000666600336666006666660099666600CC666600FF66660000996600339966006699660099996600CC996600FF99660000CC660033CC660066CC660099CC6600CCCC6600FFCC660000FF660033FF660066FF660099FF6600CCFF6600
310
FFFF660000009900330099006600990099009900CC009900FF00990000339900333399006633990099339900CC339900FF33990000669900336699006666990099669900CC669900FF66990000999900339999006699990099999900CC999900FF99990000CC990033CC990066CC990099CC9900CCCC9900FFCC990000FF99
310
0033FF990066FF990099FF9900CCFF9900FFFF99000000CC003300CC006600CC009900CC00CC00CC00FF00CC000033CC003333CC006633CC009933CC00CC33CC00FF33CC000066CC003366CC006666CC009966CC00CC66CC00FF66CC000099CC003399CC006699CC009999CC00CC99CC00FF99CC0000CCCC0033CCCC0066CC
310
CC0099CCCC00CCCCCC00FFCCCC0000FFCC0033FFCC0066FFCC0099FFCC00CCFFCC00FFFFCC000000FF003300FF006600FF009900FF00CC00FF00FF00FF000033FF003333FF006633FF009933FF00CC33FF00FF33FF000066FF003366FF006666FF009966FF00CC66FF00FF66FF000099FF003399FF006699FF009999FF00CC
310
99FF00FF99FF0000CCFF0033CCFF0066CCFF0099CCFF00CCCCFF00FFCCFF0000FFFF0033FFFF0066FFFF0099FFFF00CCFFFF00FFFFFF00000000000D0D0D001A1A1A00282828003535350043434300505050005D5D5D006B6B6B00787878008686860093939300A1A1A100AEAEAE00BBBBBB00C9C9C900D6D6D600E4E4E400
310
F1F1F100FFFFFF0000000000000000000000000000000000000000000000000000000000000000000000000000000000E2E2E2E2E2E2E2E2E2E2E2E2E2E2E2E2E2E2E2E2E2E2E2E2E2E2E2E2E2E2E2E2E2E2E2E2E2E2E2E2E2E2E2E2E2E2E2E2E2E2E2E2E2E2E2E2E2E2E2E2E2E2E2E2E2E2E2E2E2E2E2E2E2E2E2E2E2E2E2
310
E2E2E2E2E2E2E2E2E2E2E2E2E2E2E2E2E2E2E2E2E2E2E2E2E2E2E2E2E2E2E2E2E2E2E2E2E2E2E2E2E2E2E2E2E2E2E2E2E2E2E2E2E2E2E2E2E2E2E2E2E2E2E2E2E2E2E2E2E2E2E2E2E2E2E2E2E2E2E2E2E2E2E2E2E2E2E2E2E2E2E2E2E2E2E2E2E2E2E2E2E2E2F5F5F5F5F5F5F5F5F5F5F5F5F5F5F5F5F5F5F5F5F5F5F5F5F5
310
F5F5F5F5F5F5F5F5F5F5F5F5F5F5F5F5F5F5F5F5F5F5F5F5F5F5F5F5F5F5F5F5F5F5F5F5F5F5F5F5F5F5F5F5F5F5F5F5F5F5F5F5F5F5F5F5F5F5F5F5F5F5F5F5F5F5F5F5F5F5F5F5F5F5F5F5F5F5F5F5F5F5F5F5F5F5F5F5F5F5F5F5F5F5F5F5F5F5F5F5F5F5F5F5F5F5F5F5F5F5F5F5F5F5F5F5F5F5F5F5F5F5F5F5F5F5F5
310
F5F5F5F5F5F5F5F5F5F5F5F5F5F5F5F5F5F5F5F5F5F5F5F5F5E2E2E2F5F5F5F5F5F5F5F5F5F5F5F5F5F5F5F5F5F5F5F5F5F5F5F5F5F5F5F5F5F5F5F5F5F5F5F5F5F5F5F5F5F5F5F5F5F5F5F5F5F5F5F5F5F5F5F5F5F5F5F5F5F5F5F5F5F5F5F5F5F5F5F5F5F5F5F5F5F5F5F5F5F5F5F5F5F5F5F5F5F5F5F5F5F5F5F5F5F5F5
310
F5F5F5F5F5F5F5F5F5F5F5F5F5F5F5F5F5F5F5F5F5F5F5F5F5F5F5F5F5F5F5F5F5F5F5F5F5F5F5F5F5F5F5F5F5F5F5F5F5F5F5F5F5F5F5F5F5F5F5F5F5F5F5F5F5F5F5F5F5F5F5F5F5F5F5F5F5F5E2E2E2F5F5F5F5F5F5F5F5F5F5F5F5F5F5F5F5F5F5F5F5F5F5F5F5F5F5F5F5F5F5F5F5F5F5F5F5F5F5F5F5F5F5F5F5F5F5
310
F5F5F5F5F5F5F5F5F5F5F5F5F5F5F5F5F5F5F5F5F5F5F5F5F5F5F5F5F5F5F5F5F5F5F5F5F5F5F5F5F5F5F5F5F5F5F5F5F5F5F5F5F5F5F5F5F5F5F5F5F5F5F5F5F5F5F5F5F5F5F5F5F5F5F5F5F5F5F5F5F5F5F5F5F5F5F5F5F5F5F5F5F5F5F5F5F5F5F5F5F5F5F5F5F5F5F5F5F5F5F5F5F5F5F5F5F5F5F5F5F5F5F5F5F5F5F5
310
F5F5F5F5E2E2E2F5F5F5F5F5F5F5F5F5F5F5F5F5F5F5F5F5F5F5F5F5F5F5F5F5F5F5F5F5F5F5F5F5F5F5F5F5F5F5F5F5F5F5F5F5F5F5F5F5F5F5F5F5F5F5F5F5F5F5F5F5F5F5F5F5F5F5F5F5F5F5F5F5F5F5F5F5F5F5F5F5F5F5F5F5F5F5F5F5F5F5F5F5F5F5F5F5F5F5F5F5F5F5F5F5F5F5F5F5F5F5F5F5F5F5F5F5F5F5F5
310
F5F5F5F5F5F5F5F5F5F5F5F5F5F5F5F5F5F5F5F5F5F5F5F5F5F5F5F5F5F5F5F5F5F5F5F5F5F5F5F5F5F5F5F5F5F5F5F5F5F5F5F5F5F5F5F5F5E2E2E2F5F5F5F5F5F5F5F5F5F5F5E2E2E2E2E2E2E2E2E2F5F5F5F5F5F5F5F5F5E2E2E2E2E2E2E2E2E2E2E2E2E2E2E2E2F5F5F5F5F5F5F5F5F5F5E2E2E2E2E2E2E2E2E2E2E2E2
310
E2E2E2E2F5F5F5F5F5F5F5F5F5E2E2E2E2E2E2E2E2E2E2E2E2E2E2E2E2E2F5F5F5F5F5F5F5F5F5E2E2E2E2E2E2E2E2E2E2E2E2E2E2E2E2F5F5F5F5F5F5F5F5F5F5E2E2E2E2E2E2E2E2E2E2E2E2E2E2E2E2F5F5F5F5F5F5F5F5F5E2E2E2E2E2E2E2E2E2F5F5F5F5F5F5F5F5F5F5F5E2E2E2F5F5F5F5F5F5F5F5F5F5F5E2F5F5
310
F5F5F5F5F5F5F5F5F5F5F5F5F5F5F5F5F5F5F5F5F5F5F5F5F5F5F5F5F5F5F5F5F5F5F5F5F5F5F5F5F5F5F5F5F5F5F5F5F5F5F5F5F5F5F5F5F5F5F5F5F5F5F5F5F5F5F5F5F5F5F5F5F5F5F5F5F5F5F5F5F5F5F5F5F5F5F5F5F5F5F5F5F5F5F5F5F5F5F5F5F5F5F5F5F5F5F5F5F5F5F5F5F5F5F5F5F5F5F5F5F5F5F5F5F5F5F5
310
F5F5F5F5F5F5F5F5F5F5F5F5F5F5F5F5F5F5F5F5F5F5F5F5E2F5F5F5F5F5F5F5F5F5F5F5E2E2E2F5F5F5F5F5F5F5F5F5F5F5E2F5F5F5F5F5F5F5F5F5F5F5F5F5F5F5F5F5F5F5F5F5F5F5F5F5F5F5F5F5F5F5F5F5F5F5F5F5F5F5F5F5F5F5F5F5F5F5F5F5F5F5F5F5F5F5F5F5F5F5F5F5F5F5F5F5F5F5F5F5F5F5F5F5F5F5F5
310
F5F5F5F5F5F5F5F5F5F5F5F5F5F5F5F5F5F5F5F5F5F5F5F5F5F5F5F5F5F5F5F5F5F5F5F5F5F5F5F5F5F5F5F5F5F5F5F5F5F5F5F5F5F5F5F5F5F5F5F5F5F5F5F5F5F5F5F5F5F5F5F5F5F5F5F5F5E2F5F5F5F5F5F5F5F5F5F5F5E2E2E2F5F5F5F5F5F5F5F5F5F5F5E2F5F5F5F5F5F5F5F5F5F5F5F5F5F5F5F5F5F5F5F5F5F5F5
310
F5F5F5F5F5F5F5F5F5F5F5F5F5F5F5F5F5F5F5F5F5F5F5F5F5F5F5F5F5F5F5F5F5F5F5F5F5F5F5F5F5F5F5F5F5F5F5F5F5F5F5F5F5F5F5F5F5F5F5F5F5F5F5F5F5F5F5F5F5F5F5F5F5F5F5F5F5F5F5F5F5F5F5F5F5F5F5F5F5F5F5F5F5F5F5F5F5F5F5F5F5F5F5F5F5F5F5F5F5F5F5F5F5F5F5F5F5F5F5F5F5F5F5F5F5F5F5
310
F5F5F5E2F5F5F5F5F5F5F5F5F5F5F5E2E2E2F5F5F5F5F5F5F5F5F5F5F5E2F5F5F5F5F5F5F5F5F5F5F5F5F5F5F5F5F5F5F5F5F5F5F5F5F5F5F5F5F5F5F5F5F5F5F5F5F5F5F5F5F5F5F5F5F5F5F5F5F5F5F5F5F5F5F5F5F5F5F5F5F5F5F5F5F5F5F5F5F5F5F5F5F5F5F5F5F5F5F5F5F5F5F5F5F5F5F5F5F5F5F5F5F5F5F5F5F5
310
F5F5F5F5F5F5F5F5F5F5F5F5F5F5F5F5F5F5F5F5F5F5F5F5F5F5F5F5F5F5F5F5F5F5F5F5F5F5F5F5F5F5F5F5F5F5F5F5F5F5F5F5F5F5F5F5E2F5F5F5F5F5F5F5F5F5F5F5E2E2E2F5F5F5F5F5F5F5F5F5F5F5E2F5F5F5F5F5F5F5F5F5F5F5F5F5F5F5F5F5F5F5F5F5F5F5F5F5F5F5F5F5F5F5F5F5F5F5F5F5F5F5F5F5F5F5F5
310
F5F5F5F5F5F5F5F5F5F5F5F5F5F5F5F5F5F5F5F5F5F5F5F5F5F5F5F5F5F5F5F5F5F5F5F5F5F5F5F5F5F5F5F5F5F5F5F5F5F5F5F5F5F5F5F5F5F5F5F5F5F5F5F5F5F5F5F5F5F5F5F5F5F5F5F5F5F5F5F5F5F5F5F5F5F5F5F5F5F5F5F5F5F5F5F5F5F5F5F5F5F5F5F5F5F5F5F5F5E2F5F5F5F5F5F5F5F5F5F5F5E2E2E2F5F5F5
310
F5F5F5F5F5F5F5F5E2F5F5F5F5F5F5F5F5F5F5F5F5F5F5F5F5F5F5F5F5F5F5F5F5F5F5F5F5F5F5F5F5F5F5F5F5F5F5F5F5F5F5F5F5F5F5F5F5F5F5F5F5F5F5F5F5F5F5F5F5F5F5F5F5F5F5F5F5F5F5F5F5F5F5F5F5F5F5F5F5F5F5F5F5F5F5F5F5F5F5F5F5F5F5F5F5F5F5F5F5F5F5F5F5F5F5F5F5F5F5F5F5F5F5F5F5F5F5
310
F5F5F5F5F5F5F5F5F5F5F5F5F5F5F5F5F5F5F5F5F5F5F5F5F5F5F5F5F5F5F5F5F5F5F5E2F5F5F5F5F5F5F5F5F5F5F5E2E2E2F5F5F5F5F5F5F5F5F5F5F5E2F5F5F5F5F5F5F5F5F5F5F5F5F5F5F5F5F5F5F5F5F5F5F5F5F5F5F5F5F5F5F5F5F5F5F5F5F5F5F5F5F5F5F5F5F5F5F5F5F5F5F5F5F5F5F5F5F5F5F5F5F5F5F5F5F5
310
F5F5F5F5F5F5F5F5F5F5F5F5F5F5F5F5F5F5F5F5F5F5F5F5F5F5F5F5F5F5F5F5F5F5F5F5F5F5F5F5F5F5F5F5F5F5F5F5F5F5F5F5F5F5F5F5F5F5F5F5F5F5F5F5F5F5F5F5F5F5F5F5F5F5F5F5F5F5F5F5F5F5F5F5F5F5F5F5E2F5F5F5F5F5F5F5F5F5F5F5E2E2E2F5F5F5F5F5F5F5F5F5F5F5F5F5F5F5F5F5F5F5F5F5F5F5F5
310
F5F5F5F5F5F5F5F5F5F5F5F5F5F5F5F5F5F5F5F5F5F5F5F5F5F5F5F5F5F5F5F5F5F5F5F5F5F5F5F5F5F5F5F5F5F5F5F5F5F5F5F5F5F5F5F5F5F5F5F5F5F5F5F5F5F5F5F5F5F5F5F5F5F5F5F5F5F5F5F5F5F5F5F5F5F5F5F5F5F5F5F5F5F5F5F5F5F5F5F5F5F5F5F5F5F5F5F5F5F5F5F5F5F5F5F5F5F5F5F5F5F5F5F5F5F5F5
310
F5F5F5F5F5F5F5F5F5F5F5F5F5F5F5F5F5F5F5F5F5F5F5F5F5F5E2E2E2F5F5F5F5F5F5F5F5F5F5F5F5F5F5F5F5F5F5F5F5F5F5F5F5F5F5F5F5F5F5F5F5F5F5F5F5F5F5F5F5F5F5F5F5F5F5F5F5F5F5F5F5F5F5F5F5F5F5F5F5F5F5F5F5F5F5F5F5F5F5F5F5F5F5F5F5F5F5F5F5F5F5F5F5F5F5F5F5F5F5F5F5F5F5F5F5F5F5
310
F5F5F5F5F5F5F5F5F5F5F5F5F5F5F5F5F5F5F5F5F5F5F5F5F5F5F5F5F5F5F5F5F5F5F5F5F5F5F5F5F5F5F5F5F5F5F5F5F5F5F5F5F5F5F5F5F5F5F5F5F5F5F5F5F5F5F5F5F5F5F5F5F5F5F5F5F5F5F5E2E2E2F5F5F5F5F5F5F5F5F5F5F5F5F5F5F5F5F5F5F5F5F5F5F5F5F5F5F5F5F5F5F5F5F5F5F5F5F5F5F5F5F5F5F5F5F5
310
F5F5F5F5F5F5F5F5F5F5F5F5F5F5F5F5F5F5F5F5F5F5F5F5F5F5F5F5F5F5F5F5F5F5F5F5F5F5F5F5F5F5F5F5F5F5F5F5F5F5F5F5F5F5F5F5F5F5F5F5F5F5F5F5F5F5F5F5F5F5F5F5F5F5F5F5F5F5F5F5F5F5F5F5F5F5F5F5F5F5F5F5F5F5F5F5F5F5F5F5F5F5F5F5F5F5F5F5F5F5F5F5F5F5F5F5F5F5F5F5F5F5F5F5F5F5F5
310
F5F5F5F5F5E2E2E2F5F5F5F5F5F5F5F5F5F5F5F5F5F5F5F5F5F5F5F5F5F5F5F5F5F5F5F5F5F5F5F5F5F5F5F5F5F5F5F5F5F5F5F5F5F5F5F5F5F5F5F5F5F5F5F5F5F5F5F5F5F5F5F5F5F5F5F5F5F5F5F5F5F5F5F5F5F5F5F5F5F5F5F5F5F5F5F5F5F5F5F5F5F5F5F5F5F5F5F5F5F5F5F5F5F5F5F5F5F5F5F5F5F5F5F5F5F5F5
310
F5F5F5F5F5F5F5F5F5F5F5F5F5F5F5F5F5F5F5F5F5F5F5F5F5F5F5F5F5F5F5F5F5F5F5F5F5F5F5F5F5F5F5F5F5F5F5F5F5F5F5F5F5F5F5F5F5F5E2E2E2F5F5F5F5F5F5F5F5F5F5F5F5F5F5F5F5F5F5F5F5F5F5F5F5F5F5F5F5F5F5F5F5F5F5F5F5F5F5F5F5F5F5F5F5F5F5F5F5F5F5F5F5F5F5F5F5F5F5F5F5F5F5F5F5F5F5
310
F5F5F5F5F5F5F5F5F5F5F5F5F5F5F5F5F5F5F5F5F5F5F5F5F5F5F5F5F5F5F5F5F5F5F5F5F5F5F5F5F5F5F5F5F5F5F5F5F5F5F5F5F5F5F5F5F5F5F5F5F5F5F5F5F5F5F5F5F5F5F5F5F5F5F5F5F5F5F5F5F5F5F5F5F5F5F5F5F5F5F5F5F5F5F5F5F5F5F5F5F5F5F5F5F5F5F5F5F5F5F5E2E2E2F5F5F5F5F5F5F5F5F5F5F5F5F5
310
F5F5F5F5F5F5F5F5F5F5F5F5F5F5F5F5F5F5F5F5F5F5F5F5F5F5F5F5F5F5F5F5F5F5F5F5F5F5F5F5F5F5F5F5F5F5F5F5F5F5F5F5F5F5F5F5F5F5F5F5F5F5F5F5F5F5F5F5F5F5F5F5F5F5F5F5F5F5F5F5F5F5F5F5F5F5F5F5F5F5F5F5F5F5F5F5F5F5F5F5F5F5F5F5F5F5F5F5F5F5F5F5F5F5F5F5F5F5F5F5F5F5F5F5F5F5F5
310
F5F5F5F5F5F5F5F5F5F5F5F5F5F5F5F5F5F5F5F5F5F5F5F5F5F5F5F5F5F5F5F5F5F5F5F5F5E2E2E2F5F5F5F5F5F5F5F5F5F5F5F5F5F5F5F5F5F5F5F5F5F5F5F5F5F5F5F5F5F5F5F5F5F5F5F5F5F5F5F5F5F5F5F5F5F5F5F5F5F5F5F5F5F5F5F5F5F5F5F5F5F5F5F5F5F5F5F5F5F5F5F5F5F5F5F5F5F5F5F5F5F5F5F5F5F5F5
310
F5F5F5F5F5F5F5F5F5F5F5F5F5F5F5F5F5F5F5F5F5F5F5F5F5F5F5F5F5F5F5F5F5F5F5F5F5F5F5F5F5F5F5F5F5F5F5F5F5F5F5F5F5F5F5F5F5F5F5F5F5F5F5F5F5F5F5F5F5F5F5F5F5F5F5F5F5F5F5F5F5F5F5F5F5F5F5F5F5F5E2E2E2F5F5F5F5F5F5F5F5F5F5F5F5F5F5F5F5F5F5F5F5F5F5F5F5F5F5F5F5F5F5F5F5F5F5
310
F5F5F5F5F5F5F5F5F5F5F5F5F5F5F5F5F5F5F5F5F5F5F5F5F5F5F5F5F5F5F5F5F5F5F5F5F5F5F5F5F5F5F5F5F5F5F5F5F5F5F5F5F5F5F5F5F5F5F5F5F5F5F5F5F5F5F5F5F5F5F5F5F5F5F5F5F5F5F5F5F5F5F5F5F5F5F5F5F5F5F5F5F5F5F5F5F5F5F5F5F5F5F5F5F5F5F5F5F5F5F5F5F5F5F5F5F5F5F5F5F5F5F5F5F5F5F5
310
F5F5F5F5F5F5F5F5F5F5F5F5F5F5F5F5E2E2E2F5F5F5F5F5F5F5F5F5F5F5E2F5F5F5F5F5F5F5F5F5F5F5F5F5F5F5F5F5F5F5F5F5F5F5F5F5F5F5F5F5F5F5F5F5F5F5F5F5F5F5F5F5F5F5F5F5F5F5F5F5F5F5F5F5F5F5F5F5F5F5F5F5F5F5F5F5F5F5F5F5F5F5F5F5F5F5F5F5F5F5F5F5F5F5F5F5F5F5F5F5F5F5F5F5F5F5F5
310
F5F5F5F5F5F5F5F5F5F5F5F5F5F5F5F5F5F5F5F5F5F5F5F5F5F5F5F5F5F5F5F5F5F5F5F5F5F5F5F5F5F5F5F5F5F5F5F5F5F5F5F5F5F5F5F5F5E2F5F5F5F5F5F5F5F5F5F5F5E2E2E2F5F5F5F5F5F5F5F5F5F5F5E2F5F5F5F5F5F5F5F5F5F5F5F5F5F5F5F5F5F5F5F5F5F5F5F5F5F5F5F5F5F5F5F5F5F5F5F5F5F5F5F5F5F5F5
310
F5F5F5F5F5F5F5F5F5F5F5F5F5F5F5F5F5F5F5F5F5F5F5F5F5F5F5F5F5F5F5F5F5F5F5F5F5F5F5F5F5F5F5F5F5F5F5F5F5F5F5F5F5F5F5F5F5F5F5F5F5F5F5F5F5F5F5F5F5F5F5F5F5F5F5F5F5F5F5F5F5F5F5F5F5F5F5F5F5F5F5F5F5F5F5F5F5F5F5F5F5F5F5F5F5F5F5F5F5F5E2F5F5F5F5F5F5F5F5F5F5F5E2E2E2F5F5
310
F5F5F5F5F5F5F5F5F5E2F5F5F5F5F5F5F5F5F5F5F5F5F5F5F5F5F5F5F5F5F5F5F5F5F5F5F5F5F5F5F5F5F5F5F5F5F5F5F5F5F5F5F5F5F5F5F5F5F5F5F5F5F5F5F5F5F5F5F5F5F5F5F5F5F5F5F5F5F5F5F5F5F5F5F5F5F5F5F5F5F5F5F5F5F5F5F5F5F5F5F5F5F5F5F5F5F5F5F5F5F5F5F5F5F5F5F5F5F5F5F5F5F5F5F5F5F5
310
F5F5F5F5F5F5F5F5F5F5F5F5F5F5F5F5F5F5F5F5F5F5F5F5F5F5F5F5F5F5F5F5F5F5F5F5E2F5F5F5F5F5F5F5F5F5F5F5E2E2E2F5F5F5F5F5F5F5F5F5F5F5E2F5F5F5F5F5F5F5F5F5F5F5F5F5F5F5F5F5F5F5F5F5F5F5F5F5F5F5F5F5F5F5F5F5F5F5F5F5F5F5F5F5F5F5F5F5F5F5F5F5F5F5F5F5F5F5F5F5F5F5F5F5F5F5F5
310
F5F5F5F5F5F5F5F5F5F5F5F5F5F5F5F5F5F5F5F5F5F5F5F5F5F5F5F5F5F5F5F5F5F5F5F5F5F5F5F5F5F5F5F5F5F5F5F5F5F5F5F5F5F5F5F5F5F5F5F5F5F5F5F5F5F5F5F5F5F5F5F5F5F5F5F5F5F5F5F5F5F5F5F5F5F5F5F5F5E2F5F5F5F5F5F5F5F5F5F5F5E2E2E2F5F5F5F5F5F5F5F5F5F5F5E2F5F5F5F5F5F5F5F5F5F5F5
310
F5F5F5F5F5F5F5F5F5F5F5F5F5F5F5F5F5F5F5F5F5F5F5F5F5F5F5F5F5F5F5F5F5F5F5F5F5F5F5F5F5F5F5F5F5F5F5F5F5F5F5F5F5F5F5F5F5F5F5F5F5F5F5F5F5F5F5F5F5F5F5F5F5F5F5F5F5F5F5F5F5F5F5F5F5F5F5F5F5F5F5F5F5F5F5F5F5F5F5F5F5F5F5F5F5F5F5F5F5F5F5F5F5F5F5F5F5F5F5F5F5F5F5F5F5F5F5
310
F5F5F5F5F5F5F5F5F5F5F5F5F5F5F5E2F5F5F5F5F5F5F5F5F5F5F5E2E2E2F5F5F5F5F5F5F5F5F5F5F5E2F5F5F5F5F5F5F5F5F5F5F5F5F5F5F5F5F5F5F5F5F5F5F5F5F5F5F5F5F5F5F5F5F5F5F5F5F5F5F5F5F5F5F5F5F5F5F5F5F5F5F5F5F5F5F5F5F5F5F5F5F5F5F5F5F5F5F5F5F5F5F5F5F5F5F5F5F5F5F5F5F5F5F5F5F5
310
F5F5F5F5F5F5F5F5F5F5F5F5F5F5F5F5F5F5F5F5F5F5F5F5F5F5F5F5F5F5F5F5F5F5F5F5F5F5F5F5F5F5F5F5F5F5F5F5F5F5F5F5F5F5F5F5F5F5F5F5F5F5F5F5F5F5F5F5E2F5F5F5F5F5F5F5F5F5F5F5E2E2E2F5F5F5F5F5F5F5F5F5F5F5E2F5F5F5F5F5F5F5F5F5F5F5F5F5F5F5F5F5F5F5F5F5F5F5F5F5F5F5F5F5F5F5F5
310
F5F5F5F5F5F5F5F5F5F5F5F5F5F5F5F5F5F5F5F5F5F5F5F5F5F5F5F5F5F5F5F5F5F5F5F5F5F5F5F5F5F5F5F5F5F5F5F5F5F5F5F5F5F5F5F5F5F5F5F5F5F5F5F5F5F5F5F5F5F5F5F5F5F5F5F5F5F5F5F5F5F5F5F5F5F5F5F5F5F5F5F5F5F5F5F5F5F5F5F5F5F5F5F5F5F5F5F5F5F5F5F5F5F5F5F5F5F5F5F5F5E2F5F5F5F5F5
310
F5F5F5F5F5F5E2E2E2F5F5F5F5F5F5F5F5F5F5F5E2F5F5F5F5F5F5F5F5F5F5F5F5F5F5F5F5F5F5F5F5F5F5F5F5F5F5F5F5F5F5F5F5F5F5F5F5F5F5F5F5F5F5F5F5F5F5F5F5F5F5F5F5F5F5F5F5F5F5F5F5F5F5F5F5F5F5F5F5F5F5F5F5F5F5F5F5F5F5F5F5F5F5F5F5F5F5F5F5F5F5F5F5F5F5F5F5F5F5F5F5F5F5F5F5F5F5
310
F5F5F5F5F5F5F5F5F5F5F5F5F5F5F5F5F5F5F5F5F5F5F5F5F5F5F5F5F5F5F5F5F5F5F5F5F5F5F5F5F5F5F5F5F5F5F5E2F5F5F5F5F5F5F5F5F5F5F5E2E2E2F5F5F5F5F5F5F5F5F5F5F5E2F5F5F5F5F5F5F5F5F5F5F5F5F5F5F5F5F5F5F5F5F5F5F5F5F5F5F5F5F5F5F5F5F5F5F5F5F5F5F5F5F5F5F5F5F5F5F5F5F5F5F5F5F5
310
F5F5F5F5F5F5F5F5F5F5F5F5F5F5F5F5F5F5F5F5F5F5F5F5F5F5F5F5F5F5F5F5F5F5F5F5F5F5F5F5F5F5F5F5F5F5F5F5F5F5F5F5F5F5F5F5F5F5F5F5F5F5F5F5F5F5F5F5F5F5F5F5F5F5F5F5F5F5F5F5F5F5F5F5F5F5F5F5F5F5F5F5F5F5F5F5F5F5F5F5E2F5F5F5F5F5F5F5F5F5F5F5E2E2E2F5F5F5F5F5F5F5F5F5F5F5E2
310
F5F5F5F5F5F5F5F5F5F5F5F5F5F5F5F5F5F5F5F5F5F5F5F5F5F5F5F5F5F5F5F5F5F5F5F5F5F5F5F5F5F5F5F5F5F5F5F5F5F5F5F5F5F5F5F5F5F5F5F5F5F5F5F5F5F5F5F5F5F5F5F5F5F5F5F5F5F5F5F5F5F5F5F5F5F5F5F5F5F5F5F5F5F5F5F5F5F5F5F5F5F5F5F5F5F5F5F5F5F5F5F5F5F5F5F5F5F5F5F5F5F5F5F5F5F5F5
310
F5F5F5F5F5F5F5F5F5F5F5F5F5F5F5F5F5F5F5F5F5F5F5F5F5F5E2F5F5F5F5F5F5F5F5F5F5F5E2E2E2F5F5F5F5F5F5F5F5F5F5F5E2F5F5F5F5F5F5F5F5F5F5F5F5F5F5F5F5F5F5F5F5F5F5F5F5F5F5F5F5F5F5F5F5F5F5F5F5F5F5F5F5F5F5F5F5F5F5F5F5F5F5F5F5F5F5F5F5F5F5F5F5F5F5F5F5F5F5F5F5F5F5F5F5F5F5
310
F5F5F5F5F5F5F5F5F5F5F5F5F5F5F5F5F5F5F5F5F5F5F5F5F5F5F5F5F5F5F5F5F5F5F5F5F5F5F5F5F5F5F5F5F5F5F5F5F5F5F5F5F5F5F5F5F5F5F5F5F5F5F5F5F5F5F5F5F5F5F5F5F5F5F5F5F5F5F5E2F5F5F5F5F5F5F5F5F5F5F5E2E2E2F5F5F5F5F5F5F5F5F5F5F5E2F5F5F5F5F5F5F5F5F5F5F5F5F5F5F5F5F5F5F5F5F5
310
F5F5F5F5F5F5F5F5F5F5F5F5F5F5F5F5F5F5F5F5F5F5F5F5F5F5F5F5F5F5F5F5F5F5F5F5F5F5F5F5F5F5F5F5F5F5F5F5F5F5F5F5F5F5F5F5F5F5F5F5F5F5F5F5F5F5F5F5F5F5F5F5F5F5F5F5F5F5F5F5F5F5F5F5F5F5F5F5F5F5F5F5F5F5F5F5F5F5F5F5F5F5F5F5F5F5F5F5F5F5F5F5F5F5F5F5F5F5F5F5F5F5F5F5F5F5F5
310
F5F5F5F5F5E2F5F5F5F5F5F5F5F5F5F5F5E2E2E2F5F5F5F5F5F5F5F5F5F5F5E2F5F5F5F5F5F5F5F5F5F5F5F5F5F5F5F5F5F5F5F5F5F5F5F5F5F5F5F5F5F5F5F5F5F5F5F5F5F5F5F5F5F5F5F5F5F5F5F5F5F5F5F5F5F5F5F5F5F5F5F5F5F5F5F5F5F5F5F5F5F5F5F5F5F5F5F5F5F5F5F5F5F5F5F5F5F5F5F5F5F5F5F5F5F5F5
310
F5F5F5F5F5F5F5F5F5F5F5F5F5F5F5F5F5F5F5F5F5F5F5F5F5F5F5F5F5F5F5F5F5F5F5F5F5F5F5F5F5F5F5F5F5F5F5F5F5F5F5F5F5F5F5F5F5F5E2F5F5F5F5F5F5F5F5F5F5F5E2E2E2F5F5F5F5F5F5F5F5F5F5F5E2F5F5F5F5F5F5F5F5F5F5F5F5F5F5F5F5F5F5F5F5F5F5F5F5F5F5F5F5F5F5F5F5F5F5F5F5F5F5F5F5F5F5
310
F5F5F5F5F5F5F5F5F5F5F5F5F5F5F5F5F5F5F5F5F5F5F5F5F5F5F5F5F5F5F5F5F5F5F5F5F5F5F5F5F5F5F5F5F5F5F5F5F5F5F5F5F5F5F5F5F5F5F5F5F5F5F5F5F5F5F5F5F5F5F5F5F5F5F5F5F5F5F5F5F5F5F5F5F5F5F5F5F5F5F5F5F5F5F5F5F5F5F5F5F5F5F5F5F5F5F5F5F5F5F5E2F5F5F5F5F5F5F5F5F5F5F5E2E2E2F5
310
F5F5F5F5F5F5F5F5F5F5E2F5F5F5F5F5F5F5F5F5F5F5F5F5F5F5F5F5F5F5F5F5F5F5F5F5F5F5F5F5F5F5F5F5F5F5F5F5F5F5F5F5F5F5F5F5F5F5F5F5F5F5F5F5F5F5F5F5F5F5F5F5F5F5F5F5F5F5F5F5F5F5F5F5F5F5F5F5F5F5F5F5F5F5F5F5F5F5F5F5F5F5F5F5F5F5F5F5F5F5F5F5F5F5F5F5F5F5F5F5F5F5F5F5F5F5F5
310
F5F5F5F5F5F5F5F5F5F5F5F5F5F5F5F5F5F5F5F5F5F5F5F5F5F5F5F5F5F5F5F5F5F5F5F5F5E2F5F5F5F5F5F5F5F5F5F5F5E2E2E2F5F5F5F5F5F5F5F5F5F5F5F5F5F5F5F5F5F5F5F5F5F5F5F5F5F5F5F5F5F5F5F5F5F5F5F5F5F5F5F5F5F5F5F5F5F5F5F5F5F5F5F5F5F5F5F5F5F5F5F5F5F5F5F5F5F5F5F5F5F5F5F5F5F5F5
310
F5F5F5F5F5F5F5F5F5F5F5F5F5F5F5F5F5F5F5F5F5F5F5F5F5F5F5F5F5F5F5F5F5F5F5F5F5F5F5F5F5F5F5F5F5F5F5F5F5F5F5F5F5F5F5F5F5F5F5F5F5F5F5F5F5F5F5F5F5F5F5F5F5F5F5F5F5F5F5F5F5F5F5F5F5F5F5F5F5F5F5F5F5F5F5F5F5F5F5F5F5F5E2E2E2F5F5F5F5F5F5F5F5F5F5F5F5F5F5F5F5F5F5F5F5F5F5
310
F5F5F5F5F5F5F5F5F5F5F5F5F5F5F5F5F5F5F5F5F5F5F5F5F5F5F5F5F5F5F5F5F5F5F5F5F5F5F5F5F5F5F5F5F5F5F5F5F5F5F5F5F5F5F5F5F5F5F5F5F5F5F5F5F5F5F5F5F5F5F5F5F5F5F5F5F5F5F5F5F5F5F5F5F5F5F5F5F5F5F5F5F5F5F5F5F5F5F5F5F5F5F5F5F5F5F5F5F5F5F5F5F5F5F5F5F5F5F5F5F5F5F5F5F5F5F5
310
F5F5F5F5F5F5F5F5F5F5F5F5F5F5F5F5F5F5F5F5F5F5F5F5F5F5F5F5E2E2E2F5F5F5F5F5F5F5F5F5F5F5F5F5F5F5F5F5F5F5F5F5F5F5F5F5F5F5F5F5F5F5F5F5F5F5F5F5F5F5F5F5F5F5F5F5F5F5F5F5F5F5F5F5F5F5F5F5F5F5F5F5F5F5F5F5F5F5F5F5F5F5F5F5F5F5F5F5F5F5F5F5F5F5F5F5F5F5F5F5F5F5F5F5F5F5F5
310
F5F5F5F5F5F5F5F5F5F5F5F5F5F5F5F5F5F5F5F5F5F5F5F5F5F5F5F5F5F5F5F5F5F5F5F5F5F5F5F5F5F5F5F5F5F5F5F5F5F5F5F5F5F5F5F5F5F5F5F5F5F5F5F5F5F5F5F5F5F5F5F5F5F5F5F5F5F5F5F5F5E2E2E2F5F5F5F5F5F5F5F5F5F5F5F5F5F5F5F5F5F5F5F5F5F5F5F5F5F5F5F5F5F5F5F5F5F5F5F5F5F5F5F5F5F5F5
310
F5F5F5F5F5F5F5F5F5F5F5F5F5F5F5F5F5F5F5F5F5F5F5F5F5F5F5F5F5F5F5F5F5F5F5F5F5F5F5F5F5F5F5F5F5F5F5F5F5F5F5F5F5F5F5F5F5F5F5F5F5F5F5F5F5F5F5F5F5F5F5F5F5F5F5F5F5F5F5F5F5F5F5F5F5F5F5F5F5F5F5F5F5F5F5F5F5F5F5F5F5F5F5F5F5F5F5F5F5F5F5F5F5F5F5F5F5F5F5F5F5F5F5F5F5F5F5
310
F5F5F5F5F5F5F5E2E2E2F5F5F5F5F5F5F5F5F5F5F5F5F5F5F5F5F5F5F5F5F5F5F5F5F5F5F5F5F5F5F5F5F5F5F5F5F5F5F5F5F5F5F5F5F5F5F5F5F5F5F5F5F5F5F5F5F5F5F5F5F5F5F5F5F5F5F5F5F5F5F5F5F5F5F5F5F5F5F5F5F5F5F5F5F5F5F5F5F5F5F5F5F5F5F5F5F5F5F5F5F5F5F5F5F5F5F5F5F5F5F5F5F5F5F5F5F5
310
F5F5F5F5F5F5F5F5F5F5F5F5F5F5F5F5F5F5F5F5F5F5F5F5F5F5F5F5F5F5F5F5F5F5F5F5F5F5F5F5F5F5F5F5F5F5F5F5F5F5F5F5F5F5F5F5F5F5F5F5E2E2E2F5F5F5F5F5F5F5F5F5F5F5F5F5F5F5F5F5F5F5F5F5F5F5F5F5F5F5F5F5F5F5F5F5F5F5F5F5F5F5F5F5F5F5F5F5F5F5F5F5F5F5F5F5F5F5F5F5F5F5F5F5F5F5F5
310
F5F5F5F5F5F5F5F5F5F5F5F5F5F5F5F5F5F5F5F5F5F5F5F5F5F5F5F5F5F5F5F5F5F5F5F5F5F5F5F5F5F5F5F5F5F5F5F5F5F5F5F5F5F5F5F5F5F5F5F5F5F5F5F5F5F5F5F5F5F5F5F5F5F5F5F5F5F5F5F5F5F5F5F5F5F5F5F5F5F5F5F5F5F5F5F5F5F5F5F5F5F5F5F5F5F5F5F5F5F5F5F5F5E2E2E2F5F5F5F5F5F5F5F5F5F5F5
310
F5F5F5F5F5F5F5F5F5F5F5F5F5F5F5F5F5F5F5F5F5F5F5F5F5F5F5F5F5F5F5F5F5F5F5F5F5F5F5F5F5F5F5F5F5F5F5F5F5F5F5F5F5F5F5F5F5F5F5F5F5F5F5F5F5F5F5F5F5F5F5F5F5F5F5F5F5F5F5F5F5F5F5F5F5F5F5F5F5F5F5F5F5F5F5F5F5F5F5F5F5F5F5F5F5F5F5F5F5F5F5F5F5F5F5F5F5F5F5F5F5F5F5F5F5F5F5
310
F5F5F5F5F5F5F5F5F5F5F5F5F5F5F5F5F5F5F5F5F5F5F5F5F5F5F5F5F5F5F5F5F5F5F5F5F5F5F5E2E2E2F5F5F5F5F5F5F5F5F5F5F5F5F5F5F5F5F5F5F5F5F5F5F5F5F5F5F5F5F5F5F5F5F5F5F5F5F5F5F5F5F5F5F5F5F5F5F5F5F5F5F5F5F5F5F5F5F5F5F5F5F5F5F5F5F5F5F5F5F5F5F5F5F5F5F5F5F5F5F5F5F5F5F5F5F5
310
F5F5F5F5F5F5F5F5F5F5F5F5F5F5F5F5F5F5F5F5F5F5F5F5F5F5F5F5F5F5F5F5F5F5F5F5F5F5F5F5F5F5F5F5F5F5F5F5F5F5F5F5F5F5F5F5F5F5F5F5F5F5F5F5F5F5F5F5F5F5F5F5F5F5F5F5F5F5F5F5F5F5F5F5F5F5F5F5F5F5F5F5E2E2E2F5F5F5F5F5F5F5F5F5F5F5E2F5F5F5F5F5F5F5F5F5F5F5F5F5F5F5F5F5F5F5F5
310
F5F5F5F5F5F5F5F5F5F5F5F5F5F5F5F5F5F5F5F5F5F5F5F5F5F5F5F5F5F5F5F5F5F5F5F5F5F5F5F5F5F5F5F5F5F5F5F5F5F5F5F5F5F5F5F5F5F5F5F5F5F5F5F5F5F5F5F5F5F5F5F5F5F5F5F5F5F5F5F5F5F5F5F5F5F5F5F5F5F5F5F5F5F5F5F5F5F5F5F5F5F5F5F5F5F5F5F5F5F5F5F5F5F5F5F5F5F5F5F5F5F5F5F5F5F5F5
310
F5F5F5F5F5F5E2F5F5F5F5F5F5F5F5F5F5F5E2E2E2F5F5F5F5F5F5F5F5F5F5F5E2F5F5F5F5F5F5F5F5F5F5F5F5F5F5F5F5F5F5F5F5F5F5F5F5F5F5F5F5F5F5F5F5F5F5F5F5F5F5F5F5F5F5F5F5F5F5F5F5F5F5F5F5F5F5F5F5F5F5F5F5F5F5F5F5F5F5F5F5F5F5F5F5F5F5F5F5F5F5F5F5F5F5F5F5F5F5F5F5F5F5F5F5F5F5
310
F5F5F5F5F5F5F5F5F5F5F5F5F5F5F5F5F5F5F5F5F5F5F5F5F5F5F5F5F5F5F5F5F5F5F5F5F5F5F5F5F5F5F5F5F5F5F5F5F5F5F5F5F5F5F5F5F5F5F5E2F5F5F5F5F5F5F5F5F5F5F5E2E2E2F5F5F5F5F5F5F5F5F5F5F5E2F5F5F5F5F5F5F5F5F5F5F5F5F5F5F5F5F5F5F5F5F5F5F5F5F5F5F5F5F5F5F5F5F5F5F5F5F5F5F5F5F5
310
F5F5F5F5F5F5F5F5F5F5F5F5F5F5F5F5F5F5F5F5F5F5F5F5F5F5F5F5F5F5F5F5F5F5F5F5F5F5F5F5F5F5F5F5F5F5F5F5F5F5F5F5F5F5F5F5F5F5F5F5F5F5F5F5F5F5F5F5F5F5F5F5F5F5F5F5F5F5F5F5F5F5F5F5F5F5F5F5F5F5F5F5F5F5F5F5F5F5F5F5F5F5F5F5F5F5F5F5F5F5F5F5E2F5F5F5F5F5F5F5F5F5F5F5E2E2E2
310
F5F5F5F5F5F5F5F5F5F5F5E2F5F5F5F5F5F5F5F5F5F5F5F5F5F5F5F5F5F5F5F5F5F5F5F5F5F5F5F5F5F5F5F5F5F5F5F5F5F5F5F5F5F5F5F5F5F5F5F5F5F5F5F5F5F5F5F5F5F5F5F5F5F5F5F5F5F5F5F5F5F5F5F5F5F5F5F5F5F5F5F5F5F5F5F5F5F5F5F5F5F5F5F5F5F5F5F5F5F5F5F5F5F5F5F5F5F5F5F5F5F5F5F5F5F5F5
310
F5F5F5F5F5F5F5F5F5F5F5F5F5F5F5F5F5F5F5F5F5F5F5F5F5F5F5F5F5F5F5F5F5F5F5F5F5F5E2F5F5F5F5F5F5F5F5F5F5F5E2E2E2F5F5F5F5F5F5F5F5F5F5F5E2F5F5F5F5F5F5F5F5F5F5F5F5F5F5F5F5F5F5F5F5F5F5F5F5F5F5F5F5F5F5F5F5F5F5F5F5F5F5F5F5F5F5F5F5F5F5F5F5F5F5F5F5F5F5F5F5F5F5F5F5F5F5
310
F5F5F5F5F5F5F5F5F5F5F5F5F5F5F5F5F5F5F5F5F5F5F5F5F5F5F5F5F5F5F5F5F5F5F5F5F5F5F5F5F5F5F5F5F5F5F5F5F5F5F5F5F5F5F5F5F5F5F5F5F5F5F5F5F5F5F5F5F5F5F5F5F5F5F5F5F5F5F5F5F5F5F5F5F5F5F5F5F5F5F5E2F5F5F5F5F5F5F5F5F5F5F5E2E2E2F5F5F5F5F5F5F5F5F5F5F5E2F5F5F5F5F5F5F5F5F5
310
F5F5F5F5F5F5F5F5F5F5F5F5F5F5F5F5F5F5F5F5F5F5F5F5F5F5F5F5F5F5F5F5F5F5F5F5F5F5F5F5F5F5F5F5F5F5F5F5F5F5F5F5F5F5F5F5F5F5F5F5F5F5F5F5F5F5F5F5F5F5F5F5F5F5F5F5F5F5F5F5F5F5F5F5F5F5F5F5F5F5F5F5F5F5F5F5F5F5F5F5F5F5F5F5F5F5F5F5F5F5F5F5F5F5F5F5F5F5F5F5F5F5F5F5F5F5F5
310
F5F5F5F5F5F5F5F5F5F5F5F5F5F5F5F5F5E2F5F5F5F5F5F5F5F5F5F5F5E2E2E2F5F5F5F5F5F5F5F5F5F5F5E2F5F5F5F5F5F5F5F5F5F5F5F5F5F5F5F5F5F5F5F5F5F5F5F5F5F5F5F5F5F5F5F5F5F5F5F5F5F5F5F5F5F5F5F5F5F5F5F5F5F5F5F5F5F5F5F5F5F5F5F5F5F5F5F5F5F5F5F5F5F5F5F5F5F5F5F5F5F5F5F5F5F5F5
310
F5F5F5F5F5F5F5F5F5F5F5F5F5F5F5F5F5F5F5F5F5F5F5F5F5F5F5F5F5F5F5F5F5F5F5F5F5F5F5F5F5F5F5F5F5F5F5F5F5F5F5F5F5F5F5F5F5F5F5F5F5F5F5F5F5F5F5F5F5F5E2F5F5F5F5F5F5F5F5F5F5F5E2E2E2F5F5F5F5F5F5F5F5F5F5F5E2F5F5F5F5F5F5F5F5F5F5F5F5F5F5F5F5F5F5F5F5F5F5F5F5F5F5F5F5F5F5
310
F5F5F5F5F5F5F5F5F5F5F5F5F5F5F5F5F5F5F5F5F5F5F5F5F5F5F5F5F5F5F5F5F5F5F5F5F5F5F5F5F5F5F5F5F5F5F5F5F5F5F5F5F5F5F5F5F5F5F5F5F5F5F5F5F5F5F5F5F5F5F5F5F5F5F5F5F5F5F5F5F5F5F5F5F5F5F5F5F5F5F5F5F5F5F5F5F5F5F5F5F5F5F5F5F5F5F5F5F5F5F5F5F5F5F5F5F5F5F5F5F5F5F5E2F5F5F5
310
F5F5F5F5F5F5F5F5E2E2E2F5F5F5F5F5F5F5F5F5F5F5E2F5F5F5F5F5F5F5F5F5F5F5F5F5F5F5F5F5F5F5F5F5F5F5F5F5F5F5F5F5F5F5F5F5F5F5F5F5F5F5F5F5F5F5F5F5F5F5F5F5F5F5F5F5F5F5F5F5F5F5F5F5F5F5F5F5F5F5F5F5F5F5F5F5F5F5F5F5F5F5F5F5F5F5F5F5F5F5F5F5F5F5F5F5F5F5F5F5F5F5F5F5F5F5F5
310
F5F5F5F5F5F5F5F5F5F5F5F5F5F5F5F5F5F5F5F5F5F5F5F5F5F5F5F5F5F5F5F5F5F5F5F5F5F5F5F5F5F5F5F5F5F5F5F5F5E2F5F5F5F5F5F5F5F5F5F5F5E2E2E2F5F5F5F5F5F5F5F5F5F5F5E2F5F5F5F5F5F5F5F5F5F5F5F5F5F5F5F5F5F5F5F5F5F5F5F5F5F5F5F5F5F5F5F5F5F5F5F5F5F5F5F5F5F5F5F5F5F5F5F5F5F5F5
310
F5F5F5F5F5F5F5F5F5F5F5F5F5F5F5F5F5F5F5F5F5F5F5F5F5F5F5F5F5F5F5F5F5F5F5F5F5F5F5F5F5F5F5F5F5F5F5F5F5F5F5F5F5F5F5F5F5F5F5F5F5F5F5F5F5F5F5F5F5F5F5F5F5F5F5F5F5F5F5F5F5F5F5F5F5F5F5F5F5F5F5F5F5F5F5F5F5F5F5F5F5F5E2F5F5F5F5F5F5F5F5F5F5F5E2E2E2F5F5F5F5F5F5F5F5F5F5
310
F5E2F5F5F5F5F5F5F5F5F5F5F5F5F5F5F5F5F5F5F5F5F5F5F5F5F5F5F5F5F5F5F5F5F5F5F5F5F5F5F5F5F5F5F5F5F5F5F5F5F5F5F5F5F5F5F5F5F5F5F5F5F5F5F5F5F5F5F5F5F5F5F5F5F5F5F5F5F5F5F5F5F5F5F5F5F5F5F5F5F5F5F5F5F5F5F5F5F5F5F5F5F5F5F5F5F5F5F5F5F5F5F5F5F5F5F5F5F5F5F5F5F5F5F5F5F5
310
F5F5F5F5F5F5F5F5F5F5F5F5F5F5F5F5F5F5F5F5F5F5F5F5F5F5F5F5E2F5F5F5F5F5F5F5F5F5F5F5E2E2E2F5F5F5F5F5F5F5F5F5F5F5E2F5F5F5F5F5F5F5F5F5F5F5F5F5F5F5F5F5F5F5F5F5F5F5F5F5F5F5F5F5F5F5F5F5F5F5F5F5F5F5F5F5F5F5F5F5F5F5F5F5F5F5F5F5F5F5F5F5F5F5F5F5F5F5F5F5F5F5F5F5F5F5F5
310
F5F5F5F5F5F5F5F5F5F5F5F5F5F5F5F5F5F5F5F5F5F5F5F5F5F5F5F5F5F5F5F5F5F5F5F5F5F5F5F5F5F5F5F5F5F5F5F5F5F5F5F5F5F5F5F5F5F5F5F5F5F5F5F5F5F5F5F5F5F5F5F5F5F5F5F5F5F5F5F5F5E2F5F5F5F5F5F5F5F5F5F5F5E2E2E2F5F5F5F5F5F5F5F5F5F5F5E2F5F5F5F5F5F5F5F5F5F5F5F5F5F5F5F5F5F5F5
310
F5F5F5F5F5F5F5F5F5F5F5F5F5F5F5F5F5F5F5F5F5F5F5F5F5F5F5F5F5F5F5F5F5F5F5F5F5F5F5F5F5F5F5F5F5F5F5F5F5F5F5F5F5F5F5F5F5F5F5F5F5F5F5F5F5F5F5F5F5F5F5F5F5F5F5F5F5F5F5F5F5F5F5F5F5F5F5F5F5F5F5F5F5F5F5F5F5F5F5F5F5F5F5F5F5F5F5F5F5F5F5F5F5F5F5F5F5F5F5F5F5F5F5F5F5F5F5
310
F5F5F5F5F5F5F5E2F5F5F5F5F5F5F5F5F5F5F5E2E2E2F5F5F5F5F5F5F5F5F5F5F5E2F5F5F5F5F5F5F5F5F5F5F5F5F5F5F5F5F5F5F5F5F5F5F5F5F5F5F5F5F5F5F5F5F5F5F5F5F5F5F5F5F5F5F5F5F5F5F5F5F5F5F5F5F5F5F5F5F5F5F5F5F5F5F5F5F5F5F5F5F5F5F5F5F5F5F5F5F5F5F5F5F5F5F5F5F5F5F5F5F5F5F5F5F5
310
F5F5F5F5F5F5F5F5F5F5F5F5F5F5F5F5F5F5F5F5F5F5F5F5F5F5F5F5F5F5F5F5F5F5F5F5F5F5F5F5F5F5F5F5F5F5F5F5F5F5F5F5F5F5F5F5F5F5F5F5E2F5F5F5F5F5F5F5F5F5F5F5E2E2E2F5F5F5F5F5F5F5F5F5F5F5E2F5F5F5F5F5F5F5F5F5F5F5F5F5F5F5F5F5F5F5F5F5F5F5F5F5F5F5F5F5F5F5F5F5F5F5F5F5F5F5F5
310
F5F5F5F5F5F5F5F5F5F5F5F5F5F5F5F5F5F5F5F5F5F5F5F5F5F5F5F5F5F5F5F5F5F5F5F5F5F5F5F5F5F5F5F5F5F5F5F5F5F5F5F5F5F5F5F5F5F5F5F5F5F5F5F5F5F5F5F5F5F5F5F5F5F5F5F5F5F5F5F5F5F5F5F5F5F5F5F5F5F5F5F5F5F5F5F5F5F5F5F5F5F5F5F5F5F5F5F5F5F5F5F5F5E2F5F5F5F5F5F5F5F5F5F5F5E2E2
310
E2F5F5F5F5F5F5F5F5F5F5F5F5F5F5F5F5F5F5F5F5F5F5F5F5F5F5F5F5F5F5F5F5F5F5F5F5F5F5F5F5F5F5F5F5F5F5F5F5F5F5F5F5F5F5F5F5F5F5F5F5F5F5F5F5F5F5F5F5F5F5F5F5F5F5F5F5F5F5F5F5F5F5F5F5F5F5F5F5F5F5F5F5F5F5F5F5F5F5F5F5F5F5F5F5F5F5F5F5F5F5F5F5F5F5F5F5F5F5F5F5F5F5F5F5F5F5
310
F5F5F5F5F5F5F5F5F5F5F5F5F5F5F5F5F5F5F5F5F5F5F5F5F5F5F5F5F5F5F5F5F5F5F5F5F5F5F5F5F5F5F5F5F5F5F5F5F5F5F5E2E2E2F5F5F5F5F5F5F5F5F5F5F5F5F5F5F5F5F5F5F5F5F5F5F5F5F5F5F5F5F5F5F5F5F5F5F5F5F5F5F5F5F5F5F5F5F5F5F5F5F5F5F5F5F5F5F5F5F5F5F5F5F5F5F5F5F5F5F5F5F5F5F5F5F5
310
F5F5F5F5F5F5F5F5F5F5F5F5F5F5F5F5F5F5F5F5F5F5F5F5F5F5F5F5F5F5F5F5F5F5F5F5F5F5F5F5F5F5F5F5F5F5F5F5F5F5F5F5F5F5F5F5F5F5F5F5F5F5F5F5F5F5F5F5F5F5F5F5F5F5F5F5F5F5F5F5F5F5F5F5F5F5F5F5F5F5F5F5F5F5F5F5F5F5F5F5F5F5F5F5E2E2E2F5F5F5F5F5F5F5F5F5F5F5F5F5F5F5F5F5F5F5F5
310
F5F5F5F5F5F5F5F5F5F5F5F5F5F5F5F5F5F5F5F5F5F5F5F5F5F5F5F5F5F5F5F5F5F5F5F5F5F5F5F5F5F5F5F5F5F5F5F5F5F5F5F5F5F5F5F5F5F5F5F5F5F5F5F5F5F5F5F5F5F5F5F5F5F5F5F5F5F5F5F5F5F5F5F5F5F5F5F5F5F5F5F5F5F5F5F5F5F5F5F5F5F5F5F5F5F5F5F5F5F5F5F5F5F5F5F5F5F5F5F5F5F5F5F5F5F5F5
310
F5F5F5F5F5F5F5F5F5F5F5F5F5F5F5F5F5F5F5F5F5F5F5F5F5F5F5F5F5F5E2E2E2F5F5F5F5F5F5F5F5F5F5F5F5F5F5F5F5F5F5F5F5F5F5F5F5F5F5F5F5F5F5F5F5F5F5F5F5F5F5F5F5F5F5F5F5F5F5F5F5F5F5F5F5F5F5F5F5F5F5F5F5F5F5F5F5F5F5F5F5F5F5F5F5F5F5F5F5F5F5F5F5F5F5F5F5F5F5F5F5F5F5F5F5F5F5
310
F5F5F5F5F5F5F5F5F5F5F5F5F5F5F5F5F5F5F5F5F5F5F5F5F5F5F5F5F5F5F5F5F5F5F5F5F5F5F5F5F5F5F5F5F5F5F5F5F5F5F5F5F5F5F5F5F5F5F5F5F5F5F5F5F5F5F5F5F5F5F5F5F5F5F5F5F5F5F5F5F5F5F5E2E2E2F5F5F5F5F5F5F5F5F5F5F5F5F5F5F5F5F5F5F5F5F5F5F5F5F5F5F5F5F5F5F5F5F5F5F5F5F5F5F5F5F5
310
F5F5F5F5F5F5F5F5F5F5F5F5F5F5F5F5F5F5F5F5F5F5F5F5F5F5F5F5F5F5F5F5F5F5F5F5F5F5F5F5F5F5F5F5F5F5F5F5F5F5F5F5F5F5F5F5F5F5F5F5F5F5F5F5F5F5F5F5F5F5F5F5F5F5F5F5F5F5F5F5F5F5F5F5F5F5F5F5F5F5F5F5F5F5F5F5F5F5F5F5F5F5F5F5F5F5F5F5F5F5F5F5F5F5F5F5F5F5F5F5F5F5F5F5F5F5F5
310
F5F5F5F5F5F5F5F5F5E2E2E2F5F5F5F5F5F5F5F5F5F5F5F5F5F5F5F5F5F5F5F5F5F5F5F5F5F5F5F5F5F5F5F5F5F5F5F5F5F5F5F5F5F5F5F5F5F5F5F5F5F5F5F5F5F5F5F5F5F5F5F5F5F5F5F5F5F5F5F5F5F5F5F5F5F5F5F5F5F5F5F5F5F5F5F5F5F5F5F5F5F5F5F5F5F5F5F5F5F5F5F5F5F5F5F5F5F5F5F5F5F5F5F5F5F5F5
310
F5F5F5F5F5F5F5F5F5F5F5F5F5F5F5F5F5F5F5F5F5F5F5F5F5F5F5F5F5F5F5F5F5F5F5F5F5F5F5F5F5F5F5F5F5F5F5F5F5F5F5F5F5F5F5F5F5F5F5F5F5F5E2E2E2F5F5F5F5F5F5F5F5F5F5F5F5F5F5F5F5F5F5F5F5F5F5F5F5F5F5F5F5F5F5F5F5F5F5F5F5F5F5F5F5F5F5F5F5F5F5F5F5F5F5F5F5F5F5F5F5F5F5F5F5F5F5
310
F5F5F5F5F5F5F5F5F5F5F5F5F5F5F5F5F5F5F5F5F5F5F5F5F5F5F5F5F5F5F5F5F5F5F5F5F5F5F5F5F5F5F5F5F5F5F5F5F5F5F5F5F5F5F5F5F5F5F5F5F5F5F5F5F5F5F5F5F5F5F5F5F5F5F5F5F5F5F5F5F5F5F5F5F5F5F5F5F5F5F5F5F5F5F5F5F5F5F5F5F5F5F5F5F5F5F5F5F5F5F5F5F5F5F5E2E2E2F5F5F5F5F5F5F5F5F5
310
F5F5F5F5F5F5F5F5F5F5F5F5F5F5F5F5F5F5F5F5F5F5F5F5F5F5F5F5F5F5F5F5F5F5F5F5F5F5F5F5F5F5F5F5F5F5F5F5F5F5F5F5F5F5F5F5F5F5F5F5F5F5F5F5F5F5F5F5F5F5F5F5F5F5F5F5F5F5F5F5F5F5F5F5F5F5F5F5F5F5F5F5F5F5F5F5F5F5F5F5F5F5F5F5F5F5F5F5F5F5F5F5F5F5F5F5F5F5F5F5F5F5F5F5F5F5F5
310
F5F5F5F5F5F5F5F5F5F5F5F5F5F5F5F5F5F5F5F5F5F5F5F5F5F5F5F5F5F5F5F5F5F5F5F5F5F5F5F5F5E2E2E2F5F5F5F5F5F5F5F5F5F5F5F5F5F5F5F5F5F5F5F5F5F5F5F5F5F5F5F5F5F5F5F5F5F5F5F5F5F5F5F5F5F5F5F5F5F5F5F5F5F5F5F5F5F5F5F5F5F5F5F5F5F5F5F5F5F5F5F5F5F5F5F5F5F5F5F5F5F5F5F5F5F5F5
310
F5F5F5F5F5F5F5F5F5F5F5F5F5F5F5F5F5F5F5F5F5F5F5F5F5F5F5F5F5F5F5F5F5F5F5F5F5F5F5F5F5F5F5F5F5F5F5F5F5F5F5F5F5F5F5F5F5F5F5F5F5F5F5F5F5F5F5F5F5F5F5F5F5F5F5F5F5F5F5F5F5F5F5F5F5F5F5F5F5F5F5F5F5F5E2E2E2F5F5F5F5F5F5F5F5F5F5F5E2F5F5F5F5F5F5F5F5F5F5F5F5F5F5F5F5F5F5
310
F5F5F5F5F5F5F5F5F5F5F5F5F5F5F5F5F5F5F5F5F5F5F5F5F5F5F5F5F5F5F5F5F5F5F5F5F5F5F5F5F5F5F5F5F5F5F5F5F5F5F5F5F5F5F5F5F5F5F5F5F5F5F5F5F5F5F5F5F5F5F5F5F5F5F5F5F5F5F5F5F5F5F5F5F5F5F5F5F5F5F5F5F5F5F5F5F5F5F5F5F5F5F5F5F5F5F5F5F5F5F5F5F5F5F5F5F5F5F5F5F5F5F5F5F5F5F5
310
F5F5F5F5F5F5F5F5E2F5F5F5F5F5F5F5F5F5F5F5E2E2E2F5F5F5F5F5F5F5F5F5F5F5E2F5F5F5F5F5F5F5F5F5F5F5F5F5F5F5F5F5F5F5F5F5F5F5F5F5F5F5F5F5F5F5F5F5F5F5F5F5F5F5F5F5F5F5F5F5F5F5F5F5F5F5F5F5F5F5F5F5F5F5F5F5F5F5F5F5F5F5F5F5F5F5F5F5F5F5F5F5F5F5F5F5F5F5F5F5F5F5F5F5F5F5F5
310
F5F5F5F5F5F5F5F5F5F5F5F5F5F5F5F5F5F5F5F5F5F5F5F5F5F5F5F5F5F5F5F5F5F5F5F5F5F5F5F5F5F5F5F5F5F5F5F5F5F5F5F5F5F5F5F5F5F5F5F5F5E2F5F5F5F5F5F5F5F5F5F5F5E2E2E2F5F5F5F5F5F5F5F5F5F5F5E2F5F5F5F5F5F5F5F5F5F5F5F5F5F5F5F5F5F5F5F5F5F5F5F5F5F5F5F5F5F5F5F5F5F5F5F5F5F5F5
310
F5F5F5F5F5F5F5F5F5F5F5F5F5F5F5F5F5F5F5F5F5F5F5F5F5F5F5F5F5F5F5F5F5F5F5F5F5F5F5F5F5F5F5F5F5F5F5F5F5F5F5F5F5F5F5F5F5F5F5F5F5F5F5F5F5F5F5F5F5F5F5F5F5F5F5F5F5F5F5F5F5F5F5F5F5F5F5F5F5F5F5F5F5F5F5F5F5F5F5F5F5F5F5F5F5F5F5F5F5F5F5F5F5F5E2F5F5F5F5F5F5F5F5F5F5F5E2
310
E2E2F5F5F5F5F5F5F5F5F5F5F5E2F5F5F5F5F5F5F5F5F5F5F5F5F5F5F5F5F5F5F5F5F5F5F5F5F5F5F5F5F5F5F5F5F5F5F5F5F5F5F5F5F5F5F5F5F5F5F5F5F5F5F5F5F5F5F5F5F5F5F5F5F5F5F5F5F5F5F5F5F5F5F5F5F5F5F5F5F5F5F5F5F5F5F5F5F5F5F5F5F5F5F5F5F5F5F5F5F5F5F5F5F5F5F5F5F5F5F5F5F5F5F5F5F5
310
F5F5F5F5F5F5F5F5F5F5F5F5F5F5F5F5F5F5F5F5F5F5F5F5F5F5F5F5F5F5F5F5F5F5F5F5F5F5F5F5E2F5F5F5F5F5F5F5F5F5F5F5E2E2E2F5F5F5F5F5F5F5F5F5F5F5E2F5F5F5F5F5F5F5F5F5F5F5F5F5F5F5F5F5F5F5F5F5F5F5F5F5F5F5F5F5F5F5F5F5F5F5F5F5F5F5F5F5F5F5F5F5F5F5F5F5F5F5F5F5F5F5F5F5F5F5F5
310
F5F5F5F5F5F5F5F5F5F5F5F5F5F5F5F5F5F5F5F5F5F5F5F5F5F5F5F5F5F5F5F5F5F5F5F5F5F5F5F5F5F5F5F5F5F5F5F5F5F5F5F5F5F5F5F5F5F5F5F5F5F5F5F5F5F5F5F5F5F5F5F5F5F5F5F5F5F5F5F5F5F5F5F5F5F5F5F5F5F5F5F5F5E2F5F5F5F5F5F5F5F5F5F5F5E2E2E2F5F5F5F5F5F5F5F5F5F5F5E2F5F5F5F5F5F5F5
310
F5F5F5F5F5F5F5F5F5F5F5F5F5F5F5F5F5F5F5F5F5F5F5F5F5F5F5F5F5F5F5F5F5F5F5F5F5F5F5F5F5F5F5F5F5F5F5F5F5F5F5F5F5F5F5F5F5F5F5F5F5F5F5F5F5F5F5F5F5F5F5F5F5F5F5F5F5F5F5F5F5F5F5F5F5F5F5F5F5F5F5F5F5F5F5F5F5F5F5F5F5F5F5F5F5F5F5F5F5F5F5F5F5F5F5F5F5F5F5F5F5F5F5F5F5F5F5
310
F5F5F5F5F5F5F5F5F5F5F5F5F5F5F5F5F5F5F5E2F5F5F5F5F5F5F5F5F5F5F5E2E2E2F5F5F5F5F5F5F5F5F5F5F5E2F5F5F5F5F5F5F5F5F5F5F5F5F5F5F5F5F5F5F5F5F5F5F5F5F5F5F5F5F5F5F5F5F5F5F5F5F5F5F5F5F5F5F5F5F5F5F5F5F5F5F5F5F5F5F5F5F5F5F5F5F5F5F5F5F5F5F5F5F5F5F5F5F5F5F5F5F5F5F5F5F5
310
F5F5F5F5F5F5F5F5F5F5F5F5F5F5F5F5F5F5F5F5F5F5F5F5F5F5F5F5F5F5F5F5F5F5F5F5F5F5F5F5F5F5F5F5F5F5F5F5F5F5F5F5F5F5F5F5F5F5F5F5F5F5F5F5F5F5F5F5F5F5F5F5E2F5F5F5F5F5F5F5F5F5F5F5E2E2E2F5F5F5F5F5F5F5F5F5F5F5E2F5F5F5F5F5F5F5F5F5F5F5F5F5F5F5F5F5F5F5F5F5F5F5F5F5F5F5F5
310
F5F5F5F5F5F5F5F5F5F5F5F5F5F5F5F5F5F5F5F5F5F5F5F5F5F5F5F5F5F5F5F5F5F5F5F5F5F5F5F5F5F5F5F5F5F5F5F5F5F5F5F5F5F5F5F5F5F5F5F5F5F5F5F5F5F5F5F5F5F5F5F5F5F5F5F5F5F5F5F5F5F5F5F5F5F5F5F5F5F5F5F5F5F5F5F5F5F5F5F5F5F5F5F5F5F5F5F5F5F5F5F5F5F5F5F5F5F5F5F5F5F5F5F5F5E2F5
310
F5F5F5F5F5F5F5F5F5F5E2E2E2F5F5F5F5F5F5F5F5F5F5F5E2F5F5F5F5F5F5F5F5F5F5F5F5F5F5F5F5F5F5F5F5F5F5F5F5F5F5F5F5F5F5F5F5F5F5F5F5F5F5F5F5F5F5F5F5F5F5F5F5F5F5F5F5F5F5F5F5F5F5F5F5F5F5F5F5F5F5F5F5F5F5F5F5F5F5F5F5F5F5F5F5F5F5F5F5F5F5F5F5F5F5F5F5F5F5F5F5F5F5F5F5F5F5
310
F5F5F5F5F5F5F5F5F5F5F5F5F5F5F5F5F5F5F5F5F5F5F5F5F5F5F5F5F5F5F5F5F5F5F5F5F5F5F5F5F5F5F5F5F5F5F5F5F5F5F5E2F5F5F5F5F5F5F5F5F5F5F5E2E2E2F5F5F5F5F5F5F5F5F5F5F5E2F5F5F5F5F5F5F5F5F5F5F5F5F5F5F5F5F5F5F5F5F5F5F5F5F5F5F5F5F5F5F5F5F5F5F5F5F5F5F5F5F5F5F5F5F5F5F5F5F5
310
F5F5F5F5F5F5F5F5F5F5F5F5F5F5F5F5F5F5F5F5F5F5F5F5F5F5F5F5F5F5F5F5F5F5F5F5F5F5F5F5F5F5F5F5F5F5F5F5F5F5F5F5F5F5F5F5F5F5F5F5F5F5F5F5F5F5F5F5F5F5F5F5F5F5F5F5F5F5F5F5F5F5F5F5F5F5F5F5F5F5F5F5F5F5F5F5F5F5F5F5F5F5F5F5E2F5F5F5F5F5F5F5F5F5F5F5E2E2E2F5F5F5F5F5F5F5F5
310
F5F5F5E2F5F5F5F5F5F5F5F5F5F5F5F5F5F5F5F5F5F5F5F5F5F5F5F5F5F5F5F5F5F5F5F5F5F5F5F5F5F5F5F5F5F5F5F5F5F5F5F5F5F5F5F5F5F5F5F5F5F5F5F5F5F5F5F5F5F5F5F5F5F5F5F5F5F5F5F5F5F5F5F5F5F5F5F5F5F5F5F5F5F5F5F5F5F5F5F5F5F5F5F5F5F5F5F5F5F5F5F5F5F5F5F5F5F5F5F5F5F5F5F5F5F5F5
310
F5F5F5F5F5F5F5F5F5F5F5F5F5F5F5F5F5F5F5F5F5F5F5F5F5F5F5F5F5F5E2F5F5F5F5F5F5F5F5F5F5F5E2E2E2F5F5F5F5F5F5F5F5F5F5F5E2F5F5F5F5F5F5F5F5F5F5F5F5F5F5F5F5F5F5F5F5F5F5F5F5F5F5F5F5F5F5F5F5F5F5F5F5F5F5F5F5F5F5F5F5F5F5F5F5F5F5F5F5F5F5F5F5F5F5F5F5F5F5F5F5F5F5F5F5F5F5
310
F5F5F5F5F5F5F5F5F5F5F5F5F5F5F5F5F5F5F5F5F5F5F5F5F5F5F5F5F5F5F5F5F5F5F5F5F5F5F5F5F5F5F5F5F5F5F5F5F5F5F5F5F5F5F5F5F5F5F5F5F5F5F5F5F5F5F5F5F5F5F5F5F5F5F5F5F5F5F5F5F5F5F5E2F5F5F5F5F5F5F5F5F5F5F5E2E2E2F5F5F5F5F5F5F5F5F5F5F5E2F5F5F5F5F5F5F5F5F5F5F5F5F5F5F5F5F5
310
F5F5F5F5F5F5F5F5F5F5F5F5F5F5F5F5F5F5F5F5F5F5F5F5F5F5F5F5F5F5F5F5F5F5F5F5F5F5F5F5F5F5F5F5F5F5F5F5F5F5F5F5F5F5F5F5F5F5F5F5F5F5F5F5F5F5F5F5F5F5F5F5F5F5F5F5F5F5F5F5F5F5F5F5F5F5F5F5F5F5F5F5F5F5F5F5F5F5F5F5F5F5F5F5F5F5F5F5F5F5F5F5F5F5F5F5F5F5F5F5F5F5F5F5F5F5F5
310
F5F5F5F5F5F5F5F5F5E2F5F5F5F5F5F5F5F5F5F5F5E2E2E2F5F5F5F5F5F5F5F5F5F5F5E2F5F5F5F5F5F5F5F5F5F5F5F5F5F5F5F5F5F5F5F5F5F5F5F5F5F5F5F5F5F5F5F5F5F5F5F5F5F5F5F5F5F5F5F5F5F5F5F5F5F5F5F5F5F5F5F5F5F5F5F5F5F5F5F5F5F5F5F5F5F5F5F5F5F5F5F5F5F5F5F5F5F5F5F5F5F5F5F5F5F5F5
310
F5F5F5F5F5F5F5F5F5F5F5F5F5F5F5F5F5F5F5F5F5F5F5F5F5F5F5F5F5F5F5F5F5F5F5F5F5F5F5F5F5F5F5F5F5F5F5F5F5F5F5F5F5F5F5F5F5F5F5F5F5F5E2F5F5F5F5F5F5F5F5F5F5F5E2E2E2F5F5F5F5F5F5F5F5F5F5F5E2F5F5F5F5F5F5F5F5F5F5F5F5F5F5F5F5F5F5F5F5F5F5F5F5F5F5F5F5F5F5F5F5F5F5F5F5F5F5
310
F5F5F5F5F5F5F5F5F5F5F5F5F5F5F5F5F5F5F5F5F5F5F5F5F5F5F5F5F5F5F5F5F5F5F5F5F5F5F5F5F5F5F5F5F5F5F5F5F5F5F5F5F5F5F5F5F5F5F5F5F5F5F5F5F5F5F5F5F5F5F5F5F5F5F5F5F5F5F5F5F5F5F5F5F5F5F5F5F5F5F5F5F5F5F5F5F5F5F5F5F5F5F5F5F5F5F5F5F5F5F5F5F5F5F5E2F5F5F5F5F5F5F5F5F5F5F5
310
E2E2E2F5F5F5F5F5F5F5F5F5F5F5F5F5F5F5F5F5F5F5F5F5F5F5F5F5F5F5F5F5F5F5F5F5F5F5F5F5F5F5F5F5F5F5F5F5F5F5F5F5F5F5F5F5F5F5F5F5F5F5F5F5F5F5F5F5F5F5F5F5F5F5F5F5F5F5F5F5F5F5F5F5F5F5F5F5F5F5F5F5F5F5F5F5F5F5F5F5F5F5F5F5F5F5F5F5F5F5F5F5F5F5F5F5F5F5F5F5F5F5F5F5F5F5F5
310
F5F5F5F5F5F5F5F5F5F5F5F5F5F5F5F5F5F5F5F5F5F5F5F5F5F5F5F5F5F5F5F5F5F5F5F5F5F5F5F5F5F5F5F5F5F5F5F5F5F5F5F5F5E2E2E2F5F5F5F5F5F5F5F5F5F5F5F5F5F5F5F5F5F5F5F5F5F5F5F5F5F5F5F5F5F5F5F5F5F5F5F5F5F5F5F5F5F5F5F5F5F5F5F5F5F5F5F5F5F5F5F5F5F5F5F5F5F5F5F5F5F5F5F5F5F5F5
310
F5F5F5F5F5F5F5F5F5F5F5F5F5F5F5F5F5F5F5F5F5F5F5F5F5F5F5F5F5F5F5F5F5F5F5F5F5F5F5F5F5F5F5F5F5F5F5F5F5F5F5F5F5F5F5F5F5F5F5F5F5F5F5F5F5F5F5F5F5F5F5F5F5F5F5F5F5F5F5F5F5F5F5F5F5F5F5F5F5F5F5F5F5F5F5F5F5F5F5F5F5F5F5F5F5F5E2E2E2F5F5F5F5F5F5F5F5F5F5F5F5F5F5F5F5F5F5
310
F5F5F5F5F5F5F5F5F5F5F5F5F5F5F5F5F5F5F5F5F5F5F5F5F5F5F5F5F5F5F5F5F5F5F5F5F5F5F5F5F5F5F5F5F5F5F5F5F5F5F5F5F5F5F5F5F5F5F5F5F5F5F5F5F5F5F5F5F5F5F5F5F5F5F5F5F5F5F5F5F5F5F5F5F5F5F5F5F5F5F5F5F5F5F5F5F5F5F5F5F5F5F5F5F5F5F5F5F5F5F5F5F5F5F5F5F5F5F5F5F5F5F5F5F5F5F5
310
F5F5F5F5F5F5F5F5F5F5F5F5F5F5F5F5F5F5F5F5F5F5F5F5F5F5F5F5F5F5F5F5E2E2E2F5F5F5F5F5F5F5F5F5F5F5F5F5F5F5F5F5F5F5F5F5F5F5F5F5F5F5F5F5F5F5F5F5F5F5F5F5F5F5F5F5F5F5F5F5F5F5F5F5F5F5F5F5F5F5F5F5F5F5F5F5F5F5F5F5F5F5F5F5F5F5F5F5F5F5F5F5F5F5F5F5F5F5F5F5F5F5F5F5F5F5F5
310
F5F5F5F5F5F5F5F5F5F5F5F5F5F5F5F5F5F5F5F5F5F5F5F5F5F5F5F5F5F5F5F5F5F5F5F5F5F5F5F5F5F5F5F5F5F5F5F5F5F5F5F5F5F5F5F5F5F5F5F5F5F5F5F5F5F5F5F5F5F5F5F5F5F5F5F5F5F5F5F5F5F5F5F5F5E2E2E2F5F5F5F5F5F5F5F5F5F5F5F5F5F5F5F5F5F5F5F5F5F5F5F5F5F5F5F5F5F5F5F5F5F5F5F5F5F5F5
310
F5F5F5F5F5F5F5F5F5F5F5F5F5F5F5F5F5F5F5F5F5F5F5F5F5F5F5F5F5F5F5F5F5F5F5F5F5F5F5F5F5F5F5F5F5F5F5F5F5F5F5F5F5F5F5F5F5F5F5F5F5F5F5F5F5F5F5F5F5F5F5F5F5F5F5F5F5F5F5F5F5F5F5F5F5F5F5F5F5F5F5F5F5F5F5F5F5F5F5F5F5F5F5F5F5F5F5F5F5F5F5F5F5F5F5F5F5F5F5F5F5F5F5F5F5F5F5
310
F5F5F5F5F5F5F5F5F5F5F5E2E2E2F5F5F5F5F5F5F5F5F5F5F5F5F5F5F5F5F5F5F5F5F5F5F5F5F5F5F5F5F5F5F5F5F5F5F5F5F5F5F5F5F5F5F5F5F5F5F5F5F5F5F5F5F5F5F5F5F5F5F5F5F5F5F5F5F5F5F5F5F5F5F5F5F5F5F5F5F5F5F5F5F5F5F5F5F5F5F5F5F5F5F5F5F5F5F5F5F5F5F5F5F5F5F5F5F5F5F5F5F5F5F5F5F5
310
F5F5F5F5F5F5F5F5F5F5F5F5F5F5F5F5F5F5F5F5F5F5F5F5F5F5F5F5F5F5F5F5F5F5F5F5F5F5F5F5F5F5F5F5F5F5F5F5F5F5F5F5F5F5F5F5F5F5F5F5F5F5F5F5E2E2E2F5F5F5F5F5F5F5F5F5F5F5F5F5F5F5F5F5F5F5F5F5F5F5F5F5F5F5F5F5F5F5F5F5F5F5F5F5F5F5F5F5F5F5F5F5F5F5F5F5F5F5F5F5F5F5F5F5F5F5F5
310
F5F5F5F5F5F5F5F5F5F5F5F5F5F5F5F5F5F5F5F5F5F5F5F5F5F5F5F5F5F5F5F5F5F5F5F5F5F5F5F5F5F5F5F5F5F5F5F5F5F5F5F5F5F5F5F5F5F5F5F5F5F5F5F5F5F5F5F5F5F5F5F5F5F5F5F5F5F5F5F5F5F5F5F5F5F5F5F5F5F5F5F5F5F5F5F5F5F5F5F5F5F5F5F5F5F5F5F5F5F5F5F5F5F5F5F5F5E2E2E2F5F5F5F5F5F5F5
310
F5F5F5F5F5F5F5F5F5F5F5F5F5F5F5F5F5F5F5F5F5F5F5F5F5F5F5F5F5F5F5F5F5F5F5F5F5F5F5F5F5F5F5F5F5F5F5F5F5F5F5F5F5F5F5F5F5F5F5F5F5F5F5F5F5F5F5F5F5F5F5F5F5F5F5F5F5F5F5F5F5F5F5F5F5F5F5F5F5F5F5F5F5F5F5F5F5F5F5F5F5F5F5F5F5F5F5F5F5F5F5F5F5F5F5F5F5F5F5F5F5F5F5F5F5F5F5
310
F5F5F5F5F5F5F5F5F5F5F5F5F5F5F5F5F5F5F5F5F5F5F5F5F5F5F5F5F5F5F5F5F5F5F5F5F5F5F5F5F5F5F5E2E2E2F5F5F5F5F5F5F5F5F5F5F5E2F5F5F5F5F5F5F5F5F5F5F5F5F5F5F5F5F5F5F5F5F5F5F5F5F5F5F5F5F5F5F5F5F5F5F5F5F5F5F5F5F5F5F5F5F5F5F5F5F5F5F5F5F5F5F5F5F5F5F5F5F5F5F5F5F5F5F5F5F5
310
F5F5F5F5F5F5F5F5F5F5F5F5F5F5F5F5F5F5F5F5F5F5F5F5F5F5F5F5F5F5F5F5F5F5F5F5F5F5F5F5F5F5F5F5F5F5F5F5F5F5F5F5F5F5F5F5F5F5F5F5F5F5F5F5F5F5F5F5F5F5F5F5F5F5F5F5F5F5F5F5F5F5F5F5E2F5F5F5F5F5F5F5F5F5F5F5E2E2E2F5F5F5F5F5F5F5F5F5F5F5E2F5F5F5F5F5F5F5F5F5F5F5F5F5F5F5F5
310
F5F5F5F5F5F5F5F5F5F5F5F5F5F5F5F5F5F5F5F5F5F5F5F5F5F5F5F5F5F5F5F5F5F5F5F5F5F5F5F5F5F5F5F5F5F5F5F5F5F5F5F5F5F5F5F5F5F5F5F5F5F5F5F5F5F5F5F5F5F5F5F5F5F5F5F5F5F5F5F5F5F5F5F5F5F5F5F5F5F5F5F5F5F5F5F5F5F5F5F5F5F5F5F5F5F5F5F5F5F5F5F5F5F5F5F5F5F5F5F5F5F5F5F5F5F5F5
310
F5F5F5F5F5F5F5F5F5F5E2F5F5F5F5F5F5F5F5F5F5F5E2E2E2F5F5F5F5F5F5F5F5F5F5F5E2F5F5F5F5F5F5F5F5F5F5F5F5F5F5F5F5F5F5F5F5F5F5F5F5F5F5F5F5F5F5F5F5F5F5F5F5F5F5F5F5F5F5F5F5F5F5F5F5F5F5F5F5F5F5F5F5F5F5F5F5F5F5F5F5F5F5F5F5F5F5F5F5F5F5F5F5F5F5F5F5F5F5F5F5F5F5F5F5F5F5
310
F5F5F5F5F5F5F5F5F5F5F5F5F5F5F5F5F5F5F5F5F5F5F5F5F5F5F5F5F5F5F5F5F5F5F5F5F5F5F5F5F5F5F5F5F5F5F5F5F5F5F5F5F5F5F5F5F5F5F5F5F5F5F5E2F5F5F5F5F5F5F5F5F5F5F5E2E2E2F5F5F5F5F5F5F5F5F5F5F5E2F5F5F5F5F5F5F5F5F5F5F5F5F5F5F5F5F5F5F5F5F5F5F5F5F5F5F5F5F5F5F5F5F5F5F5F5F5
310
F5F5F5F5F5F5F5F5F5F5F5F5F5F5F5F5F5F5F5F5F5F5F5F5F5F5F5F5F5F5F5F5F5F5F5F5F5F5F5F5F5F5F5F5F5F5F5F5F5F5F5F5F5F5F5F5F5F5F5F5F5F5F5F5F5F5F5F5F5F5F5F5F5F5F5F5F5F5F5F5F5F5F5F5F5F5F5F5F5F5F5F5F5F5F5F5F5F5F5F5F5F5F5F5F5F5F5F5F5F5F5F5F5F5F5F5E2F5F5F5F5F5F5F5F5F5F5
310
F5E2E2E2F5F5F5F5F5F5F5F5F5F5F5E2F5F5F5F5F5F5F5F5F5F5F5F5F5F5F5F5F5F5F5F5F5F5F5F5F5F5F5F5F5F5F5F5F5F5F5F5F5F5F5F5F5F5F5F5F5F5F5F5F5F5F5F5F5F5F5F5F5F5F5F5F5F5F5F5F5F5F5F5F5F5F5F5F5F5F5F5F5F5F5F5F5F5F5F5F5F5F5F5F5F5F5F5F5F5F5F5F5F5F5F5F5F5F5F5F5F5F5F5F5F5F5
310
F5F5F5F5F5F5F5F5F5F5F5F5F5F5F5F5F5F5F5F5F5F5F5F5F5F5F5F5F5F5F5F5F5F5F5F5F5F5F5F5F5F5E2F5F5F5F5F5F5F5F5F5F5F5E2E2E2F5F5F5F5F5F5F5F5F5F5F5E2F5F5F5F5F5F5F5F5F5F5F5F5F5F5F5F5F5F5F5F5F5F5F5F5F5F5F5F5F5F5F5F5F5F5F5F5F5F5F5F5F5F5F5F5F5F5F5F5F5F5F5F5F5F5F5F5F5F5
310
F5F5F5F5F5F5F5F5F5F5F5F5F5F5F5F5F5F5F5F5F5F5F5F5F5F5F5F5F5F5F5F5F5F5F5F5F5F5F5F5F5F5F5F5F5F5F5F5F5F5F5F5F5F5F5F5F5F5F5F5F5F5F5F5F5F5F5F5F5F5F5F5F5F5F5F5F5F5F5F5F5F5F5F5F5F5F5F5F5F5F5F5F5F5F5E2F5F5F5F5F5F5F5F5F5F5F5E2E2E2F5F5F5F5F5F5F5F5F5F5F5E2F5F5F5F5F5
310
F5F5F5F5F5F5F5F5F5F5F5F5F5F5F5F5F5F5F5F5F5F5F5F5F5F5F5F5F5F5F5F5F5F5F5F5F5F5F5F5F5F5F5F5F5F5F5F5F5F5F5F5F5F5F5F5F5F5F5F5F5F5F5F5F5F5F5F5F5F5F5F5F5F5F5F5F5F5F5F5F5F5F5F5F5F5F5F5F5F5F5F5F5F5F5F5F5F5F5F5F5F5F5F5F5F5F5F5F5F5F5F5F5F5F5F5F5F5F5F5F5F5F5F5F5F5F5
310
F5F5F5F5F5F5F5F5F5F5F5F5F5F5F5F5F5F5F5F5F5E2F5F5F5F5F5F5F5F5F5F5F5E2E2E2F5F5F5F5F5F5F5F5F5F5F5E2F5F5F5F5F5F5F5F5F5F5F5F5F5F5F5F5F5F5F5F5F5F5F5F5F5F5F5F5F5F5F5F5F5F5F5F5F5F5F5F5F5F5F5F5F5F5F5F5F5F5F5F5F5F5F5F5F5F5F5F5F5F5F5F5F5F5F5F5F5F5F5F5F5F5F5F5F5F5F5
310
F5F5F5F5F5F5F5F5F5F5F5F5F5F5F5F5F5F5F5F5F5F5F5F5F5F5F5F5F5F5F5F5F5F5F5F5F5F5F5F5F5F5F5F5F5F5F5F5F5F5F5F5F5F5F5F5F5F5F5F5F5F5F5F5F5F5F5F5F5F5F5F5F5F5E2F5F5F5F5F5F5F5F5F5F5F5E2E2E2F5F5F5F5F5F5F5F5F5F5F5E2F5F5F5F5F5F5F5F5F5F5F5F5F5F5F5F5F5F5F5F5F5F5F5F5F5F5
310
F5F5F5F5F5F5F5F5F5F5F5F5F5F5F5F5F5F5F5F5F5F5F5F5F5F5F5F5F5F5F5F5F5F5F5F5F5F5F5F5F5F5F5F5F5F5F5F5F5F5F5F5F5F5F5F5F5F5F5F5F5F5F5F5F5F5F5F5F5F5F5F5F5F5F5F5F5F5F5F5F5F5F5F5F5F5F5F5F5F5F5F5F5F5F5F5F5F5F5F5F5F5F5F5F5F5F5F5F5F5F5F5F5F5F5F5F5F5F5F5F5F5F5F5F5F5F5
310
E2F5F5F5F5F5F5F5F5F5F5F5E2E2E2F5F5F5F5F5F5F5F5F5F5F5E2F5F5F5F5F5F5F5F5F5F5F5F5F5F5F5F5F5F5F5F5F5F5F5F5F5F5F5F5F5F5F5F5F5F5F5F5F5F5F5F5F5F5F5F5F5F5F5F5F5F5F5F5F5F5F5F5F5F5F5F5F5F5F5F5F5F5F5F5F5F5F5F5F5F5F5F5F5F5F5F5F5F5F5F5F5F5F5F5F5F5F5F5F5F5F5F5F5F5F5F5
310
F5F5F5F5F5F5F5F5F5F5F5F5F5F5F5F5F5F5F5F5F5F5F5F5F5F5F5F5F5F5F5F5F5F5F5F5F5F5F5F5F5F5F5F5F5F5F5F5F5F5F5F5F5E2F5F5F5F5F5F5F5F5F5F5F5E2E2E2F5F5F5F5F5F5F5F5F5F5F5E2F5F5F5F5F5F5F5F5F5F5F5F5F5F5F5F5F5F5F5F5F5F5F5F5F5F5F5F5F5F5F5F5F5F5F5F5F5F5F5F5F5F5F5F5F5F5F5
310
F5F5F5F5F5F5F5F5F5F5F5F5F5F5F5F5F5F5F5F5F5F5F5F5F5F5F5F5F5F5F5F5F5F5F5F5F5F5F5F5F5F5F5F5F5F5F5F5F5F5F5F5F5F5F5F5F5F5F5F5F5F5F5F5F5F5F5F5F5F5F5F5F5F5F5F5F5F5F5F5F5F5F5F5F5F5F5F5F5F5F5F5F5F5F5F5F5F5F5F5F5F5F5F5F5F5E2F5F5F5F5F5F5F5F5F5F5F5E2E2E2F5F5F5F5F5F5
310
F5F5F5F5F5E2F5F5F5F5F5F5F5F5F5F5F5F5F5F5F5F5F5F5F5F5F5F5F5F5F5F5F5F5F5F5F5F5F5F5F5F5F5F5F5F5F5F5F5F5F5F5F5F5F5F5F5F5F5F5F5F5F5F5F5F5F5F5F5F5F5F5F5F5F5F5F5F5F5F5F5F5F5F5F5F5F5F5F5F5F5F5F5F5F5F5F5F5F5F5F5F5F5F5F5F5F5F5F5F5F5F5F5F5F5F5F5F5F5F5F5F5F5F5F5F5F5
310
F5F5F5F5F5F5F5F5F5F5F5F5F5F5F5F5F5F5F5F5F5F5F5F5F5F5F5F5F5F5F5F5E2F5F5F5F5F5F5F5F5F5F5F5E2E2E2F5F5F5F5F5F5F5F5F5F5F5E2F5F5F5F5F5F5F5F5F5F5F5F5F5F5F5F5F5F5F5F5F5F5F5F5F5F5F5F5F5F5F5F5F5F5F5F5F5F5F5F5F5F5F5F5F5F5F5F5F5F5F5F5F5F5F5F5F5F5F5F5F5F5F5F5F5F5F5F5
310
F5F5F5F5F5F5F5F5F5F5F5F5F5F5F5F5F5F5F5F5F5F5F5F5F5F5F5F5F5F5F5F5F5F5F5F5F5F5F5F5F5F5F5F5F5F5F5F5F5F5F5F5F5F5F5F5F5F5F5F5F5F5F5F5F5F5F5F5F5F5F5F5F5F5F5F5F5F5F5F5F5F5F5F5F5E2F5F5F5F5F5F5F5F5F5F5F5E2E2E2F5F5F5F5F5F5F5F5F5F5F5E2F5F5F5F5F5F5F5F5F5F5F5F5F5F5F5
310
F5F5F5F5F5F5F5F5F5F5F5F5F5F5F5F5F5F5F5F5F5F5F5F5F5F5F5F5F5F5F5F5F5F5F5F5F5F5F5F5F5F5F5F5F5F5F5F5F5F5F5F5F5F5F5F5F5F5F5F5F5F5F5F5F5F5F5F5F5F5F5F5F5F5F5F5F5F5F5F5F5F5F5F5F5F5F5F5F5F5F5F5F5F5F5F5F5F5F5F5F5F5F5F5F5F5F5F5F5F5F5F5F5F5F5F5F5F5F5F5F5F5F5F5F5F5F5
310
F5F5F5F5F5F5F5F5F5F5F5E2F5F5F5F5F5F5F5F5F5F5F5E2E2E2F5F5F5F5F5F5F5F5F5F5F5E2F5F5F5F5F5F5F5F5F5F5F5F5F5F5F5F5F5F5F5F5F5F5F5F5F5F5F5F5F5F5F5F5F5F5F5F5F5F5F5F5F5F5F5F5F5F5F5F5F5F5F5F5F5F5F5F5F5F5F5F5F5F5F5F5F5F5F5F5F5F5F5F5F5F5F5F5F5F5F5F5F5F5F5F5F5F5F5F5F5
310
F5F5F5F5F5F5F5F5F5F5F5F5F5F5F5F5F5F5F5F5F5F5F5F5F5F5F5F5F5F5F5F5F5F5F5F5F5F5F5F5F5F5F5F5F5F5F5F5F5F5F5F5F5F5F5F5F5F5F5F5F5F5F5F5E2F5F5F5F5F5F5F5F5F5F5F5E2E2E2F5F5F5F5F5F5F5F5F5F5F5F5F5F5F5F5F5F5F5F5F5F5F5F5F5F5F5F5F5F5F5F5F5F5F5F5F5F5F5F5F5F5F5F5F5F5F5F5
310
F5F5F5F5F5F5F5F5F5F5F5F5F5F5F5F5F5F5F5F5F5F5F5F5F5F5F5F5F5F5F5F5F5F5F5F5F5F5F5F5F5F5F5F5F5F5F5F5F5F5F5F5F5F5F5F5F5F5F5F5F5F5F5F5F5F5F5F5F5F5F5F5F5F5F5F5F5F5F5F5F5F5F5F5F5F5F5F5F5F5F5F5F5F5F5F5F5F5F5F5F5F5F5F5F5F5F5F5F5F5F5F5F5F5F5F5F5F5F5F5F5F5F5F5F5F5F5
310
F5F5E2E2E2F5F5F5F5F5F5F5F5F5F5F5F5F5F5F5F5F5F5F5F5F5F5F5F5F5F5F5F5F5F5F5F5F5F5F5F5F5F5F5F5F5F5F5F5F5F5F5F5F5F5F5F5F5F5F5F5F5F5F5F5F5F5F5F5F5F5F5F5F5F5F5F5F5F5F5F5F5F5F5F5F5F5F5F5F5F5F5F5F5F5F5F5F5F5F5F5F5F5F5F5F5F5F5F5F5F5F5F5F5F5F5F5F5F5F5F5F5F5F5F5F5F5
310
F5F5F5F5F5F5F5F5F5F5F5F5F5F5F5F5F5F5F5F5F5F5F5F5F5F5F5F5F5F5F5F5F5F5F5F5F5F5F5F5F5F5F5F5F5F5F5F5F5F5F5F5F5F5F5E2E2E2F5F5F5F5F5F5F5F5F5F5F5F5F5F5F5F5F5F5F5F5F5F5F5F5F5F5F5F5F5F5F5F5F5F5F5F5F5F5F5F5F5F5F5F5F5F5F5F5F5F5F5F5F5F5F5F5F5F5F5F5F5F5F5F5F5F5F5F5F5
310
F5F5F5F5F5F5F5F5F5F5F5F5F5F5F5F5F5F5F5F5F5F5F5F5F5F5F5F5F5F5F5F5F5F5F5F5F5F5F5F5F5F5F5F5F5F5F5F5F5F5F5F5F5F5F5F5F5F5F5F5F5F5F5F5F5F5F5F5F5F5F5F5F5F5F5F5F5F5F5F5F5F5F5F5F5F5F5F5F5F5F5F5F5F5F5F5F5F5F5F5F5F5F5F5F5F5F5F5E2E2E2F5F5F5F5F5F5F5F5F5F5F5F5F5F5F5F5
310
F5F5F5F5F5F5F5F5F5F5F5F5F5F5F5F5F5F5F5F5F5F5F5F5F5F5F5F5F5F5F5F5F5F5F5F5F5F5F5F5F5F5F5F5F5F5F5F5F5F5F5F5F5F5F5F5F5F5F5F5F5F5F5F5F5F5F5F5F5F5F5F5F5F5F5F5F5F5F5F5F5F5F5F5F5F5F5F5F5F5F5F5F5F5F5F5F5F5F5F5F5F5F5F5F5F5F5F5F5F5F5F5F5F5F5F5F5F5F5F5F5F5F5F5F5F5F5
310
F5F5F5F5F5F5F5F5F5F5F5F5F5F5F5F5F5F5F5F5F5F5F5F5F5F5F5F5F5F5F5F5F5F5E2E2E2F5F5F5F5F5F5F5F5F5F5F5F5F5F5F5F5F5F5F5F5F5F5F5F5F5F5F5F5F5F5F5F5F5F5F5F5F5F5F5F5F5F5F5F5F5F5F5F5F5F5F5F5F5F5F5F5F5F5F5F5F5F5F5F5F5F5F5F5F5F5F5F5F5F5F5F5F5F5F5F5F5F5F5F5F5F5F5F5F5F5
310
F5F5F5F5F5F5F5F5F5F5F5F5F5F5F5F5F5F5F5F5F5F5F5F5F5F5F5F5F5F5F5F5F5F5F5F5F5F5F5F5F5F5F5F5F5F5F5F5F5F5F5F5F5F5F5F5F5F5F5F5F5F5F5F5F5F5F5F5F5F5F5F5F5F5F5F5F5F5F5F5F5F5F5F5F5F5F5E2E2E2F5F5F5F5F5F5F5F5F5F5F5F5F5F5F5F5F5F5F5F5F5F5F5F5F5F5F5F5F5F5F5F5F5F5F5F5F5
310
F5F5F5F5F5F5F5F5F5F5F5F5F5F5F5F5F5F5F5F5F5F5F5F5F5F5F5F5F5F5F5F5F5F5F5F5F5F5F5F5F5F5F5F5F5F5F5F5F5F5F5F5F5F5F5F5F5F5F5F5F5F5F5F5F5F5F5F5F5F5F5F5F5F5F5F5F5F5F5F5F5F5F5F5F5F5F5F5F5F5F5F5F5F5F5F5F5F5F5F5F5F5F5F5F5F5F5F5F5F5F5F5F5F5F5F5F5F5F5F5F5F5F5F5F5F5F5
310
F5F5F5F5F5F5F5F5F5F5F5F5F5E2E2E2F5F5F5F5F5F5F5F5F5F5F5F5F5F5F5F5F5F5F5F5F5F5F5F5F5F5F5F5F5F5F5F5F5F5F5F5F5F5F5F5F5F5F5F5F5F5F5F5F5F5F5F5F5F5F5F5F5F5F5F5F5F5F5F5F5F5F5F5F5F5F5F5F5F5F5F5F5F5F5F5F5F5F5F5F5F5F5F5F5F5F5F5F5F5F5F5F5F5F5F5F5F5F5F5F5F5F5F5F5F5F5
310
F5F5F5F5F5F5F5F5F5F5F5F5F5F5F5F5F5F5F5F5F5F5F5F5F5F5F5F5F5F5F5F5F5F5F5F5F5F5F5F5F5F5F5F5F5F5F5F5F5F5F5F5F5F5F5F5F5F5F5F5F5F5F5F5F5F5E2E2E2F5F5F5F5F5F5F5F5F5F5F5F5F5F5F5F5F5F5F5F5F5F5F5F5F5F5F5F5F5F5F5F5F5F5F5F5F5F5F5F5F5F5F5F5F5F5F5F5F5F5F5F5F5F5F5F5F5F5
310
F5F5F5F5F5F5F5F5F5F5F5F5F5F5F5F5F5F5F5F5F5F5F5F5F5F5F5F5F5F5F5F5F5F5F5F5F5F5F5F5F5F5F5F5F5F5F5F5F5F5F5F5F5F5F5F5F5F5F5F5F5F5F5F5F5F5F5F5F5F5F5F5F5F5F5F5F5F5F5F5F5F5F5F5F5F5F5F5F5F5F5F5F5F5F5F5F5F5F5F5F5F5F5F5F5F5F5F5F5F5F5F5F5F5F5F5F5F5F5E2E2E2F5F5F5F5F5
310
F5F5F5F5F5F5E2F5F5F5F5F5F5F5F5F5F5F5F5F5F5F5F5F5F5F5F5F5F5F5F5F5F5F5F5F5F5F5F5F5F5F5F5F5F5F5F5F5F5F5F5F5F5F5F5F5F5F5F5F5F5F5F5F5F5F5F5F5F5F5F5F5F5F5F5F5F5F5F5F5F5F5F5F5F5F5F5F5F5F5F5F5F5F5F5F5F5F5F5F5F5F5F5F5F5F5F5F5F5F5F5F5F5F5F5F5F5F5F5F5F5F5F5F5F5F5F5
310
F5F5F5F5F5F5F5F5F5F5F5F5F5F5F5F5F5F5F5F5F5F5F5F5F5F5F5F5F5F5F5F5F5E2F5F5F5F5F5F5F5F5F5F5F5E2E2E2F5F5F5F5F5F5F5F5F5F5F5E2F5F5F5F5F5F5F5F5F5F5F5F5F5F5F5F5F5F5F5F5F5F5F5F5F5F5F5F5F5F5F5F5F5F5F5F5F5F5F5F5F5F5F5F5F5F5F5F5F5F5F5F5F5F5F5F5F5F5F5F5F5F5F5F5F5F5F5
310
F5F5F5F5F5F5F5F5F5F5F5F5F5F5F5F5F5F5F5F5F5F5F5F5F5F5F5F5F5F5F5F5F5F5F5F5F5F5F5F5F5F5F5F5F5F5F5F5F5F5F5F5F5F5F5F5F5F5F5F5F5F5F5F5F5F5F5F5F5F5F5F5F5F5F5F5F5F5F5F5F5F5F5F5F5F5E2F5F5F5F5F5F5F5F5F5F5F5E2E2E2F5F5F5F5F5F5F5F5F5F5F5E2F5F5F5F5F5F5F5F5F5F5F5F5F5F5
310
F5F5F5F5F5F5F5F5F5F5F5F5F5F5F5F5F5F5F5F5F5F5F5F5F5F5F5F5F5F5F5F5F5F5F5F5F5F5F5F5F5F5F5F5F5F5F5F5F5F5F5F5F5F5F5F5F5F5F5F5F5F5F5F5F5F5F5F5F5F5F5F5F5F5F5F5F5F5F5F5F5F5F5F5F5F5F5F5F5F5F5F5F5F5F5F5F5F5F5F5F5F5F5F5F5F5F5F5F5F5F5F5F5F5F5F5F5F5F5F5F5F5F5F5F5F5F5
310
F5F5F5F5F5F5F5F5F5F5F5F5E2F5F5F5F5F5F5F5F5F5F5F5E2E2E2F5F5F5F5F5F5F5F5F5F5F5E2F5F5F5F5F5F5F5F5F5F5F5F5F5F5F5F5F5F5F5F5F5F5F5F5F5F5F5F5F5F5F5F5F5F5F5F5F5F5F5F5F5F5F5F5F5F5F5F5F5F5F5F5F5F5F5F5F5F5F5F5F5F5F5F5F5F5F5F5F5F5F5F5F5F5F5F5F5F5F5F5F5F5F5F5F5F5F5F5
310
F5F5F5F5F5F5F5F5F5F5F5F5F5F5F5F5F5F5F5F5F5F5F5F5F5F5F5F5F5F5F5F5F5F5F5F5F5F5F5F5F5F5F5F5F5F5F5F5F5F5F5F5F5F5F5F5F5F5F5F5F5F5F5F5F5E2F5F5F5F5F5F5F5F5F5F5F5E2E2E2F5F5F5F5F5F5F5F5F5F5F5E2F5F5F5F5F5F5F5F5F5F5F5F5F5F5F5F5F5F5F5F5F5F5F5F5F5F5F5F5F5F5F5F5F5F5F5
310
F5F5F5F5F5F5F5F5F5F5F5F5F5F5F5F5F5F5F5F5F5F5F5F5F5F5F5F5F5F5F5F5F5F5F5F5F5F5F5F5F5F5F5F5F5F5F5F5F5F5F5F5F5F5F5F5F5F5F5F5F5F5F5F5F5F5F5F5F5F5F5F5F5F5F5F5F5F5F5F5F5F5F5F5F5F5F5F5F5F5F5F5F5F5F5F5F5F5F5F5F5F5F5F5F5F5F5F5F5F5F5F5F5F5F5F5F5F5E2F5F5F5F5F5F5F5F5
310
F5F5F5E2E2E2F5F5F5F5F5F5F5F5F5F5F5E2F5F5F5F5F5F5F5F5F5F5F5F5F5F5F5F5F5F5F5F5F5F5F5F5F5F5F5F5F5F5F5F5F5F5F5F5F5F5F5F5F5F5F5F5F5F5F5F5F5F5F5F5F5F5F5F5F5F5F5F5F5F5F5F5F5F5F5F5F5F5F5F5F5F5F5F5F5F5F5F5F5F5F5F5F5F5F5F5F5F5F5F5F5F5F5F5F5F5F5F5F5F5F5F5F5F5F5F5F5
310
F5F5F5F5F5F5F5F5F5F5F5F5F5F5F5F5F5F5F5F5F5F5F5F5F5F5F5F5F5F5F5F5F5F5F5F5F5F5F5F5F5F5F5F5E2F5F5F5F5F5F5F5F5F5F5F5E2E2E2F5F5F5F5F5F5F5F5F5F5F5E2F5F5F5F5F5F5F5F5F5F5F5F5F5F5F5F5F5F5F5F5F5F5F5F5F5F5F5F5F5F5F5F5F5F5F5F5F5F5F5F5F5F5F5F5F5F5F5F5F5F5F5F5F5F5F5F5
310
F5F5F5F5F5F5F5F5F5F5F5F5F5F5F5F5F5F5F5F5F5F5F5F5F5F5F5F5F5F5F5F5F5F5F5F5F5F5F5F5F5F5F5F5F5F5F5F5F5F5F5F5F5F5F5F5F5F5F5F5F5F5F5F5F5F5F5F5F5F5F5F5F5F5F5F5F5F5F5F5F5F5F5F5F5F5F5F5F5F5F5F5F5F5F5F5F5E2F5F5F5F5F5F5F5F5F5F5F5E2E2E2F5F5F5F5F5F5F5F5F5F5F5E2E2E2E2
310
E2E2E2E2E2F5F5F5F5F5F5F5F5F5E2E2E2E2E2E2E2E2E2E2E2E2E2E2E2E2F5F5F5F5F5F5F5F5F5F5E2E2E2E2E2E2E2E2E2E2E2E2E2E2E2E2F5F5F5F5F5F5F5F5F5E2E2E2E2E2E2E2E2E2E2E2E2E2E2E2E2E2F5F5F5F5F5F5F5F5F5E2E2E2E2E2E2E2E2E2E2E2E2E2E2E2E2F5F5F5F5F5F5F5F5F5F5E2E2E2E2E2E2E2E2E2E2
310
E2E2E2E2E2E2F5F5F5F5F5F5F5F5F5E2E2E2E2E2E2E2E2E2F5F5F5F5F5F5F5F5F5F5F5E2E2E2F5F5F5F5F5F5F5F5F5F5F5F5F5F5F5F5F5F5F5F5F5F5F5F5F5F5F5F5F5F5F5F5F5F5F5F5F5F5F5F5F5F5F5F5F5F5F5F5F5F5F5F5F5F5F5F5F5F5F5F5F5F5F5F5F5F5F5F5F5F5F5F5F5F5F5F5F5F5F5F5F5F5F5F5F5F5F5F5F5
310
F5F5F5F5F5F5F5F5F5F5F5F5F5F5F5F5F5F5F5F5F5F5F5F5F5F5F5F5F5F5F5F5F5F5F5F5F5F5F5F5F5F5F5F5F5F5F5F5F5F5F5F5F5F5F5F5F5F5F5F5F5F5F5F5F5F5F5F5F5F5F5F5F5F5F5F5F5F5F5F5F5F5F5F5F5F5F5F5E2E2E2F5F5F5F5F5F5F5F5F5F5F5F5F5F5F5F5F5F5F5F5F5F5F5F5F5F5F5F5F5F5F5F5F5F5F5F5
310
F5F5F5F5F5F5F5F5F5F5F5F5F5F5F5F5F5F5F5F5F5F5F5F5F5F5F5F5F5F5F5F5F5F5F5F5F5F5F5F5F5F5F5F5F5F5F5F5F5F5F5F5F5F5F5F5F5F5F5F5F5F5F5F5F5F5F5F5F5F5F5F5F5F5F5F5F5F5F5F5F5F5F5F5F5F5F5F5F5F5F5F5F5F5F5F5F5F5F5F5F5F5F5F5F5F5F5F5F5F5F5F5F5F5F5F5F5F5F5F5F5F5F5F5F5F5F5
310
F5F5F5F5F5F5F5F5F5F5F5F5F5F5E2E2E2F5F5F5F5F5F5F5F5F5F5F5F5F5F5F5F5F5F5F5F5F5F5F5F5F5F5F5F5F5F5F5F5F5F5F5F5F5F5F5F5F5F5F5F5F5F5F5F5F5F5F5F5F5F5F5F5F5F5F5F5F5F5F5F5F5F5F5F5F5F5F5F5F5F5F5F5F5F5F5F5F5F5F5F5F5F5F5F5F5F5F5F5F5F5F5F5F5F5F5F5F5F5F5F5F5F5F5F5F5F5
310
F5F5F5F5F5F5F5F5F5F5F5F5F5F5F5F5F5F5F5F5F5F5F5F5F5F5F5F5F5F5F5F5F5F5F5F5F5F5F5F5F5F5F5F5F5F5F5F5F5F5F5F5F5F5F5F5F5F5F5F5F5F5F5F5F5F5F5E2E2E2F5F5F5F5F5F5F5F5F5F5F5F5F5F5F5F5F5F5F5F5F5F5F5F5F5F5F5F5F5F5F5F5F5F5F5F5F5F5F5F5F5F5F5F5F5F5F5F5F5F5F5F5F5F5F5F5F5
310
F5F5F5F5F5F5F5F5F5F5F5F5F5F5F5F5F5F5F5F5F5F5F5F5F5F5F5F5F5F5F5F5F5F5F5F5F5F5F5F5F5F5F5F5F5F5F5F5F5F5F5F5F5F5F5F5F5F5F5F5F5F5F5F5F5F5F5F5F5F5F5F5F5F5F5F5F5F5F5F5F5F5F5F5F5F5F5F5F5F5F5F5F5F5F5F5F5F5F5F5F5F5F5F5F5F5F5F5F5F5F5F5F5F5F5F5F5F5F5F5E2EFE2E2E2E2E2
310
E2E2E2E2E2E2E2E2E2E2E2E2E2E2E2E2E2E2E2E2E2E2E2E2E2E2E2E2E2E2E2E2E2E2E2E2E2E2E2E2E2E2E2E2E2E2E2E2E2E2E2E2E2E2E2E2E2E2E2E2E2E2E2E2E2E2E2E2E2E2E2E2E2E2E2E2E2E2E2E2E2E2E2E2E2E2E2E2E2E2E2E2E2E2E2E2E2E2E2E2E2E2E2E2E2E2E2E2E2E2E2E2E2E2E2E2E2E2E2E2E2E2E2E2E2E2E2
310
E2E2E2E2E2E2E2E2E2E2E2E2E2E2E2E2E2E2E2E2E2E2E2E2E2E2E2E2E2E2E2E2E2E2E2E2E2E2E2E2E2E2E2E2E2E2E2EF
  0
XRECORD
  5
4400
102
{ACAD_REACTORS
330
43FF
102
}
330
43FF
100
AcDbXrecord
280
     1
102
SHADEPLOT
 70
     0
102
SHADEPLOTRESLEVEL
 70
     2
102
SHADEPLOTCUSTOMDPI
 70
   300
  0
XRECORD
  5
4406
102
{ACAD_REACTORS
330
43B2
102
}
330
43B2
100
AcDbXrecord
280
     1
102
MATERIAL
148
0.0
149
0.0
149
0.0
 93
        0
 94
      127
282
     0
 72
     0
 77
     0
171
     0
175
     0
179
     0
273
     0
  0
XRECORD
  5
43B4
102
{ACAD_REACTORS
330
43B2
102
}
330
43B2
100
AcDbXrecord
280
     1
270
     1
271
     1
  0
XRECORD
  5
43B3
102
{ACAD_REACTORS
330
43B2
102
}
330
43B2
100
AcDbXrecord
280
     1
270
     1
271
     1
  0
XRECORD
  5
43B7
102
{ACAD_REACTORS
330
43B2
102
}
330
43B2
100
AcDbXrecord
280
     1
270
     1
271
     1
  0
XRECORD
  5
43B6
102
{ACAD_REACTORS
330
43B2
102
}
330
43B2
100
AcDbXrecord
280
     1
270
     1
271
     1
  0
XRECORD
  5
43B8
102
{ACAD_REACTORS
330
43B2
102
}
330
43B2
100
AcDbXrecord
280
     1
270
     1
271
     1
  0
XRECORD
  5
43B5
102
{ACAD_REACTORS
330
43B2
102
}
330
43B2
100
AcDbXrecord
280
     1
270
     1
271
     1
  0
XRECORD
  5
4405
102
{ACAD_REACTORS
330
43AA
102
}
330
43AA
100
AcDbXrecord
280
     1
102
MATERIAL
148
0.0
149
0.0
149
0.0
 93
        0
 94
      127
282
     0
 72
     0
 77
     0
171
     0
175
     0
179
     0
273
     0
  0
XRECORD
  5
43AC
102
{ACAD_REACTORS
330
43AA
102
}
330
43AA
100
AcDbXrecord
280
     1
270
     1
271
     1
  0
XRECORD
  5
43AB
102
{ACAD_REACTORS
330
43AA
102
}
330
43AA
100
AcDbXrecord
280
     1
270
     1
271
     1
  0
XRECORD
  5
43AF
102
{ACAD_REACTORS
330
43AA
102
}
330
43AA
100
AcDbXrecord
280
     1
270
     1
271
     1
  0
XRECORD
  5
43AE
102
{ACAD_REACTORS
330
43AA
102
}
330
43AA
100
AcDbXrecord
280
     1
270
     1
271
     1
  0
XRECORD
  5
43B0
102
{ACAD_REACTORS
330
43AA
102
}
330
43AA
100
AcDbXrecord
280
     1
270
     1
271
     1
  0
XRECORD
  5
43AD
102
{ACAD_REACTORS
330
43AA
102
}
330
43AA
100
AcDbXrecord
280
     1
270
     1
271
     1
  0
XRECORD
  5
4407
102
{ACAD_REACTORS
330
43BA
102
}
330
43BA
100
AcDbXrecord
280
     1
102
MATERIAL
148
0.0
149
0.0
149
0.0
 93
        0
 94
      127
282
     0
 72
     0
 77
     0
171
     0
175
     0
179
     0
273
     0
  0
XRECORD
  5
43BC
102
{ACAD_REACTORS
330
43BA
102
}
330
43BA
100
AcDbXrecord
280
     1
270
     1
271
     1
  0
XRECORD
  5
43BB
102
{ACAD_REACTORS
330
43BA
102
}
330
43BA
100
AcDbXrecord
280
     1
270
     1
271
     1
  0
XRECORD
  5
43BF
102
{ACAD_REACTORS
330
43BA
102
}
330
43BA
100
AcDbXrecord
280
     1
270
     1
271
     1
  0
XRECORD
  5
43BE
102
{ACAD_REACTORS
330
43BA
102
}
330
43BA
100
AcDbXrecord
280
     1
270
     1
271
     1
  0
XRECORD
  5
43C0
102
{ACAD_REACTORS
330
43BA
102
}
330
43BA
100
AcDbXrecord
280
     1
270
     1
271
     1
  0
XRECORD
  5
43BD
102
{ACAD_REACTORS
330
43BA
102
}
330
43BA
100
AcDbXrecord
280
     1
270
     1
271
     1
  0
XRECORD
  5
43FA
102
{ACAD_REACTORS
330
43F9
102
}
330
43F9
100
AcDbXrecord
280
     1
102
ACAD_ROUNDTRIP_2012_MLEADER_STYLE
298
     1
  0
CELLSTYLEMAP
  5
43F8
102
{ACAD_REACTORS
330
43F7
102
}
330
43F7
100
AcDbCellStyleMap
 90
        3
300
CELLSTYLE
  1
TABLEFORMAT_BEGIN
 90
        5
170
     1
 91
        0
 92
    32768
 62
   257
 93
        1
300
CONTENTFORMAT
  1
CONTENTFORMAT_BEGIN
 90
        0
 91
        0
 92
        4
 93
        0
300

 40
0.0
140
1.0
 94
        5
 62
     0
340
11
144
0.25
309
CONTENTFORMAT_END
171
     0
 94
        6
 95
        1
302
GRIDFORMAT
  1
GRIDFORMAT_BEGIN
 90
        0
 91
        1
 62
     0
 92
       -2
340
0
 93
        0
 40
0.045
309
GRIDFORMAT_END
 95
        2
302
GRIDFORMAT
  1
GRIDFORMAT_BEGIN
 90
        0
 91
        1
 62
     0
 92
       -2
340
0
 93
        0
 40
0.045
309
GRIDFORMAT_END
 95
        4
302
GRIDFORMAT
  1
GRIDFORMAT_BEGIN
 90
        0
 91
        1
 62
     0
 92
       -2
340
0
 93
        0
 40
0.045
309
GRIDFORMAT_END
 95
        8
302
GRIDFORMAT
  1
GRIDFORMAT_BEGIN
 90
        0
 91
        1
 62
     0
 92
       -2
340
0
 93
        0
 40
0.045
309
GRIDFORMAT_END
 95
       16
302
GRIDFORMAT
  1
GRIDFORMAT_BEGIN
 90
        0
 91
        1
 62
     0
 92
       -2
340
0
 93
        0
 40
0.045
309
GRIDFORMAT_END
 95
       32
302
GRIDFORMAT
  1
GRIDFORMAT_BEGIN
 90
        0
 91
        1
 62
     0
 92
       -2
340
0
 93
        0
 40
0.045
309
GRIDFORMAT_END
309
TABLEFORMAT_END
  1
CELLSTYLE_BEGIN
 90
        1
 91
        1
300
_TITLE
309
CELLSTYLE_END
300
CELLSTYLE
  1
TABLEFORMAT_BEGIN
 90
        5
170
     1
 91
        0
 92
        0
 62
   257
 93
        1
300
CONTENTFORMAT
  1
CONTENTFORMAT_BEGIN
 90
        0
 91
        0
 92
        4
 93
        0
300

 40
0.0
140
1.0
 94
        5
 62
     0
340
11
144
0.18
309
CONTENTFORMAT_END
171
     0
 94
        6
 95
        1
302
GRIDFORMAT
  1
GRIDFORMAT_BEGIN
 90
        0
 91
        1
 62
     0
 92
       -2
340
0
 93
        0
 40
0.045
309
GRIDFORMAT_END
 95
        2
302
GRIDFORMAT
  1
GRIDFORMAT_BEGIN
 90
        0
 91
        1
 62
     0
 92
       -2
340
0
 93
        0
 40
0.045
309
GRIDFORMAT_END
 95
        4
302
GRIDFORMAT
  1
GRIDFORMAT_BEGIN
 90
        0
 91
        1
 62
     0
 92
       -2
340
0
 93
        0
 40
0.045
309
GRIDFORMAT_END
 95
        8
302
GRIDFORMAT
  1
GRIDFORMAT_BEGIN
 90
        0
 91
        1
 62
     0
 92
       -2
340
0
 93
        0
 40
0.045
309
GRIDFORMAT_END
 95
       16
302
GRIDFORMAT
  1
GRIDFORMAT_BEGIN
 90
        0
 91
        1
 62
     0
 92
       -2
340
0
 93
        0
 40
0.045
309
GRIDFORMAT_END
 95
       32
302
GRIDFORMAT
  1
GRIDFORMAT_BEGIN
 90
        0
 91
        1
 62
     0
 92
       -2
340
0
 93
        0
 40
0.045
309
GRIDFORMAT_END
309
TABLEFORMAT_END
  1
CELLSTYLE_BEGIN
 90
        2
 91
        1
300
_HEADER
309
CELLSTYLE_END
300
CELLSTYLE
  1
TABLEFORMAT_BEGIN
 90
        5
170
     1
 91
        0
 92
        0
 62
   257
 93
        1
300
CONTENTFORMAT
  1
CONTENTFORMAT_BEGIN
 90
        0
 91
        0
 92
        4
 93
        0
300

 40
0.0
140
1.0
 94
        2
 62
     0
340
11
144
0.18
309
CONTENTFORMAT_END
171
     0
 94
        6
 95
        1
302
GRIDFORMAT
  1
GRIDFORMAT_BEGIN
 90
        0
 91
        1
 62
     0
 92
       -2
340
0
 93
        0
 40
0.045
309
GRIDFORMAT_END
 95
        2
302
GRIDFORMAT
  1
GRIDFORMAT_BEGIN
 90
        0
 91
        1
 62
     0
 92
       -2
340
0
 93
        0
 40
0.045
309
GRIDFORMAT_END
 95
        4
302
GRIDFORMAT
  1
GRIDFORMAT_BEGIN
 90
        0
 91
        1
 62
     0
 92
       -2
340
0
 93
        0
 40
0.045
309
GRIDFORMAT_END
 95
        8
302
GRIDFORMAT
  1
GRIDFORMAT_BEGIN
 90
        0
 91
        1
 62
     0
 92
       -2
340
0
 93
        0
 40
0.045
309
GRIDFORMAT_END
 95
       16
302
GRIDFORMAT
  1
GRIDFORMAT_BEGIN
 90
        0
 91
        1
 62
     0
 92
       -2
340
0
 93
        0
 40
0.045
309
GRIDFORMAT_END
 95
       32
302
GRIDFORMAT
  1
GRIDFORMAT_BEGIN
 90
        0
 91
        1
 62
     0
 92
       -2
340
0
 93
        0
 40
0.045
309
GRIDFORMAT_END
309
TABLEFORMAT_END
  1
CELLSTYLE_BEGIN
 90
        3
 91
        2
300
_DATA
309
CELLSTYLE_END
  0
XRECORD
  5
4402
102
{ACAD_REACTORS
330
43F7
102
}
330
43F7
100
AcDbXrecord
280
     1
102
ACAD_ROUNDTRIP_PRE2007_TABLESTYLE
 90
        4
 91
        0
  1

 92
        4
 93
        0
  2

 94
        4
 95
        0
  3

  0
XRECORD
  5
4413
102
{ACAD_REACTORS
330
4412
102
}
330
4412
100
AcDbXrecord
280
     1
102
RTVSPropertyOp0
 70
     1
102
RTVSPropertyOp1
 70
     1
102
RTVSPropertyOp2
 70
     1
102
RTVSPropertyOp3
 70
     1
102
RTVSPropertyOp4
 70
     1
102
RTVSPropertyOp5
 70
     1
102
RTVSPropertyOp6
 70
     1
102
RTVSPropertyOp7
 70
     1
102
RTVSPropertyOp8
 70
     1
102
RTVSPropertyOp9
 70
     1
102
RTVSPropertyOp10
 70
     1
102
RTVSPropertyOp11
 70
     1
102
RTVSPropertyOp12
 70
     1
102
RTVSPropertyOp13
 70
     1
102
RTVSPropertyOp14
 70
     1
102
RTVSPropertyOp15
 70
     1
102
RTVSPropertyOp16
 70
     1
102
RTVSPropertyOp17
 70
     1
102
RTVSPropertyOp18
 70
     1
102
RTVSPropertyOp19
 70
     1
102
RTVSPropertyOp20
 70
     1
102
RTVSPropertyOp21
 70
     1
102
RTVSPropertyOp22
 70
     1
102
RTVSPropertyOp23
 70
     1
102
RTVSPropertyOp24
 70
     1
102
RTVSPropertyOp25
 70
     1
102
RTVSPropertyOp26
 70
     1
102
RTVSPropertyOp27
 70
     1
102
RTVSPropertyOp28
 70
     1
102
RTVSPropertyOp29
 70
     1
102
RTVSPropertyOp30
 70
     1
102
RTVSPropertyOp31
 70
     1
102
RTVSPropertyOp32
 70
     1
  0
XRECORD
  5
4411
102
{ACAD_REACTORS
330
4410
102
}
330
4410
100
AcDbXrecord
280
     1
102
RTVSPropertyOp0
 70
     1
102
RTVSPropertyOp1
 70
     1
102
RTVSPropertyOp2
 70
     1
102
RTVSPropertyOp3
 70
     1
102
RTVSPropertyOp4
 70
     1
102
RTVSPropertyOp5
 70
     1
102
RTVSPropertyOp6
 70
     1
102
RTVSPropertyOp7
 70
     1
102
RTVSPropertyOp8
 70
     1
102
RTVSPropertyOp9
 70
     1
102
RTVSPropertyOp10
 70
     1
102
RTVSPropertyOp11
 70
     1
102
RTVSPropertyOp12
 70
     1
102
RTVSPropertyOp13
 70
     1
102
RTVSPropertyOp14
 70
     1
102
RTVSPropertyOp15
 70
     1
102
RTVSPropertyOp16
 70
     1
102
RTVSPropertyOp17
 70
     1
102
RTVSPropertyOp18
 70
     1
102
RTVSPropertyOp19
 70
     1
102
RTVSPropertyOp20
 70
     1
102
RTVSPropertyOp21
 70
     1
102
RTVSPropertyOp22
 70
     1
102
RTVSPropertyOp23
 70
     1
102
RTVSPropertyOp24
 70
     1
102
RTVSPropertyOp25
 70
     1
102
RTVSPropertyOp26
 70
     1
102
RTVSPropertyOp27
 70
     1
102
RTVSPropertyOp28
 70
     1
102
RTVSPropertyOp29
 70
     1
102
RTVSPropertyOp30
 70
     1
102
RTVSPropertyOp31
 70
     1
102
RTVSPropertyOp32
 70
     1
  0
XRECORD
  5
441F
102
{ACAD_REACTORS
330
441E
102
}
330
441E
100
AcDbXrecord
280
     1
102
RTVSPropertyOp0
 70
     1
102
RTVSPropertyOp1
 70
     1
102
RTVSPropertyOp2
 70
     1
102
RTVSPropertyOp3
 70
     1
102
RTVSPropertyOp4
 70
     1
102
RTVSPropertyOp5
 70
     1
102
RTVSPropertyOp6
 70
     1
102
RTVSPropertyOp7
 70
     1
102
RTVSPropertyOp8
 70
     1
102
RTVSPropertyOp9
 70
     1
102
RTVSPropertyOp10
 70
     1
102
RTVSPropertyOp11
 70
     1
102
RTVSPropertyOp12
 70
     1
102
RTVSPropertyOp13
 70
     1
102
RTVSPropertyOp14
 70
     1
102
RTVSPropertyOp15
 70
     1
102
RTVSPropertyOp16
 70
     1
102
RTVSPropertyOp17
 70
     1
102
RTVSPropertyOp18
 70
     1
102
RTVSPropertyOp19
 70
     1
102
RTVSPropertyOp20
 70
     1
102
RTVSPropertyOp21
 70
     1
102
RTVSPropertyOp22
 70
     1
102
RTVSPropertyOp23
 70
     1
102
RTVSPropertyOp24
 70
     1
102
RTVSPropertyOp25
 70
     1
102
RTVSPropertyOp26
 70
     1
102
RTVSPropertyOp27
 70
     1
102
RTVSPropertyOp28
 70
     1
102
RTVSPropertyOp29
 70
     1
102
RTVSPropertyOp30
 70
     1
102
RTVSPropertyOp31
 70
     1
102
RTVSPropertyOp32
 70
     1
  0
XRECORD
  5
4427
102
{ACAD_REACTORS
330
4426
102
}
330
4426
100
AcDbXrecord
280
     1
102
RTVSPropertyOp0
 70
     1
102
RTVSPropertyOp1
 70
     1
102
RTVSPropertyOp2
 70
     1
102
RTVSPropertyOp3
 70
     1
102
RTVSPropertyOp4
 70
     1
102
RTVSPropertyOp5
 70
     1
102
RTVSPropertyOp6
 70
     1
102
RTVSPropertyOp7
 70
     1
102
RTVSPropertyOp8
 70
     1
102
RTVSPropertyOp9
 70
     1
102
RTVSPropertyOp10
 70
     1
102
RTVSPropertyOp11
 70
     1
102
RTVSPropertyOp12
 70
     1
102
RTVSPropertyOp13
 70
     1
102
RTVSPropertyOp14
 70
     1
102
RTVSPropertyOp15
 70
     1
102
RTVSPropertyOp16
 70
     1
102
RTVSPropertyOp17
 70
     1
102
RTVSPropertyOp18
 70
     1
102
RTVSPropertyOp19
 70
     1
102
RTVSPropertyOp20
 70
     1
102
RTVSPropertyOp21
 70
     1
102
RTVSPropertyOp22
 70
     1
102
RTVSPropertyOp23
 70
     1
102
RTVSPropertyOp24
 70
     1
102
RTVSPropertyOp25
 70
     1
102
RTVSPropertyOp26
 70
     1
102
RTVSPropertyOp27
 70
     1
102
RTVSPropertyOp28
 70
     1
102
RTVSPropertyOp29
 70
     1
102
RTVSPropertyOp30
 70
     1
102
RTVSPropertyOp31
 70
     1
102
RTVSPropertyOp32
 70
     1
  0
XRECORD
  5
4419
102
{ACAD_REACTORS
330
4418
102
}
330
4418
100
AcDbXrecord
280
     1
102
RTVSPropertyOp0
 70
     1
102
RTVSPropertyOp1
 70
     1
102
RTVSPropertyOp2
 70
     1
102
RTVSPropertyOp3
 70
     1
102
RTVSPropertyOp4
 70
     1
102
RTVSPropertyOp5
 70
     1
102
RTVSPropertyOp6
 70
     1
102
RTVSPropertyOp7
 70
     1
102
RTVSPropertyOp8
 70
     1
102
RTVSPropertyOp9
 70
     1
102
RTVSPropertyOp10
 70
     1
102
RTVSPropertyOp11
 70
     1
102
RTVSPropertyOp12
 70
     1
102
RTVSPropertyOp13
 70
     1
102
RTVSPropertyOp14
 70
     1
102
RTVSPropertyOp15
 70
     1
102
RTVSPropertyOp16
 70
     1
102
RTVSPropertyOp17
 70
     1
102
RTVSPropertyOp18
 70
     1
102
RTVSPropertyOp19
 70
     1
102
RTVSPropertyOp20
 70
     1
102
RTVSPropertyOp21
 70
     1
102
RTVSPropertyOp22
 70
     1
102
RTVSPropertyOp23
 70
     1
102
RTVSPropertyOp24
 70
     1
102
RTVSPropertyOp25
 70
     1
102
RTVSPropertyOp26
 70
     1
102
RTVSPropertyOp27
 70
     1
102
RTVSPropertyOp28
 70
     1
102
RTVSPropertyOp29
 70
     1
102
RTVSPropertyOp30
 70
     1
102
RTVSPropertyOp31
 70
     1
102
RTVSPropertyOp32
 70
     1
  0
XRECORD
  5
441D
102
{ACAD_REACTORS
330
441C
102
}
330
441C
100
AcDbXrecord
280
     1
102
RTVSPropertyOp0
 70
     1
102
RTVSPropertyOp1
 70
     1
102
RTVSPropertyOp2
 70
     1
102
RTVSPropertyOp3
 70
     1
102
RTVSPropertyOp4
 70
     1
102
RTVSPropertyOp5
 70
     1
102
RTVSPropertyOp6
 70
     1
102
RTVSPropertyOp7
 70
     1
102
RTVSPropertyOp8
 70
     1
102
RTVSPropertyOp9
 70
     1
102
RTVSPropertyOp10
 70
     1
102
RTVSPropertyOp11
 70
     1
102
RTVSPropertyOp12
 70
     1
102
RTVSPropertyOp13
 70
     1
102
RTVSPropertyOp14
 70
     1
102
RTVSPropertyOp15
 70
     1
102
RTVSPropertyOp16
 70
     1
102
RTVSPropertyOp17
 70
     1
102
RTVSPropertyOp18
 70
     1
102
RTVSPropertyOp19
 70
     1
102
RTVSPropertyOp20
 70
     1
102
RTVSPropertyOp21
 70
     1
102
RTVSPropertyOp22
 70
     1
102
RTVSPropertyOp23
 70
     1
102
RTVSPropertyOp24
 70
     1
102
RTVSPropertyOp25
 70
     1
102
RTVSPropertyOp26
 70
     1
102
RTVSPropertyOp27
 70
     1
102
RTVSPropertyOp28
 70
     1
102
RTVSPropertyOp29
 70
     1
102
RTVSPropertyOp30
 70
     1
102
RTVSPropertyOp31
 70
     1
102
RTVSPropertyOp32
 70
     1
  0
XRECORD
  5
4437
102
{ACAD_REACTORS
330
4436
102
}
330
4436
100
AcDbXrecord
280
     1
102
RTVSPropertyOp0
 70
     0
102
RTVSPropertyOp1
 70
     0
102
RTVSPropertyOp2
 70
     0
102
RTVSPropertyOp3
 70
     0
102
RTVSPropertyOp4
 70
     0
102
RTVSPropertyOp5
 70
     0
102
RTVSPropertyOp6
 70
     0
102
RTVSPropertyOp7
 70
     0
102
RTVSPropertyOp8
 70
     0
102
RTVSPropertyOp9
 70
     0
102
RTVSPropertyOp10
 70
     0
102
RTVSPropertyOp11
 70
     0
102
RTVSPropertyOp12
 70
     0
102
RTVSPropertyOp13
 70
     0
102
RTVSPropertyOp14
 70
     2
102
RTVSPropertyOp15
 70
     0
102
RTVSPropertyOp16
 70
     0
102
RTVSPropertyOp17
 70
     0
102
RTVSPropertyOp18
 70
     0
102
RTVSPropertyOp19
 70
     0
102
RTVSPropertyOp20
 70
     0
102
RTVSPropertyOp21
 70
     0
102
RTVSPropertyOp22
 70
     0
102
RTVSPropertyOp23
 70
     0
102
RTVSPropertyOp24
 70
     0
102
RTVSPropertyOp25
 70
     0
102
RTVSPropertyOp26
 70
     0
102
RTVSPropertyOp27
 70
     0
102
RTVSPropertyOp28
 70
     0
102
RTVSPropertyOp29
 70
     0
102
RTVSPropertyOp30
 70
     0
102
RTVSPropertyOp31
 70
     0
102
RTVSPropertyOp32
 70
     0
  0
XRECORD
  5
4425
102
{ACAD_REACTORS
330
4424
102
}
330
4424
100
AcDbXrecord
280
     1
102
RTVSPropertyOp0
 70
     1
102
RTVSPropertyOp1
 70
     1
102
RTVSPropertyOp2
 70
     1
102
RTVSPropertyOp3
 70
     1
102
RTVSPropertyOp4
 70
     1
102
RTVSPropertyOp5
 70
     1
102
RTVSPropertyOp6
 70
     1
102
RTVSPropertyOp7
 70
     1
102
RTVSPropertyOp8
 70
     1
102
RTVSPropertyOp9
 70
     1
102
RTVSPropertyOp10
 70
     1
102
RTVSPropertyOp11
 70
     1
102
RTVSPropertyOp12
 70
     1
102
RTVSPropertyOp13
 70
     1
102
RTVSPropertyOp14
 70
     1
102
RTVSPropertyOp15
 70
     1
102
RTVSPropertyOp16
 70
     1
102
RTVSPropertyOp17
 70
     1
102
RTVSPropertyOp18
 70
     1
102
RTVSPropertyOp19
 70
     1
102
RTVSPropertyOp20
 70
     1
102
RTVSPropertyOp21
 70
     1
102
RTVSPropertyOp22
 70
     1
102
RTVSPropertyOp23
 70
     1
102
RTVSPropertyOp24
 70
     1
102
RTVSPropertyOp25
 70
     1
102
RTVSPropertyOp26
 70
     1
102
RTVSPropertyOp27
 70
     1
102
RTVSPropertyOp28
 70
     1
102
RTVSPropertyOp29
 70
     1
102
RTVSPropertyOp30
 70
     1
102
RTVSPropertyOp31
 70
     1
102
RTVSPropertyOp32
 70
     1
  0
XRECORD
  5
4409
102
{ACAD_REACTORS
330
4408
102
}
330
4408
100
AcDbXrecord
280
     1
102
RTVSPropertyOp0
 70
     1
102
RTVSPropertyOp1
 70
     1
102
RTVSPropertyOp2
 70
     1
102
RTVSPropertyOp3
 70
     1
102
RTVSPropertyOp4
 70
     1
102
RTVSPropertyOp5
 70
     1
102
RTVSPropertyOp6
 70
     1
102
RTVSPropertyOp7
 70
     1
102
RTVSPropertyOp8
 70
     1
102
RTVSPropertyOp9
 70
     1
102
RTVSPropertyOp10
 70
     1
102
RTVSPropertyOp11
 70
     1
102
RTVSPropertyOp12
 70
     1
102
RTVSPropertyOp13
 70
     1
102
RTVSPropertyOp14
 70
     1
102
RTVSPropertyOp15
 70
     1
102
RTVSPropertyOp16
 70
     1
102
RTVSPropertyOp17
 70
     1
102
RTVSPropertyOp18
 70
     1
102
RTVSPropertyOp19
 70
     1
102
RTVSPropertyOp20
 70
     1
102
RTVSPropertyOp21
 70
     1
102
RTVSPropertyOp22
 70
     1
102
RTVSPropertyOp23
 70
     1
102
RTVSPropertyOp24
 70
     1
102
RTVSPropertyOp25
 70
     1
102
RTVSPropertyOp26
 70
     1
102
RTVSPropertyOp27
 70
     1
102
RTVSPropertyOp28
 70
     1
102
RTVSPropertyOp29
 70
     1
102
RTVSPropertyOp30
 70
     1
102
RTVSPropertyOp31
 70
     1
102
RTVSPropertyOp32
 70
     1
  0
XRECORD
  5
440B
102
{ACAD_REACTORS
330
440A
102
}
330
440A
100
AcDbXrecord
280
     1
102
RTVSPropertyOp0
 70
     1
102
RTVSPropertyOp1
 70
     1
102
RTVSPropertyOp2
 70
     1
102
RTVSPropertyOp3
 70
     1
102
RTVSPropertyOp4
 70
     1
102
RTVSPropertyOp5
 70
     1
102
RTVSPropertyOp6
 70
     1
102
RTVSPropertyOp7
 70
     1
102
RTVSPropertyOp8
 70
     1
102
RTVSPropertyOp9
 70
     1
102
RTVSPropertyOp10
 70
     1
102
RTVSPropertyOp11
 70
     1
102
RTVSPropertyOp12
 70
     1
102
RTVSPropertyOp13
 70
     1
102
RTVSPropertyOp14
 70
     1
102
RTVSPropertyOp15
 70
     1
102
RTVSPropertyOp16
 70
     1
102
RTVSPropertyOp17
 70
     1
102
RTVSPropertyOp18
 70
     1
102
RTVSPropertyOp19
 70
     1
102
RTVSPropertyOp20
 70
     1
102
RTVSPropertyOp21
 70
     1
102
RTVSPropertyOp22
 70
     1
102
RTVSPropertyOp23
 70
     1
102
RTVSPropertyOp24
 70
     1
102
RTVSPropertyOp25
 70
     1
102
RTVSPropertyOp26
 70
     1
102
RTVSPropertyOp27
 70
     1
102
RTVSPropertyOp28
 70
     1
102
RTVSPropertyOp29
 70
     1
102
RTVSPropertyOp30
 70
     1
102
RTVSPropertyOp31
 70
     1
102
RTVSPropertyOp32
 70
     1
  0
XRECORD
  5
440D
102
{ACAD_REACTORS
330
440C
102
}
330
440C
100
AcDbXrecord
280
     1
102
RTVSPropertyOp0
 70
     1
102
RTVSPropertyOp1
 70
     1
102
RTVSPropertyOp2
 70
     1
102
RTVSPropertyOp3
 70
     1
102
RTVSPropertyOp4
 70
     1
102
RTVSPropertyOp5
 70
     1
102
RTVSPropertyOp6
 70
     1
102
RTVSPropertyOp7
 70
     1
102
RTVSPropertyOp8
 70
     1
102
RTVSPropertyOp9
 70
     1
102
RTVSPropertyOp10
 70
     1
102
RTVSPropertyOp11
 70
     1
102
RTVSPropertyOp12
 70
     1
102
RTVSPropertyOp13
 70
     1
102
RTVSPropertyOp14
 70
     1
102
RTVSPropertyOp15
 70
     1
102
RTVSPropertyOp16
 70
     1
102
RTVSPropertyOp17
 70
     1
102
RTVSPropertyOp18
 70
     1
102
RTVSPropertyOp19
 70
     1
102
RTVSPropertyOp20
 70
     1
102
RTVSPropertyOp21
 70
     1
102
RTVSPropertyOp22
 70
     1
102
RTVSPropertyOp23
 70
     1
102
RTVSPropertyOp24
 70
     1
102
RTVSPropertyOp25
 70
     1
102
RTVSPropertyOp26
 70
     1
102
RTVSPropertyOp27
 70
     1
102
RTVSPropertyOp28
 70
     1
102
RTVSPropertyOp29
 70
     1
102
RTVSPropertyOp30
 70
     1
102
RTVSPropertyOp31
 70
     1
102
RTVSPropertyOp32
 70
     1
  0
XRECORD
  5
440F
102
{ACAD_REACTORS
330
440E
102
}
330
440E
100
AcDbXrecord
280
     1
102
RTVSPropertyOp0
 70
     1
102
RTVSPropertyOp1
 70
     1
102
RTVSPropertyOp2
 70
     1
102
RTVSPropertyOp3
 70
     1
102
RTVSPropertyOp4
 70
     1
102
RTVSPropertyOp5
 70
     1
102
RTVSPropertyOp6
 70
     1
102
RTVSPropertyOp7
 70
     1
102
RTVSPropertyOp8
 70
     1
102
RTVSPropertyOp9
 70
     1
102
RTVSPropertyOp10
 70
     1
102
RTVSPropertyOp11
 70
     1
102
RTVSPropertyOp12
 70
     1
102
RTVSPropertyOp13
 70
     1
102
RTVSPropertyOp14
 70
     1
102
RTVSPropertyOp15
 70
     1
102
RTVSPropertyOp16
 70
     1
102
RTVSPropertyOp17
 70
     1
102
RTVSPropertyOp18
 70
     1
102
RTVSPropertyOp19
 70
     1
102
RTVSPropertyOp20
 70
     1
102
RTVSPropertyOp21
 70
     1
102
RTVSPropertyOp22
 70
     1
102
RTVSPropertyOp23
 70
     1
102
RTVSPropertyOp24
 70
     1
102
RTVSPropertyOp25
 70
     1
102
RTVSPropertyOp26
 70
     1
102
RTVSPropertyOp27
 70
     1
102
RTVSPropertyOp28
 70
     1
102
RTVSPropertyOp29
 70
     1
102
RTVSPropertyOp30
 70
     1
102
RTVSPropertyOp31
 70
     1
102
RTVSPropertyOp32
 70
     1
  0
XRECORD
  5
4417
102
{ACAD_REACTORS
330
4416
102
}
330
4416
100
AcDbXrecord
280
     1
102
RTVSPropertyOp0
 70
     1
102
RTVSPropertyOp1
 70
     1
102
RTVSPropertyOp2
 70
     1
102
RTVSPropertyOp3
 70
     1
102
RTVSPropertyOp4
 70
     1
102
RTVSPropertyOp5
 70
     1
102
RTVSPropertyOp6
 70
     1
102
RTVSPropertyOp7
 70
     1
102
RTVSPropertyOp8
 70
     1
102
RTVSPropertyOp9
 70
     1
102
RTVSPropertyOp10
 70
     1
102
RTVSPropertyOp11
 70
     1
102
RTVSPropertyOp12
 70
     1
102
RTVSPropertyOp13
 70
     1
102
RTVSPropertyOp14
 70
     1
102
RTVSPropertyOp15
 70
     1
102
RTVSPropertyOp16
 70
     1
102
RTVSPropertyOp17
 70
     1
102
RTVSPropertyOp18
 70
     1
102
RTVSPropertyOp19
 70
     1
102
RTVSPropertyOp20
 70
     1
102
RTVSPropertyOp21
 70
     1
102
RTVSPropertyOp22
 70
     1
102
RTVSPropertyOp23
 70
     1
102
RTVSPropertyOp24
 70
     1
102
RTVSPropertyOp25
 70
     1
102
RTVSPropertyOp26
 70
     1
102
RTVSPropertyOp27
 70
     1
102
RTVSPropertyOp28
 70
     1
102
RTVSPropertyOp29
 70
     1
102
RTVSPropertyOp30
 70
     1
102
RTVSPropertyOp31
 70
     1
102
RTVSPropertyOp32
 70
     1
  0
XRECORD
  5
4433
102
{ACAD_REACTORS
330
4432
102
}
330
4432
100
AcDbXrecord
280
     1
102
RTVSPropertyOp0
 70
     0
102
RTVSPropertyOp1
 70
     0
102
RTVSPropertyOp2
 70
     0
102
RTVSPropertyOp3
 70
     0
102
RTVSPropertyOp4
 70
     0
102
RTVSPropertyOp5
 70
     0
102
RTVSPropertyOp6
 70
     0
102
RTVSPropertyOp7
 70
     0
102
RTVSPropertyOp8
 70
     0
102
RTVSPropertyOp9
 70
     0
102
RTVSPropertyOp10
 70
     0
102
RTVSPropertyOp11
 70
     0
102
RTVSPropertyOp12
 70
     0
102
RTVSPropertyOp13
 70
     0
102
RTVSPropertyOp14
 70
     2
102
RTVSPropertyOp15
 70
     0
102
RTVSPropertyOp16
 70
     0
102
RTVSPropertyOp17
 70
     0
102
RTVSPropertyOp18
 70
     0
102
RTVSPropertyOp19
 70
     0
102
RTVSPropertyOp20
 70
     0
102
RTVSPropertyOp21
 70
     0
102
RTVSPropertyOp22
 70
     0
102
RTVSPropertyOp23
 70
     0
102
RTVSPropertyOp24
 70
     0
102
RTVSPropertyOp25
 70
     0
102
RTVSPropertyOp26
 70
     0
102
RTVSPropertyOp27
 70
     0
102
RTVSPropertyOp28
 70
     0
102
RTVSPropertyOp29
 70
     0
102
RTVSPropertyOp30
 70
     0
102
RTVSPropertyOp31
 70
     0
102
RTVSPropertyOp32
 70
     0
  0
XRECORD
  5
4423
102
{ACAD_REACTORS
330
4422
102
}
330
4422
100
AcDbXrecord
280
     1
102
RTVSPropertyOp0
 70
     1
102
RTVSPropertyOp1
 70
     1
102
RTVSPropertyOp2
 70
     1
102
RTVSPropertyOp3
 70
     1
102
RTVSPropertyOp4
 70
     1
102
RTVSPropertyOp5
 70
     1
102
RTVSPropertyOp6
 70
     1
102
RTVSPropertyOp7
 70
     1
102
RTVSPropertyOp8
 70
     1
102
RTVSPropertyOp9
 70
     1
102
RTVSPropertyOp10
 70
     1
102
RTVSPropertyOp11
 70
     1
102
RTVSPropertyOp12
 70
     1
102
RTVSPropertyOp13
 70
     1
102
RTVSPropertyOp14
 70
     1
102
RTVSPropertyOp15
 70
     1
102
RTVSPropertyOp16
 70
     1
102
RTVSPropertyOp17
 70
     1
102
RTVSPropertyOp18
 70
     1
102
RTVSPropertyOp19
 70
     1
102
RTVSPropertyOp20
 70
     1
102
RTVSPropertyOp21
 70
     1
102
RTVSPropertyOp22
 70
     1
102
RTVSPropertyOp23
 70
     1
102
RTVSPropertyOp24
 70
     1
102
RTVSPropertyOp25
 70
     1
102
RTVSPropertyOp26
 70
     1
102
RTVSPropertyOp27
 70
     1
102
RTVSPropertyOp28
 70
     1
102
RTVSPropertyOp29
 70
     1
102
RTVSPropertyOp30
 70
     1
102
RTVSPropertyOp31
 70
     1
102
RTVSPropertyOp32
 70
     1
  0
XRECORD
  5
4435
102
{ACAD_REACTORS
330
4434
102
}
330
4434
100
AcDbXrecord
280
     1
102
RTVSPropertyOp0
 70
     0
102
RTVSPropertyOp1
 70
     0
102
RTVSPropertyOp2
 70
     0
102
RTVSPropertyOp3
 70
     0
102
RTVSPropertyOp4
 70
     0
102
RTVSPropertyOp5
 70
     0
102
RTVSPropertyOp6
 70
     0
102
RTVSPropertyOp7
 70
     0
102
RTVSPropertyOp8
 70
     0
102
RTVSPropertyOp9
 70
     0
102
RTVSPropertyOp10
 70
     0
102
RTVSPropertyOp11
 70
     0
102
RTVSPropertyOp12
 70
     0
102
RTVSPropertyOp13
 70
     0
102
RTVSPropertyOp14
 70
     2
102
RTVSPropertyOp15
 70
     0
102
RTVSPropertyOp16
 70
     0
102
RTVSPropertyOp17
 70
     0
102
RTVSPropertyOp18
 70
     0
102
RTVSPropertyOp19
 70
     0
102
RTVSPropertyOp20
 70
     0
102
RTVSPropertyOp21
 70
     0
102
RTVSPropertyOp22
 70
     0
102
RTVSPropertyOp23
 70
     0
102
RTVSPropertyOp24
 70
     0
102
RTVSPropertyOp25
 70
     0
102
RTVSPropertyOp26
 70
     0
102
RTVSPropertyOp27
 70
     0
102
RTVSPropertyOp28
 70
     0
102
RTVSPropertyOp29
 70
     0
102
RTVSPropertyOp30
 70
     0
102
RTVSPropertyOp31
 70
     0
102
RTVSPropertyOp32
 70
     0
  0
XRECORD
  5
441B
102
{ACAD_REACTORS
330
441A
102
}
330
441A
100
AcDbXrecord
280
     1
102
RTVSPropertyOp0
 70
     1
102
RTVSPropertyOp1
 70
     1
102
RTVSPropertyOp2
 70
     1
102
RTVSPropertyOp3
 70
     1
102
RTVSPropertyOp4
 70
     1
102
RTVSPropertyOp5
 70
     1
102
RTVSPropertyOp6
 70
     1
102
RTVSPropertyOp7
 70
     1
102
RTVSPropertyOp8
 70
     1
102
RTVSPropertyOp9
 70
     1
102
RTVSPropertyOp10
 70
     1
102
RTVSPropertyOp11
 70
     1
102
RTVSPropertyOp12
 70
     1
102
RTVSPropertyOp13
 70
     1
102
RTVSPropertyOp14
 70
     1
102
RTVSPropertyOp15
 70
     1
102
RTVSPropertyOp16
 70
     1
102
RTVSPropertyOp17
 70
     1
102
RTVSPropertyOp18
 70
     1
102
RTVSPropertyOp19
 70
     1
102
RTVSPropertyOp20
 70
     1
102
RTVSPropertyOp21
 70
     1
102
RTVSPropertyOp22
 70
     1
102
RTVSPropertyOp23
 70
     1
102
RTVSPropertyOp24
 70
     1
102
RTVSPropertyOp25
 70
     1
102
RTVSPropertyOp26
 70
     1
102
RTVSPropertyOp27
 70
     1
102
RTVSPropertyOp28
 70
     1
102
RTVSPropertyOp29
 70
     1
102
RTVSPropertyOp30
 70
     1
102
RTVSPropertyOp31
 70
     1
102
RTVSPropertyOp32
 70
     1
  0
XRECORD
  5
4431
102
{ACAD_REACTORS
330
4430
102
}
330
4430
100
AcDbXrecord
280
     1
102
RTVSPropertyOp0
 70
     1
102
RTVSPropertyOp1
 70
     1
102
RTVSPropertyOp2
 70
     1
102
RTVSPropertyOp3
 70
     1
102
RTVSPropertyOp4
 70
     1
102
RTVSPropertyOp5
 70
     1
102
RTVSPropertyOp6
 70
     1
102
RTVSPropertyOp7
 70
     1
102
RTVSPropertyOp8
 70
     1
102
RTVSPropertyOp9
 70
     1
102
RTVSPropertyOp10
 70
     1
102
RTVSPropertyOp11
 70
     1
102
RTVSPropertyOp12
 70
     1
102
RTVSPropertyOp13
 70
     1
102
RTVSPropertyOp14
 70
     1
102
RTVSPropertyOp15
 70
     1
102
RTVSPropertyOp16
 70
     1
102
RTVSPropertyOp17
 70
     1
102
RTVSPropertyOp18
 70
     1
102
RTVSPropertyOp19
 70
     1
102
RTVSPropertyOp20
 70
     1
102
RTVSPropertyOp21
 70
     1
102
RTVSPropertyOp22
 70
     1
102
RTVSPropertyOp23
 70
     1
102
RTVSPropertyOp24
 70
     1
102
RTVSPropertyOp25
 70
     1
102
RTVSPropertyOp26
 70
     1
102
RTVSPropertyOp27
 70
     1
102
RTVSPropertyOp28
 70
     1
102
RTVSPropertyOp29
 70
     1
102
RTVSPropertyOp30
 70
     1
102
RTVSPropertyOp31
 70
     1
102
RTVSPropertyOp32
 70
     1
  0
XRECORD
  5
442F
102
{ACAD_REACTORS
330
442E
102
}
330
442E
100
AcDbXrecord
280
     1
102
RTVSPropertyOp0
 70
     1
102
RTVSPropertyOp1
 70
     1
102
RTVSPropertyOp2
 70
     1
102
RTVSPropertyOp3
 70
     1
102
RTVSPropertyOp4
 70
     1
102
RTVSPropertyOp5
 70
     1
102
RTVSPropertyOp6
 70
     1
102
RTVSPropertyOp7
 70
     1
102
RTVSPropertyOp8
 70
     1
102
RTVSPropertyOp9
 70
     1
102
RTVSPropertyOp10
 70
     1
102
RTVSPropertyOp11
 70
     1
102
RTVSPropertyOp12
 70
     1
102
RTVSPropertyOp13
 70
     1
102
RTVSPropertyOp14
 70
     1
102
RTVSPropertyOp15
 70
     1
102
RTVSPropertyOp16
 70
     1
102
RTVSPropertyOp17
 70
     1
102
RTVSPropertyOp18
 70
     1
102
RTVSPropertyOp19
 70
     1
102
RTVSPropertyOp20
 70
     1
102
RTVSPropertyOp21
 70
     1
102
RTVSPropertyOp22
 70
     1
102
RTVSPropertyOp23
 70
     1
102
RTVSPropertyOp24
 70
     1
102
RTVSPropertyOp25
 70
     1
102
RTVSPropertyOp26
 70
     1
102
RTVSPropertyOp27
 70
     1
102
RTVSPropertyOp28
 70
     1
102
RTVSPropertyOp29
 70
     1
102
RTVSPropertyOp30
 70
     1
102
RTVSPropertyOp31
 70
     1
102
RTVSPropertyOp32
 70
     1
  0
XRECORD
  5
4429
102
{ACAD_REACTORS
330
4428
102
}
330
4428
100
AcDbXrecord
280
     1
102
RTVSPropertyOp0
 70
     1
102
RTVSPropertyOp1
 70
     1
102
RTVSPropertyOp2
 70
     1
102
RTVSPropertyOp3
 70
     1
102
RTVSPropertyOp4
 70
     1
102
RTVSPropertyOp5
 70
     1
102
RTVSPropertyOp6
 70
     1
102
RTVSPropertyOp7
 70
     1
102
RTVSPropertyOp8
 70
     1
102
RTVSPropertyOp9
 70
     1
102
RTVSPropertyOp10
 70
     1
102
RTVSPropertyOp11
 70
     1
102
RTVSPropertyOp12
 70
     1
102
RTVSPropertyOp13
 70
     1
102
RTVSPropertyOp14
 70
     1
102
RTVSPropertyOp15
 70
     1
102
RTVSPropertyOp16
 70
     1
102
RTVSPropertyOp17
 70
     1
102
RTVSPropertyOp18
 70
     1
102
RTVSPropertyOp19
 70
     1
102
RTVSPropertyOp20
 70
     1
102
RTVSPropertyOp21
 70
     1
102
RTVSPropertyOp22
 70
     1
102
RTVSPropertyOp23
 70
     1
102
RTVSPropertyOp24
 70
     1
102
RTVSPropertyOp25
 70
     1
102
RTVSPropertyOp26
 70
     1
102
RTVSPropertyOp27
 70
     1
102
RTVSPropertyOp28
 70
     1
102
RTVSPropertyOp29
 70
     1
102
RTVSPropertyOp30
 70
     1
102
RTVSPropertyOp31
 70
     1
102
RTVSPropertyOp32
 70
     1
  0
XRECORD
  5
442B
102
{ACAD_REACTORS
330
442A
102
}
330
442A
100
AcDbXrecord
280
     1
102
RTVSPropertyOp0
 70
     1
102
RTVSPropertyOp1
 70
     1
102
RTVSPropertyOp2
 70
     1
102
RTVSPropertyOp3
 70
     1
102
RTVSPropertyOp4
 70
     1
102
RTVSPropertyOp5
 70
     1
102
RTVSPropertyOp6
 70
     1
102
RTVSPropertyOp7
 70
     1
102
RTVSPropertyOp8
 70
     1
102
RTVSPropertyOp9
 70
     1
102
RTVSPropertyOp10
 70
     1
102
RTVSPropertyOp11
 70
     1
102
RTVSPropertyOp12
 70
     1
102
RTVSPropertyOp13
 70
     1
102
RTVSPropertyOp14
 70
     1
102
RTVSPropertyOp15
 70
     1
102
RTVSPropertyOp16
 70
     1
102
RTVSPropertyOp17
 70
     1
102
RTVSPropertyOp18
 70
     1
102
RTVSPropertyOp19
 70
     1
102
RTVSPropertyOp20
 70
     1
102
RTVSPropertyOp21
 70
     1
102
RTVSPropertyOp22
 70
     1
102
RTVSPropertyOp23
 70
     1
102
RTVSPropertyOp24
 70
     1
102
RTVSPropertyOp25
 70
     1
102
RTVSPropertyOp26
 70
     1
102
RTVSPropertyOp27
 70
     1
102
RTVSPropertyOp28
 70
     1
102
RTVSPropertyOp29
 70
     1
102
RTVSPropertyOp30
 70
     1
102
RTVSPropertyOp31
 70
     1
102
RTVSPropertyOp32
 70
     1
  0
XRECORD
  5
4421
102
{ACAD_REACTORS
330
4420
102
}
330
4420
100
AcDbXrecord
280
     1
102
RTVSPropertyOp0
 70
     1
102
RTVSPropertyOp1
 70
     1
102
RTVSPropertyOp2
 70
     1
102
RTVSPropertyOp3
 70
     1
102
RTVSPropertyOp4
 70
     1
102
RTVSPropertyOp5
 70
     1
102
RTVSPropertyOp6
 70
     1
102
RTVSPropertyOp7
 70
     1
102
RTVSPropertyOp8
 70
     1
102
RTVSPropertyOp9
 70
     1
102
RTVSPropertyOp10
 70
     1
102
RTVSPropertyOp11
 70
     1
102
RTVSPropertyOp12
 70
     1
102
RTVSPropertyOp13
 70
     1
102
RTVSPropertyOp14
 70
     1
102
RTVSPropertyOp15
 70
     1
102
RTVSPropertyOp16
 70
     1
102
RTVSPropertyOp17
 70
     1
102
RTVSPropertyOp18
 70
     1
102
RTVSPropertyOp19
 70
     1
102
RTVSPropertyOp20
 70
     1
102
RTVSPropertyOp21
 70
     1
102
RTVSPropertyOp22
 70
     1
102
RTVSPropertyOp23
 70
     1
102
RTVSPropertyOp24
 70
     1
102
RTVSPropertyOp25
 70
     1
102
RTVSPropertyOp26
 70
     1
102
RTVSPropertyOp27
 70
     1
102
RTVSPropertyOp28
 70
     1
102
RTVSPropertyOp29
 70
     1
102
RTVSPropertyOp30
 70
     1
102
RTVSPropertyOp31
 70
     1
102
RTVSPropertyOp32
 70
     1
  0
XRECORD
  5
4415
102
{ACAD_REACTORS
330
4414
102
}
330
4414
100
AcDbXrecord
280
     1
102
RTVSPropertyOp0
 70
     1
102
RTVSPropertyOp1
 70
     1
102
RTVSPropertyOp2
 70
     1
102
RTVSPropertyOp3
 70
     1
102
RTVSPropertyOp4
 70
     1
102
RTVSPropertyOp5
 70
     1
102
RTVSPropertyOp6
 70
     1
102
RTVSPropertyOp7
 70
     1
102
RTVSPropertyOp8
 70
     1
102
RTVSPropertyOp9
 70
     1
102
RTVSPropertyOp10
 70
     1
102
RTVSPropertyOp11
 70
     1
102
RTVSPropertyOp12
 70
     1
102
RTVSPropertyOp13
 70
     1
102
RTVSPropertyOp14
 70
     1
102
RTVSPropertyOp15
 70
     1
102
RTVSPropertyOp16
 70
     1
102
RTVSPropertyOp17
 70
     1
102
RTVSPropertyOp18
 70
     1
102
RTVSPropertyOp19
 70
     1
102
RTVSPropertyOp20
 70
     1
102
RTVSPropertyOp21
 70
     1
102
RTVSPropertyOp22
 70
     1
102
RTVSPropertyOp23
 70
     1
102
RTVSPropertyOp24
 70
     1
102
RTVSPropertyOp25
 70
     1
102
RTVSPropertyOp26
 70
     1
102
RTVSPropertyOp27
 70
     1
102
RTVSPropertyOp28
 70
     1
102
RTVSPropertyOp29
 70
     1
102
RTVSPropertyOp30
 70
     1
102
RTVSPropertyOp31
 70
     1
102
RTVSPropertyOp32
 70
     1
  0
XRECORD
  5
442D
102
{ACAD_REACTORS
330
442C
102
}
330
442C
100
AcDbXrecord
280
     1
102
RTVSPropertyOp0
 70
     1
102
RTVSPropertyOp1
 70
     1
102
RTVSPropertyOp2
 70
     1
102
RTVSPropertyOp3
 70
     1
102
RTVSPropertyOp4
 70
     1
102
RTVSPropertyOp5
 70
     1
102
RTVSPropertyOp6
 70
     1
102
RTVSPropertyOp7
 70
     1
102
RTVSPropertyOp8
 70
     1
102
RTVSPropertyOp9
 70
     1
102
RTVSPropertyOp10
 70
     1
102
RTVSPropertyOp11
 70
     1
102
RTVSPropertyOp12
 70
     1
102
RTVSPropertyOp13
 70
     1
102
RTVSPropertyOp14
 70
     1
102
RTVSPropertyOp15
 70
     1
102
RTVSPropertyOp16
 70
     1
102
RTVSPropertyOp17
 70
     1
102
RTVSPropertyOp18
 70
     1
102
RTVSPropertyOp19
 70
     1
102
RTVSPropertyOp20
 70
     1
102
RTVSPropertyOp21
 70
     1
102
RTVSPropertyOp22
 70
     1
102
RTVSPropertyOp23
 70
     1
102
RTVSPropertyOp24
 70
     1
102
RTVSPropertyOp25
 70
     1
102
RTVSPropertyOp26
 70
     1
102
RTVSPropertyOp27
 70
     1
102
RTVSPropertyOp28
 70
     1
102
RTVSPropertyOp29
 70
     1
102
RTVSPropertyOp30
 70
     1
102
RTVSPropertyOp31
 70
     1
102
RTVSPropertyOp32
 70
     1
  0
ENDSEC
  0
EOF
