  0
SECTION
  2
HEADER
  9
$ACADVER
  1
AC1015
  9
$ACADMAINTVER
 70
    20
  9
$DWGCODEPAGE
  3
ANSI_1252
  9
$INSBASE
 10
0.0
 20
0.0
 30
0.0
  9
$EXTMIN
 10
871.855217440553
 20
690.7594866269091
 30
0.0
  9
$EXTMAX
 10
923.7158069379024
 20
730.023204792796
 30
0.0
  9
$LIMMIN
 10
0.0
 20
0.0
  9
$LIMMAX
 10
12.0
 20
9.0
  9
$ORTHOMODE
 70
     1
  9
$REGENMODE
 70
     1
  9
$FILLMODE
 70
     1
  9
$QTEXTMODE
 70
     0
  9
$MIRRTEXT
 70
     0
  9
$LTSCALE
 40
1.0
  9
$ATTMODE
 70
     1
  9
$TEXTSIZE
 40
0.2
  9
$TRACEWID
 40
0.05
  9
$TEXTSTYLE
  7
Standard
  9
$CLAYER
  8
0
  9
$CELTYPE
  6
ByLayer
  9
$CECOLOR
 62
   256
  9
$CELTSCALE
 40
1.0
  9
$DISPSILH
 70
     0
  9
$DIMSCALE
 40
1.0
  9
$DIMASZ
 40
0.18
  9
$DIMEXO
 40
0.0625
  9
$DIMDLI
 40
0.38
  9
$DIMRND
 40
0.0
  9
$DIMDLE
 40
0.0
  9
$DIMEXE
 40
0.18
  9
$DIMTP
 40
0.0
  9
$DIMTM
 40
0.0
  9
$DIMTXT
 40
0.18
  9
$DIMCEN
 40
0.09
  9
$DIMTSZ
 40
0.0
  9
$DIMTOL
 70
     0
  9
$DIMLIM
 70
     0
  9
$DIMTIH
 70
     1
  9
$DIMTOH
 70
     1
  9
$DIMSE1
 70
     0
  9
$DIMSE2
 70
     0
  9
$DIMTAD
 70
     0
  9
$DIMZIN
 70
     0
  9
$DIMBLK
  1

  9
$DIMASO
 70
     1
  9
$DIMSHO
 70
     1
  9
$DIMPOST
  1

  9
$DIMAPOST
  1
mm
  9
$DIMALT
 70
     1
  9
$DIMALTD
 70
     2
  9
$DIMALTF
 40
25.4
  9
$DIMLFAC
 40
1.0
  9
$DIMTOFL
 70
     0
  9
$DIMTVP
 40
0.0
  9
$DIMTIX
 70
     0
  9
$DIMSOXD
 70
     0
  9
$DIMSAH
 70
     0
  9
$DIMBLK1
  1

  9
$DIMBLK2
  1

  9
$DIMSTYLE
  2
Standard
  9
$DIMCLRD
 70
     0
  9
$DIMCLRE
 70
     0
  9
$DIMCLRT
 70
     0
  9
$DIMTFAC
 40
1.0
  9
$DIMGAP
 40
0.09
  9
$DIMJUST
 70
     0
  9
$DIMSD1
 70
     0
  9
$DIMSD2
 70
     0
  9
$DIMTOLJ
 70
     1
  9
$DIMTZIN
 70
     0
  9
$DIMALTZ
 70
     0
  9
$DIMALTTZ
 70
     0
  9
$DIMUPT
 70
     0
  9
$DIMDEC
 70
     4
  9
$DIMTDEC
 70
     4
  9
$DIMALTU
 70
     2
  9
$DIMALTTD
 70
     2
  9
$DIMTXSTY
  7
Standard
  9
$DIMAUNIT
 70
     0
  9
$DIMADEC
 70
     0
  9
$DIMALTRND
 40
0.0
  9
$DIMAZIN
 70
     0
  9
$DIMDSEP
 70
    46
  9
$DIMATFIT
 70
     3
  9
$DIMFRAC
 70
     0
  9
$DIMLDRBLK
  1

  9
$DIMLUNIT
 70
     5
  9
$DIMLWD
 70
    -2
  9
$DIMLWE
 70
    -2
  9
$DIMTMOVE
 70
     0
  9
$LUNITS
 70
     2
  9
$LUPREC
 70
     4
  9
$SKETCHINC
 40
0.1
  9
$FILLETRAD
 40
0.0
  9
$AUNITS
 70
     0
  9
$AUPREC
 70
     0
  9
$MENU
  1
.
  9
$ELEVATION
 40
0.0
  9
$PELEVATION
 40
0.0
  9
$THICKNESS
 40
0.0
  9
$LIMCHECK
 70
     0
  9
$CHAMFERA
 40
0.0
  9
$CHAMFERB
 40
0.0
  9
$CHAMFERC
 40
0.0
  9
$CHAMFERD
 40
0.0
  9
$SKPOLY
 70
     0
  9
$TDCREATE
 40
2454741.571576030
  9
$TDUCREATE
 40
2454741.738242697
  9
$TDUPDATE
 40
2456134.633699167
  9
$TDUUPDATE
 40
2456134.800365834
  9
$TDINDWG
 40
0.0269867824
  9
$TDUSRTIMER
 40
0.0269864352
  9
$USRTIMER
 70
     1
  9
$ANGBASE
 50
0.0
  9
$ANGDIR
 70
     0
  9
$PDMODE
 70
     0
  9
$PDSIZE
 40
0.0
  9
$PLINEWID
 40
0.0
  9
$SPLFRAME
 70
     0
  9
$SPLINETYPE
 70
     6
  9
$SPLINESEGS
 70
     8
  9
$HANDSEED
  5
1C58
  9
$SURFTAB1
 70
     6
  9
$SURFTAB2
 70
     6
  9
$SURFTYPE
 70
     6
  9
$SURFU
 70
     6
  9
$SURFV
 70
     6
  9
$UCSBASE
  2

  9
$UCSNAME
  2

  9
$UCSORG
 10
0.0
 20
0.0
 30
0.0
  9
$UCSXDIR
 10
1.0
 20
0.0
 30
0.0
  9
$UCSYDIR
 10
0.0
 20
1.0
 30
0.0
  9
$UCSORTHOREF
  2

  9
$UCSORTHOVIEW
 70
     0
  9
$UCSORGTOP
 10
0.0
 20
0.0
 30
0.0
  9
$UCSORGBOTTOM
 10
0.0
 20
0.0
 30
0.0
  9
$UCSORGLEFT
 10
0.0
 20
0.0
 30
0.0
  9
$UCSORGRIGHT
 10
0.0
 20
0.0
 30
0.0
  9
$UCSORGFRONT
 10
0.0
 20
0.0
 30
0.0
  9
$UCSORGBACK
 10
0.0
 20
0.0
 30
0.0
  9
$PUCSBASE
  2

  9
$PUCSNAME
  2

  9
$PUCSORG
 10
0.0
 20
0.0
 30
0.0
  9
$PUCSXDIR
 10
1.0
 20
0.0
 30
0.0
  9
$PUCSYDIR
 10
0.0
 20
1.0
 30
0.0
  9
$PUCSORTHOREF
  2

  9
$PUCSORTHOVIEW
 70
     0
  9
$PUCSORGTOP
 10
0.0
 20
0.0
 30
0.0
  9
$PUCSORGBOTTOM
 10
0.0
 20
0.0
 30
0.0
  9
$PUCSORGLEFT
 10
0.0
 20
0.0
 30
0.0
  9
$PUCSORGRIGHT
 10
0.0
 20
0.0
 30
0.0
  9
$PUCSORGFRONT
 10
0.0
 20
0.0
 30
0.0
  9
$PUCSORGBACK
 10
0.0
 20
0.0
 30
0.0
  9
$USERI1
 70
     0
  9
$USERI2
 70
     0
  9
$USERI3
 70
     0
  9
$USERI4
 70
     0
  9
$USERI5
 70
     0
  9
$USERR1
 40
0.0
  9
$USERR2
 40
0.0
  9
$USERR3
 40
0.0
  9
$USERR4
 40
0.0
  9
$USERR5
 40
0.0
  9
$WORLDVIEW
 70
     1
  9
$SHADEDGE
 70
     3
  9
$SHADEDIF
 70
    70
  9
$TILEMODE
 70
     1
  9
$MAXACTVP
 70
    64
  9
$PINSBASE
 10
0.0
 20
0.0
 30
0.0
  9
$PLIMCHECK
 70
     0
  9
$PEXTMIN
 10
1.000000000000000E+20
 20
1.000000000000000E+20
 30
1.000000000000000E+20
  9
$PEXTMAX
 10
-1.000000000000000E+20
 20
-1.000000000000000E+20
 30
-1.000000000000000E+20
  9
$PLIMMIN
 10
-20.0
 20
-7.5
  9
$PLIMMAX
 10
277.0
 20
202.5
  9
$UNITMODE
 70
     0
  9
$VISRETAIN
 70
     1
  9
$PLINEGEN
 70
     0
  9
$PSLTSCALE
 70
     1
  9
$TREEDEPTH
 70
  3020
  9
$CMLSTYLE
  2
Standard
  9
$CMLJUST
 70
     0
  9
$CMLSCALE
 40
1.0
  9
$PROXYGRAPHICS
 70
     1
  9
$MEASUREMENT
 70
     0
  9
$CELWEIGHT
370
    -1
  9
$ENDCAPS
280
     0
  9
$JOINSTYLE
280
     0
  9
$LWDISPLAY
290
     0
  9
$INSUNITS
 70
     1
  9
$HYPERLINKBASE
  1

  9
$STYLESHEET
  1

  9
$XEDIT
290
     1
  9
$CEPSNTYPE
380
     0
  9
$PSTYLEMODE
290
     1
  9
$FINGERPRINTGUID
  2
{CE3D1872-8BE4-4280-B1B1-C751DCEBB459}
  9
$VERSIONGUID
  2
{50E329D9-50F4-472D-8C72-0406634CA27D}
  9
$EXTNAMES
290
     1
  9
$PSVPSCALE
 40
0.0
  9
$OLESTARTUP
290
     0
  0
ENDSEC
  0
SECTION
  2
CLASSES
  0
CLASS
  1
ACDBDICTIONARYWDFLT
  2
AcDbDictionaryWithDefault
  3
ObjectDBX Classes
 90
        0
280
     0
281
     0
  0
CLASS
  1
ACDBPLACEHOLDER
  2
AcDbPlaceHolder
  3
ObjectDBX Classes
 90
        0
280
     0
281
     0
  0
CLASS
  1
LAYOUT
  2
AcDbLayout
  3
ObjectDBX Classes
 90
        0
280
     0
281
     0
  0
CLASS
  1
DICTIONARYVAR
  2
AcDbDictionaryVar
  3
ObjectDBX Classes
 90
        0
280
     0
281
     0
  0
CLASS
  1
TABLESTYLE
  2
AcDbTableStyle
  3
ObjectDBX Classes
 90
     4095
280
     0
281
     0
  0
CLASS
  1
SORTENTSTABLE
  2
AcDbSortentsTable
  3
ObjectDBX Classes
 90
    32768
280
     0
281
     0
  0
CLASS
  1
DIMASSOC
  2
AcDbDimAssoc
  3
"AcDbDimAssoc|Product Desc:     AcDim ARX App For Dimension|Company:          Autodesk, Inc.|WEB Address:      www.autodesk.com"
 90
    32768
280
     0
281
     0
  0
CLASS
  1
MATERIAL
  2
AcDbMaterial
  3
ObjectDBX Classes
 90
     1153
280
     0
281
     0
  0
CLASS
  1
VISUALSTYLE
  2
AcDbVisualStyle
  3
ObjectDBX Classes
 90
     4095
280
     0
281
     0
  0
CLASS
  1
SCALE
  2
AcDbScale
  3
ObjectDBX Classes
 90
     1153
280
     0
281
     0
  0
CLASS
  1
MLEADERSTYLE
  2
AcDbMLeaderStyle
  3
ACDB_MLEADERSTYLE_CLASS
 90
     4095
280
     0
281
     0
  0
CLASS
  1
CELLSTYLEMAP
  2
AcDbCellStyleMap
  3
ObjectDBX Classes
 90
     1152
280
     0
281
     0
  0
ENDSEC
  0
SECTION
  2
TABLES
  0
TABLE
  2
VPORT
  5
8
330
0
100
AcDbSymbolTable
 70
     1
  0
VPORT
  5
1BBE
330
8
100
AcDbSymbolTableRecord
100
AcDbViewportTableRecord
  2
*Active
 70
     0
 10
0.0
 20
0.0
 11
1.0
 21
1.0
 12
916.5620454133399
 22
723.0701812264579
 13
0.0
 23
0.0
 14
0.5
 24
0.5
 15
0.5
 25
0.5
 16
0.0
 26
0.0
 36
1.0
 17
0.0
 27
0.0
 37
0.0
 40
56.93281505976827
 41
2.408320493066255
 42
50.0
 43
0.0
 44
0.0
 50
0.0
 51
0.0
 71
     0
 72
 20000
 73
     1
 74
     3
 75
     0
 76
     0
 77
     0
 78
     0
281
     0
 65
     1
110
0.0
120
0.0
130
0.0
111
1.0
121
0.0
131
0.0
112
0.0
122
1.0
132
0.0
 79
     0
146
0.0
1001
ACAD_NAV_VCDISPLAY
1070
     3
  0
ENDTAB
  0
TABLE
  2
LTYPE
  5
5
330
0
100
AcDbSymbolTable
 70
     3
  0
LTYPE
  5
14
330
5
100
AcDbSymbolTableRecord
100
AcDbLinetypeTableRecord
  2
ByBlock
 70
     0
  3

 72
    65
 73
     0
 40
0.0
  0
LTYPE
  5
15
330
5
100
AcDbSymbolTableRecord
100
AcDbLinetypeTableRecord
  2
ByLayer
 70
     0
  3

 72
    65
 73
     0
 40
0.0
  0
LTYPE
  5
16
330
5
100
AcDbSymbolTableRecord
100
AcDbLinetypeTableRecord
  2
Continuous
 70
     0
  3
Solid line
 72
    65
 73
     0
 40
0.0
  0
LTYPE
  5
7B1
330
5
100
AcDbSymbolTableRecord
100
AcDbLinetypeTableRecord
  2
DASHED
 70
     0
  3
-- -- -- -- -- -- -- -- -- --
 72
    65
 73
     2
 40
3.0
 49
2.0
 74
     0
 49
-1.0
 74
     0
  0
LTYPE
  5
7B2
330
5
100
AcDbSymbolTableRecord
100
AcDbLinetypeTableRecord
  2
CENTER
 70
     0
  3
--- - --- - --- - --- - --- -
 72
    65
 73
     4
 40
6.0
 49
3.0
 74
     0
 49
-1.0
 74
     0
 49
1.0
 74
     0
 49
-1.0
 74
     0
  0
ENDTAB
  0
TABLE
  2
LAYER
  5
2
102
{ACAD_XDICTIONARY
360
1D0
102
}
330
0
100
AcDbSymbolTable
 70
     3
  0
LAYER
  5
10
330
2
100
AcDbSymbolTableRecord
100
AcDbLayerTableRecord
  2
0
 70
     0
 62
     7
  6
Continuous
370
    -3
390
F
  0
LAYER
  5
200
330
2
100
AcDbSymbolTableRecord
100
AcDbLayerTableRecord
  2
Defpoints
 70
     0
 62
     7
  6
Continuous
290
     0
370
    -3
390
F
  0
LAYER
  5
7B4
330
2
100
AcDbSymbolTableRecord
100
AcDbLayerTableRecord
  2
PIC06
 70
     0
 62
     7
  6
Continuous
370
    -3
390
F
  0
ENDTAB
  0
TABLE
  2
STYLE
  5
3
330
0
100
AcDbSymbolTable
 70
     1
  0
STYLE
  5
11
330
3
100
AcDbSymbolTableRecord
100
AcDbTextStyleTableRecord
  2
Standard
 70
     0
 40
0.0
 41
1.0
 50
0.0
 71
     0
 42
0.2
  3
txt
  4

  0
ENDTAB
  0
TABLE
  2
VIEW
  5
6
330
0
100
AcDbSymbolTable
 70
     0
  0
ENDTAB
  0
TABLE
  2
UCS
  5
7
330
0
100
AcDbSymbolTable
 70
     0
  0
ENDTAB
  0
TABLE
  2
APPID
  5
9
330
0
100
AcDbSymbolTable
 70
    13
  0
APPID
  5
12
330
9
100
AcDbSymbolTableRecord
100
AcDbRegAppTableRecord
  2
ACAD
 70
     0
  0
APPID
  5
1CA
330
9
100
AcDbSymbolTableRecord
100
AcDbRegAppTableRecord
  2
ACAD_PSEXT
 70
     0
  0
APPID
  5
1CB
330
9
100
AcDbSymbolTableRecord
100
AcDbRegAppTableRecord
  2
ACAD_DSTYLE_DIMEXT_LENGTH
 70
     0
  0
APPID
  5
1CC
330
9
100
AcDbSymbolTableRecord
100
AcDbRegAppTableRecord
  2
ACAD_DSTYLE_DIMEXT_ENABLED
 70
     0
  0
APPID
  5
1CD
330
9
100
AcDbSymbolTableRecord
100
AcDbRegAppTableRecord
  2
ACAD_DSTYLE_DIMJOGGED_JOGANGLE_SYMBOL
 70
     0
  0
APPID
  5
1CE
330
9
100
AcDbSymbolTableRecord
100
AcDbRegAppTableRecord
  2
ACAD_DSTYLE_DIMARC_LENGTH_SYMBOL
 70
     0
  0
APPID
  5
1CF
330
9
100
AcDbSymbolTableRecord
100
AcDbRegAppTableRecord
  2
DCO15
 70
     0
  0
APPID
  5
2A8
330
9
100
AcDbSymbolTableRecord
100
AcDbRegAppTableRecord
  2
ACAD_DSTYLE_DIMTEXT_FILL
 70
     0
  0
APPID
  5
2AB
330
9
100
AcDbSymbolTableRecord
100
AcDbRegAppTableRecord
  2
ACAD_DSTYLE_DIM_LINETYPE
 70
     0
  0
APPID
  5
2AC
330
9
100
AcDbSymbolTableRecord
100
AcDbRegAppTableRecord
  2
ACAD_DSTYLE_DIM_EXT1_LINETYPE
 70
     0
  0
APPID
  5
2AD
330
9
100
AcDbSymbolTableRecord
100
AcDbRegAppTableRecord
  2
ACAD_DSTYLE_DIM_EXT2_LINETYPE
 70
     0
  0
APPID
  5
1C15
330
9
100
AcDbSymbolTableRecord
100
AcDbRegAppTableRecord
  2
ACAD_NAV_VCDISPLAY
 70
     0
  0
APPID
  5
1C57
330
9
100
AcDbSymbolTableRecord
100
AcDbRegAppTableRecord
  2
ACAD_MLEADERVER
 70
     0
  0
ENDTAB
  0
TABLE
  2
DIMSTYLE
  5
A
330
0
100
AcDbSymbolTable
 70
     1
100
AcDbDimStyleTable
 71
     1
340
27
  0
DIMSTYLE
105
27
330
A
100
AcDbSymbolTableRecord
100
AcDbDimStyleTableRecord
  2
Standard
 70
     0
  4
mm
170
     1
277
     5
340
11
1001
ACAD_DSTYLE_DIMJOGGED_JOGANGLE_SYMBOL
1070
   384
1040
0.7853981633974483
1001
ACAD_DSTYLE_DIMEXT_LENGTH
1070
   378
1040
0.18
  0
ENDTAB
  0
TABLE
  2
BLOCK_RECORD
  5
1
330
0
100
AcDbSymbolTable
 70
     0
  0
BLOCK_RECORD
  5
1F
330
1
100
AcDbSymbolTableRecord
100
AcDbBlockTableRecord
  2
*Model_Space
340
22
  0
BLOCK_RECORD
  5
58
330
1
100
AcDbSymbolTableRecord
100
AcDbBlockTableRecord
  2
*Paper_Space
340
59
  0
ENDTAB
  0
ENDSEC
  0
SECTION
  2
BLOCKS
  0
BLOCK
  5
20
330
1F
100
AcDbEntity
  8
0
100
AcDbBlockBegin
  2
*Model_Space
 70
     0
 10
0.0
 20
0.0
 30
0.0
  3
*Model_Space
  1

  0
ENDBLK
  5
21
330
1F
100
AcDbEntity
  8
0
100
AcDbBlockEnd
  0
BLOCK
  5
5A
330
58
100
AcDbEntity
 67
     1
  8
0
100
AcDbBlockBegin
  2
*Paper_Space
 70
     0
 10
0.0
 20
0.0
 30
0.0
  3
*Paper_Space
  1

  0
ENDBLK
  5
5B
330
58
100
AcDbEntity
 67
     1
  8
0
100
AcDbBlockEnd
  0
ENDSEC
  0
SECTION
  2
ENTITIES
  0
LINE
  5
170D
330
1F
100
AcDbEntity
  8
PIC06
  6
Continuous
 62
     7
100
AcDbLine
 10
916.7274924011262
 20
691.1500017337866
 30
0.0
 11
921.4519867358475
 21
691.1500017337866
 31
0.0
  0
ARC
  5
170E
330
1F
100
AcDbEntity
  8
PIC06
  6
Continuous
 62
     7
100
AcDbCircle
 10
842.8229468747359
 20
686.9417609860548
 30
0.0
 40
78.74157224535941
100
AcDbArc
 50
3.063557846117364
 51
8.94267290169709
  0
ARC
  5
170F
330
1F
100
AcDbEntity
  8
PIC06
  6
Continuous
 62
     7
100
AcDbCircle
 10
921.0852175186683
 20
692.0161590284861
 30
0.0
 40
0.3149662889814377
100
AcDbArc
 50
3.70977210833664
 51
90.0
  0
ARC
  5
1710
330
1F
100
AcDbEntity
  8
PIC06
  6
Continuous
 62
     7
100
AcDbCircle
 10
901.464594907682
 20
693.92670306134
 30
0.0
 40
19.68539306133985
100
AcDbArc
 50
355.3508538986454
 51
6.792629188250325
  0
ARC
  5
1711
330
1F
100
AcDbEntity
  8
PIC06
  6
Continuous
 62
     7
100
AcDbCircle
 10
915.6711101207184
 20
707.4662869541398
 30
0.0
 40
8.661572946989535
100
AcDbArc
 50
309.8570274123909
 51
323.5277973876573
  0
ARC
  5
1712
330
1F
100
AcDbEntity
  8
PIC06
  6
Continuous
 62
     7
100
AcDbCircle
 10
918.2038968807274
 20
705.5940242728374
 30
0.0
 40
5.511910057175152
100
AcDbArc
 50
323.5277973876573
 51
0.0
  0
ARC
  5
1713
330
1F
100
AcDbEntity
  8
PIC06
  6
Continuous
 62
     7
100
AcDbCircle
 10
922.35751481667
 20
699.4572376056721
 30
0.0
 40
1.771685375520586
100
AcDbArc
 50
129.8570274123909
 51
188.9426729016971
  0
LINE
  5
1714
330
1F
100
AcDbEntity
  8
PIC06
  6
Continuous
 62
     7
100
AcDbLine
 10
923.715806937902
 20
705.5940242728374
 30
0.0
 11
923.715806937902
 21
705.795934171424
 31
0.0
  0
LINE
  5
1715
330
1F
100
AcDbEntity
  8
PIC06
  6
Continuous
 62
     7
100
AcDbLine
 10
916.7274924011262
 20
706.1109004604049
 30
0.0
 11
923.4008406489211
 21
706.1109004604049
 31
0.0
  0
ARC
  5
1716
330
1F
100
AcDbEntity
  8
PIC06
  6
Continuous
 62
     7
100
AcDbCircle
 10
923.4008406489211
 20
705.795934171424
 30
0.0
 40
0.3149662889814377
100
AcDbArc
 50
0.0
 51
90.0
  0
LINE
  5
1717
330
1F
100
AcDbEntity
  8
PIC06
  6
CENTER
 62
     7
100
AcDbLine
 10
916.7274924011262
 20
690.7594866269091
 30
0.0
 11
916.7274924011262
 21
707.1176093469203
 31
0.0
  0
LINE
  5
1718
330
1F
100
AcDbEntity
  8
PIC06
  6
DASHED
 62
     7
100
AcDbLine
 10
918.0170078585661
 20
699.645268695067
 30
0.0
 11
917.9606776929896
 21
698.6563874680832
 31
0.0
  0
ARC
  5
1719
330
1F
100
AcDbEntity
  8
PIC06
  6
DASHED
 62
     7
100
AcDbCircle
 10
917.7248353022132
 20
698.6698218832189
 30
0.0
 40
0.2362247167360781
100
AcDbArc
 50
270.0
 51
356.7397534209565
  0
ARC
  5
171A
330
1F
100
AcDbEntity
  8
PIC06
  6
DASHED
 62
     7
100
AcDbCircle
 10
918.2135431842134
 20
699.6340733491215
 30
0.0
 40
0.1968539306133985
100
AcDbArc
 50
95.10054256238223
 51
176.7397534209565
  0
LINE
  5
171B
330
1F
100
AcDbEntity
  8
PIC06
  6
DASHED
 62
     7
100
AcDbLine
 10
917.7248353022132
 20
698.4335971664823
 30
0.0
 11
916.7274924011262
 21
698.4335971664823
 31
0.0
  0
LINE
  5
171C
330
1F
100
AcDbEntity
  8
PIC06
  6
DASHED
 62
     7
100
AcDbLine
 10
916.7274924011262
 20
704.4179566571292
 30
0.0
 11
918.1002956604716
 21
704.4179566571292
 31
0.0
  0
ARC
  5
171D
330
1F
100
AcDbEntity
  8
PIC06
  6
DASHED
 62
     7
100
AcDbCircle
 10
842.8229468747359
 20
686.9417609860548
 30
0.0
 40
78.34786438413264
100
AcDbArc
 50
3.078967407895932
 51
3.223144674794685
  0
ARC
  5
171E
330
1F
100
AcDbEntity
  8
PIC06
  6
DASHED
 62
     7
100
AcDbCircle
 10
917.4558519443953
 20
703.6895971138601
 30
0.0
 40
0.2559101097974181
100
AcDbArc
 50
0.0
 51
90.0
  0
ARC
  5
171F
330
1F
100
AcDbEntity
  8
PIC06
  6
DASHED
 62
     7
100
AcDbCircle
 10
917.4558519443953
 20
703.6895971138601
 30
0.0
 40
0.2559101097974181
100
AcDbArc
 50
270.0
 51
0.0
  0
LINE
  5
1720
330
1F
100
AcDbEntity
  8
PIC06
  6
DASHED
 62
     7
100
AcDbLine
 10
918.218299538592
 20
704.2947832763538
 30
0.0
 11
918.0246183855279
 21
699.7788721944125
 31
0.0
  0
ARC
  5
1721
330
1F
100
AcDbEntity
  8
PIC06
  6
DASHED
 62
     7
100
AcDbCircle
 10
918.1002956604716
 20
704.2998442987618
 30
0.0
 40
0.1181123583680391
100
AcDbArc
 50
357.5441686497157
 51
90.0
  0
LINE
  5
1722
330
1F
100
AcDbEntity
  8
PIC06
  6
DASHED
 62
     7
100
AcDbLine
 10
916.7274924011262
 20
703.4336870040625
 30
0.0
 11
917.4558519443953
 21
703.4336870040625
 31
0.0
  0
LINE
  5
1723
330
1F
100
AcDbEntity
  8
PIC06
  6
DASHED
 62
     7
100
AcDbLine
 10
916.7274924011262
 20
703.9455072236578
 30
0.0
 11
917.4558519443953
 21
703.9455072236578
 31
0.0
  0
LWPOLYLINE
  5
1724
330
1F
100
AcDbEntity
  8
PIC06
  6
Continuous
 62
     7
100
AcDbPolyline
 90
        8
 70
     0
 43
0.0
 10
877.7374725466762
 20
705.8825606599603
 10
877.8024010017825
 20
705.7801658857952
 10
877.8220606229879
 20
705.711848087878
 10
877.8075156540353
 20
705.6762969396686
 10
877.7650752825747
 20
705.6437009757282
 10
877.7420863106744
 20
705.6272606123165
 10
877.7430672030323
 20
705.6073916793975
 10
877.7774609043335
 20
705.5841979138695
  0
LWPOLYLINE
  5
1725
330
1F
100
AcDbEntity
  8
PIC06
  6
Continuous
 62
     7
100
AcDbPolyline
 90
        8
 70
     0
 43
0.0
 10
875.759664861509
 20
705.8610294609243
 10
875.7324031377656
 20
705.7790213987519
 10
875.7273685135178
 20
705.7226135372084
 10
875.7363720963212
 20
705.694977301714
 10
875.7571268422353
 20
705.666591694955
 10
875.7704303108393
 20
705.6457159686869
 10
875.7583911632728
 20
705.6295850282704
 10
875.719678906853
 20
705.6134190199445
  0
LINE
  5
1726
330
1F
100
AcDbEntity
  8
PIC06
  6
DASHED
 62
     7
100
AcDbLine
 10
920.2511777591062
 20
691.9374174562399
 30
0.0
 11
920.2511777591062
 21
692.331125317467
 31
0.0
  0
LINE
  5
1727
330
1F
100
AcDbEntity
  8
PIC06
  6
CENTER
 62
     7
100
AcDbLine
 10
920.4677170827809
 20
691.7250281171627
 30
0.0
 11
920.4677170827809
 21
692.5426231427718
 31
0.0
  0
LINE
  5
1728
330
1F
100
AcDbEntity
  8
PIC06
  6
DASHED
 62
     7
100
AcDbLine
 10
920.6842564064555
 20
691.9374174562399
 30
0.0
 11
920.6842564064555
 21
692.331125317467
 31
0.0
  0
ARC
  5
1729
330
1F
100
AcDbEntity
  8
PIC06
  6
Continuous
 62
     7
100
AcDbCircle
 10
921.0852175186683
 20
692.0161590284861
 30
0.0
 40
0.3149662889814377
100
AcDbArc
 50
3.70977210833664
 51
90.0
  0
ARC
  5
172A
330
1F
100
AcDbEntity
  8
PIC06
  6
DASHED
 62
     7
100
AcDbCircle
 10
920.9004959234217
 20
691.8193050978725
 30
0.0
 40
0.1181123583680391
100
AcDbArc
 50
3.574651149983438
 51
90.0
  0
ARC
  5
172B
330
1F
100
AcDbEntity
  8
PIC06
  6
DASHED
 62
     7
100
AcDbCircle
 10
918.2135431842134
 20
699.6340733491215
 30
0.0
 40
0.1968539306133984
100
AcDbArc
 50
95.10052799304059
 51
176.7397534209565
  0
LINE
  5
172C
330
1F
100
AcDbEntity
  8
PIC06
  6
DASHED
 62
     7
100
AcDbLine
 10
917.9606776929896
 20
698.6563874680832
 30
0.0
 11
918.0170078585661
 21
699.645268695067
 31
0.0
  0
ARC
  5
172D
330
1F
100
AcDbEntity
  8
PIC06
  6
DASHED
 62
     7
100
AcDbCircle
 10
917.7248353022132
 20
698.6698218832189
 30
0.0
 40
0.2362247167360781
100
AcDbArc
 50
270.0
 51
356.7397534209565
  0
LINE
  5
172E
330
1F
100
AcDbEntity
  8
PIC06
  6
DASHED
 62
     7
100
AcDbLine
 10
917.7248353022132
 20
698.4335971664823
 30
0.0
 11
916.7274924011262
 21
698.4335971664823
 31
0.0
  0
ARC
  5
172F
330
1F
100
AcDbEntity
  8
PIC06
  6
DASHED
 62
     7
100
AcDbCircle
 10
842.8229468747359
 20
686.9417609860548
 30
0.0
 40
78.34786438413264
100
AcDbArc
 50
3.078967407895932
 51
3.57465118413421
  0
LINE
  5
1730
330
1F
100
AcDbEntity
  8
PIC06
  6
Continuous
 62
     7
100
AcDbLine
 10
916.7274924011262
 20
691.1500017337866
 30
0.0
 11
912.0029980664048
 21
691.1500017337866
 31
0.0
  0
ARC
  5
1731
330
1F
100
AcDbEntity
  8
PIC06
  6
Continuous
 62
     7
100
AcDbCircle
 10
990.6320379275166
 20
686.9417609860548
 30
0.0
 40
78.74157224535941
100
AcDbArc
 50
171.0573270983029
 51
176.9364421538826
  0
ARC
  5
1732
330
1F
100
AcDbEntity
  8
PIC06
  6
Continuous
 62
     7
100
AcDbCircle
 10
912.369767283585
 20
692.0161590284861
 30
0.0
 40
0.3149662889814377
100
AcDbArc
 50
90.0
 51
176.2902278916633
  0
ARC
  5
1733
330
1F
100
AcDbEntity
  8
PIC06
  6
Continuous
 62
     7
100
AcDbCircle
 10
931.9903898945703
 20
693.92670306134
 30
0.0
 40
19.68539306133985
100
AcDbArc
 50
173.2073708117496
 51
184.6491461013545
  0
ARC
  5
1734
330
1F
100
AcDbEntity
  8
PIC06
  6
Continuous
 62
     7
100
AcDbCircle
 10
917.783874681535
 20
707.4662869541398
 30
0.0
 40
8.661572946989535
100
AcDbArc
 50
216.4722026123428
 51
230.142972587609
  0
ARC
  5
1735
330
1F
100
AcDbEntity
  8
PIC06
  6
Continuous
 62
     7
100
AcDbCircle
 10
915.251087921526
 20
705.5940242728374
 30
0.0
 40
5.511910057175152
100
AcDbArc
 50
180.0
 51
216.4722026123428
  0
ARC
  5
1736
330
1F
100
AcDbEntity
  8
PIC06
  6
Continuous
 62
     7
100
AcDbCircle
 10
911.0974699855832
 20
699.4572376056721
 30
0.0
 40
1.771685375520586
100
AcDbArc
 50
351.0573270983029
 51
50.14297258760906
  0
LINE
  5
1737
330
1F
100
AcDbEntity
  8
PIC06
  6
Continuous
 62
     7
100
AcDbLine
 10
909.7391778643514
 20
705.5940242728374
 30
0.0
 11
909.7391778643514
 21
705.795934171424
 31
0.0
  0
LINE
  5
1738
330
1F
100
AcDbEntity
  8
PIC06
  6
Continuous
 62
     7
100
AcDbLine
 10
916.7274924011262
 20
706.1109004604049
 30
0.0
 11
910.0541441533323
 21
706.1109004604049
 31
0.0
  0
ARC
  5
1739
330
1F
100
AcDbEntity
  8
PIC06
  6
Continuous
 62
     7
100
AcDbCircle
 10
910.0541441533323
 20
705.795934171424
 30
0.0
 40
0.3149662889814377
100
AcDbArc
 50
90.0
 51
180.0
  0
ARC
  5
173A
330
1F
100
AcDbEntity
  8
PIC06
  6
DASHED
 62
     7
100
AcDbCircle
 10
990.6320379275166
 20
686.9417609860548
 30
0.0
 40
78.34786438413264
100
AcDbArc
 50
176.7768553252009
 51
176.921032592104
  0
ARC
  5
173B
330
1F
100
AcDbEntity
  8
PIC06
  6
DASHED
 62
     7
100
AcDbCircle
 10
915.9991328578572
 20
703.6895971138601
 30
0.0
 40
0.2559101097974181
100
AcDbArc
 50
90.0
 51
180.0
  0
ARC
  5
173C
330
1F
100
AcDbEntity
  8
PIC06
  6
DASHED
 62
     7
100
AcDbCircle
 10
915.9991328578572
 20
703.6895971138601
 30
0.0
 40
0.2559101097974181
100
AcDbArc
 50
180.0
 51
270.0
  0
ARC
  5
173D
330
1F
100
AcDbEntity
  8
PIC06
  6
DASHED
 62
     7
100
AcDbCircle
 10
915.3546891417809
 20
704.2998442987618
 30
0.0
 40
0.1181123583680391
100
AcDbArc
 50
90.0
 51
182.4558313502843
  0
LINE
  5
173E
330
1F
100
AcDbEntity
  8
PIC06
  6
DASHED
 62
     7
100
AcDbLine
 10
916.7274924011262
 20
703.4336870040625
 30
0.0
 11
915.9991328578572
 21
703.4336870040625
 31
0.0
  0
LINE
  5
173F
330
1F
100
AcDbEntity
  8
PIC06
  6
DASHED
 62
     7
100
AcDbLine
 10
916.7274924011262
 20
703.9455072236578
 30
0.0
 11
915.9991328578572
 21
703.9455072236578
 31
0.0
  0
LINE
  5
1740
330
1F
100
AcDbEntity
  8
PIC06
  6
CENTER
 62
     7
100
AcDbLine
 10
912.9872677194716
 20
691.7250281171627
 30
0.0
 11
912.9872677194716
 21
692.5426231427718
 31
0.0
  0
ARC
  5
1741
330
1F
100
AcDbEntity
  8
PIC06
  6
Continuous
 62
     7
100
AcDbCircle
 10
912.369767283585
 20
692.0161590284861
 30
0.0
 40
0.3149662889814377
100
AcDbArc
 50
90.0
 51
176.2902278916633
  0
LINE
  5
1742
330
1F
100
AcDbEntity
  8
PIC06
  6
DASHED
 62
     7
100
AcDbLine
 10
916.7274924011262
 20
704.4179566571292
 30
0.0
 11
915.3546891417809
 21
704.4179566571292
 31
0.0
  0
ARC
  5
1743
330
1F
100
AcDbEntity
  8
PIC06
  6
DASHED
 62
     7
100
AcDbCircle
 10
912.5544888788308
 20
691.8193050978725
 30
0.0
 40
0.1181123583680391
100
AcDbArc
 50
90.0
 51
176.4253488500165
  0
ARC
  5
1744
330
1F
100
AcDbEntity
  8
PIC06
  6
DASHED
 62
     7
100
AcDbCircle
 10
990.6320379275166
 20
686.9417609860548
 30
0.0
 40
78.34786438413264
100
AcDbArc
 50
176.4253488158658
 51
176.921032592104
  0
LINE
  5
1745
330
1F
100
AcDbEntity
  8
PIC06
  6
DASHED
 62
     7
100
AcDbLine
 10
912.770728395797
 20
691.9374174562399
 30
0.0
 11
912.770728395797
 21
692.331125317467
 31
0.0
  0
LINE
  5
1746
330
1F
100
AcDbEntity
  8
PIC06
  6
DASHED
 62
     7
100
AcDbLine
 10
913.2038070431462
 20
691.9374174562399
 30
0.0
 11
913.2038070431462
 21
692.331125317467
 31
0.0
  0
LINE
  5
1747
330
1F
100
AcDbEntity
  8
PIC06
  6
DASHED
 62
     7
100
AcDbLine
 10
912.369767283585
 20
692.331125317467
 30
0.0
 11
913.6419706911929
 21
692.331125317467
 31
0.0
  0
LINE
  5
1748
330
1F
100
AcDbEntity
  8
PIC06
  6
DASHED
 62
     7
100
AcDbLine
 10
912.5544888788308
 20
691.9374174562399
 30
0.0
 11
913.6680881093225
 21
691.9374174562399
 31
0.0
  0
LINE
  5
1749
330
1F
100
AcDbEntity
  8
PIC06
  6
DASHED
 62
     7
100
AcDbLine
 10
915.4379769436864
 20
699.645268695067
 30
0.0
 11
915.4943071092638
 21
698.6563874680832
 31
0.0
  0
ARC
  5
174A
330
1F
100
AcDbEntity
  8
PIC06
  6
DASHED
 62
     7
100
AcDbCircle
 10
915.7301495000393
 20
698.6698218832189
 30
0.0
 40
0.2362247167360781
100
AcDbArc
 50
183.2602465790435
 51
270.0
  0
ARC
  5
174B
330
1F
100
AcDbEntity
  8
PIC06
  6
DASHED
 62
     7
100
AcDbCircle
 10
915.2414416180389
 20
699.6340733491215
 30
0.0
 40
0.1968539306133985
100
AcDbArc
 50
3.2602465790435
 51
84.89945743761776
  0
LINE
  5
174C
330
1F
100
AcDbEntity
  8
PIC06
  6
DASHED
 62
     7
100
AcDbLine
 10
915.7301495000393
 20
698.4335971664823
 30
0.0
 11
916.7274924011262
 21
698.4335971664823
 31
0.0
  0
LINE
  5
174D
330
1F
100
AcDbEntity
  8
PIC06
  6
DASHED
 62
     7
100
AcDbLine
 10
915.2366852636605
 20
704.2947832763538
 30
0.0
 11
915.4303664167246
 21
699.7788721944125
 31
0.0
  0
ARC
  5
174E
330
1F
100
AcDbEntity
  8
PIC06
  6
DASHED
 62
     7
100
AcDbCircle
 10
915.2414416180389
 20
699.6340733491215
 30
0.0
 40
0.1968539306133984
100
AcDbArc
 50
3.2602465790435
 51
84.89947200695942
  0
LINE
  5
174F
330
1F
100
AcDbEntity
  8
PIC06
  6
DASHED
 62
     7
100
AcDbLine
 10
915.4943071092638
 20
698.6563874680832
 30
0.0
 11
915.4379769436864
 21
699.645268695067
 31
0.0
  0
ARC
  5
1750
330
1F
100
AcDbEntity
  8
PIC06
  6
DASHED
 62
     7
100
AcDbCircle
 10
915.7301495000393
 20
698.6698218832189
 30
0.0
 40
0.2362247167360781
100
AcDbArc
 50
183.2602465790435
 51
270.0
  0
LINE
  5
1751
330
1F
100
AcDbEntity
  8
PIC06
  6
DASHED
 62
     7
100
AcDbLine
 10
915.7301495000393
 20
698.4335971664823
 30
0.0
 11
916.7274924011262
 21
698.4335971664823
 31
0.0
  0
ARC
  5
1752
330
1F
100
AcDbEntity
  8
PIC06
  6
DASHED
 62
     7
100
AcDbCircle
 10
916.7274924011262
 20
716.2832130805372
 30
0.0
 40
16.51847438581815
100
AcDbArc
 50
264.1341378797089
 51
264.8994720069594
  0
LINE
  5
1754
330
1F
100
AcDbEntity
  8
PIC06
  6
Continuous
 62
     7
100
AcDbLine
 10
872.2156773649649
 20
718.5072498519112
 30
0.0
 11
872.2156773649649
 21
727.5625306601277
 31
0.0
  0
ARC
  5
1755
330
1F
100
AcDbEntity
  8
PIC06
  6
Continuous
 62
     7
100
AcDbCircle
 10
890.95617155936
 20
723.0348902560199
 30
0.0
 40
6.063101062892672
100
AcDbArc
 50
303.690488435136
 51
56.30951156486399
  0
ARC
  5
1756
330
1F
100
AcDbEntity
  8
PIC06
  6
Continuous
 62
     7
100
AcDbCircle
 10
886.7828682303562
 20
738.0942159479445
 30
0.0
 40
22.04764022870064
100
AcDbArc
 50
270.0
 51
277.4091284608506
  0
ARC
  5
1757
330
1F
100
AcDbEntity
  8
PIC06
  6
Continuous
 62
     7
100
AcDbCircle
 10
888.2044294060316
 20
727.1624377880398
 30
0.0
 40
11.02382011435031
100
AcDbArc
 50
277.4091284608506
 51
303.690488435136
  0
ARC
  5
1758
330
1F
100
AcDbEntity
  8
PIC06
  6
Continuous
 62
     7
100
AcDbCircle
 10
886.7828682303562
 20
731.7948901683157
 30
0.0
 40
15.7483144490719
100
AcDbArc
 50
264.9422693087663
 51
270.0
  0
ARC
  5
1759
330
1F
100
AcDbEntity
  8
PIC06
  6
Continuous
 62
     7
100
AcDbCircle
 10
906.7009415140656
 20
864.0875219610807
 30
0.0
 40
149.6089872661829
100
AcDbArc
 50
256.6733348761326
 51
260.3601330253856
  0
ARC
  5
175A
330
1F
100
AcDbEntity
  8
PIC06
  6
Continuous
 62
     7
100
AcDbCircle
 10
889.5595938617935
 20
763.1688830081684
 30
0.0
 40
47.24494334721565
100
AcDbArc
 50
260.3601330253856
 51
264.9422693087663
  0
ARC
  5
175B
330
1F
100
AcDbEntity
  8
PIC06
  6
Continuous
 62
     7
100
AcDbCircle
 10
888.2044294060316
 20
718.9073427239991
 30
0.0
 40
11.02382011435031
100
AcDbArc
 50
56.30951156486399
 51
82.59087153914942
  0
ARC
  5
175C
330
1F
100
AcDbEntity
  8
PIC06
  6
Continuous
 62
     7
100
AcDbCircle
 10
886.7828682303562
 20
707.9755645640952
 30
0.0
 40
22.04764022870064
100
AcDbArc
 50
82.59087153914942
 51
90.0
  0
ARC
  5
175D
330
1F
100
AcDbEntity
  8
PIC06
  6
Continuous
 62
     7
100
AcDbCircle
 10
889.5595938617935
 20
682.9008975038714
 30
0.0
 40
47.24494334721565
100
AcDbArc
 50
95.05773069123371
 51
99.63986697461436
  0
ARC
  5
175E
330
1F
100
AcDbEntity
  8
PIC06
  6
Continuous
 62
     7
100
AcDbCircle
 10
886.7828682303562
 20
714.2748903437241
 30
0.0
 40
15.7483144490719
100
AcDbArc
 50
90.0
 51
95.05773069123371
  0
ARC
  5
175F
330
1F
100
AcDbEntity
  8
PIC06
  6
Continuous
 62
     7
100
AcDbCircle
 10
906.7009415140656
 20
581.9822585509591
 30
0.0
 40
149.6089872661829
100
AcDbArc
 50
99.63986697461436
 51
103.3266651238674
  0
ARC
  5
1760
330
1F
100
AcDbEntity
  8
PIC06
  6
Continuous
 62
     7
100
AcDbCircle
 10
890.7199468426242
 20
723.0348902560199
 30
0.0
 40
3.54337075104117
100
AcDbArc
 50
302.0431431807953
 51
57.95685681920474
  0
ARC
  5
1761
330
1F
100
AcDbEntity
  8
PIC06
  6
Continuous
 62
     7
100
AcDbCircle
 10
886.7828682303562
 20
734.3539912662899
 30
0.0
 40
15.74831444907188
100
AcDbArc
 50
270.0
 51
279.9259356362082
  0
ARC
  5
1762
330
1F
100
AcDbEntity
  8
PIC06
  6
Continuous
 62
     7
100
AcDbCircle
 10
886.7828682303562
 20
750.1023057153616
 30
0.0
 40
31.49662889814377
100
AcDbArc
 50
262.2520743282444
 51
270.0
  0
ARC
  5
1763
330
1F
100
AcDbEntity
  8
PIC06
  6
Continuous
 62
     7
100
AcDbCircle
 10
888.004445328298
 20
727.3733283671727
 30
0.0
 40
8.661572946989535
100
AcDbArc
 50
279.9259356362082
 51
302.0431431807953
  0
ARC
  5
1764
330
1F
100
AcDbEntity
  8
PIC06
  6
Continuous
 62
     7
100
AcDbCircle
 10
891.1136547038504
 20
723.0348902560199
 30
0.0
 40
11.81123583680393
100
AcDbArc
 50
166.8503673756318
 51
193.1496306968064
  0
ARC
  5
1765
330
1F
100
AcDbEntity
  8
PIC06
  6
Continuous
 62
     7
100
AcDbCircle
 10
880.9513386516638
 20
720.6726430886592
 30
0.0
 40
1.377977514293792
100
AcDbArc
 50
193.0861047580052
 51
251.4322396702722
  0
ARC
  5
1766
330
1F
100
AcDbEntity
  8
PIC06
  6
Continuous
 62
     7
100
AcDbCircle
 10
884.0228253468749
 20
729.8163977302829
 30
0.0
 40
11.02382011435031
100
AcDbArc
 50
251.4322396702722
 51
262.2520743282444
  0
ARC
  5
1767
330
1F
100
AcDbEntity
  8
PIC06
  6
Continuous
 62
     7
100
AcDbCircle
 10
888.004445328298
 20
718.6964521448672
 30
0.0
 40
8.661572946989535
100
AcDbArc
 50
57.95685681920474
 51
80.07406436379183
  0
ARC
  5
1768
330
1F
100
AcDbEntity
  8
PIC06
  6
Continuous
 62
     7
100
AcDbCircle
 10
886.7828682303562
 20
711.7157892457489
 30
0.0
 40
15.74831444907188
100
AcDbArc
 50
80.07406436379183
 51
90.0
  0
ARC
  5
1769
330
1F
100
AcDbEntity
  8
PIC06
  6
Continuous
 62
     7
100
AcDbCircle
 10
886.7828682303562
 20
695.9674747966773
 30
0.0
 40
31.49662889814377
100
AcDbArc
 50
90.0
 51
97.74792567175561
  0
ARC
  5
176A
330
1F
100
AcDbEntity
  8
PIC06
  6
Continuous
 62
     7
100
AcDbCircle
 10
884.0228253468749
 20
716.2533827817569
 30
0.0
 40
11.02382011435031
100
AcDbArc
 50
97.74792567175561
 51
108.5677603297277
  0
ARC
  5
176B
330
1F
100
AcDbEntity
  8
PIC06
  6
Continuous
 62
     7
100
AcDbCircle
 10
880.9513386516638
 20
725.3971374233806
 30
0.0
 40
1.377977514293792
100
AcDbArc
 50
108.5677603297277
 51
166.9138952419948
  0
ARC
  5
176C
330
1F
100
AcDbEntity
  8
PIC06
  6
Continuous
 62
     7
100
AcDbCircle
 10
887.2798091581435
 20
722.1392249553428
 30
0.0
 40
7.874157224535941
100
AcDbArc
 50
193.1496306968064
 51
220.2608266706016
  0
ARC
  5
176D
330
1F
100
AcDbEntity
  8
PIC06
  6
Continuous
 62
     7
100
AcDbCircle
 10
887.2798091581435
 20
723.930555556697
 30
0.0
 40
7.874157224535943
100
AcDbArc
 50
139.7391733293984
 51
166.8503664119362
  0
ARC
  5
176E
330
1F
100
AcDbEntity
  8
PIC06
  6
Continuous
 62
     7
100
AcDbCircle
 10
889.932531120171
 20
723.0348902560199
 30
0.0
 40
0.866157294698954
100
AcDbArc
 50
39.52119635862273
 51
320.4788036413773
  0
CIRCLE
  5
176F
330
1F
100
AcDbEntity
  8
PIC06
  6
Continuous
 62
     7
100
AcDbCircle
 10
889.932531120171
 20
723.0348902560199
 30
0.0
 40
0.4921348265334965
  0
ARC
  5
1770
330
1F
100
AcDbEntity
  8
PIC06
  6
Continuous
 62
     7
100
AcDbCircle
 10
880.4835424507272
 20
723.0348902560199
 30
0.0
 40
1.220494369803066
100
AcDbArc
 50
195.3994466359876
 51
164.6005533640124
  0
LINE
  5
1771
330
1F
100
AcDbEntity
  8
PIC06
  6
Continuous
 62
     7
100
AcDbLine
 10
872.2156773649649
 20
706.1109004604049
 30
0.0
 11
896.7043063332711
 21
706.1109004604049
 31
0.0
  0
LINE
  5
1772
330
1F
100
AcDbEntity
  8
PIC06
  6
Continuous
 62
     7
100
AcDbLine
 10
880.4835424507272
 20
691.1500017337866
 30
0.0
 11
893.8696097324381
 21
691.1500017337866
 31
0.0
  0
LINE
  5
1773
330
1F
100
AcDbEntity
  8
PIC06
  6
Continuous
 62
     7
100
AcDbLine
 10
872.2156773649649
 20
704.9297768767246
 30
0.0
 11
872.2156773649649
 21
706.1109004604049
 31
0.0
  0
LINE
  5
1774
330
1F
100
AcDbEntity
  8
PIC06
  6
Continuous
 62
     7
100
AcDbLine
 10
894.2633175936652
 20
705.2692121632553
 30
0.0
 11
894.2633175936652
 21
705.4208525609665
 31
0.0
  0
LINE
  5
1775
330
1F
100
AcDbEntity
  8
PIC06
  6
Continuous
 62
     7
100
AcDbLine
 10
878.5877828686716
 20
704.6148105877437
 30
0.0
 11
896.1126034158169
 21
704.6148105877437
 31
0.0
  0
ARC
  5
1776
330
1F
100
AcDbEntity
  8
PIC06
  6
Continuous
 62
     7
100
AcDbCircle
 10
896.7043063332711
 20
705.795934171424
 30
0.0
 40
0.3149662889814377
100
AcDbArc
 50
353.0379373089179
 51
91.36497922418953
  0
ARC
  5
1777
330
1F
100
AcDbEntity
  8
PIC06
  6
Continuous
 62
     7
100
AcDbCircle
 10
891.5456815672133
 20
706.4258667493868
 30
0.0
 40
5.511910057175162
100
AcDbArc
 50
316.3280937610155
 51
353.0379373089179
  0
ARC
  5
1778
330
1F
100
AcDbEntity
  8
PIC06
  6
Continuous
 62
     7
100
AcDbCircle
 10
891.5456815672133
 20
706.4258667493868
 30
0.0
 40
5.118202195948362
100
AcDbArc
 50
316.328091383358
 51
337.6614726292952
  0
LINE
  5
1779
330
1F
100
AcDbEntity
  8
PIC06
  6
Continuous
 62
     7
100
AcDbLine
 10
894.5194177825742
 20
704.9597957036785
 30
0.0
 11
896.1926112090413
 21
704.6414727165393
 31
0.0
  0
ARC
  5
177A
330
1F
100
AcDbEntity
  8
PIC06
  6
Continuous
 62
     7
100
AcDbCircle
 10
894.5782838826461
 20
705.2692121632553
 30
0.0
 40
0.3149662889814372
100
AcDbArc
 50
180.0
 51
259.2282768299303
  0
ARC
  5
177B
330
1F
100
AcDbEntity
  8
PIC06
  6
Continuous
 62
     7
100
AcDbCircle
 10
896.1705364215148
 20
704.5254415441977
 30
0.0
 40
0.1181123583680393
100
AcDbArc
 50
337.6614726292952
 51
79.22827682993035
  0
LINE
  5
177C
330
1F
100
AcDbEntity
  8
PIC06
  6
Continuous
 62
     7
100
AcDbLine
 10
894.6102964062601
 20
705.263121820094
 30
0.0
 11
896.2514773091143
 21
704.9508891761161
 31
0.0
  0
ARC
  5
177D
330
1F
100
AcDbEntity
  8
PIC06
  6
Continuous
 62
     7
100
AcDbCircle
 10
896.1705364215148
 20
704.5254415441977
 30
0.0
 40
0.4330786473494764
100
AcDbArc
 50
42.8151344861709
 51
79.22827682993035
  0
ARC
  5
177E
330
1F
100
AcDbEntity
  8
PIC06
  6
Continuous
 62
     7
100
AcDbCircle
 10
891.5456815672133
 20
706.4258667493868
 30
0.0
 40
5.196943768193721
100
AcDbArc
 50
341.9983096621594
 51
353.0379373089179
  0
ARC
  5
177F
330
1F
100
AcDbEntity
  8
PIC06
  6
Continuous
 62
     7
100
AcDbCircle
 10
894.6176546687693
 20
705.3017988775409
 30
0.0
 40
0.0393707861226797
100
AcDbArc
 50
180.0
 51
259.2282768299303
  0
ARC
  5
1780
330
1F
100
AcDbEntity
  8
PIC06
  6
Continuous
 62
     7
100
AcDbCircle
 10
896.2318568997989
 20
699.4572376056721
 30
0.0
 40
3.93707861226797
100
AcDbArc
 50
180.0
 51
193.9437426754156
  0
ARC
  5
1781
330
1F
100
AcDbEntity
  8
PIC06
  6
Continuous
 62
     7
100
AcDbCircle
 10
815.9895133939871
 20
679.5342454525662
 30
0.0
 40
78.74157224535941
100
AcDbArc
 50
8.48308669370837
 51
13.94373881164449
  0
ARC
  5
1782
330
1F
100
AcDbEntity
  8
PIC06
  6
Continuous
 62
     7
100
AcDbCircle
 10
893.8696097324381
 20
699.4572376056721
 30
0.0
 40
1.574831444907187
100
AcDbArc
 50
116.7168342044682
 51
180.0
  0
ARC
  5
1783
330
1F
100
AcDbEntity
  8
PIC06
  6
Continuous
 62
     7
100
AcDbCircle
 10
889.26751207297
 20
708.6007966505494
 30
0.0
 40
8.661572946989535
100
AcDbArc
 50
296.7168342044683
 51
316.3280937610155
  0
ARC
  5
1784
330
1F
100
AcDbEntity
  8
PIC06
  6
Continuous
 62
     7
100
AcDbCircle
 10
889.26751207297
 20
708.6007966505494
 30
0.0
 40
8.267865085762741
100
AcDbArc
 50
304.8767588928541
 51
316.3280937610155
  0
ARC
  5
1785
330
1F
100
AcDbEntity
  8
PIC06
  6
Continuous
 62
     7
100
AcDbCircle
 10
891.7439127627202
 20
705.047889235093
 30
0.0
 40
3.93707861226797
100
AcDbArc
 50
276.0778558790806
 51
304.8767579013788
  0
LINE
  5
1786
330
1F
100
AcDbEntity
  8
PIC06
  6
Continuous
 62
     7
100
AcDbLine
 10
889.0663738254716
 20
700.9926982644564
 30
0.0
 11
890.7986884148694
 21
700.9926982644564
 31
0.0
  0
LINE
  5
1787
330
1F
100
AcDbEntity
  8
PIC06
  6
Continuous
 62
     7
100
AcDbLine
 10
890.4246659467034
 20
700.5202488309842
 30
0.0
 11
890.4246659467034
 21
700.9926982644564
 31
0.0
  0
LINE
  5
1788
330
1F
100
AcDbEntity
  8
PIC06
  6
Continuous
 62
     7
100
AcDbLine
 10
889.4403962936367
 20
700.5202488309842
 30
0.0
 11
889.4403962936367
 21
700.9926982644564
 31
0.0
  0
ARC
  5
1789
330
1F
100
AcDbEntity
  8
PIC06
  6
Continuous
 62
     7
100
AcDbCircle
 10
871.3179220194815
 20
896.8803439662551
 30
0.0
 40
196.8539306133985
100
AcDbArc
 50
275.6793154748609
 51
276.0778558790806
  0
LINE
  5
178A
330
1F
100
AcDbEntity
  8
PIC06
  6
Continuous
 62
     7
100
AcDbLine
 10
889.1451153977168
 20
700.5202488309842
 30
0.0
 11
890.7199468426242
 21
700.5202488309842
 31
0.0
  0
ARC
  5
178B
330
1F
100
AcDbEntity
  8
PIC06
  6
Continuous
 62
     7
100
AcDbCircle
 10
888.7254128159794
 20
701.18955219507
 30
0.0
 40
0.3937078612267976
100
AcDbArc
 50
275.828362361638
 51
330.0000000000064
  0
LINE
  5
178C
330
1F
100
AcDbEntity
  8
PIC06
  6
Continuous
 62
     7
100
AcDbLine
 10
879.2630480809238
 20
700.2052825420032
 30
0.0
 11
881.7040368205297
 21
700.2052825420032
 31
0.0
  0
LINE
  5
178D
330
1F
100
AcDbEntity
  8
PIC06
  6
Continuous
 62
     7
100
AcDbLine
 10
879.6370705490899
 20
699.8115746807761
 30
0.0
 11
881.3300143523647
 21
699.8115746807761
 31
0.0
  0
LINE
  5
178E
330
1F
100
AcDbEntity
  8
PIC06
  6
Continuous
 62
     7
100
AcDbLine
 10
879.4270473526484
 20
699.5753499640405
 30
0.0
 11
881.4853009947546
 21
699.5753499640405
 31
0.0
  0
LINE
  5
178F
330
1F
100
AcDbEntity
  8
PIC06
  6
Continuous
 62
     7
100
AcDbLine
 10
879.5527933252861
 20
698.7485634554641
 30
0.0
 11
881.4147889084642
 21
698.7485634554641
 31
0.0
  0
LINE
  5
1790
330
1F
100
AcDbEntity
  8
PIC06
  6
Continuous
 62
     7
100
AcDbLine
 10
879.4861995496402
 20
698.4335971664823
 30
0.0
 11
881.4808853518142
 21
698.4335971664823
 31
0.0
  0
ARC
  5
1791
330
1F
100
AcDbEntity
  8
PIC06
  6
Continuous
 62
     7
100
AcDbCircle
 10
868.7750453386579
 20
896.6341785252735
 30
0.0
 40
196.8539306133985
100
AcDbArc
 50
273.8328239430436
 51
275.828384068416
  0
ARC
  5
1792
330
1F
100
AcDbEntity
  8
PIC06
  6
Continuous
 62
     7
100
AcDbCircle
 10
868.7750453386579
 20
896.6341785252735
 30
0.0
 40
197.2476384746253
100
AcDbArc
 50
273.8316885831222
 51
275.8301063562171
  0
ARC
  5
1793
330
1F
100
AcDbEntity
  8
PIC06
  6
Continuous
 62
     7
100
AcDbCircle
 10
888.7312877929298
 20
701.1901519833009
 30
0.0
 40
0.7874157224535941
100
AcDbArc
 50
275.8301063562171
 51
301.7053851452024
  0
ARC
  5
1794
330
1F
100
AcDbEntity
  8
PIC06
  6
Continuous
 62
     7
100
AcDbCircle
 10
871.3179220194815
 20
896.8803439662551
 30
0.0
 40
197.16889690238
100
AcDbArc
 50
275.8380799902361
 51
276.0778558790806
  0
ARC
  5
1795
330
1F
100
AcDbEntity
  8
PIC06
  6
Continuous
 62
     7
100
AcDbCircle
 10
896.2318568997989
 20
699.4572376056721
 30
0.0
 40
4.252044901249409
100
AcDbArc
 50
180.0
 51
184.8846092840607
  0
ARC
  5
1796
330
1F
100
AcDbEntity
  8
PIC06
  6
Continuous
 62
     7
100
AcDbCircle
 10
893.8696097324381
 20
699.4572376056721
 30
0.0
 40
1.889797733888625
100
AcDbArc
 50
130.6507375569392
 51
180.0
  0
ARC
  5
1797
330
1F
100
AcDbEntity
  8
PIC06
  6
Continuous
 62
     7
100
AcDbCircle
 10
891.7439127627202
 20
705.047889235093
 30
0.0
 40
4.252044901249409
100
AcDbArc
 50
276.0778558790806
 51
282.1453109528185
  0
LINE
  5
1798
330
1F
100
AcDbEntity
  8
PIC06
  6
Continuous
 62
     7
100
AcDbLine
 10
879.302418867047
 20
705.2031783208713
 30
0.0
 11
879.302418867047
 21
705.795934171424
 31
0.0
  0
LINE
  5
1799
330
1F
100
AcDbEntity
  8
PIC06
  6
Continuous
 62
     7
100
AcDbLine
 10
872.2156773649649
 20
704.9297768767246
 30
0.0
 11
872.8062391568046
 21
704.9297768767246
 31
0.0
  0
LINE
  5
179A
330
1F
100
AcDbEntity
  8
PIC06
  6
Continuous
 62
     7
100
AcDbLine
 10
872.4125312955775
 20
704.9297768767246
 30
0.0
 11
872.4125312955775
 21
705.5990802408104
 31
0.0
  0
LINE
  5
179B
330
1F
100
AcDbEntity
  8
PIC06
  6
Continuous
 62
     7
100
AcDbLine
 10
872.2156773649649
 20
705.7171925991779
 30
0.0
 11
872.2944189372093
 21
705.7171925991779
 31
0.0
  0
LINE
  5
179C
330
1F
100
AcDbEntity
  8
PIC06
  6
Continuous
 62
     7
100
AcDbLine
 10
879.1283097846216
 20
704.9214639077582
 30
0.0
 11
878.5810835568108
 21
704.6478507938518
 31
0.0
  0
ARC
  5
179D
330
1F
100
AcDbEntity
  8
PIC06
  6
Continuous
 62
     7
100
AcDbCircle
 10
878.9874525780652
 20
705.795934171424
 30
0.0
 40
0.3149662889814377
100
AcDbArc
 50
0.0
 51
90.0
  0
ARC
  5
179E
330
1F
100
AcDbEntity
  8
PIC06
  6
Continuous
 62
     7
100
AcDbCircle
 10
878.9874525780652
 20
705.2031783208713
 30
0.0
 40
0.3149662889814382
100
AcDbArc
 50
296.565051177076
 51
0.0
  0
ARC
  5
179F
330
1F
100
AcDbEntity
  8
PIC06
  6
Continuous
 62
     7
100
AcDbCircle
 10
880.4835424507272
 20
701.4895187208703
 30
0.0
 40
1.771685375520588
100
AcDbArc
 50
186.6219754552618
 51
226.4577809718093
  0
ARC
  5
17A0
330
1F
100
AcDbEntity
  8
PIC06
  6
Continuous
 62
     7
100
AcDbCircle
 10
910.0101790339685
 20
704.9173459487674
 30
0.0
 40
31.49662889814375
100
AcDbArc
 50
180.6850017775481
 51
186.6219789405551
  0
ARC
  5
17A1
330
1F
100
AcDbEntity
  8
PIC06
  6
Continuous
 62
     7
100
AcDbCircle
 10
910.0101790339685
 20
704.9173459487674
 30
0.0
 40
31.89033675937055
100
AcDbArc
 50
180.6808347113727
 51
180.6841928716342
  0
ARC
  5
17A2
330
1F
100
AcDbEntity
  8
PIC06
  6
Continuous
 62
     7
100
AcDbCircle
 10
878.6339050092692
 20
704.5422078889351
 30
0.0
 40
0.1181123583680382
100
AcDbArc
 50
116.565051177076
 51
180.6850017775481
  0
LINE
  5
17A3
330
1F
100
AcDbEntity
  8
PIC06
  6
Continuous
 62
     7
100
AcDbLine
 10
878.9874525780652
 20
705.2031783208713
 30
0.0
 11
878.4362615723475
 21
704.9275828180125
 31
0.0
  0
LINE
  5
17A4
330
1F
100
AcDbEntity
  8
PIC06
  6
Continuous
 62
     7
100
AcDbLine
 10
878.9874525780652
 20
705.2031783208713
 30
0.0
 11
878.9874525780652
 21
705.795934171424
 31
0.0
  0
LINE
  5
17A5
330
1F
100
AcDbEntity
  8
PIC06
  6
Continuous
 62
     7
100
AcDbLine
 10
872.8062391568046
 20
704.9297768767246
 30
0.0
 11
872.8062391568046
 21
705.5990802408104
 31
0.0
  0
ARC
  5
17A6
330
1F
100
AcDbEntity
  8
PIC06
  6
Continuous
 62
     7
100
AcDbCircle
 10
872.2944189372093
 20
705.5990802408104
 30
0.0
 40
0.1181123583680391
100
AcDbArc
 50
0.0
 51
90.0
  0
ARC
  5
17A7
330
1F
100
AcDbEntity
  8
PIC06
  6
Continuous
 62
     7
100
AcDbCircle
 10
872.9243515151729
 20
705.5990802408104
 30
0.0
 40
0.1181123583680391
100
AcDbArc
 50
90.0
 51
180.0
  0
LINE
  5
17A8
330
1F
100
AcDbEntity
  8
PIC06
  6
Continuous
 62
     7
100
AcDbLine
 10
877.4563949731073
 20
704.4179566571292
 30
0.0
 11
878.0438682541944
 21
704.4179566571292
 31
0.0
  0
ARC
  5
17A9
330
1F
100
AcDbEntity
  8
PIC06
  6
Continuous
 62
     7
100
AcDbCircle
 10
880.4835424507272
 20
701.4895187208703
 30
0.0
 40
2.08665166450203
100
AcDbArc
 50
186.6219754552618
 51
226.2284899543945
  0
ARC
  5
17AA
330
1F
100
AcDbEntity
  8
PIC06
  6
Continuous
 62
     7
100
AcDbCircle
 10
910.0101790339685
 20
704.9173459487674
 30
0.0
 40
31.81159518712521
100
AcDbArc
 50
185.674836182815
 51
186.6219789405551
  0
LINE
  5
17AB
330
1F
100
AcDbEntity
  8
PIC06
  6
Continuous
 62
     7
100
AcDbLine
 10
881.4853009947546
 20
699.5753499640405
 30
0.0
 11
881.4147889084642
 21
698.7485634554641
 31
0.0
  0
LINE
  5
17AC
330
1F
100
AcDbEntity
  8
PIC06
  6
Continuous
 62
     7
100
AcDbLine
 10
880.4835424507272
 20
691.1500017337866
 30
0.0
 11
880.1668643884358
 21
698.4335971664823
 31
0.0
  0
LINE
  5
17AD
330
1F
100
AcDbEntity
  8
PIC06
  6
Continuous
 62
     7
100
AcDbLine
 10
881.6569630545137
 20
691.1500017337866
 30
0.0
 11
881.3402849922232
 21
698.4335971664823
 31
0.0
  0
LINE
  5
17AE
330
1F
100
AcDbEntity
  8
PIC06
  6
Continuous
 62
     7
100
AcDbLine
 10
882.0207148828213
 20
691.1500017337866
 30
0.0
 11
881.697830189808
 21
698.5763496730978
 31
0.0
  0
LINE
  5
17AF
330
1F
100
AcDbEntity
  8
PIC06
  6
Continuous
 62
     7
100
AcDbLine
 10
880.4749835841786
 20
691.3468556644001
 30
0.0
 11
881.6484041879657
 21
691.3468556644001
 31
0.0
  0
LINE
  5
17B0
330
1F
100
AcDbEntity
  8
PIC06
  6
Continuous
 62
     7
100
AcDbLine
 10
884.6225318960833
 20
691.9374174562399
 30
0.0
 11
887.3599522517224
 21
691.9374174562399
 31
0.0
  0
LINE
  5
17B1
330
1F
100
AcDbEntity
  8
PIC06
  6
Continuous
 62
     7
100
AcDbLine
 10
887.4745380703689
 20
691.8479515525332
 30
0.0
 11
887.6266590491278
 21
691.2394676374933
 31
0.0
  0
LINE
  5
17B2
330
1F
100
AcDbEntity
  8
PIC06
  6
Continuous
 62
     7
100
AcDbLine
 10
884.5110505596476
 20
691.8583235656251
 30
0.0
 11
884.2908207802201
 21
691.2290956244024
 31
0.0
  0
ARC
  5
17B3
330
1F
100
AcDbEntity
  8
PIC06
  6
Continuous
 62
     7
100
AcDbCircle
 10
884.6225318960833
 20
691.8193050978725
 30
0.0
 40
0.118112358368039
100
AcDbArc
 50
90.0
 51
160.7099537808055
  0
ARC
  5
17B4
330
1F
100
AcDbEntity
  8
PIC06
  6
Continuous
 62
     7
100
AcDbCircle
 10
887.3599522517224
 20
691.8193050978725
 30
0.0
 40
0.1181123583680391
100
AcDbArc
 50
14.03624346796439
 51
90.0
  0
ARC
  5
17B5
330
1F
100
AcDbEntity
  8
PIC06
  6
Continuous
 62
     7
100
AcDbCircle
 10
887.7412448677732
 20
691.268114092155
 30
0.0
 40
0.11811235836804
100
AcDbArc
 50
194.0362434679644
 51
270.0
  0
ARC
  5
17B6
330
1F
100
AcDbEntity
  8
PIC06
  6
Continuous
 62
     7
100
AcDbCircle
 10
884.1793394437836
 20
691.268114092155
 30
0.0
 40
0.118112358368039
100
AcDbArc
 50
270.0
 51
340.7099537808055
  0
LINE
  5
17B7
330
1F
100
AcDbEntity
  8
PIC06
  6
Continuous
 62
     7
100
AcDbLine
 10
881.7167277425905
 20
698.6563874680832
 30
0.0
 11
881.7728851965611
 21
699.6422367269643
 31
0.0
  0
ARC
  5
17B8
330
1F
100
AcDbEntity
  8
PIC06
  6
Continuous
 62
     7
100
AcDbCircle
 10
881.4808853518142
 20
698.6698218832189
 30
0.0
 40
0.2362247167360781
100
AcDbArc
 50
270.0
 51
356.7397534209565
  0
ARC
  5
17B9
330
1F
100
AcDbEntity
  8
PIC06
  6
Continuous
 62
     7
100
AcDbCircle
 10
896.9125104862815
 20
697.0580998329951
 30
0.0
 40
9.055280808216332
100
AcDbArc
 50
91.36497922418953
 51
105.0938763975318
  0
ARC
  5
17BA
330
1F
100
AcDbEntity
  8
PIC06
  6
Continuous
 62
     7
100
AcDbCircle
 10
894.6570254548923
 20
705.4208525609665
 30
0.0
 40
0.393707861226797
100
AcDbArc
 50
105.0938763975318
 51
180.0
  0
LINE
  5
17BB
330
1F
100
AcDbEntity
  8
PIC06
  6
Continuous
 62
     7
100
AcDbLine
 10
894.5782838826461
 20
705.3017988775409
 30
0.0
 11
894.5782838826461
 21
705.4208525609665
 31
0.0
  0
ARC
  5
17BC
330
1F
100
AcDbEntity
  8
PIC06
  6
Continuous
 62
     7
100
AcDbCircle
 10
894.6570254548923
 20
705.4208525609665
 30
0.0
 40
0.0787415722453595
100
AcDbArc
 50
105.0938763975318
 51
180.0
  0
ARC
  5
17BD
330
1F
100
AcDbEntity
  8
PIC06
  6
Continuous
 62
     7
100
AcDbCircle
 10
896.9125104862815
 20
697.0580998329951
 30
0.0
 40
8.740314519234891
100
AcDbArc
 50
91.36497922418953
 51
105.0938763975318
  0
LINE
  5
17BE
330
1F
100
AcDbEntity
  8
PIC06
  6
Continuous
 62
     7
100
AcDbLine
 10
878.5810835568108
 20
704.6478507938518
 30
0.0
 11
878.5810835568108
 21
704.9999938102437
 31
0.0
  0
LINE
  5
17BF
330
1F
100
AcDbEntity
  8
PIC06
  6
Continuous
 62
     7
100
AcDbLine
 10
878.7385667013014
 20
704.7265923660971
 30
0.0
 11
878.7385667013014
 21
705.0787353824889
 31
0.0
  0
CIRCLE
  5
17C0
330
1F
100
AcDbEntity
  8
PIC06
  6
Continuous
 62
     7
100
AcDbCircle
 10
875.9559020466195
 20
723.0348902560199
 30
0.0
 40
0.6889887571468942
  0
LINE
  5
17C1
330
1F
100
AcDbEntity
  8
PIC06
  6
Continuous
 62
     7
100
AcDbLine
 10
874.9361616604911
 20
704.732922946111
 30
0.0
 11
877.9252536908188
 21
704.732922946111
 31
0.0
  0
LINE
  5
17C2
330
1F
100
AcDbEntity
  8
PIC06
  6
Continuous
 62
     7
100
AcDbLine
 10
877.4323065262196
 20
704.732922946111
 30
0.0
 11
878.0213824665644
 21
704.7078558848197
 31
0.0
  0
LINE
  5
17C3
330
1F
100
AcDbEntity
  8
PIC06
  6
Continuous
 62
     7
100
AcDbLine
 10
872.8062391568046
 20
704.9297768767246
 30
0.0
 11
874.7576796590211
 21
704.8467368553538
 31
0.0
  0
LINE
  5
17C4
330
1F
100
AcDbEntity
  8
PIC06
  6
Continuous
 62
     7
100
AcDbLine
 10
872.9243515151729
 20
705.7171925991779
 30
0.0
 11
874.416544488713
 21
705.7171925991779
 31
0.0
  0
LINE
  5
17C5
330
1F
100
AcDbEntity
  8
PIC06
  6
Continuous
 62
     7
100
AcDbLine
 10
875.0329906328397
 20
705.047889235093
 30
0.0
 11
877.9252536908188
 21
705.047889235093
 31
0.0
  0
ARC
  5
17C6
330
1F
100
AcDbEntity
  8
PIC06
  6
Continuous
 62
     7
100
AcDbCircle
 10
877.9252536908188
 20
704.5360690154975
 30
0.0
 40
0.5118202195948363
100
AcDbArc
 50
37.85288364737827
 51
90.0
  0
LINE
  5
17C7
330
1F
100
AcDbEntity
  8
PIC06
  6
Continuous
 62
     7
100
AcDbLine
 10
874.847829842035
 20
705.795934171424
 30
0.0
 11
878.9874525780652
 21
705.795934171424
 31
0.0
  0
ARC
  5
17C8
330
1F
100
AcDbEntity
  8
PIC06
  6
Continuous
 62
     7
100
AcDbCircle
 10
878.6339050092692
 20
704.5422078889351
 30
0.0
 40
0.4330786473494725
100
AcDbArc
 50
116.565051177076
 51
134.681110060718
  0
LINE
  5
17C9
330
1F
100
AcDbEntity
  8
PIC06
  6
Continuous
 62
     7
100
AcDbLine
 10
876.6448899777342
 20
704.732922946111
 30
0.0
 11
876.6448899777342
 21
705.047889235093
 31
0.0
  0
LINE
  5
17CA
330
1F
100
AcDbEntity
  8
PIC06
  6
Continuous
 62
     7
100
AcDbLine
 10
876.6448899777342
 20
705.795934171424
 30
0.0
 11
876.6448899777342
 21
706.1109004604049
 31
0.0
  0
LINE
  5
17CB
330
1F
100
AcDbEntity
  8
PIC06
  6
Continuous
 62
     7
100
AcDbLine
 10
875.2669124634403
 20
704.732922946111
 30
0.0
 11
875.2669124634403
 21
705.047889235093
 31
0.0
  0
LINE
  5
17CC
330
1F
100
AcDbEntity
  8
PIC06
  6
Continuous
 62
     7
100
AcDbLine
 10
875.2669124634403
 20
705.795934171424
 30
0.0
 11
875.2669124634403
 21
706.1109004604049
 31
0.0
  0
LINE
  5
17CD
330
1F
100
AcDbEntity
  8
PIC06
  6
Continuous
 62
     7
100
AcDbLine
 10
878.4537933018127
 20
704.9832972055674
 30
0.0
 11
878.4537933018127
 21
705.7534366759628
 31
0.0
  0
LINE
  5
17CE
330
1F
100
AcDbEntity
  8
PIC06
  6
CENTER
 62
     7
100
AcDbLine
 10
871.855217440553
 20
723.0348902560199
 30
0.0
 11
897.487131120245
 21
723.0348902560199
 31
0.0
  0
LINE
  5
17CF
330
1F
100
AcDbEntity
  8
PIC06
  6
CENTER
 62
     7
100
AcDbLine
 10
889.932531120171
 20
721.7750251000943
 30
0.0
 11
889.932531120171
 21
724.2947554119455
 31
0.0
  0
LINE
  5
17D0
330
1F
100
AcDbEntity
  8
PIC06
  6
CENTER
 62
     7
100
AcDbLine
 10
880.4835424507272
 20
721.4812557112582
 30
0.0
 11
880.4835424507272
 21
724.6656515931745
 31
0.0
  0
CIRCLE
  5
17D1
330
1F
100
AcDbEntity
  8
PIC06
  6
DASHED
 62
     7
100
AcDbCircle
 10
885.995452507902
 20
726.7751149376745
 30
0.0
 40
0.2165393236747384
  0
LINE
  5
17D2
330
1F
100
AcDbEntity
  8
PIC06
  6
CENTER
 62
     7
100
AcDbLine
 10
886.5203071739969
 20
719.2946655743654
 30
0.0
 11
885.5536154811652
 21
719.2946655743654
 31
0.0
  0
LINE
  5
17D3
330
1F
100
AcDbEntity
  8
PIC06
  6
CENTER
 62
     7
100
AcDbLine
 10
886.406579092929
 20
726.7751149376745
 30
0.0
 11
885.5536154811652
 21
726.7751149376745
 31
0.0
  0
ARC
  5
17D4
330
1F
100
AcDbEntity
  8
PIC06
  6
DASHED
 62
     7
100
AcDbCircle
 10
890.5230929120106
 20
723.0348902560199
 30
0.0
 40
3.346516820427774
100
AcDbArc
 50
0.0
 51
56.84659158430334
  0
LINE
  5
17D5
330
1F
100
AcDbEntity
  8
PIC06
  6
DASHED
 62
     7
100
AcDbLine
 10
880.7985087397092
 20
727.7593845907412
 30
0.0
 11
885.8938853222753
 21
727.7593845907412
 31
0.0
  0
ARC
  5
17D6
330
1F
100
AcDbEntity
  8
PIC06
  6
DASHED
 62
     7
100
AcDbCircle
 10
885.8938853222753
 20
715.9481487539379
 30
0.0
 40
11.81123583680391
100
AcDbArc
 50
56.84659158430334
 51
90.0
  0
LINE
  5
17D7
330
1F
100
AcDbEntity
  8
PIC06
  6
DASHED
 62
     7
100
AcDbLine
 10
880.7985087397092
 20
726.7751149376745
 30
0.0
 11
881.6157422936877
 21
726.7751149376745
 31
0.0
  0
LINE
  5
17D8
330
1F
100
AcDbEntity
  8
PIC06
  6
DASHED
 62
     7
100
AcDbLine
 10
882.1072976363549
 20
726.3814070764474
 30
0.0
 11
884.236939697077
 21
726.3814070764474
 31
0.0
  0
LINE
  5
17D9
330
1F
100
AcDbEntity
  8
PIC06
  6
DASHED
 62
     7
100
AcDbLine
 10
880.4835424507272
 20
727.4444183017603
 30
0.0
 11
880.4835424507272
 21
727.0900812266554
 31
0.0
  0
LINE
  5
17DA
330
1F
100
AcDbEntity
  8
PIC06
  6
DASHED
 62
     7
100
AcDbLine
 10
881.6992603432309
 20
726.7405206288503
 30
0.0
 11
882.0237795868097
 21
726.4160013852724
 31
0.0
  0
ARC
  5
17DB
330
1F
100
AcDbEntity
  8
PIC06
  6
DASHED
 62
     7
100
AcDbCircle
 10
885.8938853222753
 20
715.9481487539379
 30
0.0
 40
11.41752797557711
100
AcDbArc
 50
56.84659158430334
 51
72.63274205575129
  0
ARC
  5
17DC
330
1F
100
AcDbEntity
  8
PIC06
  6
DASHED
 62
     7
100
AcDbCircle
 10
885.995452507902
 20
727.7200138046183
 30
0.0
 40
2.165393236747384
100
AcDbArc
 50
219.6377143906694
 51
309.1129761510502
  0
ARC
  5
17DD
330
1F
100
AcDbEntity
  8
PIC06
  6
DASHED
 62
     7
100
AcDbCircle
 10
887.4360055464821
 20
725.94823369807
 30
0.0
 40
0.118112358368039
100
AcDbArc
 50
81.2334341364173
 51
129.1129761510502
  0
ARC
  5
17DE
330
1F
100
AcDbEntity
  8
PIC06
  6
DASHED
 62
     7
100
AcDbCircle
 10
884.236939697077
 20
726.2632947180791
 30
0.0
 40
0.1181123583680391
100
AcDbArc
 50
39.63771439066936
 51
90.0
  0
ARC
  5
17DF
330
1F
100
AcDbEntity
  8
PIC06
  6
DASHED
 62
     7
100
AcDbCircle
 10
880.7985087397092
 20
727.0900812266554
 30
0.0
 40
0.3149662889814377
100
AcDbArc
 50
180.0
 51
270.0
  0
ARC
  5
17E0
330
1F
100
AcDbEntity
  8
PIC06
  6
DASHED
 62
     7
100
AcDbCircle
 10
880.7985087397092
 20
727.4444183017603
 30
0.0
 40
0.3149662889814377
100
AcDbArc
 50
90.0
 51
180.0
  0
ARC
  5
17E1
330
1F
100
AcDbEntity
  8
PIC06
  6
DASHED
 62
     7
100
AcDbCircle
 10
881.6157422936877
 20
726.6570025793062
 30
0.0
 40
0.1181123583680391
100
AcDbArc
 50
45.0
 51
90.0
  0
ARC
  5
17E2
330
1F
100
AcDbEntity
  8
PIC06
  6
DASHED
 62
     7
100
AcDbCircle
 10
882.1072976363549
 20
726.4995194348157
 30
0.0
 40
0.1181123583680401
100
AcDbArc
 50
225.0
 51
270.0
  0
LINE
  5
17E3
330
1F
100
AcDbEntity
  8
PIC06
  6
CENTER
 62
     7
100
AcDbLine
 10
885.995452507902
 20
718.876872442037
 30
0.0
 11
885.995452507902
 21
727.2472880446803
 31
0.0
  0
LINE
  5
17E4
330
1F
100
AcDbEntity
  8
PIC06
  6
CENTER
 62
     7
100
AcDbLine
 10
889.932531120171
 20
700.2153018591871
 30
0.0
 11
889.932531120171
 21
701.3445992961996
 31
0.0
  0
LINE
  5
17E5
330
1F
100
AcDbEntity
  8
PIC06
  6
CENTER
 62
     7
100
AcDbLine
 10
880.4835424507272
 20
698.0824338563788
 30
0.0
 11
880.4835424507272
 21
700.6880677943154
 31
0.0
  0
LINE
  5
17E6
330
1F
100
AcDbEntity
  8
PIC06
  6
CENTER
 62
     7
100
AcDbLine
 10
885.995452507902
 20
690.8193522517121
 30
0.0
 11
885.995452507902
 21
700.3775601348989
 31
0.0
  0
LINE
  5
17E7
330
1F
100
AcDbEntity
  8
PIC06
  6
DASHED
 62
     7
100
AcDbLine
 10
884.5387334213638
 20
692.331125317467
 30
0.0
 11
887.4521715944419
 21
692.331125317467
 31
0.0
  0
ARC
  5
17E8
330
1F
100
AcDbEntity
  8
PIC06
  6
DASHED
 62
     7
100
AcDbCircle
 10
885.995452507902
 20
695.0870803460547
 30
0.0
 40
0.984269653066992
100
AcDbArc
 50
34.32839648443664
 51
145.6716035155633
  0
ARC
  5
17E9
330
1F
100
AcDbEntity
  8
PIC06
  6
DASHED
 62
     7
100
AcDbCircle
 10
884.5387334213638
 20
692.6460916064488
 30
0.0
 40
0.3149662889814382
100
AcDbArc
 50
178.7617194708927
 51
270.0
  0
ARC
  5
17EA
330
1F
100
AcDbEntity
  8
PIC06
  6
DASHED
 62
     7
100
AcDbCircle
 10
887.4521715944419
 20
692.6460916064488
 30
0.0
 40
0.3149662889814377
100
AcDbArc
 50
270.0
 51
1.238280529107268
  0
ARC
  5
17EB
330
1F
100
AcDbEntity
  8
PIC06
  6
DASHED
 62
     7
100
AcDbCircle
 10
889.7344635382133
 20
692.5337836253175
 30
0.0
 40
5.511910057175152
100
AcDbArc
 50
145.6716035155633
 51
178.7617194708927
  0
ARC
  5
17EC
330
1F
100
AcDbEntity
  8
PIC06
  6
DASHED
 62
     7
100
AcDbCircle
 10
882.2564414775916
 20
692.5337836253175
 30
0.0
 40
5.511910057175152
100
AcDbArc
 50
1.238280529107268
 51
34.32839648443664
  0
LINE
  5
17ED
330
1F
100
AcDbEntity
  8
PIC06
  6
DASHED
 62
     7
100
AcDbLine
 10
886.2119918315775
 20
691.9374174562399
 30
0.0
 11
886.2119918315775
 21
692.331125317467
 31
0.0
  0
LINE
  5
17EE
330
1F
100
AcDbEntity
  8
PIC06
  6
DASHED
 62
     7
100
AcDbLine
 10
885.7789131842283
 20
691.9374174562399
 30
0.0
 11
885.7789131842283
 21
692.331125317467
 31
0.0
  0
LINE
  5
17EF
330
1F
100
AcDbEntity
  8
PIC06
  6
CENTER
 62
     7
100
AcDbLine
 10
873.6723964515039
 20
722.3597594898564
 30
0.0
 11
873.6723964515039
 21
723.6499457260615
 31
0.0
  0
LINE
  5
17F0
330
1F
100
AcDbEntity
  8
PIC06
  6
CENTER
 62
     7
100
AcDbLine
 10
875.9559020466195
 20
721.9702858590999
 30
0.0
 11
875.9559020466195
 21
724.0970099863334
 31
0.0
  0
LINE
  5
17F1
330
1F
100
AcDbEntity
  8
PIC06
  6
CENTER
 62
     7
100
AcDbLine
 10
875.9001796010352
 20
726.5388902209387
 30
0.0
 11
877.5357541325885
 21
726.5388902209387
 31
0.0
  0
LINE
  5
17F2
330
1F
100
AcDbEntity
  8
PIC06
  6
CENTER
 62
     7
100
AcDbLine
 10
876.7039469829496
 20
725.7813563081063
 30
0.0
 11
876.7039469829496
 21
727.329232677901
 31
0.0
  0
LINE
  5
17F3
330
1F
100
AcDbEntity
  8
PIC06
  6
CENTER
 62
     7
100
AcDbLine
 10
876.7039469829496
 20
726.0760718977863
 30
0.0
 11
876.7039469829496
 21
718.7066532457074
 31
0.0
  0
LINE
  5
17F4
330
1F
100
AcDbEntity
  8
PIC06
  6
CENTER
 62
     7
100
AcDbLine
 10
875.9001796010352
 20
719.5308902911019
 30
0.0
 11
877.5357541325885
 21
719.5308902911019
 31
0.0
  0
LINE
  5
17F5
330
1F
100
AcDbEntity
  8
PIC06
  6
CENTER
 62
     7
100
AcDbLine
 10
875.9559012205873
 20
704.442493852197
 30
0.0
 11
875.9559012205873
 21
706.4294175510458
 31
0.0
  0
LINE
  5
17F6
330
1F
100
AcDbEntity
  8
PIC06
  6
CENTER
 62
     7
100
AcDbLine
 10
873.6723956254719
 20
705.5665943841895
 30
0.0
 11
873.6723956254719
 21
706.4415699831406
 31
0.0
  0
ARC
  5
17F7
330
1F
100
AcDbEntity
  8
PIC06
  6
Continuous
 62
     7
100
AcDbCircle
 10
910.0101790339685
 20
704.9173459487674
 30
0.0
 40
32.67775248182417
100
AcDbArc
 50
181.0866938187498
 51
186.6219789405551
  0
ARC
  5
17F8
330
1F
100
AcDbEntity
  8
PIC06
  6
Continuous
 62
     7
100
AcDbCircle
 10
880.4835424507272
 20
701.4895187208703
 30
0.0
 40
2.952808959200988
100
AcDbArc
 50
186.6219754552618
 51
241.7778831991874
  0
ARC
  5
17F9
330
1F
100
AcDbEntity
  8
PIC06
  6
Continuous
 62
     7
100
AcDbCircle
 10
879.4861995496402
 20
698.6698218832189
 30
0.0
 40
0.2362247167360781
100
AcDbArc
 50
186.2083865517578
 51
270.0
  0
ARC
  5
17FA
330
1F
100
AcDbEntity
  8
PIC06
  6
Continuous
 62
     7
100
AcDbCircle
 10
878.9382411991718
 20
698.6102134028169
 30
0.0
 40
0.3149662889814364
100
AcDbArc
 50
6.208386551757785
 51
61.77788319918739
  0
ARC
  5
17FB
330
1F
100
AcDbEntity
  8
PIC06
  6
Continuous
 62
     7
100
AcDbCircle
 10
910.0101790339685
 20
704.9173459487674
 30
0.0
 40
31.81159518712521
100
AcDbArc
 50
181.4022243677107
 51
186.6219789405551
  0
LINE
  5
17FC
330
1F
100
AcDbEntity
  8
PIC06
  6
Continuous
 62
     7
100
AcDbLine
 10
877.6576404140714
 20
704.1029903681483
 30
0.0
 11
878.0438682541944
 21
704.1029903681483
 31
0.0
  0
ARC
  5
17FD
330
1F
100
AcDbEntity
  8
PIC06
  6
Continuous
 62
     7
100
AcDbCircle
 10
910.0101790339685
 20
704.9173459487674
 30
0.0
 40
32.3627861928427
100
AcDbArc
 50
181.441905000366
 51
186.6219789405551
  0
ARC
  5
17FE
330
1F
100
AcDbEntity
  8
PIC06
  6
Continuous
 62
     7
100
AcDbCircle
 10
880.4835424507272
 20
701.4895187208703
 30
0.0
 40
2.637842670219546
100
AcDbArc
 50
186.6219754552618
 51
241.7778831991874
  0
ARC
  5
17FF
330
1F
100
AcDbEntity
  8
PIC06
  6
Continuous
 62
     7
100
AcDbCircle
 10
878.9382411991718
 20
698.6102134028169
 30
0.0
 40
0.6299325779628743
100
AcDbArc
 50
12.68711190961675
 51
61.77788319918739
  0
LINE
  5
1800
330
1F
100
AcDbEntity
  8
PIC06
  6
Continuous
 62
     7
100
AcDbLine
 10
878.2332008188314
 20
703.4336870040625
 30
0.0
 11
878.5485136603247
 21
703.4336870040625
 31
0.0
  0
LINE
  5
1801
330
1F
100
AcDbEntity
  8
PIC06
  6
Continuous
 62
     7
100
AcDbLine
 10
878.2134320644763
 20
703.9455072236578
 30
0.0
 11
878.5285469060154
 21
703.9455072236578
 31
0.0
  0
ARC
  5
1802
330
1F
100
AcDbEntity
  8
PIC06
  6
Continuous
 62
     7
100
AcDbCircle
 10
877.4563949731073
 20
704.2998442987618
 30
0.0
 40
0.1181123583680391
100
AcDbArc
 50
90.0
 51
181.0866938187498
  0
ARC
  5
1803
330
1F
100
AcDbEntity
  8
PIC06
  6
Continuous
 62
     7
100
AcDbCircle
 10
910.0101790339685
 20
704.9173459487674
 30
0.0
 40
31.89033675937055
100
AcDbArc
 50
180.6808347113727
 51
180.7539170894472
  0
ARC
  5
1804
330
1F
100
AcDbEntity
  8
PIC06
  6
Continuous
 62
     7
100
AcDbCircle
 10
878.0438682541944
 20
704.4966982293754
 30
0.0
 40
0.0787415722453595
100
AcDbArc
 50
270.0
 51
0.7539170894472488
  0
ARC
  5
1805
330
1F
100
AcDbEntity
  8
PIC06
  6
Continuous
 62
     7
100
AcDbCircle
 10
878.0438682541944
 20
704.4966982293754
 30
0.0
 40
0.393707861226797
100
AcDbArc
 50
270.0
 51
294.6558490153989
  0
CIRCLE
  5
1806
330
1F
100
AcDbEntity
  8
PIC06
  6
Continuous
 62
     7
100
AcDbCircle
 10
880.4835424507272
 20
723.0348902560199
 30
0.0
 40
0.8464719016376136
  0
LINE
  5
1807
330
1F
100
AcDbEntity
  8
PIC06
  6
Continuous
 62
     7
100
AcDbLine
 10
881.3300143523647
 20
699.5753499640405
 30
0.0
 11
881.3300143523647
 21
699.8115746807761
 31
0.0
  0
LINE
  5
1808
330
1F
100
AcDbEntity
  8
PIC06
  6
Continuous
 62
     7
100
AcDbLine
 10
879.6370705490899
 20
699.5753499640405
 30
0.0
 11
879.6370705490899
 21
699.8115746807761
 31
0.0
  0
LINE
  5
1809
330
1F
100
AcDbEntity
  8
PIC06
  6
Continuous
 62
     7
100
AcDbLine
 10
881.3300143523647
 20
699.8115746807761
 30
0.0
 11
881.5451668749938
 21
700.0380515205624
 31
0.0
  0
ARC
  5
180A
330
1F
100
AcDbEntity
  8
PIC06
  6
Continuous
 62
     7
100
AcDbCircle
 10
881.9733242881447
 20
699.6313028763779
 30
0.0
 40
0.5905617918401959
100
AcDbArc
 50
93.83282394304364
 51
136.4688639004088
  0
ARC
  5
180B
330
1F
100
AcDbEntity
  8
PIC06
  6
Continuous
 62
     7
100
AcDbCircle
 10
881.9694205222075
 20
699.6310413810188
 30
0.0
 40
0.1968539306133982
100
AcDbArc
 50
93.83168858312215
 51
176.7397534209565
  0
LINE
  5
180C
330
1F
100
AcDbEntity
  8
PIC06
  6
Continuous
 62
     7
100
AcDbLine
 10
879.6370705490899
 20
699.8115746807761
 30
0.0
 11
879.263049657894
 21
700.2052825420032
 31
0.0
  0
LINE
  5
180D
330
1F
100
AcDbEntity
  8
PIC06
  6
Continuous
 62
     7
100
AcDbLine
 10
879.4270473526484
 20
699.5753499640405
 30
0.0
 11
879.0400298030546
 21
699.9827385759999
 31
0.0
  0
LINE
  5
180E
330
1F
100
AcDbEntity
  8
PIC06
  6
Continuous
 62
     7
100
AcDbLine
 10
881.3300143523647
 20
698.4335971664823
 30
0.0
 11
881.3300143523647
 21
698.7485634554641
 31
0.0
  0
LINE
  5
180F
330
1F
100
AcDbEntity
  8
PIC06
  6
Continuous
 62
     7
100
AcDbLine
 10
879.6370705490899
 20
698.4335971664823
 30
0.0
 11
879.6370705490899
 21
698.7485634554641
 31
0.0
  0
CIRCLE
  5
1810
330
1F
100
AcDbEntity
  8
PIC06
  6
Continuous
 62
     7
100
AcDbCircle
 10
876.7039469829496
 20
726.5388902209387
 30
0.0
 40
0.6889887571468942
  0
CIRCLE
  5
1811
330
1F
100
AcDbEntity
  8
PIC06
  6
Continuous
 62
     7
100
AcDbCircle
 10
876.7039469829496
 20
719.5308902911019
 30
0.0
 40
0.6889887571468942
  0
LINE
  5
1812
330
1F
100
AcDbEntity
  8
PIC06
  6
CENTER
 62
     7
100
AcDbLine
 10
876.7039461569174
 20
705.5667172752182
 30
0.0
 11
876.7039461569174
 21
706.2878518923517
 31
0.0
  0
LINE
  5
1813
330
1F
100
AcDbEntity
  8
PIC06
  6
Continuous
 62
     7
100
AcDbLine
 10
874.7431305001974
 20
704.891170644666
 30
0.0
 11
874.6095756490058
 21
705.5589449006238
 31
0.0
  0
ARC
  5
1814
330
1F
100
AcDbEntity
  8
PIC06
  6
Continuous
 62
     7
100
AcDbCircle
 10
874.9361616604911
 20
704.9297768767246
 30
0.0
 40
0.1968539306134005
100
AcDbArc
 50
191.3099324740866
 51
270.0
  0
ARC
  5
1815
330
1F
100
AcDbEntity
  8
PIC06
  6
Continuous
 62
     7
100
AcDbCircle
 10
874.416544488713
 20
705.5203386685644
 30
0.0
 40
0.1968539306134005
100
AcDbArc
 50
11.30993247408664
 51
90.0
  0
LINE
  5
1816
330
1F
100
AcDbEntity
  8
PIC06
  6
Continuous
 62
     7
100
AcDbLine
 10
875.0329906328397
 20
705.047889235093
 30
0.0
 11
874.918425505476
 21
705.6207148719177
 31
0.0
  0
ARC
  5
1817
330
1F
100
AcDbEntity
  8
PIC06
  6
Continuous
 62
     7
100
AcDbCircle
 10
874.416544488713
 20
705.5203386685644
 30
0.0
 40
0.5118202195948366
100
AcDbArc
 50
11.30993247408664
 51
32.57897039275233
  0
LINE
  5
1818
330
1F
100
AcDbEntity
  8
PIC06
  6
DASHED
 62
     7
100
AcDbLine
 10
887.6490255250546
 20
726.0329619769491
 30
0.0
 11
887.6490255250546
 21
726.4323640027096
 31
0.0
  0
LINE
  5
1819
330
1F
100
AcDbEntity
  8
PIC06
  6
DASHED
 62
     7
100
AcDbLine
 10
887.599812042402
 20
726.4404840773805
 30
0.0
 11
887.599812042402
 21
727.2375136208665
 31
0.0
  0
LINE
  5
181A
330
1F
100
AcDbEntity
  8
PIC06
  6
DASHED
 62
     7
100
AcDbLine
 10
881.6157422936877
 20
726.7751149376745
 30
0.0
 11
884.3320367942187
 21
726.7751149376745
 31
0.0
  0
LINE
  5
181B
330
1F
100
AcDbEntity
  8
PIC06
  6
DASHED
 62
     7
100
AcDbLine
 10
884.263137918505
 20
726.3814070764474
 30
0.0
 11
884.263137918505
 21
726.7751149376745
 31
0.0
  0
LINE
  5
181C
330
1F
100
AcDbEntity
  8
PIC06
  6
DASHED
 62
     7
100
AcDbLine
 10
884.3320367942187
 20
726.7751149376745
 30
0.0
 11
884.3320367942187
 21
727.3656767295151
 31
0.0
  0
LINE
  5
181D
330
1F
100
AcDbEntity
  8
PIC06
  6
DASHED
 62
     7
100
AcDbLine
 10
880.4835424507272
 20
727.3656767295151
 30
0.0
 11
885.8938853222753
 21
727.3656767295151
 31
0.0
  0
ARC
  5
181E
330
1F
100
AcDbEntity
  8
PIC06
  6
DASHED
 62
     7
100
AcDbCircle
 10
885.8938853222753
 20
715.9481487539379
 30
0.0
 40
11.41752797557711
100
AcDbArc
 50
72.63274205575129
 51
90.0
  0
LINE
  5
181F
330
1F
100
AcDbEntity
  8
PIC06
  6
DASHED
 62
     7
100
AcDbLine
 10
884.4895199387101
 20
726.1640269901509
 30
0.0
 11
884.4895199387101
 21
726.7084499255333
 31
0.0
  0
LINE
  5
1820
330
1F
100
AcDbEntity
  8
PIC06
  6
DASHED
 62
     7
100
AcDbLine
 10
884.5387334213638
 20
726.6766716467627
 30
0.0
 11
884.5387334213638
 21
727.3656767295151
 31
0.0
  0
ARC
  5
1821
330
1F
100
AcDbEntity
  8
PIC06
  6
DASHED
 62
     7
100
AcDbCircle
 10
885.995452507902
 20
727.7200138046183
 30
0.0
 40
1.771685375520587
100
AcDbArc
 50
219.6377143906694
 51
309.1129761510502
  0
ARC
  5
1822
330
1F
100
AcDbEntity
  8
PIC06
  6
DASHED
 62
     7
100
AcDbCircle
 10
884.236939697077
 20
726.2632947180791
 30
0.0
 40
0.5118202195948357
100
AcDbArc
 50
39.63771439066936
 51
60.42950366531395
  0
ARC
  5
1823
330
1F
100
AcDbEntity
  8
PIC06
  6
DASHED
 62
     7
100
AcDbCircle
 10
887.4360055464821
 20
725.94823369807
 30
0.0
 40
0.5118202195948357
100
AcDbArc
 50
82.66102836299728
 51
129.1129761510502
  0
LINE
  5
1824
330
1F
100
AcDbEntity
  8
PIC06
  6
DASHED
 62
     7
100
AcDbLine
 10
887.4521715944419
 20
726.4597985483869
 30
0.0
 11
887.4521715944419
 21
727.2588379003628
 31
0.0
  0
LINE
  5
1825
330
1F
100
AcDbEntity
  8
PIC06
  6
DASHED
 62
     7
100
AcDbLine
 10
887.5013850770947
 20
726.0575463330569
 30
0.0
 11
887.5013850770947
 21
726.455860976851
 31
0.0
  0
ARC
  5
1826
330
1F
100
AcDbEntity
  8
PIC06
  6
DASHED
 62
     7
100
AcDbCircle
 10
885.8938853222753
 20
715.9481487539379
 30
0.0
 40
10.23640439189672
100
AcDbArc
 50
76.32636306114427
 51
81.2334341364173
  0
ARC
  5
1827
330
1F
100
AcDbEntity
  8
PIC06
  6
DASHED
 62
     7
100
AcDbCircle
 10
885.8938853222753
 20
715.9481487539379
 30
0.0
 40
10.63011225312352
100
AcDbArc
 50
74.6906259078981
 51
80.76520733976581
  0
ARC
  5
1828
330
1F
100
AcDbEntity
  8
PIC06
  6
DASHED
 62
     7
100
AcDbCircle
 10
885.8938853222753
 20
715.9481487539379
 30
0.0
 40
10.63011225312352
100
AcDbArc
 50
60.9667267906651
 51
74.6906259078981
  0
ARC
  5
1829
330
1F
100
AcDbEntity
  8
PIC06
  6
DASHED
 62
     7
100
AcDbCircle
 10
885.8938853222753
 20
715.9481487539379
 30
0.0
 40
10.23640439189672
100
AcDbArc
 50
72.63274205575129
 51
76.32636306114427
  0
ARC
  5
182A
330
1F
100
AcDbEntity
  8
PIC06
  6
DASHED
 62
     7
100
AcDbCircle
 10
885.8938853222753
 20
715.9481487539379
 30
0.0
 40
10.23640439189671
100
AcDbArc
 50
56.84659115111075
 51
72.63274205575129
  0
LINE
  5
182B
330
1F
100
AcDbEntity
  8
PIC06
  6
DASHED
 62
     7
100
AcDbLine
 10
891.1136547038504
 20
724.9586488926125
 30
0.0
 11
891.1136547038504
 21
725.1391899030623
 31
0.0
  0
ARC
  5
182C
330
1F
100
AcDbEntity
  8
PIC06
  6
DASHED
 62
     7
100
AcDbCircle
 10
890.9955423454821
 20
724.9586488926125
 30
0.0
 40
0.1181123583680391
100
AcDbArc
 50
240.4818853202923
 51
0.0
  0
ARC
  5
182D
330
1F
100
AcDbEntity
  8
PIC06
  6
DASHED
 62
     7
100
AcDbCircle
 10
890.9955423454821
 20
725.1391899030623
 30
0.0
 40
0.1181123583680391
100
AcDbArc
 50
0.0
 51
60.9667267906651
  0
ARC
  5
182E
330
1F
100
AcDbEntity
  8
PIC06
  6
DASHED
 62
     7
100
AcDbCircle
 10
890.5230929120106
 20
723.0348902560199
 30
0.0
 40
1.771685375520586
100
AcDbArc
 50
0.0
 51
56.84659158430334
  0
ARC
  5
182F
330
1F
100
AcDbEntity
  8
PIC06
  6
DASHED
 62
     7
100
AcDbCircle
 10
890.5230929120106
 20
723.0348902560199
 30
0.0
 40
2.952808959200976
100
AcDbArc
 50
0.0
 51
56.84659158430334
  0
LINE
  5
1830
330
1F
100
AcDbEntity
  8
PIC06
  6
Continuous
 62
     7
100
AcDbLine
 10
892.1000358548454
 20
692.7111629993714
 30
0.0
 11
891.1266932284597
 21
700.5140033923944
 31
0.0
  0
LINE
  5
1831
330
1F
100
AcDbEntity
  8
PIC06
  6
Continuous
 62
     7
100
AcDbLine
 10
892.4125798462073
 20
692.750150390384
 30
0.0
 11
891.4392372198227
 21
700.552990783407
 31
0.0
  0
ARC
  5
1832
330
1F
100
AcDbEntity
  8
PIC06
  6
Continuous
 62
     7
100
AcDbCircle
 10
896.2318574374085
 20
699.4572340011691
 30
0.0
 40
4.252044901249405
100
AcDbArc
 50
180.0
 51
193.9437426754156
  0
ARC
  5
1833
330
1F
100
AcDbEntity
  8
PIC06
  6
Continuous
 62
     7
100
AcDbCircle
 10
815.9895139315967
 20
679.5342418480632
 30
0.0
 40
78.42660595637795
100
AcDbArc
 50
8.894795226780312
 51
13.94373881164449
  0
ARC
  5
1834
330
1F
100
AcDbEntity
  8
PIC06
  6
Continuous
 62
     7
100
AcDbCircle
 10
893.6627558116569
 20
692.9060999544362
 30
0.0
 40
1.259865155926072
100
AcDbArc
 50
187.1104661301921
 51
261.3353011622324
  0
LINE
  5
1835
330
1F
100
AcDbEntity
  8
PIC06
  6
Continuous
 62
     7
100
AcDbLine
 10
891.11365524146
 20
691.3468520598971
 30
0.0
 11
893.4417578857747
 21
691.3468520598971
 31
0.0
  0
ARC
  5
1836
330
1F
100
AcDbEntity
  8
PIC06
  6
Continuous
 62
     7
100
AcDbCircle
 10
893.6627558116569
 20
692.9060999544362
 30
0.0
 40
1.574831444907188
100
AcDbArc
 50
187.1104661301921
 51
261.9329904155082
  0
ARC
  5
1837
330
1F
100
AcDbEntity
  8
PIC06
  6
Continuous
 62
     7
100
AcDbCircle
 10
815.9895139315967
 20
679.5342418480632
 30
0.0
 40
78.34786438413264
100
AcDbArc
 50
8.526031918718311
 51
8.671627782295781
  0
LINE
  5
1838
330
1F
100
AcDbEntity
  8
PIC06
  6
Continuous
 62
     7
100
AcDbLine
 10
891.11365524146
 20
691.1499981292836
 30
0.0
 11
891.11365524146
 21
691.3468520598971
 31
0.0
  0
ARC
  5
1839
330
1F
100
AcDbEntity
  8
PIC06
  6
Continuous
 62
     7
100
AcDbCircle
 10
789.0254328501833
 20
691.7264782560559
 30
0.0
 40
98.42696530669931
100
AcDbArc
 50
0.1227887967615213
 51
4.316372270396775
  0
ARC
  5
183A
330
1F
100
AcDbEntity
  8
PIC06
  6
Continuous
 62
     7
100
AcDbCircle
 10
885.9954530455116
 20
699.0455571418261
 30
0.0
 40
1.181123583680396
100
AcDbArc
 50
4.316372270396775
 51
70.2430144271965
  0
ARC
  5
183B
330
1F
100
AcDbEntity
  8
PIC06
  6
Continuous
 62
     7
100
AcDbCircle
 10
885.9954530455116
 20
699.0455571418261
 30
0.0
 40
1.181123583680396
100
AcDbArc
 50
119.2630855368207
 51
175.6836277296032
  0
ARC
  5
183C
330
1F
100
AcDbEntity
  8
PIC06
  6
Continuous
 62
     7
100
AcDbCircle
 10
871.3179220194815
 20
896.8803439662551
 30
0.0
 40
197.2476384746253
100
AcDbArc
 50
275.6736400234387
 51
275.7260389053548
  0
ARC
  5
183D
330
1F
100
AcDbEntity
  8
PIC06
  6
Continuous
 62
     7
100
AcDbCircle
 10
891.0094892316992
 20
700.4993831207648
 30
0.0
 40
0.1181123583680391
100
AcDbArc
 50
7.110466130192164
 51
95.72603890535486
  0
ARC
  5
183E
330
1F
100
AcDbEntity
  8
PIC06
  6
Continuous
 62
     7
100
AcDbCircle
 10
890.8315648223734
 20
700.4816236383649
 30
0.0
 40
0.11811235836804
100
AcDbArc
 50
95.67413032906593
 51
160.9119531381474
  0
ARC
  5
183F
330
1F
100
AcDbEntity
  8
PIC06
  6
Continuous
 62
     7
100
AcDbCircle
 10
891.0094892316992
 20
700.4993831207648
 30
0.0
 40
0.4330786473494781
100
AcDbArc
 50
7.110466130192164
 51
32.8177372618904
  0
ARC
  5
1840
330
1F
100
AcDbEntity
  8
PIC06
  6
Continuous
 62
     7
100
AcDbCircle
 10
982.9654721656215
 20
691.7264782560559
 30
0.0
 40
98.42696530669931
100
AcDbArc
 50
175.6836277296032
 51
179.8772112032385
  0
ARC
  5
1841
330
1F
100
AcDbEntity
  8
PIC06
  6
Continuous
 62
     7
100
AcDbCircle
 10
877.9252536908188
 20
704.5360690154975
 30
0.0
 40
0.1968539306133985
100
AcDbArc
 50
0.68083471137272
 51
90.0
  0
CIRCLE
  5
1842
330
1F
100
AcDbEntity
  8
PIC06
  6
DASHED
 62
     7
100
AcDbCircle
 10
885.995452507902
 20
719.2946655743654
 30
0.0
 40
0.2165393236747384
  0
LINE
  5
1843
330
1F
100
AcDbEntity
  8
PIC06
  6
DASHED
 62
     7
100
AcDbLine
 10
880.7985087397092
 20
718.3103959212985
 30
0.0
 11
885.8938853222753
 21
718.3103959212985
 31
0.0
  0
ARC
  5
1844
330
1F
100
AcDbEntity
  8
PIC06
  6
DASHED
 62
     7
100
AcDbCircle
 10
885.8938853222753
 20
730.121631758102
 30
0.0
 40
11.81123583680391
100
AcDbArc
 50
270.0
 51
303.1534084156967
  0
LINE
  5
1845
330
1F
100
AcDbEntity
  8
PIC06
  6
DASHED
 62
     7
100
AcDbLine
 10
880.7985087397092
 20
719.2946655743654
 30
0.0
 11
881.6157422936877
 21
719.2946655743654
 31
0.0
  0
LINE
  5
1846
330
1F
100
AcDbEntity
  8
PIC06
  6
DASHED
 62
     7
100
AcDbLine
 10
882.1072976363549
 20
719.6883734355924
 30
0.0
 11
884.236939697077
 21
719.6883734355924
 31
0.0
  0
LINE
  5
1847
330
1F
100
AcDbEntity
  8
PIC06
  6
DASHED
 62
     7
100
AcDbLine
 10
880.4835424507272
 20
718.6253622102794
 30
0.0
 11
880.4835424507272
 21
718.9796992853835
 31
0.0
  0
LINE
  5
1848
330
1F
100
AcDbEntity
  8
PIC06
  6
DASHED
 62
     7
100
AcDbLine
 10
881.6992603432309
 20
719.3292598831894
 30
0.0
 11
882.0237795868097
 21
719.6537791267683
 31
0.0
  0
ARC
  5
1849
330
1F
100
AcDbEntity
  8
PIC06
  6
DASHED
 62
     7
100
AcDbCircle
 10
885.8938853222753
 20
730.121631758102
 30
0.0
 40
11.41752797557711
100
AcDbArc
 50
287.3672579442486
 51
303.1534084156967
  0
ARC
  5
184A
330
1F
100
AcDbEntity
  8
PIC06
  6
DASHED
 62
     7
100
AcDbCircle
 10
885.995452507902
 20
718.3497667074207
 30
0.0
 40
2.165393236747384
100
AcDbArc
 50
50.88702384894979
 51
140.3622856093306
  0
ARC
  5
184B
330
1F
100
AcDbEntity
  8
PIC06
  6
DASHED
 62
     7
100
AcDbCircle
 10
887.4360055464821
 20
720.1215468139698
 30
0.0
 40
0.118112358368039
100
AcDbArc
 50
230.8870238489498
 51
278.7665658635827
  0
ARC
  5
184C
330
1F
100
AcDbEntity
  8
PIC06
  6
DASHED
 62
     7
100
AcDbCircle
 10
884.236939697077
 20
719.8064857939598
 30
0.0
 40
0.1181123583680391
100
AcDbArc
 50
270.0
 51
320.3622856093306
  0
ARC
  5
184D
330
1F
100
AcDbEntity
  8
PIC06
  6
DASHED
 62
     7
100
AcDbCircle
 10
880.7985087397092
 20
718.9796992853835
 30
0.0
 40
0.3149662889814377
100
AcDbArc
 50
90.0
 51
180.0
  0
ARC
  5
184E
330
1F
100
AcDbEntity
  8
PIC06
  6
DASHED
 62
     7
100
AcDbCircle
 10
880.7985087397092
 20
718.6253622102794
 30
0.0
 40
0.3149662889814377
100
AcDbArc
 50
180.0
 51
270.0
  0
ARC
  5
184F
330
1F
100
AcDbEntity
  8
PIC06
  6
DASHED
 62
     7
100
AcDbCircle
 10
881.6157422936877
 20
719.4127779327336
 30
0.0
 40
0.1181123583680391
100
AcDbArc
 50
270.0
 51
315.0
  0
ARC
  5
1850
330
1F
100
AcDbEntity
  8
PIC06
  6
DASHED
 62
     7
100
AcDbCircle
 10
882.1072976363549
 20
719.5702610772241
 30
0.0
 40
0.1181123583680401
100
AcDbArc
 50
90.0
 51
135.0
  0
LINE
  5
1851
330
1F
100
AcDbEntity
  8
PIC06
  6
DASHED
 62
     7
100
AcDbLine
 10
887.6490255250546
 20
720.0368185350908
 30
0.0
 11
887.6490255250546
 21
719.6374165093293
 31
0.0
  0
LINE
  5
1852
330
1F
100
AcDbEntity
  8
PIC06
  6
DASHED
 62
     7
100
AcDbLine
 10
887.599812042402
 20
719.6292964346594
 30
0.0
 11
887.599812042402
 21
718.8322668911732
 31
0.0
  0
LINE
  5
1853
330
1F
100
AcDbEntity
  8
PIC06
  6
DASHED
 62
     7
100
AcDbLine
 10
881.6157422936877
 20
719.2946655743654
 30
0.0
 11
884.3320367942187
 21
719.2946655743654
 31
0.0
  0
LINE
  5
1854
330
1F
100
AcDbEntity
  8
PIC06
  6
DASHED
 62
     7
100
AcDbLine
 10
884.263137918505
 20
719.6883734355924
 30
0.0
 11
884.263137918505
 21
719.2946655743654
 31
0.0
  0
LINE
  5
1855
330
1F
100
AcDbEntity
  8
PIC06
  6
DASHED
 62
     7
100
AcDbLine
 10
884.3320367942187
 20
719.2946655743654
 30
0.0
 11
884.3320367942187
 21
718.7041037825256
 31
0.0
  0
LINE
  5
1856
330
1F
100
AcDbEntity
  8
PIC06
  6
DASHED
 62
     7
100
AcDbLine
 10
880.4835424507272
 20
718.7041037825256
 30
0.0
 11
885.8938853222753
 21
718.7041037825256
 31
0.0
  0
ARC
  5
1857
330
1F
100
AcDbEntity
  8
PIC06
  6
DASHED
 62
     7
100
AcDbCircle
 10
885.8938853222753
 20
730.121631758102
 30
0.0
 40
11.41752797557711
100
AcDbArc
 50
270.0
 51
287.3672579442486
  0
LINE
  5
1858
330
1F
100
AcDbEntity
  8
PIC06
  6
DASHED
 62
     7
100
AcDbLine
 10
884.4895199387101
 20
719.905753521888
 30
0.0
 11
884.4895199387101
 21
719.3613305865064
 31
0.0
  0
LINE
  5
1859
330
1F
100
AcDbEntity
  8
PIC06
  6
DASHED
 62
     7
100
AcDbLine
 10
884.5387334213638
 20
719.3931088652771
 30
0.0
 11
884.5387334213638
 21
718.7041037825256
 31
0.0
  0
ARC
  5
185A
330
1F
100
AcDbEntity
  8
PIC06
  6
DASHED
 62
     7
100
AcDbCircle
 10
885.995452507902
 20
718.3497667074207
 30
0.0
 40
1.771685375520587
100
AcDbArc
 50
50.88702384894979
 51
140.3622856093306
  0
ARC
  5
185B
330
1F
100
AcDbEntity
  8
PIC06
  6
DASHED
 62
     7
100
AcDbCircle
 10
884.236939697077
 20
719.8064857939598
 30
0.0
 40
0.5118202195948357
100
AcDbArc
 50
299.570496334686
 51
320.3622856093306
  0
ARC
  5
185C
330
1F
100
AcDbEntity
  8
PIC06
  6
DASHED
 62
     7
100
AcDbCircle
 10
887.4360055464821
 20
720.1215468139698
 30
0.0
 40
0.5118202195948357
100
AcDbArc
 50
230.8870238489498
 51
277.3389716370027
  0
LINE
  5
185D
330
1F
100
AcDbEntity
  8
PIC06
  6
DASHED
 62
     7
100
AcDbLine
 10
887.4521715944419
 20
719.6099819636538
 30
0.0
 11
887.4521715944419
 21
718.8109426116771
 31
0.0
  0
LINE
  5
185E
330
1F
100
AcDbEntity
  8
PIC06
  6
DASHED
 62
     7
100
AcDbLine
 10
887.5013850770947
 20
720.0122341789838
 30
0.0
 11
887.5013850770947
 21
719.613919535188
 31
0.0
  0
ARC
  5
185F
330
1F
100
AcDbEntity
  8
PIC06
  6
DASHED
 62
     7
100
AcDbCircle
 10
885.8938853222753
 20
730.121631758102
 30
0.0
 40
10.23640439189672
100
AcDbArc
 50
278.7665658635827
 51
283.6736369388557
  0
ARC
  5
1860
330
1F
100
AcDbEntity
  8
PIC06
  6
DASHED
 62
     7
100
AcDbCircle
 10
885.8938853222753
 20
730.121631758102
 30
0.0
 40
10.63011225312352
100
AcDbArc
 50
279.2347926602342
 51
285.3093740921019
  0
ARC
  5
1861
330
1F
100
AcDbEntity
  8
PIC06
  6
DASHED
 62
     7
100
AcDbCircle
 10
885.8938853222753
 20
730.121631758102
 30
0.0
 40
10.63011225312352
100
AcDbArc
 50
285.3093740921019
 51
299.0332732093349
  0
ARC
  5
1862
330
1F
100
AcDbEntity
  8
PIC06
  6
DASHED
 62
     7
100
AcDbCircle
 10
885.8938853222753
 20
730.121631758102
 30
0.0
 40
10.23640439189672
100
AcDbArc
 50
283.6736369388557
 51
287.3672579442486
  0
ARC
  5
1863
330
1F
100
AcDbEntity
  8
PIC06
  6
DASHED
 62
     7
100
AcDbCircle
 10
885.8938853222753
 20
730.121631758102
 30
0.0
 40
10.23640439189671
100
AcDbArc
 50
287.3672579442486
 51
303.1534079823547
  0
LINE
  5
1864
330
1F
100
AcDbEntity
  8
PIC06
  6
DASHED
 62
     7
100
AcDbLine
 10
891.1136547038504
 20
721.1111316194265
 30
0.0
 11
891.1136547038504
 21
720.9305906089785
 31
0.0
  0
ARC
  5
1865
330
1F
100
AcDbEntity
  8
PIC06
  6
DASHED
 62
     7
100
AcDbCircle
 10
890.9955423454821
 20
721.1111316194265
 30
0.0
 40
0.1181123583680391
100
AcDbArc
 50
0.0
 51
119.5181146797076
  0
ARC
  5
1866
330
1F
100
AcDbEntity
  8
PIC06
  6
DASHED
 62
     7
100
AcDbCircle
 10
890.9955423454821
 20
720.9305906089785
 30
0.0
 40
0.1181123583680391
100
AcDbArc
 50
299.0332732093349
 51
0.0
  0
ARC
  5
1867
330
1F
100
AcDbEntity
  8
PIC06
  6
DASHED
 62
     7
100
AcDbCircle
 10
890.5230929120106
 20
723.0348902560199
 30
0.0
 40
1.771685375520586
100
AcDbArc
 50
303.1534084156967
 51
0.0
  0
ARC
  5
1868
330
1F
100
AcDbEntity
  8
PIC06
  6
DASHED
 62
     7
100
AcDbCircle
 10
890.5230929120106
 20
723.0348902560199
 30
0.0
 40
2.952808959200976
100
AcDbArc
 50
303.1534084156967
 51
0.0
  0
ARC
  5
1869
330
1F
100
AcDbEntity
  8
PIC06
  6
DASHED
 62
     7
100
AcDbCircle
 10
890.5230929120106
 20
723.0348902560199
 30
0.0
 40
3.346516820427774
100
AcDbArc
 50
303.1534084156967
 51
0.0
  0
LINE
  5
186A
330
1F
100
AcDbEntity
  8
PIC06
  6
DASHED
 62
     7
100
AcDbLine
 10
877.3929349140653
 20
705.7171925991779
 30
0.0
 11
877.3929349140653
 21
706.1109004604049
 31
0.0
  0
LINE
  5
186B
330
1F
100
AcDbEntity
  8
PIC06
  6
DASHED
 62
     7
100
AcDbLine
 10
875.7240499676418
 20
705.7171925991779
 30
0.0
 11
877.818722853096
 21
705.7171925991779
 31
0.0
  0
LWPOLYLINE
  5
186C
330
1F
100
AcDbEntity
  8
PIC06
  6
Continuous
 62
     7
100
AcDbPolyline
 90
        8
 70
     0
 43
0.0
 10
877.7374725466762
 20
705.8825606599603
 10
877.8024010017825
 20
705.7801658857952
 10
877.8220606229879
 20
705.711848087878
 10
877.8075156540353
 20
705.6762969396686
 10
877.7650752825747
 20
705.6437009757282
 10
877.7420863106744
 20
705.6272606123165
 10
877.7430672030323
 20
705.6073916793975
 10
877.7774609043335
 20
705.5841979138695
  0
LINE
  5
186D
330
1F
100
AcDbEntity
  8
PIC06
  6
DASHED
 62
     7
100
AcDbLine
 10
876.0149573997706
 20
705.7171925991779
 30
0.0
 11
876.0149573997706
 21
706.1109004604049
 31
0.0
  0
LWPOLYLINE
  5
186E
330
1F
100
AcDbEntity
  8
PIC06
  6
Continuous
 62
     7
100
AcDbPolyline
 90
        8
 70
     0
 43
0.0
 10
875.759664861509
 20
705.8610294609243
 10
875.7324031377656
 20
705.7790213987519
 10
875.7273685135178
 20
705.7226135372084
 10
875.7363720963212
 20
705.694977301714
 10
875.7571268422353
 20
705.666591694955
 10
875.7704303108393
 20
705.6457159686869
 10
875.7583911632728
 20
705.6295850282704
 10
875.719678906853
 20
705.6134190199445
  0
LINE
  5
186F
330
1F
100
AcDbEntity
  8
PIC06
  6
DASHED
 62
     7
100
AcDbLine
 10
914.909635833289
 20
699.7447291196331
 30
0.0
 11
914.179908328917
 21
691.9374174562399
 31
0.0
  0
LINE
  5
1870
330
1F
100
AcDbEntity
  8
PIC06
  6
DASHED
 62
     7
100
AcDbLine
 10
913.7862004676907
 20
691.7405635256272
 30
0.0
 11
914.179908328917
 21
691.7405635256272
 31
0.0
  0
LINE
  5
1871
330
1F
100
AcDbEntity
  8
PIC06
  6
DASHED
 62
     7
100
AcDbLine
 10
914.179908328917
 20
691.7405635256272
 30
0.0
 11
914.179908328917
 21
691.9374174562399
 31
0.0
  0
LINE
  5
1872
330
1F
100
AcDbEntity
  8
PIC06
  6
DASHED
 62
     7
100
AcDbLine
 10
913.7862004676907
 20
691.7405635256272
 30
0.0
 11
913.7862004676907
 21
691.8193050978725
 31
0.0
  0
ARC
  5
1873
330
1F
100
AcDbEntity
  8
PIC06
  6
DASHED
 62
     7
100
AcDbCircle
 10
913.6680881093225
 20
691.8193050978725
 30
0.0
 40
0.1181123583680391
100
AcDbArc
 50
0.0
 51
90.0
  0
ARC
  5
1874
330
1F
100
AcDbEntity
  8
PIC06
  6
DASHED
 62
     7
100
AcDbCircle
 10
913.6419706911929
 20
692.5279792480806
 30
0.0
 40
0.1968539306133981
100
AcDbArc
 50
270.0
 51
354.6602378645488
  0
LINE
  5
1875
330
1F
100
AcDbEntity
  8
PIC06
  6
DASHED
 62
     7
100
AcDbLine
 10
913.9380928845866
 20
693.580864867843
 30
0.0
 11
913.837970345642
 21
692.5096597105921
 31
0.0
  0
ARC
  5
1876
330
1F
100
AcDbEntity
  8
PIC06
  6
DASHED
 62
     7
100
AcDbCircle
 10
912.5660953034429
 20
693.7091016302602
 30
0.0
 40
1.377977514293789
100
AcDbArc
 50
354.6602378645488
 51
34.33524946164435
  0
ARC
  5
1877
330
1F
100
AcDbEntity
  8
PIC06
  6
DASHED
 62
     7
100
AcDbCircle
 10
903.3006074839795
 20
687.3802580162427
 30
0.0
 40
12.59865155925751
100
AcDbArc
 50
34.33524946164435
 51
40.89897230087279
  0
ARC
  5
1878
330
1F
100
AcDbEntity
  8
PIC06
  6
DASHED
 62
     7
100
AcDbCircle
 10
913.8650551951004
 20
696.5311380186594
 30
0.0
 40
1.377977514293789
100
AcDbArc
 50
172.8797573228221
 51
220.8989723008728
  0
ARC
  5
1879
330
1F
100
AcDbEntity
  8
PIC06
  6
DASHED
 62
     7
100
AcDbCircle
 10
915.0272356259593
 20
699.7337373971404
 30
0.0
 40
0.1181123583680394
100
AcDbArc
 50
84.13413787970892
 51
174.6602378645488
  0
ARC
  5
187A
330
1F
100
AcDbEntity
  8
PIC06
  6
DASHED
 62
     7
100
AcDbCircle
 10
916.7274924011262
 20
716.2832130805372
 30
0.0
 40
16.51847438581815
100
AcDbArc
 50
275.1005279930406
 51
275.8658621202911
  0
LINE
  5
187B
330
1F
100
AcDbEntity
  8
PIC06
  6
DASHED
 62
     7
100
AcDbLine
 10
918.5453489689635
 20
699.7447291196331
 30
0.0
 11
919.2750764733355
 21
691.9374174562399
 31
0.0
  0
ARC
  5
187C
330
1F
100
AcDbEntity
  8
PIC06
  6
DASHED
 62
     7
100
AcDbCircle
 10
918.4277491762941
 20
699.7337373971404
 30
0.0
 40
0.1181123583680394
100
AcDbArc
 50
5.339762135451179
 51
95.86586212029109
  0
LINE
  5
187D
330
1F
100
AcDbEntity
  8
PIC06
  6
DASHED
 62
     7
100
AcDbLine
 10
919.6687843345626
 20
691.7405635256272
 30
0.0
 11
919.2750764733355
 21
691.7405635256272
 31
0.0
  0
LINE
  5
187E
330
1F
100
AcDbEntity
  8
PIC06
  6
DASHED
 62
     7
100
AcDbLine
 10
919.2750764733355
 20
691.7405635256272
 30
0.0
 11
919.2750764733355
 21
691.9374174562399
 31
0.0
  0
LINE
  5
187F
330
1F
100
AcDbEntity
  8
PIC06
  6
DASHED
 62
     7
100
AcDbLine
 10
919.6687843345626
 20
691.7405635256272
 30
0.0
 11
919.6687843345626
 21
691.8193050978725
 31
0.0
  0
ARC
  5
1880
330
1F
100
AcDbEntity
  8
PIC06
  6
DASHED
 62
     7
100
AcDbCircle
 10
919.78689669293
 20
691.8193050978725
 30
0.0
 40
0.1181123583680391
100
AcDbArc
 50
90.0
 51
180.0
  0
ARC
  5
1881
330
1F
100
AcDbEntity
  8
PIC06
  6
DASHED
 62
     7
100
AcDbCircle
 10
919.8130141110604
 20
692.5279792480806
 30
0.0
 40
0.1968539306133981
100
AcDbArc
 50
185.3397621354512
 51
270.0
  0
LINE
  5
1882
330
1F
100
AcDbEntity
  8
PIC06
  6
DASHED
 62
     7
100
AcDbLine
 10
919.5168919176659
 20
693.580864867843
 30
0.0
 11
919.6170144566103
 21
692.5096597105921
 31
0.0
  0
LINE
  5
1883
330
1F
100
AcDbEntity
  8
PIC06
  6
DASHED
 62
     7
100
AcDbLine
 10
921.0852175186683
 20
692.331125317467
 30
0.0
 11
919.8130141110604
 21
692.331125317467
 31
0.0
  0
LINE
  5
1884
330
1F
100
AcDbEntity
  8
PIC06
  6
DASHED
 62
     7
100
AcDbLine
 10
920.9004959234217
 20
691.9374174562399
 30
0.0
 11
919.78689669293
 21
691.9374174562399
 31
0.0
  0
ARC
  5
1885
330
1F
100
AcDbEntity
  8
PIC06
  6
DASHED
 62
     7
100
AcDbCircle
 10
920.8888894988094
 20
693.7091016302602
 30
0.0
 40
1.377977514293789
100
AcDbArc
 50
145.6647505383556
 51
185.3397621354512
  0
ARC
  5
1886
330
1F
100
AcDbEntity
  8
PIC06
  6
DASHED
 62
     7
100
AcDbCircle
 10
930.1543773182729
 20
687.3802580162427
 30
0.0
 40
12.59865155925751
100
AcDbArc
 50
139.1010276991272
 51
145.6647505383556
  0
ARC
  5
1887
330
1F
100
AcDbEntity
  8
PIC06
  6
DASHED
 62
     7
100
AcDbCircle
 10
919.589929607152
 20
696.5311380186594
 30
0.0
 40
1.377977514293789
100
AcDbArc
 50
319.1010276991272
 51
7.120242677177823
  0
LWPOLYLINE
  5
1888
330
1F
100
AcDbEntity
  8
PIC06
  6
Continuous
 62
     7
100
AcDbPolyline
 90
       29
 70
     0
 43
0.0
 10
876.6448899777342
 20
705.047889235093
 10
877.9252536908188
 20
705.047889235093
 42
-0.2315444218290097
 10
878.3293812890379
 20
704.8501403792734
 42
-0.0792112662236704
 10
878.4402263502533
 20
704.9295652069649
 10
878.5810835568108
 20
704.9999938102437
 10
878.5810835568108
 20
704.6478507938518
 42
0.2873118881550598
 10
878.5158010919868
 20
704.5407958259739
 42
0.0047262068895434
 10
878.5285469060154
 20
703.9455072236578
 10
878.2134320644763
 20
703.9455072236578
 42
-0.0015202883646413
 10
878.2081101309595
 20
704.1388847501593
 42
-0.1079984075454779
 10
878.0438682541944
 20
704.1029903681483
 10
877.6576404140714
 20
704.1029903681483
 42
0.0226061861436644
 10
877.8632978662326
 20
701.1853275470002
 42
0.2454195670534657
 10
879.2361305970617
 20
699.1652602111162
 42
-0.2175360548367964
 10
879.5527933252861
 20
698.7485634554641
 10
879.6370705490899
 20
698.7485634554641
 10
879.6370705490899
 20
698.4335971664823
 10
879.4861995496402
 20
698.4335971664823
 42
-0.3828211602844602
 10
879.2513602565822
 20
698.644275391618
 42
0.2473337379867819
 10
879.0871858981162
 20
698.8877368069661
 42
-0.2454195658983561
 10
877.5504328427032
 20
701.1490062000248
 42
-0.0241569349455476
 10
877.3383038580131
 20
704.2976042685922
 42
-0.4197796616728608
 10
877.4563949731073
 20
704.4179566571292
 10
878.0438682541944
 20
704.4179566571292
 42
0.4180728221219996
 10
878.1226030098087
 20
704.4977343075015
 42
-0.0003188820414113
 10
878.1220937235984
 20
704.5384081377878
 42
0.4107374358376405
 10
877.9252536908188
 20
704.732922946111
 10
876.6448899777342
 20
704.732922946111
 10
876.6448899777342
 20
705.047889235093
  0
LWPOLYLINE
  5
1889
330
1F
100
AcDbEntity
  8
PIC06
  6
Continuous
 62
     7
100
AcDbPolyline
 90
       29
 70
     0
 43
0.0
 10
878.1220937235984
 20
704.5384081377878
 42
0.4107374358376405
 10
877.9252536908188
 20
704.732922946111
 10
876.6448899777342
 20
704.732922946111
 10
876.6448899777342
 20
705.047889235093
 10
877.9252536908188
 20
705.047889235093
 42
-0.2315444218290097
 10
878.3293812890379
 20
704.8501403792734
 42
-0.0792112662236704
 10
878.4402263502533
 20
704.9295652069649
 10
878.5810835568108
 20
704.9999938102437
 10
878.5810835568108
 20
704.6478507938518
 42
0.2873118881550598
 10
878.5158010919868
 20
704.5407958259739
 42
0.0047262068895434
 10
878.5285469060154
 20
703.9455072236578
 10
878.2134320644763
 20
703.9455072236578
 42
-0.0015202883646413
 10
878.2081101309595
 20
704.1388847501593
 42
-0.1079984075454779
 10
878.0438682541944
 20
704.1029903681483
 10
877.6576404140714
 20
704.1029903681483
 42
0.0226061861436644
 10
877.8632978662326
 20
701.1853275470002
 42
0.2454195670534657
 10
879.2361305970617
 20
699.1652602111162
 42
-0.2175360548367964
 10
879.5527933252861
 20
698.7485634554641
 10
879.6370705490899
 20
698.7485634554641
 10
879.6370705490899
 20
698.4335971664823
 10
879.4861995496402
 20
698.4335971664823
 42
-0.3828211602844602
 10
879.2513602565822
 20
698.644275391618
 42
0.2473337379867819
 10
879.0871858981162
 20
698.8877368069661
 42
-0.2454195658983561
 10
877.5504328427032
 20
701.1490062000248
 42
-0.0241569349455476
 10
877.3383038580131
 20
704.2976042685922
 42
-0.4197796616728608
 10
877.4563949731073
 20
704.4179566571292
 10
878.0438682541944
 20
704.4179566571292
 42
0.4180728221219996
 10
878.1226030098087
 20
704.4977343075015
 42
-0.0003188820414113
 10
878.1220937235984
 20
704.5384081377878
  0
LWPOLYLINE
  5
188A
330
1F
100
AcDbEntity
  8
PIC06
  6
Continuous
 62
     7
100
AcDbPolyline
 90
       29
 70
     0
 43
0.0
 10
878.0438682541944
 20
704.4179566571292
 42
0.4180728221219996
 10
878.1226030098087
 20
704.4977343075015
 42
-0.0003188820414113
 10
878.1220937235984
 20
704.5384081377878
 42
0.4107374358376405
 10
877.9252536908188
 20
704.732922946111
 10
876.6448899777342
 20
704.732922946111
 10
876.6448899777342
 20
705.047889235093
 10
877.9252536908188
 20
705.047889235093
 42
-0.2315444218290097
 10
878.3293812890379
 20
704.8501403792734
 42
-0.0792112662236704
 10
878.4402263502533
 20
704.9295652069649
 10
878.5810835568108
 20
704.9999938102437
 10
878.5810835568108
 20
704.6478507938518
 42
0.2873118881550598
 10
878.5158010919868
 20
704.5407958259739
 42
0.0047262068895434
 10
878.5285469060154
 20
703.9455072236578
 10
878.2134320644763
 20
703.9455072236578
 42
-0.0015202883646413
 10
878.2081101309595
 20
704.1388847501593
 42
-0.1079984075454779
 10
878.0438682541944
 20
704.1029903681483
 10
877.6576404140714
 20
704.1029903681483
 42
0.0226061861436644
 10
877.8632978662326
 20
701.1853275470002
 42
0.2454195670534657
 10
879.2361305970617
 20
699.1652602111162
 42
-0.2175360548367964
 10
879.5527933252861
 20
698.7485634554641
 10
879.6370705490899
 20
698.7485634554641
 10
879.6370705490899
 20
698.4335971664823
 10
879.4861995496402
 20
698.4335971664823
 42
-0.3828211602844602
 10
879.2513602565822
 20
698.644275391618
 42
0.2473337379867819
 10
879.0871858981162
 20
698.8877368069661
 42
-0.2454195658983561
 10
877.5504328427032
 20
701.1490062000248
 42
-0.0241569349455476
 10
877.3383038580131
 20
704.2976042685922
 42
-0.4197796616728608
 10
877.4563949731073
 20
704.4179566571292
 10
878.0438682541944
 20
704.4179566571292
  0
LWPOLYLINE
  5
188B
330
1F
100
AcDbEntity
  8
PIC06
  6
Continuous
 62
     7
100
AcDbPolyline
 90
       29
 70
     0
 43
0.0
 10
878.0438682541944
 20
704.1029903681483
 10
877.6576404140714
 20
704.1029903681483
 42
0.0226061861436644
 10
877.8632978662326
 20
701.1853275470002
 42
0.2454195670534657
 10
879.2361305970617
 20
699.1652602111162
 42
-0.2175360548367964
 10
879.5527933252861
 20
698.7485634554641
 10
879.6370705490899
 20
698.7485634554641
 10
879.6370705490899
 20
698.4335971664823
 10
879.4861995496402
 20
698.4335971664823
 42
-0.3828211602844602
 10
879.2513602565822
 20
698.644275391618
 42
0.2473337379867819
 10
879.0871858981162
 20
698.8877368069661
 42
-0.2454195658983561
 10
877.5504328427032
 20
701.1490062000248
 42
-0.0241569349455476
 10
877.3383038580131
 20
704.2976042685922
 42
-0.4197796616728608
 10
877.4563949731073
 20
704.4179566571292
 10
878.0438682541944
 20
704.4179566571292
 42
0.4180728221219996
 10
878.1226030098087
 20
704.4977343075015
 42
-0.0003188820414113
 10
878.1220937235984
 20
704.5384081377878
 42
0.4107374358376405
 10
877.9252536908188
 20
704.732922946111
 10
876.6448899777342
 20
704.732922946111
 10
876.6448899777342
 20
705.047889235093
 10
877.9252536908188
 20
705.047889235093
 42
-0.2315444218290097
 10
878.3293812890379
 20
704.8501403792734
 42
-0.0792112662236704
 10
878.4402263502533
 20
704.9295652069649
 10
878.5810835568108
 20
704.9999938102437
 10
878.5810835568108
 20
704.6478507938518
 42
0.2873118881550598
 10
878.5158010919868
 20
704.5407958259739
 42
0.0047262068895434
 10
878.5285469060154
 20
703.9455072236578
 10
878.2134320644763
 20
703.9455072236578
 42
-0.0015202883646413
 10
878.2081101309595
 20
704.1388847501593
 42
-0.1079984075454779
 10
878.0438682541944
 20
704.1029903681483
  0
LWPOLYLINE
  5
188C
330
1F
100
AcDbEntity
  8
PIC06
  6
Continuous
 62
     7
100
AcDbPolyline
 90
       29
 70
     0
 43
0.0
 10
877.6576404140714
 20
704.1029903681483
 42
0.0226061861436644
 10
877.8632978662326
 20
701.1853275470002
 42
0.2454195670534657
 10
879.2361305970617
 20
699.1652602111162
 42
-0.2175360548367964
 10
879.5527933252861
 20
698.7485634554641
 10
879.6370705490899
 20
698.7485634554641
 10
879.6370705490899
 20
698.4335971664823
 10
879.4861995496402
 20
698.4335971664823
 42
-0.3828211602844602
 10
879.2513602565822
 20
698.644275391618
 42
0.2473337379867819
 10
879.0871858981162
 20
698.8877368069661
 42
-0.2454195658983561
 10
877.5504328427032
 20
701.1490062000248
 42
-0.0241569349455476
 10
877.3383038580131
 20
704.2976042685922
 42
-0.4197796616728608
 10
877.4563949731073
 20
704.4179566571292
 10
878.0438682541944
 20
704.4179566571292
 42
0.4180728221219996
 10
878.1226030098087
 20
704.4977343075015
 42
-0.0003188820414113
 10
878.1220937235984
 20
704.5384081377878
 42
0.4107374358376405
 10
877.9252536908188
 20
704.732922946111
 10
876.6448899777342
 20
704.732922946111
 10
876.6448899777342
 20
705.047889235093
 10
877.9252536908188
 20
705.047889235093
 42
-0.2315444218290097
 10
878.3293812890379
 20
704.8501403792734
 42
-0.0792112662236704
 10
878.4402263502533
 20
704.9295652069649
 10
878.5810835568108
 20
704.9999938102437
 10
878.5810835568108
 20
704.6478507938518
 42
0.2873118881550598
 10
878.5158010919868
 20
704.5407958259739
 42
0.0047262068895434
 10
878.5285469060154
 20
703.9455072236578
 10
878.2134320644763
 20
703.9455072236578
 42
-0.0015202883646413
 10
878.2081101309595
 20
704.1388847501593
 42
-0.1079984075454779
 10
878.0438682541944
 20
704.1029903681483
 10
877.6576404140714
 20
704.1029903681483
  0
LWPOLYLINE
  5
188D
330
1F
100
AcDbEntity
  8
PIC06
  6
Continuous
 62
     7
100
AcDbPolyline
 90
       29
 70
     0
 43
0.0
 10
879.0871858981162
 20
698.8877368069661
 42
-0.2454195658983561
 10
877.5504328427032
 20
701.1490062000248
 42
-0.0241569349455476
 10
877.3383038580131
 20
704.2976042685922
 42
-0.4197796616728608
 10
877.4563949731073
 20
704.4179566571292
 10
878.0438682541944
 20
704.4179566571292
 42
0.4180728221219996
 10
878.1226030098087
 20
704.4977343075015
 42
-0.0003188820414113
 10
878.1220937235984
 20
704.5384081377878
 42
0.4107374358376405
 10
877.9252536908188
 20
704.732922946111
 10
876.6448899777342
 20
704.732922946111
 10
876.6448899777342
 20
705.047889235093
 10
877.9252536908188
 20
705.047889235093
 42
-0.2315444218290097
 10
878.3293812890379
 20
704.8501403792734
 42
-0.0792112662236704
 10
878.4402263502533
 20
704.9295652069649
 10
878.5810835568108
 20
704.9999938102437
 10
878.5810835568108
 20
704.6478507938518
 42
0.2873118881550598
 10
878.5158010919868
 20
704.5407958259739
 42
0.0047262068895434
 10
878.5285469060154
 20
703.9455072236578
 10
878.2134320644763
 20
703.9455072236578
 42
-0.0015202883646413
 10
878.2081101309595
 20
704.1388847501593
 42
-0.1079984075454779
 10
878.0438682541944
 20
704.1029903681483
 10
877.6576404140714
 20
704.1029903681483
 42
0.0226061861436644
 10
877.8632978662326
 20
701.1853275470002
 42
0.2454195670534657
 10
879.2361305970617
 20
699.1652602111162
 42
-0.2175360548367964
 10
879.5527933252861
 20
698.7485634554641
 10
879.6370705490899
 20
698.7485634554641
 10
879.6370705490899
 20
698.4335971664823
 10
879.4861995496402
 20
698.4335971664823
 42
-0.3828211602844602
 10
879.2513602565822
 20
698.644275391618
 42
0.2473337379867819
 10
879.0871858981162
 20
698.8877368069661
  0
LWPOLYLINE
  5
188E
330
1F
100
AcDbEntity
  8
PIC06
  6
Continuous
 62
     7
100
AcDbPolyline
 90
       29
 70
     0
 43
0.0
 10
877.8632978662326
 20
701.1853275470002
 42
0.2454195670534657
 10
879.2361305970617
 20
699.1652602111162
 42
-0.2175360548367964
 10
879.5527933252861
 20
698.7485634554641
 10
879.6370705490899
 20
698.7485634554641
 10
879.6370705490899
 20
698.4335971664823
 10
879.4861995496402
 20
698.4335971664823
 42
-0.3828211602844602
 10
879.2513602565822
 20
698.644275391618
 42
0.2473337379867819
 10
879.0871858981162
 20
698.8877368069661
 42
-0.2454195658983561
 10
877.5504328427032
 20
701.1490062000248
 42
-0.0241569349455476
 10
877.3383038580131
 20
704.2976042685922
 42
-0.4197796616728608
 10
877.4563949731073
 20
704.4179566571292
 10
878.0438682541944
 20
704.4179566571292
 42
0.4180728221219996
 10
878.1226030098087
 20
704.4977343075015
 42
-0.0003188820414113
 10
878.1220937235984
 20
704.5384081377878
 42
0.4107374358376405
 10
877.9252536908188
 20
704.732922946111
 10
876.6448899777342
 20
704.732922946111
 10
876.6448899777342
 20
705.047889235093
 10
877.9252536908188
 20
705.047889235093
 42
-0.2315444218290097
 10
878.3293812890379
 20
704.8501403792734
 42
-0.0792112662236704
 10
878.4402263502533
 20
704.9295652069649
 10
878.5810835568108
 20
704.9999938102437
 10
878.5810835568108
 20
704.6478507938518
 42
0.2873118881550598
 10
878.5158010919868
 20
704.5407958259739
 42
0.0047262068895434
 10
878.5285469060154
 20
703.9455072236578
 10
878.2134320644763
 20
703.9455072236578
 42
-0.0015202883646413
 10
878.2081101309595
 20
704.1388847501593
 42
-0.1079984075454779
 10
878.0438682541944
 20
704.1029903681483
 10
877.6576404140714
 20
704.1029903681483
 42
0.0226061861436644
 10
877.8632978662326
 20
701.1853275470002
  0
LWPOLYLINE
  5
188F
330
1F
100
AcDbEntity
  8
PIC06
  6
Continuous
 62
     7
100
AcDbPolyline
 90
       29
 70
     0
 43
0.0
 10
879.2361305970617
 20
699.1652602111162
 42
-0.2175360548367964
 10
879.5527933252861
 20
698.7485634554641
 10
879.6370705490899
 20
698.7485634554641
 10
879.6370705490899
 20
698.4335971664823
 10
879.4861995496402
 20
698.4335971664823
 42
-0.3828211602844602
 10
879.2513602565822
 20
698.644275391618
 42
0.2473337379867819
 10
879.0871858981162
 20
698.8877368069661
 42
-0.2454195658983561
 10
877.5504328427032
 20
701.1490062000248
 42
-0.0241569349455476
 10
877.3383038580131
 20
704.2976042685922
 42
-0.4197796616728608
 10
877.4563949731073
 20
704.4179566571292
 10
878.0438682541944
 20
704.4179566571292
 42
0.4180728221219996
 10
878.1226030098087
 20
704.4977343075015
 42
-0.0003188820414113
 10
878.1220937235984
 20
704.5384081377878
 42
0.4107374358376405
 10
877.9252536908188
 20
704.732922946111
 10
876.6448899777342
 20
704.732922946111
 10
876.6448899777342
 20
705.047889235093
 10
877.9252536908188
 20
705.047889235093
 42
-0.2315444218290097
 10
878.3293812890379
 20
704.8501403792734
 42
-0.0792112662236704
 10
878.4402263502533
 20
704.9295652069649
 10
878.5810835568108
 20
704.9999938102437
 10
878.5810835568108
 20
704.6478507938518
 42
0.2873118881550598
 10
878.5158010919868
 20
704.5407958259739
 42
0.0047262068895434
 10
878.5285469060154
 20
703.9455072236578
 10
878.2134320644763
 20
703.9455072236578
 42
-0.0015202883646413
 10
878.2081101309595
 20
704.1388847501593
 42
-0.1079984075454779
 10
878.0438682541944
 20
704.1029903681483
 10
877.6576404140714
 20
704.1029903681483
 42
0.0226061861436644
 10
877.8632978662326
 20
701.1853275470002
 42
0.2454195670534657
 10
879.2361305970617
 20
699.1652602111162
  0
LWPOLYLINE
  5
1890
330
1F
100
AcDbEntity
  8
PIC06
  6
Continuous
 62
     7
100
AcDbPolyline
 90
       10
 70
     0
 43
0.0
 10
879.4270473526484
 20
699.5753499640405
 10
879.0400298030546
 20
699.9827385759999
 42
-0.1745572297255105
 10
878.4108116552015
 20
701.2488899232394
 42
-0.0172315738215482
 10
878.2332008188314
 20
703.4336870040625
 10
878.5485136603247
 20
703.4336870040625
 42
0.0171148139135597
 10
878.7236766809419
 20
701.2852112511836
 42
0.175588365518452
 10
879.2630480809238
 20
700.2052825420032
 10
879.6370705490899
 20
699.8115746807761
 10
879.6370705490899
 20
699.5753499640405
 10
879.4270473526484
 20
699.5753499640405
  0
LWPOLYLINE
  5
1891
330
1F
100
AcDbEntity
  8
PIC06
  6
Continuous
 62
     7
100
AcDbPolyline
 90
       10
 70
     0
 43
0.0
 10
878.7236766809419
 20
701.2852112511836
 42
0.175588365518452
 10
879.2630480809238
 20
700.2052825420032
 10
879.6370705490899
 20
699.8115746807761
 10
879.6370705490899
 20
699.5753499640405
 10
879.4270473526484
 20
699.5753499640405
 10
879.0400298030546
 20
699.9827385759999
 42
-0.1745572297255105
 10
878.4108116552015
 20
701.2488899232394
 42
-0.0172315738215482
 10
878.2332008188314
 20
703.4336870040625
 10
878.5485136603247
 20
703.4336870040625
 42
0.0171148139135597
 10
878.7236766809419
 20
701.2852112511836
  0
LWPOLYLINE
  5
1892
330
1F
100
AcDbEntity
  8
PIC06
  6
Continuous
 62
     7
100
AcDbPolyline
 90
       10
 70
     0
 43
0.0
 10
878.5485136603247
 20
703.4336870040625
 42
0.0171148139135597
 10
878.7236766809419
 20
701.2852112511836
 42
0.175588365518452
 10
879.2630480809238
 20
700.2052825420032
 10
879.6370705490899
 20
699.8115746807761
 10
879.6370705490899
 20
699.5753499640405
 10
879.4270473526484
 20
699.5753499640405
 10
879.0400298030546
 20
699.9827385759999
 42
-0.1745572297255105
 10
878.4108116552015
 20
701.2488899232394
 42
-0.0172315738215482
 10
878.2332008188314
 20
703.4336870040625
 10
878.5485136603247
 20
703.4336870040625
  0
LWPOLYLINE
  5
1893
330
1F
100
AcDbEntity
  8
PIC06
  6
Continuous
 62
     7
100
AcDbPolyline
 90
       11
 70
     0
 43
0.0
 10
879.1283097846216
 20
704.9214639077582
 10
878.7385667013014
 20
704.7265923660971
 10
878.7385667013014
 20
705.0787353824889
 10
878.9874525780652
 20
705.2031783208713
 10
878.9874525780652
 20
705.795934171424
 10
876.6448899777342
 20
705.795934171424
 10
876.6448899777342
 20
706.1109004604049
 10
878.9874525780652
 20
706.1109004604049
 42
-0.4142135623731011
 10
879.302418867047
 20
705.795934171424
 10
879.302418867047
 20
705.2031783208713
 42
-0.2840790438403833
 10
879.1283097846216
 20
704.9214639077582
  0
LWPOLYLINE
  5
1894
330
1F
100
AcDbEntity
  8
PIC06
  6
Continuous
 62
     7
100
AcDbPolyline
 90
       11
 70
     0
 43
0.0
 10
878.9874525780652
 20
705.2031783208713
 10
878.9874525780652
 20
705.795934171424
 10
876.6448899777342
 20
705.795934171424
 10
876.6448899777342
 20
706.1109004604049
 10
878.9874525780652
 20
706.1109004604049
 42
-0.4142135623731011
 10
879.302418867047
 20
705.795934171424
 10
879.302418867047
 20
705.2031783208713
 42
-0.2840790438403833
 10
879.1283097846216
 20
704.9214639077582
 10
878.7385667013014
 20
704.7265923660971
 10
878.7385667013014
 20
705.0787353824889
 10
878.9874525780652
 20
705.2031783208713
  0
LWPOLYLINE
  5
1895
330
1F
100
AcDbEntity
  8
PIC06
  6
Continuous
 62
     7
100
AcDbPolyline
 90
       11
 70
     0
 43
0.0
 10
876.6448899777342
 20
706.1109004604049
 10
878.9874525780652
 20
706.1109004604049
 42
-0.4142135623731011
 10
879.302418867047
 20
705.795934171424
 10
879.302418867047
 20
705.2031783208713
 42
-0.2840790438403833
 10
879.1283097846216
 20
704.9214639077582
 10
878.7385667013014
 20
704.7265923660971
 10
878.7385667013014
 20
705.0787353824889
 10
878.9874525780652
 20
705.2031783208713
 10
878.9874525780652
 20
705.795934171424
 10
876.6448899777342
 20
705.795934171424
 10
876.6448899777342
 20
706.1109004604049
  0
LWPOLYLINE
  5
1896
330
1F
100
AcDbEntity
  8
PIC06
  6
Continuous
 62
     7
100
AcDbPolyline
 90
       20
 70
     0
 43
0.0
 10
881.697830189808
 20
698.5763496730978
 42
-0.2994954045343887
 10
881.4808853518142
 20
698.4335971664823
 10
881.3300143523647
 20
698.4335971664823
 10
881.3300143523647
 20
698.7485634554641
 10
881.4147889084642
 20
698.7485634554641
 10
881.4853009947546
 20
699.5753499640405
 10
881.3300143523647
 20
699.5753499640405
 10
881.3300143523647
 20
699.8115746807761
 10
881.5451668749938
 20
700.0380515205624
 42
-0.1882111087651402
 10
881.9338478805192
 20
700.2205437806123
 42
0.0087074935212722
 10
888.7653933639404
 20
700.7978795820672
 42
0.2408709777047395
 10
889.0663738254716
 20
700.9926982644564
 10
889.4403962936367
 20
700.9926982644564
 10
889.4403962936367
 20
700.5202488309842
 10
889.1451153977168
 20
700.5202488309842
 42
-0.1133843790584416
 10
888.8112727326261
 20
700.4068091915496
 42
-0.0087199634978549
 10
881.9562656117559
 20
699.827455276476
 42
0.37840745570603
 10
881.7728851965611
 20
699.6422367269643
 10
881.7167277425905
 20
698.6563874680832
 42
-0.0877036114820293
 10
881.697830189808
 20
698.5763496730978
  0
LWPOLYLINE
  5
1897
330
1F
100
AcDbEntity
  8
PIC06
  6
Continuous
 62
     7
100
AcDbPolyline
 90
       19
 70
     0
 43
0.0
 10
881.4147889084642
 20
698.7485634554641
 10
881.4853009947546
 20
699.5753499640405
 10
881.3300143523647
 20
699.5753499640405
 10
881.3300143523647
 20
699.8115746807761
 10
881.5451668749938
 20
700.0380515205624
 42
-0.1882111087651402
 10
881.9338478805192
 20
700.2205437806123
 42
0.0087074935212722
 10
888.7653933639404
 20
700.7978795820672
 42
0.2408709777047395
 10
889.0663738254716
 20
700.9926982644564
 10
889.4403962936367
 20
700.9926982644564
 10
889.4403962936367
 20
700.5202488309842
 10
889.1451153977168
 20
700.5202488309842
 42
-0.1133843790584416
 10
888.8112727326261
 20
700.4068091915496
 42
-0.0087199634978549
 10
881.9562656117559
 20
699.827455276476
 42
0.37840745570603
 10
881.7728851965611
 20
699.6422367269643
 10
881.7167277425905
 20
698.6563874680832
 42
-0.3976438591076241
 10
881.4808853518142
 20
698.4335971664823
 10
881.3300143523647
 20
698.4335971664823
 10
881.3300143523647
 20
698.7485634554641
 10
881.4147889084642
 20
698.7485634554641
  0
LWPOLYLINE
  5
1898
330
1F
100
AcDbEntity
  8
PIC06
  6
Continuous
 62
     7
100
AcDbPolyline
 90
       19
 70
     0
 43
0.0
 10
881.9562656117559
 20
699.827455276476
 42
0.37840745570603
 10
881.7728851965611
 20
699.6422367269643
 10
881.7167277425905
 20
698.6563874680832
 42
-0.3976438591076241
 10
881.4808853518142
 20
698.4335971664823
 10
881.3300143523647
 20
698.4335971664823
 10
881.3300143523647
 20
698.7485634554641
 10
881.4147889084642
 20
698.7485634554641
 10
881.4853009947546
 20
699.5753499640405
 10
881.3300143523647
 20
699.5753499640405
 10
881.3300143523647
 20
699.8115746807761
 10
881.5451668749938
 20
700.0380515205624
 42
-0.1882111087651402
 10
881.9338478805192
 20
700.2205437806123
 42
0.0087074935212722
 10
888.7653933639404
 20
700.7978795820672
 42
0.2408709777047395
 10
889.0663738254716
 20
700.9926982644564
 10
889.4403962936367
 20
700.9926982644564
 10
889.4403962936367
 20
700.5202488309842
 10
889.1451153977168
 20
700.5202488309842
 42
-0.1133843790584416
 10
888.8112727326261
 20
700.4068091915496
 42
-0.0087199634978549
 10
881.9562656117559
 20
699.827455276476
  0
LWPOLYLINE
  5
1899
330
1F
100
AcDbEntity
  8
PIC06
  6
Continuous
 62
     7
100
AcDbPolyline
 90
       19
 70
     0
 43
0.0
 10
881.9338478805192
 20
700.2205437806123
 42
0.0087074935212722
 10
888.7653933639404
 20
700.7978795820672
 42
0.2408709777047395
 10
889.0663738254716
 20
700.9926982644564
 10
889.4403962936367
 20
700.9926982644564
 10
889.4403962936367
 20
700.5202488309842
 10
889.1451153977168
 20
700.5202488309842
 42
-0.1133843790584416
 10
888.8112727326261
 20
700.4068091915496
 42
-0.0087199634978549
 10
881.9562656117559
 20
699.827455276476
 42
0.37840745570603
 10
881.7728851965611
 20
699.6422367269643
 10
881.7167277425905
 20
698.6563874680832
 42
-0.3976438591076241
 10
881.4808853518142
 20
698.4335971664823
 10
881.3300143523647
 20
698.4335971664823
 10
881.3300143523647
 20
698.7485634554641
 10
881.4147889084642
 20
698.7485634554641
 10
881.4853009947546
 20
699.5753499640405
 10
881.3300143523647
 20
699.5753499640405
 10
881.3300143523647
 20
699.8115746807761
 10
881.5451668749938
 20
700.0380515205624
 42
-0.1882111087651402
 10
881.9338478805192
 20
700.2205437806123
  0
LWPOLYLINE
  5
189A
330
1F
100
AcDbEntity
  8
PIC06
  6
Continuous
 62
     7
100
AcDbPolyline
 90
       19
 70
     0
 43
0.0
 10
888.8112727326261
 20
700.4068091915496
 42
-0.0087199634978549
 10
881.9562656117559
 20
699.827455276476
 42
0.37840745570603
 10
881.7728851965611
 20
699.6422367269643
 10
881.7167277425905
 20
698.6563874680832
 42
-0.3976438591076241
 10
881.4808853518142
 20
698.4335971664823
 10
881.3300143523647
 20
698.4335971664823
 10
881.3300143523647
 20
698.7485634554641
 10
881.4147889084642
 20
698.7485634554641
 10
881.4853009947546
 20
699.5753499640405
 10
881.3300143523647
 20
699.5753499640405
 10
881.3300143523647
 20
699.8115746807761
 10
881.5451668749938
 20
700.0380515205624
 42
-0.1882111087651402
 10
881.9338478805192
 20
700.2205437806123
 42
0.0087074935212722
 10
888.7653933639404
 20
700.7978795820672
 42
0.2408709777047395
 10
889.0663738254716
 20
700.9926982644564
 10
889.4403962936367
 20
700.9926982644564
 10
889.4403962936367
 20
700.5202488309842
 10
889.1451153977168
 20
700.5202488309842
 42
-0.1133843790584416
 10
888.8112727326261
 20
700.4068091915496
  0
LWPOLYLINE
  5
189B
330
1F
100
AcDbEntity
  8
PIC06
  6
Continuous
 62
     7
100
AcDbPolyline
 90
       19
 70
     0
 43
0.0
 10
889.0663738254716
 20
700.9926982644564
 10
889.4403962936367
 20
700.9926982644564
 10
889.4403962936367
 20
700.5202488309842
 10
889.1451153977168
 20
700.5202488309842
 42
-0.1133843790584416
 10
888.8112727326261
 20
700.4068091915496
 42
-0.0087199634978549
 10
881.9562656117559
 20
699.827455276476
 42
0.37840745570603
 10
881.7728851965611
 20
699.6422367269643
 10
881.7167277425905
 20
698.6563874680832
 42
-0.3976438591076241
 10
881.4808853518142
 20
698.4335971664823
 10
881.3300143523647
 20
698.4335971664823
 10
881.3300143523647
 20
698.7485634554641
 10
881.4147889084642
 20
698.7485634554641
 10
881.4853009947546
 20
699.5753499640405
 10
881.3300143523647
 20
699.5753499640405
 10
881.3300143523647
 20
699.8115746807761
 10
881.5451668749938
 20
700.0380515205624
 42
-0.1882111087651402
 10
881.9338478805192
 20
700.2205437806123
 42
0.0087074935212722
 10
888.7653933639404
 20
700.7978795820672
 42
0.2408709777047395
 10
889.0663738254716
 20
700.9926982644564
  0
LWPOLYLINE
  5
189C
330
1F
100
AcDbEntity
  8
PIC06
  6
Continuous
 62
     7
100
AcDbPolyline
 90
       27
 70
     0
 43
0.0
 10
890.4246659467034
 20
700.9926982644564
 10
890.7986884148694
 20
700.9926982644564
 42
0.0017389623172428
 10
892.1607697166637
 20
701.1329411793549
 42
0.1263245111601326
 10
893.9951860103347
 20
701.817973328486
 42
0.0500074908383992
 10
895.2477068486924
 20
702.8916055063691
 42
0.0933542208621626
 10
896.2797849613798
 20
704.4805496102171
 42
0.4746574215071809
 10
896.1926112090413
 20
704.6414727165393
 10
894.5194177825742
 20
704.9597957036785
 42
-0.3601615323727392
 10
894.2633175936652
 20
705.2692121632553
 10
894.2633175936652
 20
705.4208525609665
 42
-0.3389975099070542
 10
894.5545034080105
 20
705.8009776849658
 42
-0.0599753711554261
 10
896.6968034809106
 20
706.1108110845197
 42
-0.4574507340648128
 10
897.0169502584868
 20
705.7577564394259
 42
-0.1615609826812147
 10
895.532478182139
 20
702.6197394223508
 42
-0.0857797321533613
 10
893.1615947079054
 20
700.8639389971922
 42
0.2833634535076444
 10
892.2947782875308
 20
699.4572376056721
 42
0.0609162366929193
 10
892.4107929873089
 20
698.5085234359457
 42
-0.0238310987079637
 10
893.8696097324381
 20
691.1500017337866
 10
893.471525131421
 20
691.1499981292836
 42
0.0006352818845792
 10
893.4417578857747
 20
691.3468520598971
 42
-0.3385908701250146
 10
892.1000358548454
 20
692.7111629993714
 10
891.1266932284597
 20
700.5140033923944
 42
0.4071540163149784
 10
890.9977049305553
 20
700.6169061374285
 42
-0.0002264938958104
 10
890.8198869990329
 20
700.5991572830862
 42
0.2926011204417974
 10
890.7199468426242
 20
700.5202488309842
 10
890.4246659467034
 20
700.5202488309842
 10
890.4246659467034
 20
700.9926982644564
  0
LWPOLYLINE
  5
189D
330
1F
100
AcDbEntity
  8
PIC06
  6
Continuous
 62
     7
100
AcDbPolyline
 90
        9
 70
     0
 43
0.0
 10
892.1941182729797
 20
700.8197453348957
 42
-0.0010462200633152
 10
891.3734480352369
 20
700.7340980630187
 42
-0.1126419445539628
 10
891.4392372198227
 20
700.552990783407
 10
892.4125798462073
 20
692.750150390384
 42
0.3356865359607333
 10
893.4729549095246
 20
691.6606137727922
 42
0.0220337360601653
 10
892.1051084119181
 20
698.4326226978646
 42
-0.060915928591485
 10
891.9798119985498
 20
699.4572376056721
 42
-0.2187175991477664
 10
892.638507943373
 20
700.8910171772831
 42
-0.0264804539527784
 10
892.1941182729797
 20
700.8197453348957
  0
LWPOLYLINE
  5
189E
330
1F
100
AcDbEntity
  8
PIC06
  6
Continuous
 62
     7
100
AcDbPolyline
 90
       27
 70
     0
 43
0.0
 10
895.532478182139
 20
702.6197394223508
 42
-0.0857797321533613
 10
893.1615947079054
 20
700.8639389971922
 42
0.2833634535076444
 10
892.2947782875308
 20
699.4572376056721
 42
0.0609162366929193
 10
892.4107929873089
 20
698.5085234359457
 42
-0.0238310987079637
 10
893.8696097324381
 20
691.1500017337866
 10
893.471525131421
 20
691.1499981292836
 42
0.0006352818845792
 10
893.4417578857747
 20
691.3468520598971
 42
-0.3385908701250146
 10
892.1000358548454
 20
692.7111629993714
 10
891.1266932284597
 20
700.5140033923944
 42
0.4071540163149784
 10
890.9977049305553
 20
700.6169061374285
 42
-0.0002264938958104
 10
890.8198869990329
 20
700.5991572830862
 42
0.2926011204417974
 10
890.7199468426242
 20
700.5202488309842
 10
890.4246659467034
 20
700.5202488309842
 10
890.4246659467034
 20
700.9926982644564
 10
890.7986884148694
 20
700.9926982644564
 42
0.0017389623172428
 10
892.1607697166637
 20
701.1329411793549
 42
0.1263245111601326
 10
893.9951860103347
 20
701.817973328486
 42
0.0500074908383992
 10
895.2477068486924
 20
702.8916055063691
 42
0.0933542208621626
 10
896.2797849613798
 20
704.4805496102171
 42
0.4746574215071809
 10
896.1926112090413
 20
704.6414727165393
 10
894.5194177825742
 20
704.9597957036785
 42
-0.3601615323727392
 10
894.2633175936652
 20
705.2692121632553
 10
894.2633175936652
 20
705.4208525609665
 42
-0.3389975099070542
 10
894.5545034080105
 20
705.8009776849658
 42
-0.0599753711554261
 10
896.6968034809106
 20
706.1108110845197
 42
-0.4574507340648128
 10
897.0169502584868
 20
705.7577564394259
 42
-0.1615609826812147
 10
895.532478182139
 20
702.6197394223508
  0
LWPOLYLINE
  5
189F
330
1F
100
AcDbEntity
  8
PIC06
  6
Continuous
 62
     7
100
AcDbPolyline
 90
       27
 70
     0
 43
0.0
 10
894.2633175936652
 20
705.2692121632553
 10
894.2633175936652
 20
705.4208525609665
 42
-0.3389975099070542
 10
894.5545034080105
 20
705.8009776849658
 42
-0.0599753711554261
 10
896.6968034809106
 20
706.1108110845197
 42
-0.4574507340648128
 10
897.0169502584868
 20
705.7577564394259
 42
-0.1615609826812147
 10
895.532478182139
 20
702.6197394223508
 42
-0.0857797321533613
 10
893.1615947079054
 20
700.8639389971922
 42
0.2833634535076444
 10
892.2947782875308
 20
699.4572376056721
 42
0.0609162366929193
 10
892.4107929873089
 20
698.5085234359457
 42
-0.0238310987079637
 10
893.8696097324381
 20
691.1500017337866
 10
893.471525131421
 20
691.1499981292836
 42
0.0006352818845792
 10
893.4417578857747
 20
691.3468520598971
 42
-0.3385908701250146
 10
892.1000358548454
 20
692.7111629993714
 10
891.1266932284597
 20
700.5140033923944
 42
0.4071540163149784
 10
890.9977049305553
 20
700.6169061374285
 42
-0.0002264938958104
 10
890.8198869990329
 20
700.5991572830862
 42
0.2926011204417974
 10
890.7199468426242
 20
700.5202488309842
 10
890.4246659467034
 20
700.5202488309842
 10
890.4246659467034
 20
700.9926982644564
 10
890.7986884148694
 20
700.9926982644564
 42
0.0017389623172428
 10
892.1607697166637
 20
701.1329411793549
 42
0.1263245111601326
 10
893.9951860103347
 20
701.817973328486
 42
0.0500074908383992
 10
895.2477068486924
 20
702.8916055063691
 42
0.0933542208621626
 10
896.2797849613798
 20
704.4805496102171
 42
0.4746574215071809
 10
896.1926112090413
 20
704.6414727165393
 10
894.5194177825742
 20
704.9597957036785
 42
-0.3601615323727392
 10
894.2633175936652
 20
705.2692121632553
  0
LWPOLYLINE
  5
18A0
330
1F
100
AcDbEntity
  8
PIC06
  6
Continuous
 62
     7
100
AcDbPolyline
 90
       27
 70
     0
 43
0.0
 10
894.5545034080105
 20
705.8009776849658
 42
-0.0599753711554261
 10
896.6968034809106
 20
706.1108110845197
 42
-0.4574507340648128
 10
897.0169502584868
 20
705.7577564394259
 42
-0.1615609826812147
 10
895.532478182139
 20
702.6197394223508
 42
-0.0857797321533613
 10
893.1615947079054
 20
700.8639389971922
 42
0.2833634535076444
 10
892.2947782875308
 20
699.4572376056721
 42
0.0609162366929193
 10
892.4107929873089
 20
698.5085234359457
 42
-0.0238310987079637
 10
893.8696097324381
 20
691.1500017337866
 10
893.471525131421
 20
691.1499981292836
 42
0.0006352818845792
 10
893.4417578857747
 20
691.3468520598971
 42
-0.3385908701250146
 10
892.1000358548454
 20
692.7111629993714
 10
891.1266932284597
 20
700.5140033923944
 42
0.4071540163149784
 10
890.9977049305553
 20
700.6169061374285
 42
-0.0002264938958104
 10
890.8198869990329
 20
700.5991572830862
 42
0.2926011204417974
 10
890.7199468426242
 20
700.5202488309842
 10
890.4246659467034
 20
700.5202488309842
 10
890.4246659467034
 20
700.9926982644564
 10
890.7986884148694
 20
700.9926982644564
 42
0.0017389623172428
 10
892.1607697166637
 20
701.1329411793549
 42
0.1263245111601326
 10
893.9951860103347
 20
701.817973328486
 42
0.0500074908383992
 10
895.2477068486924
 20
702.8916055063691
 42
0.0933542208621626
 10
896.2797849613798
 20
704.4805496102171
 42
0.4746574215071809
 10
896.1926112090413
 20
704.6414727165393
 10
894.5194177825742
 20
704.9597957036785
 42
-0.3601615323727392
 10
894.2633175936652
 20
705.2692121632553
 10
894.2633175936652
 20
705.4208525609665
 42
-0.3389975099070542
 10
894.5545034080105
 20
705.8009776849658
  0
LWPOLYLINE
  5
18A1
330
1F
100
AcDbEntity
  8
PIC06
  6
Continuous
 62
     7
100
AcDbPolyline
 90
       27
 70
     0
 43
0.0
 10
897.0169502584868
 20
705.7577564394259
 42
-0.1615609826812147
 10
895.532478182139
 20
702.6197394223508
 42
-0.0857797321533613
 10
893.1615947079054
 20
700.8639389971922
 42
0.2833634535076444
 10
892.2947782875308
 20
699.4572376056721
 42
0.0609162366929193
 10
892.4107929873089
 20
698.5085234359457
 42
-0.0238310987079637
 10
893.8696097324381
 20
691.1500017337866
 10
893.471525131421
 20
691.1499981292836
 42
0.0006352818845792
 10
893.4417578857747
 20
691.3468520598971
 42
-0.3385908701250146
 10
892.1000358548454
 20
692.7111629993714
 10
891.1266932284597
 20
700.5140033923944
 42
0.4071540163149784
 10
890.9977049305553
 20
700.6169061374285
 42
-0.0002264938958104
 10
890.8198869990329
 20
700.5991572830862
 42
0.2926011204417974
 10
890.7199468426242
 20
700.5202488309842
 10
890.4246659467034
 20
700.5202488309842
 10
890.4246659467034
 20
700.9926982644564
 10
890.7986884148694
 20
700.9926982644564
 42
0.0017389623172428
 10
892.1607697166637
 20
701.1329411793549
 42
0.1263245111601326
 10
893.9951860103347
 20
701.817973328486
 42
0.0500074908383992
 10
895.2477068486924
 20
702.8916055063691
 42
0.0933542208621626
 10
896.2797849613798
 20
704.4805496102171
 42
0.4746574215071809
 10
896.1926112090413
 20
704.6414727165393
 10
894.5194177825742
 20
704.9597957036785
 42
-0.3601615323727392
 10
894.2633175936652
 20
705.2692121632553
 10
894.2633175936652
 20
705.4208525609665
 42
-0.3389975099070542
 10
894.5545034080105
 20
705.8009776849658
 42
-0.0599753711554261
 10
896.6968034809106
 20
706.1108110845197
 42
-0.4574507340648128
 10
897.0169502584868
 20
705.7577564394259
  0
LWPOLYLINE
  5
18A2
330
1F
100
AcDbEntity
  8
PIC06
  6
Continuous
 62
     7
100
AcDbPolyline
 90
        8
 70
     0
 43
0.0
 10
894.6102964062601
 20
705.263121820094
 10
896.2514773091143
 20
704.9508891761161
 42
-0.1602328648289332
 10
896.488221422126
 20
704.8197769908856
 42
0.0482067530899929
 10
896.7043063332711
 20
705.795934171424
 42
0.0599753711554263
 10
894.636521045516
 20
705.4968775857669
 42
0.3389975099070834
 10
894.5782838826461
 20
705.4208525609665
 10
894.5782838826461
 20
705.3017988775409
 42
0.3601615323726878
 10
894.6102964062601
 20
705.263121820094
  0
LWPOLYLINE
  5
18A3
330
1F
100
AcDbEntity
  8
PIC06
  6
Continuous
 62
     7
100
AcDbPolyline
 90
       27
 70
     0
 43
0.0
 10
893.9951860103347
 20
701.817973328486
 42
0.0500074908383992
 10
895.2477068486924
 20
702.8916055063691
 42
0.0933542208621626
 10
896.2797849613798
 20
704.4805496102171
 42
0.4746574215071809
 10
896.1926112090413
 20
704.6414727165393
 10
894.5194177825742
 20
704.9597957036785
 42
-0.3601615323727392
 10
894.2633175936652
 20
705.2692121632553
 10
894.2633175936652
 20
705.4208525609665
 42
-0.3389975099070542
 10
894.5545034080105
 20
705.8009776849658
 42
-0.0599753711554261
 10
896.6968034809106
 20
706.1108110845197
 42
-0.4574507340648128
 10
897.0169502584868
 20
705.7577564394259
 42
-0.1615609826812147
 10
895.532478182139
 20
702.6197394223508
 42
-0.0857797321533613
 10
893.1615947079054
 20
700.8639389971922
 42
0.2833634535076444
 10
892.2947782875308
 20
699.4572376056721
 42
0.0609162366929193
 10
892.4107929873089
 20
698.5085234359457
 42
-0.0238310987079637
 10
893.8696097324381
 20
691.1500017337866
 10
893.471525131421
 20
691.1499981292836
 42
0.0006352818845792
 10
893.4417578857747
 20
691.3468520598971
 42
-0.3385908701250146
 10
892.1000358548454
 20
692.7111629993714
 10
891.1266932284597
 20
700.5140033923944
 42
0.4071540163149784
 10
890.9977049305553
 20
700.6169061374285
 42
-0.0002264938958104
 10
890.8198869990329
 20
700.5991572830862
 42
0.2926011204417974
 10
890.7199468426242
 20
700.5202488309842
 10
890.4246659467034
 20
700.5202488309842
 10
890.4246659467034
 20
700.9926982644564
 10
890.7986884148694
 20
700.9926982644564
 42
0.0017389623172428
 10
892.1607697166637
 20
701.1329411793549
 42
0.1263245111601326
 10
893.9951860103347
 20
701.817973328486
  0
LWPOLYLINE
  5
18A4
330
1F
100
AcDbEntity
  8
PIC06
  6
Continuous
 62
     7
100
AcDbPolyline
 90
        9
 70
     0
 43
0.0
 10
891.9798119985498
 20
699.4572376056721
 42
-0.2187175991477664
 10
892.638507943373
 20
700.8910171772831
 42
-0.0264804539527784
 10
892.1941182729797
 20
700.8197453348957
 42
-0.0010462200633152
 10
891.3734480352369
 20
700.7340980630187
 42
-0.1126419445539628
 10
891.4392372198227
 20
700.552990783407
 10
892.4125798462073
 20
692.750150390384
 42
0.3356865359607333
 10
893.4729549095246
 20
691.6606137727922
 42
0.0220337360601653
 10
892.1051084119181
 20
698.4326226978646
 42
-0.060915928591485
 10
891.9798119985498
 20
699.4572376056721
  0
LWPOLYLINE
  5
18A5
330
1F
100
AcDbEntity
  8
PIC06
  6
Continuous
 62
     7
100
AcDbPolyline
 90
       27
 70
     0
 43
0.0
 10
892.4107929873089
 20
698.5085234359457
 42
-0.0238310987079637
 10
893.8696097324381
 20
691.1500017337866
 10
893.471525131421
 20
691.1499981292836
 42
0.0006352818845792
 10
893.4417578857747
 20
691.3468520598971
 42
-0.3385908701250146
 10
892.1000358548454
 20
692.7111629993714
 10
891.1266932284597
 20
700.5140033923944
 42
0.4071540163149784
 10
890.9977049305553
 20
700.6169061374285
 42
-0.0002264938958104
 10
890.8198869990329
 20
700.5991572830862
 42
0.2926011204417974
 10
890.7199468426242
 20
700.5202488309842
 10
890.4246659467034
 20
700.5202488309842
 10
890.4246659467034
 20
700.9926982644564
 10
890.7986884148694
 20
700.9926982644564
 42
0.0017389623172428
 10
892.1607697166637
 20
701.1329411793549
 42
0.1263245111601326
 10
893.9951860103347
 20
701.817973328486
 42
0.0500074908383992
 10
895.2477068486924
 20
702.8916055063691
 42
0.0933542208621626
 10
896.2797849613798
 20
704.4805496102171
 42
0.4746574215071809
 10
896.1926112090413
 20
704.6414727165393
 10
894.5194177825742
 20
704.9597957036785
 42
-0.3601615323727392
 10
894.2633175936652
 20
705.2692121632553
 10
894.2633175936652
 20
705.4208525609665
 42
-0.3389975099070542
 10
894.5545034080105
 20
705.8009776849658
 42
-0.0599753711554261
 10
896.6968034809106
 20
706.1108110845197
 42
-0.4574507340648128
 10
897.0169502584868
 20
705.7577564394259
 42
-0.1615609826812147
 10
895.532478182139
 20
702.6197394223508
 42
-0.0857797321533613
 10
893.1615947079054
 20
700.8639389971922
 42
0.2833634535076444
 10
892.2947782875308
 20
699.4572376056721
 42
0.0609162366929193
 10
892.4107929873089
 20
698.5085234359457
  0
LWPOLYLINE
  5
18A6
330
1F
100
AcDbEntity
  8
PIC06
  6
Continuous
 62
     7
100
AcDbPolyline
 90
        9
 70
     0
 43
0.0
 10
892.4125798462073
 20
692.750150390384
 42
0.3356865359607333
 10
893.4729549095246
 20
691.6606137727922
 42
0.0220337360601653
 10
892.1051084119181
 20
698.4326226978646
 42
-0.060915928591485
 10
891.9798119985498
 20
699.4572376056721
 42
-0.2187175991477664
 10
892.638507943373
 20
700.8910171772831
 42
-0.0264804539527784
 10
892.1941182729797
 20
700.8197453348957
 42
-0.0010462200633152
 10
891.3734480352369
 20
700.7340980630187
 42
-0.1126419445539628
 10
891.4392372198227
 20
700.552990783407
 10
892.4125798462073
 20
692.750150390384
  0
LWPOLYLINE
  5
18A7
330
1F
100
AcDbEntity
  8
PIC06
  6
Continuous
 62
     7
100
AcDbPolyline
 90
        9
 70
     0
 43
0.0
 10
891.4392372198227
 20
700.552990783407
 10
892.4125798462073
 20
692.750150390384
 42
0.3356865359607333
 10
893.4729549095246
 20
691.6606137727922
 42
0.0220337360601653
 10
892.1051084119181
 20
698.4326226978646
 42
-0.060915928591485
 10
891.9798119985498
 20
699.4572376056721
 42
-0.2187175991477664
 10
892.638507943373
 20
700.8910171772831
 42
-0.0264804539527784
 10
892.1941182729797
 20
700.8197453348957
 42
-0.0010462200633152
 10
891.3734480352369
 20
700.7340980630187
 42
-0.1126419445539628
 10
891.4392372198227
 20
700.552990783407
  0
LWPOLYLINE
  5
18A8
330
1F
100
AcDbEntity
  8
PIC06
  6
Continuous
 62
     7
100
AcDbPolyline
 90
       27
 70
     0
 43
0.0
 10
892.1000358548454
 20
692.7111629993714
 10
891.1266932284597
 20
700.5140033923944
 42
0.4071540163149784
 10
890.9977049305553
 20
700.6169061374285
 42
-0.0002264938958104
 10
890.8198869990329
 20
700.5991572830862
 42
0.2926011204417974
 10
890.7199468426242
 20
700.5202488309842
 10
890.4246659467034
 20
700.5202488309842
 10
890.4246659467034
 20
700.9926982644564
 10
890.7986884148694
 20
700.9926982644564
 42
0.0017389623172428
 10
892.1607697166637
 20
701.1329411793549
 42
0.1263245111601326
 10
893.9951860103347
 20
701.817973328486
 42
0.0500074908383992
 10
895.2477068486924
 20
702.8916055063691
 42
0.0933542208621626
 10
896.2797849613798
 20
704.4805496102171
 42
0.4746574215071809
 10
896.1926112090413
 20
704.6414727165393
 10
894.5194177825742
 20
704.9597957036785
 42
-0.3601615323727392
 10
894.2633175936652
 20
705.2692121632553
 10
894.2633175936652
 20
705.4208525609665
 42
-0.3389975099070542
 10
894.5545034080105
 20
705.8009776849658
 42
-0.0599753711554261
 10
896.6968034809106
 20
706.1108110845197
 42
-0.4574507340648128
 10
897.0169502584868
 20
705.7577564394259
 42
-0.1615609826812147
 10
895.532478182139
 20
702.6197394223508
 42
-0.0857797321533613
 10
893.1615947079054
 20
700.8639389971922
 42
0.2833634535076444
 10
892.2947782875308
 20
699.4572376056721
 42
0.0609162366929193
 10
892.4107929873089
 20
698.5085234359457
 42
-0.0238310987079637
 10
893.8696097324381
 20
691.1500017337866
 10
893.471525131421
 20
691.1499981292836
 42
0.0006352818845792
 10
893.4417578857747
 20
691.3468520598971
 42
-0.3385908701250146
 10
892.1000358548454
 20
692.7111629993714
  0
CIRCLE
  5
18A9
330
1F
100
AcDbEntity
  8
PIC06
  6
Continuous
 62
     7
100
AcDbCircle
 10
873.6723964515039
 20
723.0348902560199
 30
0.0
 40
0.5511910057175161
  0
LINE
  5
18AA
330
1F
100
AcDbEntity
  8
PIC06
  6
Continuous
 62
     7
100
AcDbLine
 10
873.1212046197533
 20
705.7171925991779
 30
0.0
 11
873.1212046197533
 21
706.1109004604049
 31
0.0
  0
LINE
  5
18AB
330
1F
100
AcDbEntity
  8
PIC06
  6
Continuous
 62
     7
100
AcDbLine
 10
874.2235866311894
 20
705.7171925991779
 30
0.0
 11
874.2235866311894
 21
706.1109004604049
 31
0.0
  0
LWPOLYLINE
  5
18AC
330
1F
100
AcDbEntity
  8
PIC06
  6
Continuous
 62
     7
100
AcDbPolyline
 90
       14
 70
     0
 43
0.0
 10
875.2669124634403
 20
705.795934171424
 10
874.847829842035
 20
705.795934171424
 42
-0.0930710308039602
 10
874.918425505476
 20
705.6207148719177
 10
875.0329906328397
 20
705.047889235093
 10
875.2669124634403
 20
705.047889235093
 10
875.2669124634403
 20
704.732922946111
 10
874.9361616604911
 20
704.732922946111
 42
-0.3575107650276658
 10
874.7431305001974
 20
704.891170644666
 10
874.6095756490058
 20
705.5589449006238
 42
0.35751076502769
 10
874.416544488713
 20
705.7171925991779
 10
874.2235866311894
 20
705.7171925991779
 10
874.2235866311894
 20
706.1109004604049
 10
875.2669124634403
 20
706.1109004604049
 10
875.2669124634403
 20
705.795934171424
  0
LWPOLYLINE
  5
18AD
330
1F
100
AcDbEntity
  8
PIC06
  6
Continuous
 62
     7
100
AcDbPolyline
 90
       11
 70
     0
 43
0.0
 10
872.9243515151729
 20
705.7171925991779
 42
0.4142135623731022
 10
872.8062391568046
 20
705.5990802408104
 10
872.8062391568046
 20
704.9297768767246
 10
872.4125312955775
 20
704.9297768767246
 10
872.4125312955775
 20
705.5990802408104
 42
0.4142135623731022
 10
872.2944189372093
 20
705.7171925991779
 10
872.2156773649649
 20
705.7171925991779
 10
872.2156773649649
 20
706.1109004604049
 10
873.1212046197533
 20
706.1109004604049
 10
873.1212046197533
 20
705.7171925991779
 10
872.9243515151729
 20
705.7171925991779
  0
LINE
  5
18AE
330
1F
100
AcDbEntity
  8
PIC06
  6
Continuous
 62
     7
100
AcDbLine
 10
875.1446690493839
 20
704.732922946111
 30
0.0
 11
875.2669124634403
 21
704.8551663601674
 31
0.0
  0
LINE
  5
18AF
330
1F
100
AcDbEntity
  8
PIC06
  6
Continuous
 62
     7
100
AcDbLine
 10
874.9776329370206
 20
704.732922946111
 30
0.0
 11
875.2669124634403
 21
705.0222024725298
 31
0.0
  0
LINE
  5
18B0
330
1F
100
AcDbEntity
  8
PIC06
  6
Continuous
 62
     7
100
AcDbLine
 10
874.837253951212
 20
704.7595800726658
 30
0.0
 11
875.12556311364
 21
705.047889235093
 31
0.0
  0
LINE
  5
18B1
330
1F
100
AcDbEntity
  8
PIC06
  6
Continuous
 62
     7
100
AcDbLine
 10
874.757495047641
 20
704.8468572814572
 30
0.0
 11
875.0205800275798
 21
705.1099422613951
 31
0.0
  0
LINE
  5
18B2
330
1F
100
AcDbEntity
  8
PIC06
  6
Continuous
 62
     7
100
AcDbLine
 10
874.7250707999128
 20
704.9814691460915
 30
0.0
 11
874.9927406755187
 21
705.2491390216983
 31
0.0
  0
LINE
  5
18B3
330
1F
100
AcDbEntity
  8
PIC06
  6
Continuous
 62
     7
100
AcDbLine
 10
874.6972314478526
 20
705.1206659063937
 30
0.0
 11
874.9649013234593
 21
705.3883357820004
 31
0.0
  0
LINE
  5
18B4
330
1F
100
AcDbEntity
  8
PIC06
  6
Continuous
 62
     7
100
AcDbLine
 10
874.6693920957923
 20
705.2598626666967
 30
0.0
 11
874.9370619713982
 21
705.5275325423026
 31
0.0
  0
LINE
  5
18B5
330
1F
100
AcDbEntity
  8
PIC06
  6
Continuous
 62
     7
100
AcDbLine
 10
875.2054636005196
 20
705.795934171424
 30
0.0
 11
875.2669124634403
 21
705.8573830343448
 31
0.0
  0
LINE
  5
18B6
330
1F
100
AcDbEntity
  8
PIC06
  6
Continuous
 62
     7
100
AcDbLine
 10
874.6415527437312
 20
705.399059426998
 30
0.0
 11
874.9075020058652
 21
705.6650086891314
 31
0.0
  0
LINE
  5
18B7
330
1F
100
AcDbEntity
  8
PIC06
  6
Continuous
 62
     7
100
AcDbLine
 10
875.0384274881563
 20
705.795934171424
 30
0.0
 11
875.2669124634403
 21
706.0244191467072
 31
0.0
  0
LINE
  5
18B8
330
1F
100
AcDbEntity
  8
PIC06
  6
Continuous
 62
     7
100
AcDbLine
 10
874.6137133916709
 20
705.5382561873011
 30
0.0
 11
874.8566310273236
 21
705.7811738229538
 31
0.0
  0
LINE
  5
18B9
330
1F
100
AcDbEntity
  8
PIC06
  6
Continuous
 62
     7
100
AcDbLine
 10
874.8713913757937
 20
705.795934171424
 30
0.0
 11
875.1863576647748
 21
706.1109004604049
 31
0.0
  0
LINE
  5
18BA
330
1F
100
AcDbEntity
  8
PIC06
  6
Continuous
 62
     7
100
AcDbLine
 10
874.5616462163534
 20
705.6532251243461
 30
0.0
 11
875.0193215524122
 21
706.1109004604049
 31
0.0
  0
LINE
  5
18BB
330
1F
100
AcDbEntity
  8
PIC06
  6
Continuous
 62
     7
100
AcDbLine
 10
874.454717027419
 20
705.7133320477751
 30
0.0
 11
874.8522854400498
 21
706.1109004604049
 31
0.0
  0
LINE
  5
18BC
330
1F
100
AcDbEntity
  8
PIC06
  6
Continuous
 62
     7
100
AcDbLine
 10
874.2915414664594
 20
705.7171925991779
 30
0.0
 11
874.6852493276865
 21
706.1109004604049
 31
0.0
  0
LINE
  5
18BD
330
1F
100
AcDbEntity
  8
PIC06
  6
Continuous
 62
     7
100
AcDbLine
 10
874.2235866311894
 20
705.8162738762703
 30
0.0
 11
874.5182132153241
 21
706.1109004604049
 31
0.0
  0
LINE
  5
18BE
330
1F
100
AcDbEntity
  8
PIC06
  6
Continuous
 62
     7
100
AcDbLine
 10
874.2235866311894
 20
705.9833099886327
 30
0.0
 11
874.3511771029616
 21
706.1109004604049
 31
0.0
  0
LINE
  5
18BF
330
1F
100
AcDbEntity
  8
PIC06
  6
Continuous
 62
     7
100
AcDbLine
 10
872.6689451821922
 20
704.9297768767246
 30
0.0
 11
872.8062391568046
 21
705.0670708513371
 31
0.0
  0
LINE
  5
18C0
330
1F
100
AcDbEntity
  8
PIC06
  6
Continuous
 62
     7
100
AcDbLine
 10
872.5019090698296
 20
704.9297768767246
 30
0.0
 11
872.8062391568046
 21
705.2341069636995
 31
0.0
  0
LINE
  5
18C1
330
1F
100
AcDbEntity
  8
PIC06
  6
Continuous
 62
     7
100
AcDbLine
 10
872.4125312955775
 20
705.0074352148349
 30
0.0
 11
872.8062391568046
 21
705.401143076062
 31
0.0
  0
LINE
  5
18C2
330
1F
100
AcDbEntity
  8
PIC06
  6
Continuous
 62
     7
100
AcDbLine
 10
872.4125312955775
 20
705.1744713271983
 30
0.0
 11
872.8062391568046
 21
705.5681791884254
 31
0.0
  0
LINE
  5
18C3
330
1F
100
AcDbEntity
  8
PIC06
  6
Continuous
 62
     7
100
AcDbLine
 10
872.9552525675572
 20
705.7171925991779
 30
0.0
 11
873.1212046197533
 21
705.8831446513741
 31
0.0
  0
LINE
  5
18C4
330
1F
100
AcDbEntity
  8
PIC06
  6
Continuous
 62
     7
100
AcDbLine
 10
872.4125312955775
 20
705.3415074395616
 30
0.0
 11
873.1212046197533
 21
706.0501807637374
 31
0.0
  0
LINE
  5
18C5
330
1F
100
AcDbEntity
  8
PIC06
  6
Continuous
 62
     7
100
AcDbLine
 10
872.4125312955775
 20
705.508543551924
 30
0.0
 11
873.0148882040584
 21
706.1109004604049
 31
0.0
  0
LINE
  5
18C6
330
1F
100
AcDbEntity
  8
PIC06
  6
Continuous
 62
     7
100
AcDbLine
 10
872.3960330596737
 20
705.6590814283826
 30
0.0
 11
872.847852091696
 21
706.1109004604049
 31
0.0
  0
LINE
  5
18C7
330
1F
100
AcDbEntity
  8
PIC06
  6
Continuous
 62
     7
100
AcDbLine
 10
872.2871081181065
 20
705.7171925991779
 30
0.0
 11
872.6808159793336
 21
706.1109004604049
 31
0.0
  0
LINE
  5
18C8
330
1F
100
AcDbEntity
  8
PIC06
  6
Continuous
 62
     7
100
AcDbLine
 10
872.2156773649649
 20
705.8127979583987
 30
0.0
 11
872.5137798669702
 21
706.1109004604049
 31
0.0
  0
LINE
  5
18C9
330
1F
100
AcDbEntity
  8
PIC06
  6
Continuous
 62
     7
100
AcDbLine
 10
872.2156773649649
 20
705.9798340707621
 30
0.0
 11
872.3467437546078
 21
706.1109004604049
 31
0.0
  0
LINE
  5
18CA
330
1F
100
AcDbEntity
  8
PIC06
  6
Continuous
 62
     7
100
AcDbLine
 10
893.7997168902247
 20
691.1500011009338
 30
0.0
 11
893.860300402558
 21
691.2105846132681
 31
0.0
  0
LINE
  5
18CB
330
1F
100
AcDbEntity
  8
PIC06
  6
Continuous
 62
     7
100
AcDbLine
 10
893.6326792653998
 20
691.1499995884724
 30
0.0
 11
893.8380519390166
 21
691.3553722620881
 31
0.0
  0
LINE
  5
18CC
330
1F
100
AcDbEntity
  8
PIC06
  6
Continuous
 62
     7
100
AcDbLine
 10
893.470755694855
 20
691.1551121302891
 30
0.0
 11
893.8158034754742
 21
691.5001599109091
 31
0.0
  0
LINE
  5
18CD
330
1F
100
AcDbEntity
  8
PIC06
  6
Continuous
 62
     7
100
AcDbLine
 10
893.4488424278979
 20
691.3002349756961
 30
0.0
 11
893.7935550119318
 21
691.6449475597292
 31
0.0
  0
LINE
  5
18CE
330
1F
100
AcDbEntity
  8
PIC06
  6
Continuous
 62
     7
100
AcDbLine
 10
893.3452842876668
 20
691.3637129478274
 30
0.0
 11
893.7713065483894
 21
691.7897352085502
 31
0.0
  0
LINE
  5
18CF
330
1F
100
AcDbEntity
  8
PIC06
  6
Continuous
 62
     7
100
AcDbLine
 10
893.2118284336111
 20
691.3972932061351
 30
0.0
 11
893.7490580848471
 21
691.934522857371
 31
0.0
  0
LINE
  5
18D0
330
1F
100
AcDbEntity
  8
PIC06
  6
Continuous
 62
     7
100
AcDbLine
 10
893.0875402774246
 20
691.440041162311
 30
0.0
 11
893.3366719673822
 21
691.6891728522687
 31
0.0
  0
LINE
  5
18D1
330
1F
100
AcDbEntity
  8
PIC06
  6
Continuous
 62
     7
100
AcDbLine
 10
893.4500702222821
 20
691.8025711071695
 30
0.0
 11
893.7257482968652
 21
692.0782491817517
 31
0.0
  0
LINE
  5
18D2
330
1F
100
AcDbEntity
  8
PIC06
  6
Continuous
 62
     7
100
AcDbLine
 10
892.9713753549922
 20
691.4909123522411
 30
0.0
 11
893.2106889544302
 21
691.7302259516791
 31
0.0
  0
LINE
  5
18D3
330
1F
100
AcDbEntity
  8
PIC06
  6
Continuous
 62
     7
100
AcDbLine
 10
893.4268809338236
 20
691.9464179310725
 30
0.0
 11
893.7020383006975
 21
692.2215752979464
 31
0.0
  0
LINE
  5
18D4
330
1F
100
AcDbEntity
  8
PIC06
  6
Continuous
 62
     7
100
AcDbLine
 10
892.8629748717275
 20
691.5495479813398
 30
0.0
 11
893.0949661282639
 21
691.7815392378752
 31
0.0
  0
LINE
  5
18D5
330
1F
100
AcDbEntity
  8
PIC06
  6
Continuous
 62
     7
100
AcDbLine
 10
893.4036916453651
 20
692.0902647549764
 30
0.0
 11
893.6783283045306
 21
692.3649014141419
 31
0.0
  0
LINE
  5
18D6
330
1F
100
AcDbEntity
  8
PIC06
  6
Continuous
 62
     7
100
AcDbLine
 10
892.7613179487016
 20
691.6149271706763
 30
0.0
 11
892.9883879161124
 21
691.8419971380871
 31
0.0
  0
LINE
  5
18D7
330
1F
100
AcDbEntity
  8
PIC06
  6
Continuous
 62
     7
100
AcDbLine
 10
893.3805023569066
 20
692.2341115788803
 30
0.0
 11
893.6546183083628
 21
692.5082275303375
 31
0.0
  0
LINE
  5
18D8
330
1F
100
AcDbEntity
  8
PIC06
  6
Continuous
 62
     7
100
AcDbLine
 10
892.6660166176452
 20
691.6866619519814
 30
0.0
 11
892.8902331065955
 21
691.9108784409336
 31
0.0
  0
LINE
  5
18D9
330
1F
100
AcDbEntity
  8
PIC06
  6
Continuous
 62
     7
100
AcDbLine
 10
893.3573130684472
 20
692.3779584027843
 30
0.0
 11
893.6309083121951
 21
692.6515536465322
 31
0.0
  0
LINE
  5
18DA
330
1F
100
AcDbEntity
  8
PIC06
  6
Continuous
 62
     7
100
AcDbLine
 10
892.5773790548264
 20
691.765060501526
 30
0.0
 11
892.8000786388738
 21
691.9877600855743
 31
0.0
  0
LINE
  5
18DB
330
1F
100
AcDbEntity
  8
PIC06
  6
Continuous
 62
     7
100
AcDbLine
 10
893.3340367374302
 20
692.5217181841299
 30
0.0
 11
893.6071983160273
 21
692.7948797627268
 31
0.0
  0
LINE
  5
18DC
330
1F
100
AcDbEntity
  8
PIC06
  6
Continuous
 62
     7
100
AcDbLine
 10
892.4949763189934
 20
691.8496938780572
 30
0.0
 11
892.7177859764533
 21
692.0725035355153
 31
0.0
  0
LINE
  5
18DD
330
1F
100
AcDbEntity
  8
PIC06
  6
Continuous
 62
     7
100
AcDbLine
 10
893.3093437003199
 20
692.6640612593828
 30
0.0
 11
893.5821784856315
 21
692.9368960446955
 31
0.0
  0
LINE
  5
18DE
330
1F
100
AcDbEntity
  8
PIC06
  6
Continuous
 62
     7
100
AcDbLine
 10
892.4186227765213
 20
691.9403764479466
 30
0.0
 11
892.6435695983737
 21
692.165323269799
 31
0.0
  0
LINE
  5
18DF
330
1F
100
AcDbEntity
  8
PIC06
  6
Continuous
 62
     7
100
AcDbLine
 10
893.2846506632087
 20
692.8064043346348
 30
0.0
 11
893.5571405446653
 21
693.0788942160907
 31
0.0
  0
LINE
  5
18E0
330
1F
100
AcDbEntity
  8
PIC06
  6
Continuous
 62
     7
100
AcDbLine
 10
892.3489609557201
 20
692.0377507395078
 30
0.0
 11
892.5774572867076
 21
692.2662470704963
 31
0.0
  0
LINE
  5
18E1
330
1F
100
AcDbEntity
  8
PIC06
  6
Continuous
 62
     7
100
AcDbLine
 10
893.2599576260981
 20
692.9487474098869
 30
0.0
 11
893.5321026036971
 21
693.2208923874859
 31
0.0
  0
LINE
  5
18E2
330
1F
100
AcDbEntity
  8
PIC06
  6
Continuous
 62
     7
100
AcDbLine
 10
892.2859758084587
 20
692.1418017046098
 30
0.0
 11
892.5199583760923
 21
692.3757842722434
 31
0.0
  0
LINE
  5
18E3
330
1F
100
AcDbEntity
  8
PIC06
  6
Continuous
 62
     7
100
AcDbLine
 10
893.2352645889878
 20
693.0910904851389
 30
0.0
 11
893.50706466273
 21
693.3628905588811
 31
0.0
  0
LINE
  5
18E4
330
1F
100
AcDbEntity
  8
PIC06
  6
Continuous
 62
     7
100
AcDbLine
 10
892.2298882049027
 20
692.2527502134162
 30
0.0
 11
892.4719036410106
 21
692.4947656495241
 31
0.0
  0
LINE
  5
18E5
330
1F
100
AcDbEntity
  8
PIC06
  6
Continuous
 62
     7
100
AcDbLine
 10
893.2105715518773
 20
693.2334335603918
 30
0.0
 11
893.4820267217629
 21
693.5048887302764
 31
0.0
  0
LINE
  5
18E6
330
1F
100
AcDbEntity
  8
PIC06
  6
Continuous
 62
     7
100
AcDbLine
 10
892.1813470835823
 20
692.3712452044592
 30
0.0
 11
892.434559080325
 21
692.6244572012019
 31
0.0
  0
LINE
  5
18E7
330
1F
100
AcDbEntity
  8
PIC06
  6
Continuous
 62
     7
100
AcDbLine
 10
893.185771719578
 20
693.375669840455
 30
0.0
 11
893.4567227217257
 21
693.6466208426026
 31
0.0
  0
LINE
  5
18E8
330
1F
100
AcDbEntity
  8
PIC06
  6
Continuous
 62
     7
100
AcDbLine
 10
892.1414372617755
 20
692.4983714950148
 30
0.0
 11
892.4104322720367
 21
692.7673665052771
 31
0.0
  0
LINE
  5
18E9
330
1F
100
AcDbEntity
  8
PIC06
  6
Continuous
 62
     7
100
AcDbLine
 10
893.1597128797539
 20
693.5166471129924
 30
0.0
 11
893.4303763849776
 21
693.7873106182169
 31
0.0
  0
LINE
  5
18EA
330
1F
100
AcDbEntity
  8
PIC06
  6
Continuous
 62
     7
100
AcDbLine
 10
892.1112485386139
 20
692.6352188842156
 30
0.0
 11
892.3919067504129
 21
692.9158770960148
 31
0.0
  0
LINE
  5
18EB
330
1F
100
AcDbEntity
  8
PIC06
  6
Continuous
 62
     7
100
AcDbLine
 10
893.1336540399287
 20
693.6576243855316
 30
0.0
 11
893.4040300482292
 21
693.9280003938311
 31
0.0
  0
LINE
  5
18EC
330
1F
100
AcDbEntity
  8
PIC06
  6
Continuous
 62
     7
100
AcDbLine
 10
892.0911766571089
 20
692.782183115074
 30
0.0
 11
892.3733812287874
 21
693.0643876867525
 31
0.0
  0
LINE
  5
18ED
330
1F
100
AcDbEntity
  8
PIC06
  6
Continuous
 62
     7
100
AcDbLine
 10
893.1075952001037
 20
693.7986016580689
 30
0.0
 11
893.3776837114802
 21
694.0686901694452
 31
0.0
  0
LINE
  5
18EE
330
1F
100
AcDbEntity
  8
PIC06
  6
Continuous
 62
     7
100
AcDbLine
 10
892.0726511354851
 20
692.9306937058127
 30
0.0
 11
892.3548557071635
 21
693.2128982774911
 31
0.0
  0
LINE
  5
18EF
330
1F
100
AcDbEntity
  8
PIC06
  6
Continuous
 62
     7
100
AcDbLine
 10
893.0815363602787
 20
693.9395789306072
 30
0.0
 11
893.3513373747318
 21
694.2093799450595
 31
0.0
  0
LINE
  5
18F0
330
1F
100
AcDbEntity
  8
PIC06
  6
Continuous
 62
     7
100
AcDbLine
 10
892.0541256138594
 20
693.0792042965504
 30
0.0
 11
892.3363301855379
 21
693.3614088682288
 31
0.0
  0
LINE
  5
18F1
330
1F
100
AcDbEntity
  8
PIC06
  6
Continuous
 62
     7
100
AcDbLine
 10
893.0554775204537
 20
694.0805562031446
 30
0.0
 11
893.3249910379837
 21
694.3500697206745
 31
0.0
  0
LINE
  5
18F2
330
1F
100
AcDbEntity
  8
PIC06
  6
Continuous
 62
     7
100
AcDbLine
 10
892.0356000922357
 20
693.227714887289
 30
0.0
 11
892.317804663914
 21
693.5099194589675
 31
0.0
  0
LINE
  5
18F3
330
1F
100
AcDbEntity
  8
PIC06
  6
Continuous
 62
     7
100
AcDbLine
 10
893.0293480924138
 20
694.2214628874672
 30
0.0
 11
893.2981575335498
 21
694.4902723286031
 31
0.0
  0
LINE
  5
18F4
330
1F
100
AcDbEntity
  8
PIC06
  6
Continuous
 62
     7
100
AcDbLine
 10
892.01707457061
 20
693.3762254780267
 30
0.0
 11
892.2992791422885
 21
693.6584300497051
 31
0.0
  0
LINE
  5
18F5
330
1F
100
AcDbEntity
  8
PIC06
  6
Continuous
 62
     7
100
AcDbLine
 10
893.0019439957114
 20
694.3610949031281
 30
0.0
 11
893.2705216344157
 21
694.6296725418323
 31
0.0
  0
LINE
  5
18F6
330
1F
100
AcDbEntity
  8
PIC06
  6
Continuous
 62
     7
100
AcDbLine
 10
891.9985490489862
 20
693.5247360687654
 30
0.0
 11
892.2807536206645
 21
693.8069406404438
 31
0.0
  0
LINE
  5
18F7
330
1F
100
AcDbEntity
  8
PIC06
  6
Continuous
 62
     7
100
AcDbLine
 10
892.9745398990089
 20
694.5007269187881
 30
0.0
 11
893.2428857352824
 21
694.7690727550607
 31
0.0
  0
LINE
  5
18F8
330
1F
100
AcDbEntity
  8
PIC06
  6
Continuous
 62
     7
100
AcDbLine
 10
891.9800235273605
 20
693.6732466595031
 30
0.0
 11
892.262228099039
 21
693.9554512311815
 31
0.0
  0
LINE
  5
18F9
330
1F
100
AcDbEntity
  8
PIC06
  6
Continuous
 62
     7
100
AcDbLine
 10
892.9471358023064
 20
694.640358934449
 30
0.0
 11
893.2152498361483
 21
694.9084729682899
 31
0.0
  0
LINE
  5
18FA
330
1F
100
AcDbEntity
  8
PIC06
  6
Continuous
 62
     7
100
AcDbLine
 10
891.9614980057367
 20
693.8217572502408
 30
0.0
 11
892.2437025774152
 21
694.1039618219193
 31
0.0
  0
LINE
  5
18FB
330
1F
100
AcDbEntity
  8
PIC06
  6
Continuous
 62
     7
100
AcDbLine
 10
892.9197317056051
 20
694.7799909501091
 30
0.0
 11
893.1876139370134
 21
695.0478731815191
 31
0.0
  0
LINE
  5
18FC
330
1F
100
AcDbEntity
  8
PIC06
  6
Continuous
 62
     7
100
AcDbLine
 10
891.942972484111
 20
693.9702678409794
 30
0.0
 11
892.2251770557895
 21
694.2524724126578
 31
0.0
  0
LINE
  5
18FD
330
1F
100
AcDbEntity
  8
PIC06
  6
Continuous
 62
     7
100
AcDbLine
 10
892.8923276089017
 20
694.9196229657691
 30
0.0
 11
893.1599780378801
 21
695.1872733947475
 31
0.0
  0
LINE
  5
18FE
330
1F
100
AcDbEntity
  8
PIC06
  6
Continuous
 62
     7
100
AcDbLine
 10
891.9244469624873
 20
694.1187784317171
 30
0.0
 11
892.2066515341658
 21
694.4009830033955
 31
0.0
  0
LINE
  5
18FF
330
1F
100
AcDbEntity
  8
PIC06
  6
Continuous
 62
     7
100
AcDbLine
 10
892.8649235122001
 20
695.0592549814301
 30
0.0
 11
893.1316933286861
 21
695.3260247979169
 31
0.0
  0
LINE
  5
1900
330
1F
100
AcDbEntity
  8
PIC06
  6
Continuous
 62
     7
100
AcDbLine
 10
891.9059214408617
 20
694.2672890224549
 30
0.0
 11
892.1881260125401
 21
694.5494935941333
 31
0.0
  0
LINE
  5
1901
330
1F
100
AcDbEntity
  8
PIC06
  6
Continuous
 62
     7
100
AcDbLine
 10
892.836218507834
 20
695.1975860894263
 30
0.0
 11
893.1027860137255
 21
695.4641535953178
 31
0.0
  0
LINE
  5
1902
330
1F
100
AcDbEntity
  8
PIC06
  6
Continuous
 62
     7
100
AcDbLine
 10
891.8873959192378
 20
694.4157996131934
 30
0.0
 11
892.1696004909163
 21
694.6980041848719
 31
0.0
  0
LINE
  5
1903
330
1F
100
AcDbEntity
  8
PIC06
  6
Continuous
 62
     7
100
AcDbLine
 10
892.8074889207081
 20
695.3358926146639
 30
0.0
 11
893.0738786987641
 21
695.6022823927205
 31
0.0
  0
LINE
  5
1904
330
1F
100
AcDbEntity
  8
PIC06
  6
Continuous
 62
     7
100
AcDbLine
 10
891.8688703976123
 20
694.5643102039321
 30
0.0
 11
892.1510749692906
 21
694.8465147756105
 31
0.0
  0
LINE
  5
1905
330
1F
100
AcDbEntity
  8
PIC06
  6
Continuous
 62
     7
100
AcDbLine
 10
892.7787593335834
 20
695.4741991399014
 30
0.0
 11
893.0449713838033
 21
695.7404111901223
 31
0.0
  0
LINE
  5
1906
330
1F
100
AcDbEntity
  8
PIC06
  6
Continuous
 62
     7
100
AcDbLine
 10
891.8503448759883
 20
694.7128207946698
 30
0.0
 11
892.1325494476668
 21
694.9950253663482
 31
0.0
  0
LINE
  5
1907
330
1F
100
AcDbEntity
  8
PIC06
  6
Continuous
 62
     7
100
AcDbLine
 10
892.7500297464575
 20
695.612505665139
 30
0.0
 11
893.0160640688427
 21
695.8785399875232
 31
0.0
  0
LINE
  5
1908
330
1F
100
AcDbEntity
  8
PIC06
  6
Continuous
 62
     7
100
AcDbLine
 10
891.8318193543628
 20
694.8613313854075
 30
0.0
 11
892.1140239260411
 21
695.143535957086
 31
0.0
  0
LINE
  5
1909
330
1F
100
AcDbEntity
  8
PIC06
  6
Continuous
 62
     7
100
AcDbLine
 10
892.7213001593328
 20
695.7508121903765
 30
0.0
 11
892.9871567538821
 21
696.0166687849259
 31
0.0
  0
LINE
  5
190A
330
1F
100
AcDbEntity
  8
PIC06
  6
Continuous
 62
     7
100
AcDbLine
 10
891.8132938327389
 20
695.0098419761461
 30
0.0
 11
892.0954984044174
 21
695.2920465478237
 31
0.0
  0
LINE
  5
190B
330
1F
100
AcDbEntity
  8
PIC06
  6
Continuous
 62
     7
100
AcDbLine
 10
892.6925705722069
 20
695.8891187156141
 30
0.0
 11
892.957495089815
 21
696.1540432332221
 31
0.0
  0
LINE
  5
190C
330
1F
100
AcDbEntity
  8
PIC06
  6
Continuous
 62
     7
100
AcDbLine
 10
891.7947683111133
 20
695.1583525668838
 30
0.0
 11
892.0769728827918
 21
695.4405571385623
 31
0.0
  0
LINE
  5
190D
330
1F
100
AcDbEntity
  8
PIC06
  6
Continuous
 62
     7
100
AcDbLine
 10
892.6627097448927
 20
696.0262940006632
 30
0.0
 11
892.9273338459724
 21
696.2909181017421
 31
0.0
  0
LINE
  5
190E
330
1F
100
AcDbEntity
  8
PIC06
  6
Continuous
 62
     7
100
AcDbLine
 10
891.7762427894896
 20
695.3068631576216
 30
0.0
 11
892.0584473611679
 21
695.5890677293
 31
0.0
  0
LINE
  5
190F
330
1F
100
AcDbEntity
  8
PIC06
  6
Continuous
 62
     7
100
AcDbLine
 10
892.6326736866121
 20
696.1632940547442
 30
0.0
 11
892.89717260213
 21
696.427792970263
 31
0.0
  0
LINE
  5
1910
330
1F
100
AcDbEntity
  8
PIC06
  6
Continuous
 62
     7
100
AcDbLine
 10
891.7577172678647
 20
695.4553737483601
 30
0.0
 11
892.0399218395433
 21
695.7375783200387
 31
0.0
  0
LINE
  5
1911
330
1F
100
AcDbEntity
  8
PIC06
  6
Continuous
 62
     7
100
AcDbLine
 10
892.6026376283306
 20
696.300294108827
 30
0.0
 11
892.8670113582883
 21
696.5646678387838
 31
0.0
  0
LINE
  5
1912
330
1F
100
AcDbEntity
  8
PIC06
  6
Continuous
 62
     7
100
AcDbLine
 10
891.7391917462401
 20
695.6038843390979
 30
0.0
 11
892.0213963179184
 21
695.8860889107763
 31
0.0
  0
LINE
  5
1913
330
1F
100
AcDbEntity
  8
PIC06
  6
Continuous
 62
     7
100
AcDbLine
 10
892.5726015700503
 20
696.437294162908
 30
0.0
 11
892.836850114446
 21
696.7015427073038
 31
0.0
  0
LINE
  5
1914
330
1F
100
AcDbEntity
  8
PIC06
  6
Continuous
 62
     7
100
AcDbLine
 10
891.7206662246153
 20
695.7523949298365
 30
0.0
 11
892.0028707962938
 21
696.034599501515
 31
0.0
  0
LINE
  5
1915
330
1F
100
AcDbEntity
  8
PIC06
  6
Continuous
 62
     7
100
AcDbLine
 10
892.5425655117688
 20
696.5742942169899
 30
0.0
 11
892.8066888706034
 21
696.8384175758237
 31
0.0
  0
LINE
  5
1916
330
1F
100
AcDbEntity
  8
PIC06
  6
Continuous
 62
     7
100
AcDbLine
 10
891.7021407029906
 20
695.9009055205743
 30
0.0
 11
891.984345274669
 21
696.1831100922527
 31
0.0
  0
LINE
  5
1917
330
1F
100
AcDbEntity
  8
PIC06
  6
Continuous
 62
     7
100
AcDbLine
 10
892.5125294534883
 20
696.7112942710719
 30
0.0
 11
892.7757206946971
 21
696.9744855122808
 31
0.0
  0
LINE
  5
1918
330
1F
100
AcDbEntity
  8
PIC06
  6
Continuous
 62
     7
100
AcDbLine
 10
891.6836151813658
 20
696.0494161113128
 30
0.0
 11
891.9658197530443
 21
696.3316206829913
 31
0.0
  0
LINE
  5
1919
330
1F
100
AcDbEntity
  8
PIC06
  6
Continuous
 62
     7
100
AcDbLine
 10
892.4815833346729
 20
696.8473842646199
 30
0.0
 11
892.7443223750669
 21
697.110123305014
 31
0.0
  0
LINE
  5
191A
330
1F
100
AcDbEntity
  8
PIC06
  6
Continuous
 62
     7
100
AcDbLine
 10
891.6650896597412
 20
696.1979267020506
 30
0.0
 11
891.9472942314197
 21
696.480131273729
 31
0.0
  0
LINE
  5
191B
330
1F
100
AcDbEntity
  8
PIC06
  6
Continuous
 62
     7
100
AcDbLine
 10
892.4502591077098
 20
696.9830961500193
 30
0.0
 11
892.7129240554377
 21
697.2457610977471
 31
0.0
  0
LINE
  5
191C
330
1F
100
AcDbEntity
  8
PIC06
  6
Continuous
 62
     7
100
AcDbLine
 10
891.6465641381163
 20
696.3464372927883
 30
0.0
 11
891.9287687097948
 21
696.6286418644667
 31
0.0
  0
LINE
  5
191D
330
1F
100
AcDbEntity
  8
PIC06
  6
Continuous
 62
     7
100
AcDbLine
 10
892.4189348807457
 20
697.1188080354177
 30
0.0
 11
892.6815257358075
 21
697.3813988904794
 31
0.0
  0
LINE
  5
191E
330
1F
100
AcDbEntity
  8
PIC06
  6
Continuous
 62
     7
100
AcDbLine
 10
891.6280386164917
 20
696.494947883526
 30
0.0
 11
891.9102431881702
 21
696.7771524552045
 31
0.0
  0
LINE
  5
191F
330
1F
100
AcDbEntity
  8
PIC06
  6
Continuous
 62
     7
100
AcDbLine
 10
892.3876106537818
 20
697.2545199208162
 30
0.0
 11
892.6501274161774
 21
697.5170366832135
 31
0.0
  0
LINE
  5
1920
330
1F
100
AcDbEntity
  8
PIC06
  6
Continuous
 62
     7
100
AcDbLine
 10
891.609513094867
 20
696.6434584742646
 30
0.0
 11
891.8917176665454
 21
696.9256630459431
 31
0.0
  0
LINE
  5
1921
330
1F
100
AcDbEntity
  8
PIC06
  6
Continuous
 62
     7
100
AcDbLine
 10
892.3562864268179
 20
697.3902318062155
 30
0.0
 11
892.6187290965481
 21
697.6526744759458
 31
0.0
  0
LINE
  5
1922
330
1F
100
AcDbEntity
  8
PIC06
  6
Continuous
 62
     7
100
AcDbLine
 10
891.5909875732422
 20
696.7919690650033
 30
0.0
 11
891.8731921449207
 21
697.0741736366817
 31
0.0
  0
LINE
  5
1923
330
1F
100
AcDbEntity
  8
PIC06
  6
Continuous
 62
     7
100
AcDbLine
 10
892.3249621998538
 20
697.5259436916148
 30
0.0
 11
892.5864542869586
 21
697.7874357787186
 31
0.0
  0
LINE
  5
1924
330
1F
100
AcDbEntity
  8
PIC06
  6
Continuous
 62
     7
100
AcDbLine
 10
891.5724620516176
 20
696.940479655741
 30
0.0
 11
891.8546666232959
 21
697.2226842274194
 31
0.0
  0
LINE
  5
1925
330
1F
100
AcDbEntity
  8
PIC06
  6
Continuous
 62
     7
100
AcDbLine
 10
892.2929446325069
 20
697.6609622366304
 30
0.0
 11
892.5537341144272
 21
697.9217517185507
 31
0.0
  0
LINE
  5
1926
330
1F
100
AcDbEntity
  8
PIC06
  6
Continuous
 62
     7
100
AcDbLine
 10
891.5539365299927
 20
697.0889902464787
 30
0.0
 11
891.8361411016713
 21
697.3711948181572
 31
0.0
  0
LINE
  5
1927
330
1F
100
AcDbEntity
  8
PIC06
  6
Continuous
 62
     7
100
AcDbLine
 10
892.2602447465742
 20
697.795298463061
 30
0.0
 11
892.5210139418959
 21
698.0560676583818
 31
0.0
  0
LINE
  5
1928
330
1F
100
AcDbEntity
  8
PIC06
  6
Continuous
 62
     7
100
AcDbLine
 10
891.5354110083681
 20
697.2375008372173
 30
0.0
 11
891.8176155800464
 21
697.5197054088957
 31
0.0
  0
LINE
  5
1929
330
1F
100
AcDbEntity
  8
PIC06
  6
Continuous
 62
     7
100
AcDbLine
 10
892.2275448606423
 20
697.9296346894916
 30
0.0
 11
892.4882937693647
 21
698.1903835982138
 31
0.0
  0
LINE
  5
192A
330
1F
100
AcDbEntity
  8
PIC06
  6
Continuous
 62
     7
100
AcDbLine
 10
891.5168854867433
 20
697.386011427956
 30
0.0
 11
891.7990900584218
 21
697.6682159996335
 31
0.0
  0
LINE
  5
192B
330
1F
100
AcDbEntity
  8
PIC06
  6
Continuous
 62
     7
100
AcDbLine
 10
892.1948449747096
 20
698.0639709159222
 30
0.0
 11
892.4555735968333
 21
698.324699538045
 31
0.0
  0
LINE
  5
192C
330
1F
100
AcDbEntity
  8
PIC06
  6
Continuous
 62
     7
100
AcDbLine
 10
891.4983599651186
 20
697.5345220186928
 30
0.0
 11
891.7805645367971
 21
697.8167265903712
 31
0.0
  0
LINE
  5
192D
330
1F
100
AcDbEntity
  8
PIC06
  6
Continuous
 62
     7
100
AcDbLine
 10
892.1621450887778
 20
698.198307142352
 30
0.0
 11
892.4228534243029
 21
698.459015477877
 31
0.0
  0
LINE
  5
192E
330
1F
100
AcDbEntity
  8
PIC06
  6
Continuous
 62
     7
100
AcDbLine
 10
891.479834443494
 20
697.6830326094313
 30
0.0
 11
891.7620390151723
 21
697.9652371811098
 31
0.0
  0
LINE
  5
192F
330
1F
100
AcDbEntity
  8
PIC06
  6
Continuous
 62
     7
100
AcDbLine
 10
892.1294452028451
 20
698.3326433687826
 30
0.0
 11
892.390630519737
 21
698.5938286856753
 31
0.0
  0
LINE
  5
1930
330
1F
100
AcDbEntity
  8
PIC06
  6
Continuous
 62
     7
100
AcDbLine
 10
891.4613089218692
 20
697.8315432001691
 30
0.0
 11
891.7435134935477
 21
698.1137477718475
 31
0.0
  0
LINE
  5
1931
330
1F
100
AcDbEntity
  8
PIC06
  6
Continuous
 62
     7
100
AcDbLine
 10
892.0969415494846
 20
698.4671758277855
 30
0.0
 11
892.3620436445098
 21
698.7322779228097
 31
0.0
  0
LINE
  5
1932
330
1F
100
AcDbEntity
  8
PIC06
  6
Continuous
 62
     7
100
AcDbLine
 10
891.4427834002445
 20
697.9800537909077
 30
0.0
 11
891.7249879719228
 21
698.2622583625861
 31
0.0
  0
LINE
  5
1933
330
1F
100
AcDbEntity
  8
PIC06
  6
Continuous
 62
     7
100
AcDbLine
 10
892.0664810361959
 20
698.6037514268582
 30
0.0
 11
892.3381297594923
 21
698.8754001501547
 31
0.0
  0
LINE
  5
1934
330
1F
100
AcDbEntity
  8
PIC06
  6
Continuous
 62
     7
100
AcDbLine
 10
891.4242578786197
 20
698.1285643816454
 30
0.0
 11
891.7064624502982
 21
698.4107689533239
 31
0.0
  0
LINE
  5
1935
330
1F
100
AcDbEntity
  8
PIC06
  6
Continuous
 62
     7
100
AcDbLine
 10
892.040018931153
 20
698.7443254341788
 30
0.0
 11
892.3186745768425
 21
699.0229810798682
 31
0.0
  0
LINE
  5
1936
330
1F
100
AcDbEntity
  8
PIC06
  6
Continuous
 62
     7
100
AcDbLine
 10
891.405732356995
 20
698.277074972384
 30
0.0
 11
891.6879369286734
 21
698.5592795440624
 31
0.0
  0
LINE
  5
1937
330
1F
100
AcDbEntity
  8
PIC06
  6
Continuous
 62
     7
100
AcDbLine
 10
892.0177450962601
 20
698.8890877116482
 30
0.0
 11
892.3049092413339
 21
699.176251856722
 31
0.0
  0
LINE
  5
1938
330
1F
100
AcDbEntity
  8
PIC06
  6
Continuous
 62
     7
100
AcDbLine
 10
891.3872068353702
 20
698.4255855631218
 30
0.0
 11
891.6694114070487
 21
698.7077901348002
 31
0.0
  0
LINE
  5
1939
330
1F
100
AcDbEntity
  8
PIC06
  6
Continuous
 62
     7
100
AcDbLine
 10
892.0005373802332
 20
699.0389161079838
 30
0.0
 11
892.2966184125343
 21
699.3349971402858
 31
0.0
  0
LINE
  5
193A
330
1F
100
AcDbEntity
  8
PIC06
  6
Continuous
 62
     7
100
AcDbLine
 10
891.3686813137456
 20
698.5740961538595
 30
0.0
 11
891.6508858854241
 21
698.8563007255379
 31
0.0
  0
LINE
  5
193B
330
1F
100
AcDbEntity
  8
PIC06
  6
Continuous
 62
     7
100
AcDbLine
 10
891.9880653858918
 20
699.1934802260057
 30
0.0
 11
892.2955839654623
 21
699.5009988055754
 31
0.0
  0
LINE
  5
193C
330
1F
100
AcDbEntity
  8
PIC06
  6
Continuous
 62
     7
100
AcDbLine
 10
894.4716788617315
 20
701.6770937018446
 30
0.0
 11
896.0645217781447
 21
703.2699366182587
 31
0.0
  0
LINE
  5
193D
330
1F
100
AcDbEntity
  8
PIC06
  6
Continuous
 62
     7
100
AcDbLine
 10
891.3501557921208
 20
698.7226067445972
 30
0.0
 11
891.6323603637993
 21
699.0048113162757
 31
0.0
  0
LINE
  5
193E
330
1F
100
AcDbEntity
  8
PIC06
  6
Continuous
 62
     7
100
AcDbLine
 10
891.980982011035
 20
699.3534329635113
 30
0.0
 11
892.3111799586367
 21
699.6836309111131
 31
0.0
  0
LINE
  5
193F
330
1F
100
AcDbEntity
  8
PIC06
  6
Continuous
 62
     7
100
AcDbLine
 10
893.9268607117856
 20
701.2993116642619
 30
0.0
 11
896.3475683458828
 21
703.72001929836
 31
0.0
  0
LINE
  5
1940
330
1F
100
AcDbEntity
  8
PIC06
  6
Continuous
 62
     7
100
AcDbLine
 10
891.3316302704961
 20
698.8711173353358
 30
0.0
 11
891.6138348421746
 21
699.1533219070142
 31
0.0
  0
LINE
  5
1941
330
1F
100
AcDbEntity
  8
PIC06
  6
Continuous
 62
     7
100
AcDbLine
 10
891.98089115959
 20
699.5203782244297
 30
0.0
 11
892.3575572715391
 21
699.8970443363796
 31
0.0
  0
LINE
  5
1942
330
1F
100
AcDbEntity
  8
PIC06
  6
Continuous
 62
     7
100
AcDbLine
 10
893.5100161706296
 20
701.0495032354683
 30
0.0
 11
896.5269100955637
 21
704.0663971604035
 31
0.0
  0
LINE
  5
1943
330
1F
100
AcDbEntity
  8
PIC06
  6
Continuous
 62
     7
100
AcDbLine
 10
891.3131047488715
 20
699.0196279260744
 30
0.0
 11
891.5953093205498
 21
699.3018324977529
 31
0.0
  0
LINE
  5
1944
330
1F
100
AcDbEntity
  8
PIC06
  6
Continuous
 62
     7
100
AcDbLine
 10
891.9957202367058
 20
699.7022434139089
 30
0.0
 11
892.4673687062085
 21
700.1738918834099
 31
0.0
  0
LINE
  5
1945
330
1F
100
AcDbEntity
  8
PIC06
  6
Continuous
 62
     7
100
AcDbLine
 10
893.1527671965577
 20
700.8592903737599
 30
0.0
 11
894.4626015217108
 21
702.1691246989139
 31
0.0
  0
LINE
  5
1946
330
1F
100
AcDbEntity
  8
PIC06
  6
Continuous
 62
     7
100
AcDbLine
 10
895.6141692448337
 20
703.3206924220357
 30
0.0
 11
896.6577569373813
 21
704.3642801145843
 31
0.0
  0
LINE
  5
1947
330
1F
100
AcDbEntity
  8
PIC06
  6
Continuous
 62
     7
100
AcDbLine
 10
891.2945792272466
 20
699.1681385168122
 30
0.0
 11
891.5767837989251
 21
699.4503430884906
 31
0.0
  0
LINE
  5
1948
330
1F
100
AcDbEntity
  8
PIC06
  6
Continuous
 62
     7
100
AcDbLine
 10
892.0342166238052
 20
699.9077759133697
 30
0.0
 11
893.8446658194306
 21
701.7182251089962
 31
0.0
  0
LINE
  5
1949
330
1F
100
AcDbEntity
  8
PIC06
  6
Continuous
 62
     7
100
AcDbLine
 10
895.9570157216994
 20
703.8305750112649
 30
0.0
 11
896.75714105101
 21
704.6307003405745
 31
0.0
  0
LINE
  5
194A
330
1F
100
AcDbEntity
  8
PIC06
  6
Continuous
 62
     7
100
AcDbLine
 10
891.276053705622
 20
699.3166491075498
 30
0.0
 11
891.5582582773003
 21
699.5988536792283
 31
0.0
  0
LINE
  5
194B
330
1F
100
AcDbEntity
  8
PIC06
  6
Continuous
 62
     7
100
AcDbLine
 10
892.1126232845582
 20
700.153218686486
 30
0.0
 11
893.4678462315096
 21
701.5084416334375
 31
0.0
  0
LINE
  5
194C
330
1F
100
AcDbEntity
  8
PIC06
  6
Continuous
 62
     7
100
AcDbLine
 10
896.1496755004036
 20
704.1902709023315
 30
0.0
 11
896.8352832659666
 21
704.8758786678945
 31
0.0
  0
LINE
  5
194D
330
1F
100
AcDbEntity
  8
PIC06
  6
Continuous
 62
     7
100
AcDbLine
 10
891.2575281839972
 20
699.4651596982885
 30
0.0
 11
891.5397327556757
 21
699.7473642699669
 31
0.0
  0
LINE
  5
194E
330
1F
100
AcDbEntity
  8
PIC06
  6
Continuous
 62
     7
100
AcDbLine
 10
892.2961290434205
 20
700.5037605577108
 30
0.0
 11
893.1710996828087
 21
701.3787311970991
 31
0.0
  0
LINE
  5
194F
330
1F
100
AcDbEntity
  8
PIC06
  6
Continuous
 62
     7
100
AcDbLine
 10
896.2832349967085
 20
704.4908665109987
 30
0.0
 11
896.8970597605739
 21
705.1046912748643
 31
0.0
  0
LINE
  5
1950
330
1F
100
AcDbEntity
  8
PIC06
  6
Continuous
 62
     7
100
AcDbLine
 10
891.2390026623725
 20
699.6136702890271
 30
0.0
 11
891.5212072340509
 21
699.8958748607056
 31
0.0
  0
LINE
  5
1951
330
1F
100
AcDbEntity
  8
PIC06
  6
Continuous
 62
     7
100
AcDbLine
 10
892.486651667119
 20
700.8613192937728
 30
0.0
 11
892.9136701452907
 21
701.2883377719435
 31
0.0
  0
LINE
  5
1952
330
1F
100
AcDbEntity
  8
PIC06
  6
Continuous
 62
     7
100
AcDbLine
 10
896.2437396518636
 20
704.6184072785172
 30
0.0
 11
896.4666718753505
 21
704.8413395020043
 31
0.0
  0
LINE
  5
1953
330
1F
100
AcDbEntity
  8
PIC06
  6
Continuous
 62
     7
100
AcDbLine
 10
896.5079451256906
 20
704.8826127523443
 30
0.0
 11
896.945420648969
 21
705.3200882756227
 31
0.0
  0
LINE
  5
1954
330
1F
100
AcDbEntity
  8
PIC06
  6
Continuous
 62
     7
100
AcDbLine
 10
891.2204771407477
 20
699.7621808797639
 30
0.0
 11
891.5026817124262
 21
700.0443854514424
 31
0.0
  0
LINE
  5
1955
330
1F
100
AcDbEntity
  8
PIC06
  6
Continuous
 62
     7
100
AcDbLine
 10
892.2892314681639
 20
700.8309352071801
 30
0.0
 11
892.6826176419654
 21
701.2243213809815
 31
0.0
  0
LINE
  5
1956
330
1F
100
AcDbEntity
  8
PIC06
  6
Continuous
 62
     7
100
AcDbLine
 10
896.1146088333579
 20
704.6563125723742
 30
0.0
 11
896.3688160287437
 21
704.9105197677599
 31
0.0
  0
LINE
  5
1957
330
1F
100
AcDbEntity
  8
PIC06
  6
Continuous
 62
     7
100
AcDbLine
 10
896.5748630227835
 20
705.1165667617997
 30
0.0
 11
896.9835181815314
 21
705.5252219205467
 31
0.0
  0
LINE
  5
1958
330
1F
100
AcDbEntity
  8
PIC06
  6
Continuous
 62
     7
100
AcDbLine
 10
891.2019516191231
 20
699.9106914705025
 30
0.0
 11
891.4841561908016
 21
700.192896042181
 31
0.0
  0
LINE
  5
1959
330
1F
100
AcDbEntity
  8
PIC06
  6
Continuous
 62
     7
100
AcDbLine
 10
892.1011928744082
 20
700.8099327257878
 30
0.0
 11
892.4694519321556
 21
701.178191783535
 31
0.0
  0
LINE
  5
195A
330
1F
100
AcDbEntity
  8
PIC06
  6
Continuous
 62
     7
100
AcDbLine
 10
895.9742716896217
 20
704.6830115410012
 30
0.0
 11
896.2436403050933
 21
704.9523801564719
 31
0.0
  0
LINE
  5
195B
330
1F
100
AcDbEntity
  8
PIC06
  6
Continuous
 62
     7
100
AcDbLine
 10
896.6269465640397
 20
705.3356864154193
 30
0.0
 11
897.0120670044797
 21
705.7208068558584
 31
0.0
  0
LINE
  5
195C
330
1F
100
AcDbEntity
  8
PIC06
  6
Continuous
 62
     7
100
AcDbLine
 10
891.1834260974982
 20
700.0592020612402
 30
0.0
 11
891.4656306691767
 21
700.3414066329187
 31
0.0
  0
LINE
  5
195D
330
1F
100
AcDbEntity
  8
PIC06
  6
Continuous
 62
     7
100
AcDbLine
 10
891.9144358491967
 20
700.7902118129386
 30
0.0
 11
892.2700992019136
 21
701.1458751656554
 31
0.0
  0
LINE
  5
195E
330
1F
100
AcDbEntity
  8
PIC06
  6
Continuous
 62
     7
100
AcDbLine
 10
895.833934545887
 20
704.709710509629
 30
0.0
 11
896.1033031613579
 21
704.9790791250998
 31
0.0
  0
LINE
  5
195F
330
1F
100
AcDbEntity
  8
PIC06
  6
Continuous
 62
     7
100
AcDbLine
 10
896.6672895211113
 20
705.5430654848524
 30
0.0
 11
897.0072362811251
 21
705.8830122448671
 31
0.0
  0
LINE
  5
1960
330
1F
100
AcDbEntity
  8
PIC06
  6
Continuous
 62
     7
100
AcDbLine
 10
891.1649005758745
 20
700.2077126519789
 30
0.0
 11
891.4471051475521
 21
700.4899172236573
 31
0.0
  0
LINE
  5
1961
330
1F
100
AcDbEntity
  8
PIC06
  6
Continuous
 62
     7
100
AcDbLine
 10
891.7278333406075
 20
700.7706454167127
 30
0.0
 11
892.0818405152768
 21
701.124652591382
 31
0.0
  0
LINE
  5
1962
330
1F
100
AcDbEntity
  8
PIC06
  6
Continuous
 62
     7
100
AcDbLine
 10
895.6935974021508
 20
704.7364094782551
 30
0.0
 11
895.9629660176215
 21
705.0057780937268
 31
0.0
  0
LINE
  5
1963
330
1F
100
AcDbEntity
  8
PIC06
  6
Continuous
 62
     7
100
AcDbLine
 10
896.6968626228307
 20
705.7396746989352
 30
0.0
 11
896.9501718183565
 21
705.9929838944608
 31
0.0
  0
LINE
  5
1964
330
1F
100
AcDbEntity
  8
PIC06
  6
Continuous
 62
     7
100
AcDbLine
 10
891.1463750542498
 20
700.3562232427166
 30
0.0
 11
891.4219874578275
 21
700.6318356462961
 31
0.0
  0
LINE
  5
1965
330
1F
100
AcDbEntity
  8
PIC06
  6
Continuous
 62
     7
100
AcDbLine
 10
891.5415901831265
 20
700.7514383715934
 30
0.0
 11
891.8952052878294
 21
701.1050534762971
 31
0.0
  0
LINE
  5
1966
330
1F
100
AcDbEntity
  8
PIC06
  6
Continuous
 62
     7
100
AcDbLine
 10
895.5532602584153
 20
704.7631084468831
 30
0.0
 11
895.8226288738869
 21
705.0324770623538
 31
0.0
  0
LINE
  5
1967
330
1F
100
AcDbEntity
  8
PIC06
  6
Continuous
 62
     7
100
AcDbLine
 10
896.5822391850087
 20
705.7920873734765
 30
0.0
 11
896.8598504508991
 21
706.0696986393659
 31
0.0
  0
LINE
  5
1968
330
1F
100
AcDbEntity
  8
PIC06
  6
Continuous
 62
     7
100
AcDbLine
 10
891.127849532625
 20
700.5047338334552
 30
0.0
 11
891.708570060382
 21
701.0854543612122
 31
0.0
  0
LINE
  5
1969
330
1F
100
AcDbEntity
  8
PIC06
  6
Continuous
 62
     7
100
AcDbLine
 10
895.4129231146799
 20
704.78980741551
 30
0.0
 11
895.6822917301506
 21
705.0591760309816
 31
0.0
  0
LINE
  5
196A
330
1F
100
AcDbEntity
  8
PIC06
  6
Continuous
 62
     7
100
AcDbLine
 10
896.4069520410667
 20
705.7838363418977
 30
0.0
 11
896.7328064102375
 21
706.1096907110677
 31
0.0
  0
LINE
  5
196B
330
1F
100
AcDbEntity
  8
PIC06
  6
Continuous
 62
     7
100
AcDbLine
 10
891.0614876086128
 20
700.6054080218055
 30
0.0
 11
891.5219348329346
 21
701.0658552461272
 31
0.0
  0
LINE
  5
196C
330
1F
100
AcDbEntity
  8
PIC06
  6
Continuous
 62
     7
100
AcDbLine
 10
895.2725859709444
 20
704.816506384137
 30
0.0
 11
895.5419545864151
 21
705.0858749996077
 31
0.0
  0
LINE
  5
196D
330
1F
100
AcDbEntity
  8
PIC06
  6
Continuous
 62
     7
100
AcDbLine
 10
896.2278284986851
 20
705.7717489118786
 30
0.0
 11
896.5626634098798
 21
706.1065838230724
 31
0.0
  0
LINE
  5
196E
330
1F
100
AcDbEntity
  8
PIC06
  6
Continuous
 62
     7
100
AcDbLine
 10
890.8957530644594
 20
700.6067095900143
 30
0.0
 11
891.3359589740448
 21
701.0469154996008
 31
0.0
  0
LINE
  5
196F
330
1F
100
AcDbEntity
  8
PIC06
  6
Continuous
 62
     7
100
AcDbLine
 10
895.1322488272081
 20
704.843205352764
 30
0.0
 11
895.4016174426797
 21
705.1125739682357
 31
0.0
  0
LINE
  5
1970
330
1F
100
AcDbEntity
  8
PIC06
  6
Continuous
 62
     7
100
AcDbLine
 10
896.0443417715314
 20
705.7552982970873
 30
0.0
 11
896.38724402764
 21
706.098200553195
 31
0.0
  0
LINE
  5
1971
330
1F
100
AcDbEntity
  8
PIC06
  6
Continuous
 62
     7
100
AcDbLine
 10
890.6422561930657
 20
700.5202488309842
 30
0.0
 11
891.150174960093
 21
701.0281675980113
 31
0.0
  0
LINE
  5
1972
330
1F
100
AcDbEntity
  8
PIC06
  6
Continuous
 62
     7
100
AcDbLine
 10
894.9919116834735
 20
704.8699043213919
 30
0.0
 11
895.2612802989442
 21
705.1392729368626
 31
0.0
  0
LINE
  5
1973
330
1F
100
AcDbEntity
  8
PIC06
  6
Continuous
 62
     7
100
AcDbLine
 10
895.8563191943548
 20
705.7343118322742
 30
0.0
 11
896.2081084537967
 21
706.086101091716
 31
0.0
  0
LINE
  5
1974
330
1F
100
AcDbEntity
  8
PIC06
  6
Continuous
 62
     7
100
AcDbLine
 10
890.4752200807024
 20
700.5202488309842
 30
0.0
 11
890.9643909461401
 21
701.0094196964209
 31
0.0
  0
LINE
  5
1975
330
1F
100
AcDbEntity
  8
PIC06
  6
Continuous
 62
     7
100
AcDbLine
 10
894.851574539737
 20
704.8966032900189
 30
0.0
 11
895.1209431552079
 21
705.1659719054896
 31
0.0
  0
LINE
  5
1976
330
1F
100
AcDbEntity
  8
PIC06
  6
Continuous
 62
     7
100
AcDbLine
 10
895.6635670117858
 20
705.7085957620675
 30
0.0
 11
896.0249576073847
 21
706.0699863576656
 31
0.0
  0
LINE
  5
1977
330
1F
100
AcDbEntity
  8
PIC06
  6
Continuous
 62
     7
100
AcDbLine
 10
890.4246659467034
 20
700.6367308093485
 30
0.0
 11
890.7806334018124
 21
700.9926982644564
 31
0.0
  0
LINE
  5
1978
330
1F
100
AcDbEntity
  8
PIC06
  6
Continuous
 62
     7
100
AcDbLine
 10
894.7112373960017
 20
704.9233022586459
 30
0.0
 11
894.9806060114733
 21
705.1926708741166
 31
0.0
  0
LINE
  5
1979
330
1F
100
AcDbEntity
  8
PIC06
  6
Continuous
 62
     7
100
AcDbLine
 10
895.4657291648636
 20
705.6777940275078
 30
0.0
 11
895.8372997666065
 21
706.0493646292506
 31
0.0
  0
LINE
  5
197A
330
1F
100
AcDbEntity
  8
PIC06
  6
Continuous
 62
     7
100
AcDbLine
 10
890.4246659467034
 20
700.803766921711
 30
0.0
 11
890.6135972894499
 21
700.9926982644564
 31
0.0
  0
LINE
  5
197B
330
1F
100
AcDbEntity
  8
PIC06
  6
Continuous
 62
     7
100
AcDbLine
 10
894.5709002522661
 20
704.9500012272737
 30
0.0
 11
894.840268867737
 21
705.2193698427445
 31
0.0
  0
LINE
  5
197C
330
1F
100
AcDbEntity
  8
PIC06
  6
Continuous
 62
     7
100
AcDbLine
 10
895.2623621410376
 20
705.6414631160442
 30
0.0
 11
895.6450564542565
 21
706.0241574292631
 31
0.0
  0
LINE
  5
197D
330
1F
100
AcDbEntity
  8
PIC06
  6
Continuous
 62
     7
100
AcDbLine
 10
890.4246659467034
 20
700.9708030340735
 30
0.0
 11
890.4465611770874
 21
700.9926982644564
 31
0.0
  0
LINE
  5
197E
330
1F
100
AcDbEntity
  8
PIC06
  6
Continuous
 62
     7
100
AcDbLine
 10
894.4401113717631
 20
704.986248459133
 30
0.0
 11
894.6999317240015
 21
705.2460688113715
 31
0.0
  0
LINE
  5
197F
330
1F
100
AcDbEntity
  8
PIC06
  6
Continuous
 62
     7
100
AcDbLine
 10
895.0518361659288
 20
705.5979732532978
 30
0.0
 11
895.4478828297961
 21
705.994019917166
 31
0.0
  0
LINE
  5
1980
330
1F
100
AcDbEntity
  8
PIC06
  6
Continuous
 62
     7
100
AcDbLine
 10
894.3448119965214
 20
705.0579851962538
 30
0.0
 11
894.5793575024245
 21
705.292530702156
 31
0.0
  0
LINE
  5
1981
330
1F
100
AcDbEntity
  8
PIC06
  6
Continuous
 62
     7
100
AcDbLine
 10
894.8346037189649
 20
705.5477769186973
 30
0.0
 11
895.2453924962329
 21
705.9585656959662
 31
0.0
  0
LINE
  5
1982
330
1F
100
AcDbEntity
  8
PIC06
  6
Continuous
 62
     7
100
AcDbLine
 10
894.2821371851815
 20
705.1623464972763
 30
0.0
 11
895.0370496608693
 21
705.9172589729651
 31
0.0
  0
LINE
  5
1983
330
1F
100
AcDbEntity
  8
PIC06
  6
Continuous
 62
     7
100
AcDbLine
 10
894.2633175936652
 20
705.3105630181235
 30
0.0
 11
894.8212472912738
 21
705.8684927157319
 31
0.0
  0
LINE
  5
1984
330
1F
100
AcDbEntity
  8
PIC06
  6
Continuous
 62
     7
100
AcDbLine
 10
889.3059672941644
 20
700.5202488309842
 30
0.0
 11
889.4403962936367
 21
700.6546778304582
 31
0.0
  0
LINE
  5
1985
330
1F
100
AcDbEntity
  8
PIC06
  6
Continuous
 62
     7
100
AcDbLine
 10
894.2681515537687
 20
705.4824330905894
 30
0.0
 11
894.598094545976
 21
705.8123760827974
 31
0.0
  0
LINE
  5
1986
330
1F
100
AcDbEntity
  8
PIC06
  6
Continuous
 62
     7
100
AcDbLine
 10
889.1303489098664
 20
700.5116665590503
 30
0.0
 11
889.4403962936367
 21
700.8217139428206
 31
0.0
  0
LINE
  5
1987
330
1F
100
AcDbEntity
  8
PIC06
  6
Continuous
 62
     7
100
AcDbLine
 10
888.8658079918696
 20
700.414161753416
 30
0.0
 11
889.4403962936367
 21
700.9887500551831
 31
0.0
  0
LINE
  5
1988
330
1F
100
AcDbEntity
  8
PIC06
  6
Continuous
 62
     7
100
AcDbLine
 10
888.6788716277651
 20
700.3942615016748
 30
0.0
 11
889.2773083905476
 21
700.9926982644564
 31
0.0
  0
LINE
  5
1989
330
1F
100
AcDbEntity
  8
PIC06
  6
Continuous
 62
     7
100
AcDbLine
 10
888.4943481760892
 20
700.3767741623614
 30
0.0
 11
889.1102722781843
 21
700.9926982644564
 31
0.0
  0
LINE
  5
198A
330
1F
100
AcDbEntity
  8
PIC06
  6
Continuous
 62
     7
100
AcDbLine
 10
888.3098247244124
 20
700.359286823047
 30
0.0
 11
888.7466406562243
 21
700.7961027548589
 31
0.0
  0
LINE
  5
198B
330
1F
100
AcDbEntity
  8
PIC06
  6
Continuous
 62
     7
100
AcDbLine
 10
888.1253012727356
 20
700.3417994837336
 30
0.0
 11
888.5621212499026
 21
700.7786194608997
 31
0.0
  0
LINE
  5
198C
330
1F
100
AcDbEntity
  8
PIC06
  6
Continuous
 62
     7
100
AcDbLine
 10
887.9407778210598
 20
700.3243121444192
 30
0.0
 11
888.3776018435801
 21
700.7611361669405
 31
0.0
  0
LINE
  5
198D
330
1F
100
AcDbEntity
  8
PIC06
  6
Continuous
 62
     7
100
AcDbLine
 10
887.756254369383
 20
700.3068248051058
 30
0.0
 11
888.1930824372576
 21
700.7436528729813
 31
0.0
  0
LINE
  5
198E
330
1F
100
AcDbEntity
  8
PIC06
  6
Continuous
 62
     7
100
AcDbLine
 10
887.5717309177062
 20
700.2893374657924
 30
0.0
 11
888.0085630309359
 21
700.7261695790211
 31
0.0
  0
LINE
  5
198F
330
1F
100
AcDbEntity
  8
PIC06
  6
Continuous
 62
     7
100
AcDbLine
 10
887.3872074660294
 20
700.271850126478
 30
0.0
 11
887.8240436246132
 21
700.7086862850619
 31
0.0
  0
LINE
  5
1990
330
1F
100
AcDbEntity
  8
PIC06
  6
Continuous
 62
     7
100
AcDbLine
 10
887.2026840143526
 20
700.2543627871646
 30
0.0
 11
887.6395242182915
 21
700.6912029911027
 31
0.0
  0
LINE
  5
1991
330
1F
100
AcDbEntity
  8
PIC06
  6
Continuous
 62
     7
100
AcDbLine
 10
887.0181605626758
 20
700.2368754478502
 30
0.0
 11
887.4550048119681
 21
700.6737196971426
 31
0.0
  0
LINE
  5
1992
330
1F
100
AcDbEntity
  8
PIC06
  6
Continuous
 62
     7
100
AcDbLine
 10
886.833637110999
 20
700.2193881085368
 30
0.0
 11
887.2704854056465
 21
700.6562364031833
 31
0.0
  0
LINE
  5
1993
330
1F
100
AcDbEntity
  8
PIC06
  6
Continuous
 62
     7
100
AcDbLine
 10
886.649113659323
 20
700.2019007692224
 30
0.0
 11
887.0859659993248
 21
700.6387531092241
 31
0.0
  0
LINE
  5
1994
330
1F
100
AcDbEntity
  8
PIC06
  6
Continuous
 62
     7
100
AcDbLine
 10
886.4645902076462
 20
700.184413429909
 30
0.0
 11
886.9014465930021
 21
700.6212698152649
 31
0.0
  0
LINE
  5
1995
330
1F
100
AcDbEntity
  8
PIC06
  6
Continuous
 62
     7
100
AcDbLine
 10
886.2800667559694
 20
700.1669260905946
 30
0.0
 11
886.7169271866796
 21
700.6037865213056
 31
0.0
  0
LINE
  5
1996
330
1F
100
AcDbEntity
  8
PIC06
  6
Continuous
 62
     7
100
AcDbLine
 10
886.0955433042928
 20
700.1494387512812
 30
0.0
 11
886.532407780357
 21
700.5863032273455
 31
0.0
  0
LINE
  5
1997
330
1F
100
AcDbEntity
  8
PIC06
  6
Continuous
 62
     7
100
AcDbLine
 10
885.9110198526169
 20
700.1319514119678
 30
0.0
 11
886.3478883740354
 21
700.5688199333863
 31
0.0
  0
LINE
  5
1998
330
1F
100
AcDbEntity
  8
PIC06
  6
Continuous
 62
     7
100
AcDbLine
 10
885.72649640094
 20
700.1144640726534
 30
0.0
 11
886.1633689677129
 21
700.5513366394271
 31
0.0
  0
LINE
  5
1999
330
1F
100
AcDbEntity
  8
PIC06
  6
Continuous
 62
     7
100
AcDbLine
 10
885.5419729492632
 20
700.0969767333399
 30
0.0
 11
885.978849561391
 21
700.5338533454678
 31
0.0
  0
LINE
  5
199A
330
1F
100
AcDbEntity
  8
PIC06
  6
Continuous
 62
     7
100
AcDbLine
 10
885.3580973536928
 20
700.0801372501318
 30
0.0
 11
885.7943301550685
 21
700.5163700515076
 31
0.0
  0
LINE
  5
199B
330
1F
100
AcDbEntity
  8
PIC06
  6
Continuous
 62
     7
100
AcDbLine
 10
885.1776585715143
 20
700.0667345803158
 30
0.0
 11
885.6098107487468
 21
700.4988867575484
 31
0.0
  0
LINE
  5
199C
330
1F
100
AcDbEntity
  8
PIC06
  6
Continuous
 62
     7
100
AcDbLine
 10
884.9972197893357
 20
700.0533319105016
 30
0.0
 11
885.4252913424234
 21
700.4814034635892
 31
0.0
  0
LINE
  5
199D
330
1F
100
AcDbEntity
  8
PIC06
  6
Continuous
 62
     7
100
AcDbLine
 10
884.8167810071572
 20
700.0399292406854
 30
0.0
 11
885.243242844861
 21
700.4663910783883
 31
0.0
  0
LINE
  5
199E
330
1F
100
AcDbEntity
  8
PIC06
  6
Continuous
 62
     7
100
AcDbLine
 10
884.6363422249796
 20
700.0265265708703
 30
0.0
 11
885.0628022154724
 21
700.4529865613631
 31
0.0
  0
LINE
  5
199F
330
1F
100
AcDbEntity
  8
PIC06
  6
Continuous
 62
     7
100
AcDbLine
 10
884.4559034428012
 20
700.0131239010543
 30
0.0
 11
884.8823615860837
 21
700.4395820443378
 31
0.0
  0
LINE
  5
19A0
330
1F
100
AcDbEntity
  8
PIC06
  6
Continuous
 62
     7
100
AcDbLine
 10
884.2754646606236
 20
699.9997212312392
 30
0.0
 11
884.701920956696
 21
700.4261775273116
 31
0.0
  0
LINE
  5
19A1
330
1F
100
AcDbEntity
  8
PIC06
  6
Continuous
 62
     7
100
AcDbLine
 10
884.0950258784442
 20
699.9863185614239
 30
0.0
 11
884.5214803273075
 21
700.4127730102863
 31
0.0
  0
LINE
  5
19A2
330
1F
100
AcDbEntity
  8
PIC06
  6
Continuous
 62
     7
100
AcDbLine
 10
883.9145870962665
 20
699.9729158916079
 30
0.0
 11
884.3410396979189
 21
700.3993684932602
 31
0.0
  0
LINE
  5
19A3
330
1F
100
AcDbEntity
  8
PIC06
  6
Continuous
 62
     7
100
AcDbLine
 10
883.7341483140889
 20
699.9595132217928
 30
0.0
 11
884.1605990685302
 21
700.385963976235
 31
0.0
  0
LINE
  5
19A4
330
1F
100
AcDbEntity
  8
PIC06
  6
Continuous
 62
     7
100
AcDbLine
 10
883.5537095319105
 20
699.9461105519777
 30
0.0
 11
883.9801584391416
 21
700.3725594592087
 31
0.0
  0
LINE
  5
19A5
330
1F
100
AcDbEntity
  8
PIC06
  6
Continuous
 62
     7
100
AcDbLine
 10
883.373270749732
 20
699.9327078821624
 30
0.0
 11
883.7997178097531
 21
700.3591549421835
 31
0.0
  0
LINE
  5
19A6
330
1F
100
AcDbEntity
  8
PIC06
  6
Continuous
 62
     7
100
AcDbLine
 10
883.1928319675535
 20
699.9193052123464
 30
0.0
 11
883.6192771803643
 21
700.3457504251582
 31
0.0
  0
LINE
  5
19A7
330
1F
100
AcDbEntity
  8
PIC06
  6
Continuous
 62
     7
100
AcDbLine
 10
881.5507996585511
 20
698.4443090157064
 30
0.0
 11
881.7068233267354
 21
698.6003326838909
 31
0.0
  0
LINE
  5
19A8
330
1F
100
AcDbEntity
  8
PIC06
  6
Continuous
 62
     7
100
AcDbLine
 10
883.0123931853758
 20
699.9059025425322
 30
0.0
 11
883.4388365509758
 21
700.3323459081321
 31
0.0
  0
LINE
  5
19A9
330
1F
100
AcDbEntity
  8
PIC06
  6
Continuous
 62
     7
100
AcDbLine
 10
881.3730516969645
 20
698.4335971664823
 30
0.0
 11
881.7240297706065
 21
698.7845752401244
 31
0.0
  0
LINE
  5
19AA
330
1F
100
AcDbEntity
  8
PIC06
  6
Continuous
 62
     7
100
AcDbLine
 10
882.8319544031973
 20
699.8924998727162
 30
0.0
 11
883.2583959215881
 21
700.3189413911059
 31
0.0
  0
LINE
  5
19AB
330
1F
100
AcDbEntity
  8
PIC06
  6
Continuous
 62
     7
100
AcDbLine
 10
881.3300143523647
 20
698.5575959342459
 30
0.0
 11
881.734119482855
 21
698.9617010647362
 31
0.0
  0
LINE
  5
19AC
330
1F
100
AcDbEntity
  8
PIC06
  6
Continuous
 62
     7
100
AcDbLine
 10
882.6515156210199
 20
699.8790972029009
 30
0.0
 11
883.0779552921994
 21
700.3055368740806
 31
0.0
  0
LINE
  5
19AD
330
1F
100
AcDbEntity
  8
PIC06
  6
Continuous
 62
     7
100
AcDbLine
 10
881.3300143523647
 20
698.7246320466092
 30
0.0
 11
881.3539457612195
 21
698.7485634554641
 31
0.0
  0
LINE
  5
19AE
330
1F
100
AcDbEntity
  8
PIC06
  6
Continuous
 62
     7
100
AcDbLine
 10
881.4204616869192
 20
698.8150793811628
 30
0.0
 11
881.7442091951035
 21
699.1388268893479
 31
0.0
  0
LINE
  5
19AF
330
1F
100
AcDbEntity
  8
PIC06
  6
Continuous
 62
     7
100
AcDbLine
 10
882.4710768388404
 20
699.8656945330849
 30
0.0
 11
882.8975146628108
 21
700.2921323570554
 31
0.0
  0
LINE
  5
19B0
330
1F
100
AcDbEntity
  8
PIC06
  6
Continuous
 62
     7
100
AcDbLine
 10
881.4360354845003
 20
698.9976892911072
 30
0.0
 11
881.7542989073526
 21
699.3159527139596
 31
0.0
  0
LINE
  5
19B1
330
1F
100
AcDbEntity
  8
PIC06
  6
Continuous
 62
     7
100
AcDbLine
 10
882.2906380566628
 20
699.8522918632698
 30
0.0
 11
882.7170740334231
 21
700.2787278400301
 31
0.0
  0
LINE
  5
19B2
330
1F
100
AcDbEntity
  8
PIC06
  6
Continuous
 62
     7
100
AcDbLine
 10
881.4516092820813
 20
699.1802992010507
 30
0.0
 11
881.7643886196011
 21
699.4930785385705
 31
0.0
  0
LINE
  5
19B3
330
1F
100
AcDbEntity
  8
PIC06
  6
Continuous
 62
     7
100
AcDbLine
 10
882.1101992744852
 20
699.8388891934546
 30
0.0
 11
882.5366334040346
 21
700.265323323003
 31
0.0
  0
LINE
  5
19B4
330
1F
100
AcDbEntity
  8
PIC06
  6
Continuous
 62
     7
100
AcDbLine
 10
881.4671830796624
 20
699.3629091109951
 30
0.0
 11
881.7770104013925
 21
699.6727364327252
 31
0.0
  0
LINE
  5
19B5
330
1F
100
AcDbEntity
  8
PIC06
  6
Continuous
 62
     7
100
AcDbLine
 10
881.9278531653209
 20
699.8235791966536
 30
0.0
 11
882.3561927746458
 21
700.2519188059777
 31
0.0
  0
LINE
  5
19B6
330
1F
100
AcDbEntity
  8
PIC06
  6
Continuous
 62
     7
100
AcDbLine
 10
881.4827568772434
 20
699.5455190209395
 30
0.0
 11
882.1757521452573
 21
700.2385142889525
 31
0.0
  0
LINE
  5
19B7
330
1F
100
AcDbEntity
  8
PIC06
  6
Continuous
 62
     7
100
AcDbLine
 10
881.3455517079828
 20
699.5753499640405
 30
0.0
 11
881.9953115158687
 21
700.2251097719272
 31
0.0
  0
LINE
  5
19B8
330
1F
100
AcDbEntity
  8
PIC06
  6
Continuous
 62
     7
100
AcDbLine
 10
881.3300143523647
 20
699.7268487207857
 30
0.0
 11
881.7987129360563
 21
700.1955473044763
 31
0.0
  0
LINE
  5
19B9
330
1F
100
AcDbEntity
  8
PIC06
  6
Continuous
 62
     7
100
AcDbLine
 10
879.5356544609731
 20
698.4335971664823
 30
0.0
 11
879.6370705490899
 21
698.5350132545991
 31
0.0
  0
LINE
  5
19BA
330
1F
100
AcDbEntity
  8
PIC06
  6
Continuous
 62
     7
100
AcDbLine
 10
879.3893954299356
 20
698.4543742478072
 30
0.0
 11
879.6370705490899
 21
698.7020493669615
 31
0.0
  0
LINE
  5
19BB
330
1F
100
AcDbEntity
  8
PIC06
  6
Continuous
 62
     7
100
AcDbLine
 10
879.2967634970791
 20
698.5287784273132
 30
0.0
 11
879.5453920079198
 21
698.7774069381539
 31
0.0
  0
LINE
  5
19BC
330
1F
100
AcDbEntity
  8
PIC06
  6
Continuous
 62
     7
100
AcDbLine
 10
879.2505604802
 20
698.6496115227973
 30
0.0
 11
879.4986158264883
 21
698.8976668690857
 31
0.0
  0
LINE
  5
19BD
330
1F
100
AcDbEntity
  8
PIC06
  6
Continuous
 62
     7
100
AcDbLine
 10
879.2074245497879
 20
698.7735117047487
 30
0.0
 11
879.4334438368432
 21
698.9995309918031
 31
0.0
  0
LINE
  5
19BE
330
1F
100
AcDbEntity
  8
PIC06
  6
Continuous
 62
     7
100
AcDbLine
 10
879.1281938511739
 20
698.861317118497
 30
0.0
 11
879.3520978987116
 21
699.0852211660349
 31
0.0
  0
LINE
  5
19BF
330
1F
100
AcDbEntity
  8
PIC06
  6
Continuous
 62
     7
100
AcDbLine
 10
879.0231142576121
 20
698.9232736372987
 30
0.0
 11
879.2545168450651
 21
699.1546762247508
 31
0.0
  0
LINE
  5
19C0
330
1F
100
AcDbEntity
  8
PIC06
  6
Continuous
 62
     7
100
AcDbLine
 10
878.9182405989421
 20
698.9854360909903
 30
0.0
 11
879.1476528933662
 21
699.2148483854143
 31
0.0
  0
LINE
  5
19C1
330
1F
100
AcDbEntity
  8
PIC06
  6
Continuous
 62
     7
100
AcDbLine
 10
879.5081544719915
 20
699.5753499640405
 30
0.0
 11
879.6370705490899
 21
699.704266041138
 31
0.0
  0
LINE
  5
19C2
330
1F
100
AcDbEntity
  8
PIC06
  6
Continuous
 62
     7
100
AcDbLine
 10
878.8174366966813
 20
699.0516683010928
 30
0.0
 11
879.0446203362407
 21
699.2788519406522
 31
0.0
  0
LINE
  5
19C3
330
1F
100
AcDbEntity
  8
PIC06
  6
Continuous
 62
     7
100
AcDbLine
 10
879.38518460041
 20
699.6194162048222
 30
0.0
 11
879.6079725495573
 21
699.8422041539679
 31
0.0
  0
LINE
  5
19C4
330
1F
100
AcDbEntity
  8
PIC06
  6
Continuous
 62
     7
100
AcDbLine
 10
878.7200464772931
 20
699.1213141940679
 30
0.0
 11
878.9453337415716
 21
699.3466014583463
 31
0.0
  0
LINE
  5
19C5
330
1F
100
AcDbEntity
  8
PIC06
  6
Continuous
 62
     7
100
AcDbLine
 10
879.3038082087996
 20
699.7050759255744
 30
0.0
 11
879.5265959819953
 21
699.9278636987692
 31
0.0
  0
LINE
  5
19C6
330
1F
100
AcDbEntity
  8
PIC06
  6
Continuous
 62
     7
100
AcDbLine
 10
878.6259945532592
 20
699.1942983823965
 30
0.0
 11
878.8499363474075
 21
699.4182401765447
 31
0.0
  0
LINE
  5
19C7
330
1F
100
AcDbEntity
  8
PIC06
  6
Continuous
 62
     7
100
AcDbLine
 10
879.2224318171893
 20
699.7907356463265
 30
0.0
 11
879.4452194144341
 21
700.0135232435714
 31
0.0
  0
LINE
  5
19C8
330
1F
100
AcDbEntity
  8
PIC06
  6
Continuous
 62
     7
100
AcDbLine
 10
878.5352390164808
 20
699.2705789579795
 30
0.0
 11
878.7586213313526
 21
699.4939612728521
 31
0.0
  0
LINE
  5
19C9
330
1F
100
AcDbEntity
  8
PIC06
  6
Continuous
 62
     7
100
AcDbLine
 10
879.141055425579
 20
699.8763953670787
 30
0.0
 11
879.363842846873
 21
700.0991827883726
 31
0.0
  0
LINE
  5
19CA
330
1F
100
AcDbEntity
  8
PIC06
  6
Continuous
 62
     7
100
AcDbLine
 10
878.4479211376483
 20
699.3502971915113
 30
0.0
 11
878.6708690694339
 21
699.5732451232961
 31
0.0
  0
LINE
  5
19CB
330
1F
100
AcDbEntity
  8
PIC06
  6
Continuous
 62
     7
100
AcDbLine
 10
879.0596790339687
 20
699.9620550878307
 30
0.0
 11
879.2824662793108
 21
700.1848423331739
 31
0.0
  0
LINE
  5
19CC
330
1F
100
AcDbEntity
  8
PIC06
  6
Continuous
 62
     7
100
AcDbLine
 10
878.364153965238
 20
699.4335661314635
 30
0.0
 11
878.5866869666243
 21
699.6560991328497
 31
0.0
  0
LINE
  5
19CD
330
1F
100
AcDbEntity
  8
PIC06
  6
Continuous
 62
     7
100
AcDbLine
 10
878.9766118689604
 20
700.0460240351858
 30
0.0
 11
879.1994236972659
 21
700.2688358634913
 31
0.0
  0
LINE
  5
19CE
330
1F
100
AcDbEntity
  8
PIC06
  6
Continuous
 62
     7
100
AcDbLine
 10
878.2836333819114
 20
699.5200816605001
 30
0.0
 11
878.5066875512248
 21
699.7431358298135
 31
0.0
  0
LINE
  5
19CF
330
1F
100
AcDbEntity
  8
PIC06
  6
Continuous
 62
     7
100
AcDbLine
 10
878.8974090513265
 20
700.1338573299144
 30
0.0
 11
879.1208958185244
 21
700.357344097113
 31
0.0
  0
LINE
  5
19D0
330
1F
100
AcDbEntity
  8
PIC06
  6
Continuous
 62
     7
100
AcDbLine
 10
878.2063714772821
 20
699.6098558682334
 30
0.0
 11
878.4302472069722
 21
699.8337315979234
 31
0.0
  0
LINE
  5
19D1
330
1F
100
AcDbEntity
  8
PIC06
  6
Continuous
 62
     7
100
AcDbLine
 10
878.8226450562005
 20
700.2261294471509
 30
0.0
 11
879.0479106676366
 21
700.4513950585869
 31
0.0
  0
LINE
  5
19D2
330
1F
100
AcDbEntity
  8
PIC06
  6
Continuous
 62
     7
100
AcDbLine
 10
878.1323923203217
 20
699.7029128236363
 30
0.0
 11
878.3573973478842
 21
699.9279178511987
 31
0.0
  0
LINE
  5
19D3
330
1F
100
AcDbEntity
  8
PIC06
  6
Continuous
 62
     7
100
AcDbLine
 10
878.7531237060985
 20
700.3236442094112
 30
0.0
 11
878.980694619614
 21
700.5512151229277
 31
0.0
  0
LINE
  5
19D4
330
1F
100
AcDbEntity
  8
PIC06
  6
Continuous
 62
     7
100
AcDbLine
 10
878.0620265641891
 20
699.7995831798653
 30
0.0
 11
878.2887631518143
 21
700.0263197674912
 31
0.0
  0
LINE
  5
19D5
330
1F
100
AcDbEntity
  8
PIC06
  6
Continuous
 62
     7
100
AcDbLine
 10
878.6882242383354
 20
700.4257808540114
 30
0.0
 11
878.9196654646158
 21
700.6572220802918
 31
0.0
  0
LINE
  5
19D6
330
1F
100
AcDbEntity
  8
PIC06
  6
Continuous
 62
     7
100
AcDbLine
 10
877.9952730973374
 20
699.8998658253768
 30
0.0
 11
878.2240070281705
 21
700.1285997562099
 31
0.0
  0
LINE
  5
19D7
330
1F
100
AcDbEntity
  8
PIC06
  6
Continuous
 62
     7
100
AcDbLine
 10
878.6289031676014
 20
700.5334958956409
 30
0.0
 11
878.8646292742333
 21
700.7692220022727
 31
0.0
  0
LINE
  5
19D8
330
1F
100
AcDbEntity
  8
PIC06
  6
Continuous
 62
     7
100
AcDbLine
 10
877.9319838925093
 20
700.0036127329122
 30
0.0
 11
878.1630732087933
 21
700.2347020491961
 31
0.0
  0
LINE
  5
19D9
330
1F
100
AcDbEntity
  8
PIC06
  6
Continuous
 62
     7
100
AcDbLine
 10
878.5747738187337
 20
700.6464026591356
 30
0.0
 11
878.8169625245108
 21
700.8885913649137
 31
0.0
  0
LINE
  5
19DA
330
1F
100
AcDbEntity
  8
PIC06
  6
Continuous
 62
     7
100
AcDbLine
 10
877.8722437159832
 20
700.1109086687484
 30
0.0
 11
878.1067925236166
 21
700.3454574763818
 31
0.0
  0
LINE
  5
19DB
330
1F
100
AcDbEntity
  8
PIC06
  6
Continuous
 62
     7
100
AcDbLine
 10
878.5266158619005
 20
700.7652808146649
 30
0.0
 11
878.7766365301258
 21
701.0153014828902
 31
0.0
  0
LINE
  5
19DC
330
1F
100
AcDbEntity
  8
PIC06
  6
Continuous
 62
     7
100
AcDbLine
 10
877.8164400727746
 20
700.2221411379032
 30
0.0
 11
878.0547700747092
 21
700.460471139837
 31
0.0
  0
LINE
  5
19DD
330
1F
100
AcDbEntity
  8
PIC06
  6
Continuous
 62
     7
100
AcDbLine
 10
878.4848346358803
 20
700.890535701008
 30
0.0
 11
878.7446412811233
 21
701.1503423462508
 31
0.0
  0
LINE
  5
19DE
330
1F
100
AcDbEntity
  8
PIC06
  6
Continuous
 62
     7
100
AcDbLine
 10
877.7648337095753
 20
700.3375708870653
 30
0.0
 11
878.0073356154989
 21
700.5800727929891
 31
0.0
  0
LINE
  5
19DF
330
1F
100
AcDbEntity
  8
PIC06
  6
Continuous
 62
     7
100
AcDbLine
 10
878.4497459283183
 20
701.0224831058085
 30
0.0
 11
878.7225486764519
 21
701.2952858539429
 31
0.0
  0
LINE
  5
19E0
330
1F
100
AcDbEntity
  8
PIC06
  6
Continuous
 62
     7
100
AcDbLine
 10
877.7172073510401
 20
700.4569806408936
 30
0.0
 11
877.9651973226355
 21
700.7049706124889
 31
0.0
  0
LINE
  5
19E1
330
1F
100
AcDbEntity
  8
PIC06
  6
Continuous
 62
     7
100
AcDbLine
 10
878.422568252372
 20
701.1623415422254
 30
0.0
 11
878.7057296020666
 21
701.4455028919201
 31
0.0
  0
LINE
  5
19E2
330
1F
100
AcDbEntity
  8
PIC06
  6
Continuous
 62
     7
100
AcDbLine
 10
877.6738814183708
 20
700.5806908205868
 30
0.0
 11
877.9280581352905
 21
700.8348675375064
 31
0.0
  0
LINE
  5
19E3
330
1F
100
AcDbEntity
  8
PIC06
  6
Continuous
 62
     7
100
AcDbLine
 10
878.4038925959157
 20
701.3107019981316
 30
0.0
 11
878.6889535076106
 21
701.5957629098266
 31
0.0
  0
LINE
  5
19E4
330
1F
100
AcDbEntity
  8
PIC06
  6
Continuous
 62
     7
100
AcDbLine
 10
877.6357325121026
 20
700.7095780266809
 30
0.0
 11
877.8972576431343
 21
700.9711031577134
 31
0.0
  0
LINE
  5
19E5
330
1F
100
AcDbEntity
  8
PIC06
  6
Continuous
 62
     7
100
AcDbLine
 10
878.3870773232129
 20
701.4609228377922
 30
0.0
 11
878.6735959324241
 21
701.7474414470025
 31
0.0
  0
LINE
  5
19E6
330
1F
100
AcDbEntity
  8
PIC06
  6
Continuous
 62
     7
100
AcDbLine
 10
877.6022941262171
 20
700.8431757531589
 30
0.0
 11
877.8726738960623
 21
701.1135555230048
 31
0.0
  0
LINE
  5
19E7
330
1F
100
AcDbEntity
  8
PIC06
  6
Continuous
 62
     7
100
AcDbLine
 10
878.3707615886841
 20
701.6116432156259
 30
0.0
 11
878.6582508331612
 21
701.8991324601029
 31
0.0
  0
LINE
  5
19E8
330
1F
100
AcDbEntity
  8
PIC06
  6
Continuous
 62
     7
100
AcDbLine
 10
877.5746390477806
 20
700.9825567870848
 30
0.0
 11
877.8546575024803
 21
701.2625752417843
 31
0.0
  0
LINE
  5
19E9
330
1F
100
AcDbEntity
  8
PIC06
  6
Continuous
 62
     7
100
AcDbLine
 10
878.3554179362472
 20
701.7633356755522
 30
0.0
 11
878.644264938849
 21
702.0521826781532
 31
0.0
  0
LINE
  5
19EA
330
1F
100
AcDbEntity
  8
PIC06
  6
Continuous
 62
     7
100
AcDbLine
 10
877.5531526073272
 20
701.1281064589947
 30
0.0
 11
877.8378536208302
 21
701.4128074724976
 31
0.0
  0
LINE
  5
19EB
330
1F
100
AcDbEntity
  8
PIC06
  6
Continuous
 62
     7
100
AcDbLine
 10
878.3404682167729
 20
701.9154220684395
 30
0.0
 11
878.6302860191081
 21
702.2052398707747
 31
0.0
  0
LINE
  5
19EC
330
1F
100
AcDbEntity
  8
PIC06
  6
Continuous
 62
     7
100
AcDbLine
 10
877.5359862695605
 20
701.2779762335903
 30
0.0
 11
877.821595876443
 21
701.563585840473
 31
0.0
  0
LINE
  5
19ED
330
1F
100
AcDbEntity
  8
PIC06
  6
Continuous
 62
     7
100
AcDbLine
 10
878.3265059054638
 20
702.0684958694946
 30
0.0
 11
878.6176943244235
 21
702.3596842884526
 31
0.0
  0
LINE
  5
19EE
330
1F
100
AcDbEntity
  8
PIC06
  6
Continuous
 62
     7
100
AcDbLine
 10
877.5191604676537
 20
701.428186544047
 30
0.0
 11
877.806293951785
 21
701.7153200281782
 31
0.0
  0
LINE
  5
19EF
330
1F
100
AcDbEntity
  8
PIC06
  6
Continuous
 62
     7
100
AcDbLine
 10
878.3128911635131
 20
702.2219172399054
 30
0.0
 11
878.605127183675
 21
702.5141532600683
 31
0.0
  0
LINE
  5
19F0
330
1F
100
AcDbEntity
  8
PIC06
  6
Continuous
 62
     7
100
AcDbLine
 10
877.5034461781979
 20
701.5795083669536
 30
0.0
 11
877.7913190207664
 21
701.8673812095221
 31
0.0
  0
LINE
  5
19F1
330
1F
100
AcDbEntity
  8
PIC06
  6
Continuous
 62
     7
100
AcDbLine
 10
878.3003330344518
 20
702.3763952232075
 30
0.0
 11
878.5939530398428
 21
702.6700152285975
 31
0.0
  0
LINE
  5
19F2
330
1F
100
AcDbEntity
  8
PIC06
  6
Continuous
 62
     7
100
AcDbLine
 10
877.4880639687498
 20
701.7311622698689
 30
0.0
 11
877.7774274063112
 21
702.0205257074294
 31
0.0
  0
LINE
  5
19F3
330
1F
100
AcDbEntity
  8
PIC06
  6
Continuous
 62
     7
100
AcDbLine
 10
878.2880985670699
 20
702.531196868188
 30
0.0
 11
878.5828455662459
 21
702.8259438673649
 31
0.0
  0
LINE
  5
19F4
330
1F
100
AcDbEntity
  8
PIC06
  6
Continuous
 62
     7
100
AcDbLine
 10
877.4736284742084
 20
701.883762887689
 30
0.0
 11
877.7637045891015
 21
702.1738390025821
 31
0.0
  0
LINE
  5
19F5
330
1F
100
AcDbEntity
  8
PIC06
  6
Continuous
 62
     7
100
AcDbLine
 10
878.2769683117576
 20
702.6871027252382
 30
0.0
 11
878.5731131941702
 21
702.9832476076517
 31
0.0
  0
LINE
  5
19F6
330
1F
100
AcDbEntity
  8
PIC06
  6
Continuous
 62
     7
100
AcDbLine
 10
877.4596008597418
 20
702.0367713855858
 30
0.0
 11
877.7512471067485
 21
702.3284176325923
 31
0.0
  0
LINE
  5
19F7
330
1F
100
AcDbEntity
  8
PIC06
  6
Continuous
 62
     7
100
AcDbLine
 10
878.2661617007525
 20
702.8433322265964
 30
0.0
 11
878.5635270548619
 21
703.1406975807058
 31
0.0
  0
LINE
  5
19F8
330
1F
100
AcDbEntity
  8
PIC06
  6
Continuous
 62
     7
100
AcDbLine
 10
877.4464600732599
 20
702.1906667114663
 30
0.0
 11
877.7388207741406
 21
702.4830274123469
 31
0.0
  0
LINE
  5
19F9
330
1F
100
AcDbEntity
  8
PIC06
  6
Continuous
 62
     7
100
AcDbLine
 10
878.2564838993575
 20
703.0006905375639
 30
0.0
 11
878.5553849895586
 21
703.299591627765
 31
0.0
  0
LINE
  5
19FA
330
1F
100
AcDbEntity
  8
PIC06
  6
Continuous
 62
     7
100
AcDbLine
 10
877.4338090081046
 20
702.3450517586734
 30
0.0
 11
877.7278221514306
 21
702.6390649020004
 31
0.0
  0
LINE
  5
19FB
330
1F
100
AcDbEntity
  8
PIC06
  6
Continuous
 62
     7
100
AcDbLine
 10
878.2471845224053
 20
703.1584272729742
 30
0.0
 11
878.5224442534936
 21
703.4336870040625
 31
0.0
  0
LINE
  5
19FC
330
1F
100
AcDbEntity
  8
PIC06
  6
Continuous
 62
     7
100
AcDbLine
 10
877.4220062013265
 20
702.5002850642595
 30
0.0
 11
877.7168235287208
 21
702.7951023916539
 31
0.0
  0
LINE
  5
19FD
330
1F
100
AcDbEntity
  8
PIC06
  6
Continuous
 62
     7
100
AcDbLine
 10
878.2391090288884
 20
703.3173878918205
 30
0.0
 11
878.3554081411303
 21
703.4336870040625
 31
0.0
  0
LINE
  5
19FE
330
1F
100
AcDbEntity
  8
PIC06
  6
Continuous
 62
     7
100
AcDbLine
 10
877.4107544412336
 20
702.6560694165291
 30
0.0
 11
877.7072248628483
 21
702.9525398381438
 31
0.0
  0
LINE
  5
19FF
330
1F
100
AcDbEntity
  8
PIC06
  6
Continuous
 62
     7
100
AcDbLine
 10
877.4003350211206
 20
702.8126861087785
 30
0.0
 11
877.6977107746306
 21
703.1100618622876
 31
0.0
  0
LINE
  5
1A00
330
1F
100
AcDbEntity
  8
PIC06
  6
Continuous
 62
     7
100
AcDbLine
 10
877.3905061586184
 20
702.9698933586387
 30
0.0
 11
877.6895309796836
 21
703.2689181797049
 31
0.0
  0
LINE
  5
1A01
330
1F
100
AcDbEntity
  8
PIC06
  6
Continuous
 62
     7
100
AcDbLine
 10
878.3661200236375
 20
703.9455072236578
 30
0.0
 11
878.5242877267073
 21
704.1036749267277
 31
0.0
  0
LINE
  5
1A02
330
1F
100
AcDbEntity
  8
PIC06
  6
Continuous
 62
     7
100
AcDbLine
 10
877.381517799532
 20
703.1279411119157
 30
0.0
 11
877.6815280923019
 21
703.4279514046857
 31
0.0
  0
LINE
  5
1A03
330
1F
100
AcDbEntity
  8
PIC06
  6
Continuous
 62
     7
100
AcDbLine
 10
878.2130236841704
 20
703.9594469965541
 30
0.0
 11
878.5201598004123
 21
704.266583112796
 31
0.0
  0
LINE
  5
1A04
330
1F
100
AcDbEntity
  8
PIC06
  6
Continuous
 62
     7
100
AcDbLine
 10
877.3731363013457
 20
703.286595726091
 30
0.0
 11
877.6748198628565
 21
703.5882792876027
 31
0.0
  0
LINE
  5
1A05
330
1F
100
AcDbEntity
  8
PIC06
  6
Continuous
 62
     7
100
AcDbLine
 10
878.2085447389535
 20
704.1220041636989
 30
0.0
 11
878.5175462454891
 21
704.4310056702361
 31
0.0
  0
LINE
  5
1A06
330
1F
100
AcDbEntity
  8
PIC06
  6
Continuous
 62
     7
100
AcDbLine
 10
878.8876991814005
 20
704.8011586061475
 30
0.0
 11
879.302418867047
 21
705.2158782917931
 31
0.0
  0
LINE
  5
1A07
330
1F
100
AcDbEntity
  8
PIC06
  6
Continuous
 62
     7
100
AcDbLine
 10
877.365629086802
 20
703.4461246239116
 30
0.0
 11
877.668355881061
 21
703.7488514181696
 31
0.0
  0
LINE
  5
1A08
330
1F
100
AcDbEntity
  8
PIC06
  6
Continuous
 62
     7
100
AcDbLine
 10
878.0224948310397
 20
704.1029903681483
 30
0.0
 11
878.5810835568108
 21
704.6615790939195
 31
0.0
  0
LINE
  5
1A09
330
1F
100
AcDbEntity
  8
PIC06
  6
Continuous
 62
     7
100
AcDbLine
 10
878.7385667013014
 20
704.8190622384099
 30
0.0
 11
879.302418867047
 21
705.3829144041555
 31
0.0
  0
LINE
  5
1A0A
330
1F
100
AcDbEntity
  8
PIC06
  6
Continuous
 62
     7
100
AcDbLine
 10
877.3587203334718
 20
703.6062519829438
 30
0.0
 11
877.663282710122
 21
703.9108143595931
 31
0.0
  0
LINE
  5
1A0B
330
1F
100
AcDbEntity
  8
PIC06
  6
Continuous
 62
     7
100
AcDbLine
 10
877.8554587186762
 20
704.1029903681483
 30
0.0
 11
878.5810835568108
 21
704.8286152062819
 31
0.0
  0
LINE
  5
1A0C
330
1F
100
AcDbEntity
  8
PIC06
  6
Continuous
 62
     7
100
AcDbLine
 10
878.7385667013014
 20
704.9860983507733
 30
0.0
 11
878.9238407647326
 21
705.1713724142046
 31
0.0
  0
LINE
  5
1A0D
330
1F
100
AcDbEntity
  8
PIC06
  6
Continuous
 62
     7
100
AcDbLine
 10
878.9874525780652
 20
705.234984227537
 30
0.0
 11
879.302418867047
 21
705.5499505165189
 31
0.0
  0
LINE
  5
1A0E
330
1F
100
AcDbEntity
  8
PIC06
  6
Continuous
 62
     7
100
AcDbLine
 10
877.3527469083637
 20
703.7673146701981
 30
0.0
 11
877.6585184027998
 21
704.0730861646343
 31
0.0
  0
LINE
  5
1A0F
330
1F
100
AcDbEntity
  8
PIC06
  6
Continuous
 62
     7
100
AcDbLine
 10
877.6884226063138
 20
704.1029903681483
 30
0.0
 11
878.0033888952956
 21
704.4179566571292
 31
0.0
  0
LINE
  5
1A10
330
1F
100
AcDbEntity
  8
PIC06
  6
Continuous
 62
     7
100
AcDbLine
 10
878.1221146892084
 20
704.5366824510429
 30
0.0
 11
878.5810835568108
 21
704.9956513186453
 31
0.0
  0
LINE
  5
1A11
330
1F
100
AcDbEntity
  8
PIC06
  6
Continuous
 62
     7
100
AcDbLine
 10
878.9874525780652
 20
705.4020203399004
 30
0.0
 11
879.302418867047
 21
705.7169866288814
 31
0.0
  0
LINE
  5
1A12
330
1F
100
AcDbEntity
  8
PIC06
  6
Continuous
 62
     7
100
AcDbLine
 10
877.3473372362287
 20
703.9289411104264
 30
0.0
 11
877.8363527829323
 21
704.4179566571292
 31
0.0
  0
LINE
  5
1A13
330
1F
100
AcDbEntity
  8
PIC06
  6
Continuous
 62
     7
100
AcDbLine
 10
878.0783378504802
 20
704.6599417246779
 30
0.0
 11
878.3015457058009
 21
704.8831495799977
 31
0.0
  0
LINE
  5
1A14
330
1F
100
AcDbEntity
  8
PIC06
  6
Continuous
 62
     7
100
AcDbLine
 10
878.9874525780652
 20
705.5690564522628
 30
0.0
 11
879.2924509756103
 21
705.874054849808
 31
0.0
  0
LINE
  5
1A15
330
1F
100
AcDbEntity
  8
PIC06
  6
Continuous
 62
     7
100
AcDbLine
 10
877.3430392712853
 20
704.0916792578455
 30
0.0
 11
877.6693166705699
 21
704.4179566571292
 31
0.0
  0
LINE
  5
1A16
330
1F
100
AcDbEntity
  8
PIC06
  6
Continuous
 62
     7
100
AcDbLine
 10
877.977428397765
 20
704.726068384326
 30
0.0
 11
878.2116582330818
 21
704.960298219642
 31
0.0
  0
LINE
  5
1A17
330
1F
100
AcDbEntity
  8
PIC06
  6
Continuous
 62
     7
100
AcDbLine
 10
878.9874525780652
 20
705.7360925646253
 30
0.0
 11
879.237996323237
 21
705.9866363097971
 31
0.0
  0
LINE
  5
1A18
330
1F
100
AcDbEntity
  8
PIC06
  6
Continuous
 62
     7
100
AcDbLine
 10
877.3392844842765
 20
704.2549605831991
 30
0.0
 11
877.5022805582066
 21
704.4179566571292
 31
0.0
  0
LINE
  5
1A19
330
1F
100
AcDbEntity
  8
PIC06
  6
Continuous
 62
     7
100
AcDbLine
 10
877.8172468471884
 20
704.732922946111
 30
0.0
 11
878.1009899860274
 21
705.0166660849499
 31
0.0
  0
LINE
  5
1A1A
330
1F
100
AcDbEntity
  8
PIC06
  6
Continuous
 62
     7
100
AcDbLine
 10
878.8802580725015
 20
705.795934171424
 30
0.0
 11
879.1499331623899
 21
706.0656092613125
 31
0.0
  0
LINE
  5
1A1B
330
1F
100
AcDbEntity
  8
PIC06
  6
Continuous
 62
     7
100
AcDbLine
 10
877.6502107348251
 20
704.732922946111
 30
0.0
 11
877.9639535482056
 21
705.0466657594916
 31
0.0
  0
LINE
  5
1A1C
330
1F
100
AcDbEntity
  8
PIC06
  6
Continuous
 62
     7
100
AcDbLine
 10
878.713221960138
 20
705.795934171424
 30
0.0
 11
879.0258159910136
 21
706.1085282022995
 31
0.0
  0
LINE
  5
1A1D
330
1F
100
AcDbEntity
  8
PIC06
  6
Continuous
 62
     7
100
AcDbLine
 10
877.4831746224627
 20
704.732922946111
 30
0.0
 11
877.7981409114445
 21
705.047889235093
 31
0.0
  0
LINE
  5
1A1E
330
1F
100
AcDbEntity
  8
PIC06
  6
Continuous
 62
     7
100
AcDbLine
 10
878.5461858477747
 20
705.795934171424
 30
0.0
 11
878.8611521367565
 21
706.1109004604049
 31
0.0
  0
LINE
  5
1A1F
330
1F
100
AcDbEntity
  8
PIC06
  6
Continuous
 62
     7
100
AcDbLine
 10
877.3161385101003
 20
704.732922946111
 30
0.0
 11
877.6311047990812
 21
705.047889235093
 31
0.0
  0
LINE
  5
1A20
330
1F
100
AcDbEntity
  8
PIC06
  6
Continuous
 62
     7
100
AcDbLine
 10
878.3791497354123
 20
705.795934171424
 30
0.0
 11
878.6941160243941
 21
706.1109004604049
 31
0.0
  0
LINE
  5
1A21
330
1F
100
AcDbEntity
  8
PIC06
  6
Continuous
 62
     7
100
AcDbLine
 10
877.1491023977368
 20
704.732922946111
 30
0.0
 11
877.4640686867186
 21
705.047889235093
 31
0.0
  0
LINE
  5
1A22
330
1F
100
AcDbEntity
  8
PIC06
  6
Continuous
 62
     7
100
AcDbLine
 10
878.2121136230498
 20
705.795934171424
 30
0.0
 11
878.5270799120308
 21
706.1109004604049
 31
0.0
  0
LINE
  5
1A23
330
1F
100
AcDbEntity
  8
PIC06
  6
Continuous
 62
     7
100
AcDbLine
 10
876.9820662853744
 20
704.732922946111
 30
0.0
 11
877.2970325743562
 21
705.047889235093
 31
0.0
  0
LINE
  5
1A24
330
1F
100
AcDbEntity
  8
PIC06
  6
Continuous
 62
     7
100
AcDbLine
 10
878.0450775106865
 20
705.795934171424
 30
0.0
 11
878.3600437996675
 21
706.1109004604049
 31
0.0
  0
LINE
  5
1A25
330
1F
100
AcDbEntity
  8
PIC06
  6
Continuous
 62
     7
100
AcDbLine
 10
876.815030173012
 20
704.732922946111
 30
0.0
 11
877.1299964619929
 21
705.047889235093
 31
0.0
  0
LINE
  5
1A26
330
1F
100
AcDbEntity
  8
PIC06
  6
Continuous
 62
     7
100
AcDbLine
 10
877.8780413983231
 20
705.795934171424
 30
0.0
 11
878.1930076873059
 21
706.1109004604049
 31
0.0
  0
LINE
  5
1A27
330
1F
100
AcDbEntity
  8
PIC06
  6
Continuous
 62
     7
100
AcDbLine
 10
876.6479940606487
 20
704.732922946111
 30
0.0
 11
876.9629603496296
 21
705.047889235093
 31
0.0
  0
LINE
  5
1A28
330
1F
100
AcDbEntity
  8
PIC06
  6
Continuous
 62
     7
100
AcDbLine
 10
877.7110052859615
 20
705.795934171424
 30
0.0
 11
878.0259715749425
 21
706.1109004604049
 31
0.0
  0
LINE
  5
1A29
330
1F
100
AcDbEntity
  8
PIC06
  6
Continuous
 62
     7
100
AcDbLine
 10
876.6448899777342
 20
704.8968549755591
 30
0.0
 11
876.7959242372672
 21
705.047889235093
 31
0.0
  0
LINE
  5
1A2A
330
1F
100
AcDbEntity
  8
PIC06
  6
Continuous
 62
     7
100
AcDbLine
 10
877.5439691735982
 20
705.795934171424
 30
0.0
 11
877.85893546258
 21
706.1109004604049
 31
0.0
  0
LINE
  5
1A2B
330
1F
100
AcDbEntity
  8
PIC06
  6
Continuous
 62
     7
100
AcDbLine
 10
877.3769330612358
 20
705.795934171424
 30
0.0
 11
877.6918993502167
 21
706.1109004604049
 31
0.0
  0
LINE
  5
1A2C
330
1F
100
AcDbEntity
  8
PIC06
  6
Continuous
 62
     7
100
AcDbLine
 10
877.2098969488725
 20
705.795934171424
 30
0.0
 11
877.5248632378543
 21
706.1109004604049
 31
0.0
  0
LINE
  5
1A2D
330
1F
100
AcDbEntity
  8
PIC06
  6
Continuous
 62
     7
100
AcDbLine
 10
877.0428608365101
 20
705.795934171424
 30
0.0
 11
877.357827125491
 21
706.1109004604049
 31
0.0
  0
LINE
  5
1A2E
330
1F
100
AcDbEntity
  8
PIC06
  6
Continuous
 62
     7
100
AcDbLine
 10
876.8758247241466
 20
705.795934171424
 30
0.0
 11
877.1907910131286
 21
706.1109004604049
 31
0.0
  0
LINE
  5
1A2F
330
1F
100
AcDbEntity
  8
PIC06
  6
Continuous
 62
     7
100
AcDbLine
 10
876.7087886117851
 20
705.795934171424
 30
0.0
 11
877.023754900766
 21
706.1109004604049
 31
0.0
  0
LINE
  5
1A30
330
1F
100
AcDbEntity
  8
PIC06
  6
Continuous
 62
     7
100
AcDbLine
 10
876.6448899777342
 20
705.8990716497355
 30
0.0
 11
876.8567187884027
 21
706.1109004604049
 31
0.0
  0
LINE
  5
1A31
330
1F
100
AcDbEntity
  8
PIC06
  6
Continuous
 62
     7
100
AcDbLine
 10
876.6448899777342
 20
706.0661077620989
 30
0.0
 11
876.6896826760403
 21
706.1109004604049
 31
0.0
  0
VIEWPORT
  5
220
102
{ACAD_XDICTIONARY
360
1C22
102
}
330
58
100
AcDbEntity
 67
     1
  8
0
100
AcDbViewport
 10
133.1884465048756
 20
109.1175889154594
 30
0.0
 40
445.141553439829
 41
249.3387543209733
 68
     1
 69
     1
 12
133.1884465048756
 22
109.1175889154594
 13
0.0
 23
0.0
 14
0.5
 24
0.5
 15
0.5
 25
0.5
 16
0.0
 26
0.0
 36
1.0
 17
0.0
 27
0.0
 37
0.0
 42
50.0
 43
0.0
 44
0.0
 45
249.3387543209733
 50
0.0
 51
0.0
 72
  1000
 90
    32800
  1

281
     0
 71
     1
 74
     0
110
0.0
120
0.0
130
0.0
111
1.0
121
0.0
131
0.0
112
0.0
122
1.0
132
0.0
 79
     0
146
0.0
  0
ENDSEC
  0
SECTION
  2
OBJECTS
  0
DICTIONARY
  5
C
330
0
100
AcDbDictionary
281
     1
  3
ACAD_2007HEADERVARS_RT
350
1C1C
  3
ACAD_CIP_PREVIOUS_PRODUCT_INFO
350
1C0F
  3
ACAD_COLOR
350
73
  3
ACAD_GROUP
350
D
  3
ACAD_LAYOUT
350
1A
  3
ACAD_MATERIAL
350
72
  3
ACAD_MLEADERSTYLE
350
1C0B
  3
ACAD_MLINESTYLE
350
17
  3
ACAD_PLOTSETTINGS
350
19
  3
ACAD_PLOTSTYLENAME
350
E
  3
ACAD_SCALELIST
350
1BF9
  3
ACAD_TABLESTYLE
350
86
  3
ACAD_VISUALSTYLE
350
1BE0
  3
ACDB_RECOMPOSE_DATA
350
1C1A
  3
AcDbVariableDictionary
350
66
  3
ASE_INDEX_DICTIONARY
350
432
  3
DWGPROPS
350
1C1B
  0
DICTIONARY
  5
1D0
330
2
100
AcDbDictionary
280
     1
281
     1
  3
ACAD_LAYERSTATES
360
1D1
  0
DICTIONARY
  5
1C22
330
220
100
AcDbDictionary
280
     1
281
     1
  3
ACAD_XREC_ROUNDTRIP
360
1C23
  0
DICTIONARY
  5
1C1C
102
{ACAD_REACTORS
330
C
102
}
330
C
100
AcDbDictionary
281
     1
  3
DIMFXL
350
1C1D
  0
XRECORD
  5
1C0F
102
{ACAD_REACTORS
330
C
102
}
330
C
100
AcDbXrecord
280
     1
300
ACD
300
2012
300
85730ACD_2012_0F
  0
DICTIONARY
  5
73
102
{ACAD_REACTORS
330
C
102
}
330
C
100
AcDbDictionary
281
     1
  0
DICTIONARY
  5
D
102
{ACAD_REACTORS
330
C
102
}
330
C
100
AcDbDictionary
281
     1
  0
DICTIONARY
  5
1A
102
{ACAD_REACTORS
330
C
102
}
330
C
100
AcDbDictionary
281
     1
  3
Layout1
350
59
  3
Model
350
22
  0
DICTIONARY
  5
72
102
{ACAD_REACTORS
330
C
102
}
330
C
100
AcDbDictionary
281
     1
  3
ByBlock
350
1BD0
  3
ByLayer
350
1BC8
  3
Global
350
1BD8
  0
DICTIONARY
  5
1C0B
102
{ACAD_REACTORS
330
C
102
}
330
C
100
AcDbDictionary
281
     1
  3
Standard
350
1C0C
  0
DICTIONARY
  5
17
102
{ACAD_REACTORS
330
C
102
}
330
C
100
AcDbDictionary
281
     1
  3
Standard
350
18
  0
DICTIONARY
  5
19
102
{ACAD_REACTORS
330
C
102
}
330
C
100
AcDbDictionary
281
     1
  0
ACDBDICTIONARYWDFLT
  5
E
102
{ACAD_REACTORS
330
C
102
}
330
C
100
AcDbDictionary
281
     1
  3
Normal
350
F
100
AcDbDictionaryWithDefault
340
F
  0
DICTIONARY
  5
1BF9
102
{ACAD_REACTORS
330
C
102
}
330
C
100
AcDbDictionary
281
     1
  3
A0
350
1BFA
  3
A1
350
1BFB
  3
A2
350
1BFC
  3
A3
350
1BFD
  3
A4
350
1BFE
  3
A5
350
1BFF
  3
A6
350
1C00
  3
A7
350
1C01
  3
A8
350
1C02
  3
A9
350
1C03
  3
B0
350
1C04
  3
B1
350
1C05
  3
B2
350
1C06
  3
B3
350
1C07
  3
B4
350
1C08
  3
B5
350
1C09
  3
B6
350
1C0A
  0
DICTIONARY
  5
86
102
{ACAD_REACTORS
330
C
102
}
330
C
100
AcDbDictionary
281
     1
  3
Standard
350
87
  0
DICTIONARY
  5
1BE0
102
{ACAD_REACTORS
330
C
102
}
330
C
100
AcDbDictionary
281
     1
  3
2dWireframe
350
1BE6
  3
Basic
350
1BE5
  3
Brighten
350
1BEC
  3
ColorChange
350
1BF0
  3
Conceptual
350
1BE9
  3
Dim
350
1BEB
  3
EdgeColorOff
350
1BF8
  3
Facepattern
350
1BEF
  3
Flat
350
1BE1
  3
FlatWithEdges
350
1BE2
  3
Gouraud
350
1BE3
  3
GouraudWithEdges
350
1BE4
  3
Hidden
350
1BE8
  3
JitterOff
350
1BF6
  3
Linepattern
350
1BEE
  3
OverhangOff
350
1BF7
  3
Realistic
350
1BEA
  3
Shaded
350
1BF5
  3
Shaded with edges
350
1BF4
  3
Shades of Gray
350
1BF1
  3
Sketchy
350
1BF2
  3
Thicken
350
1BED
  3
Wireframe
350
1BE7
  3
X-Ray
350
1BF3
  0
XRECORD
  5
1C1A
102
{ACAD_REACTORS
330
C
102
}
330
C
100
AcDbXrecord
280
     1
 90
        1
330
87
  0
DICTIONARY
  5
66
102
{ACAD_REACTORS
330
C
102
}
330
C
100
AcDbDictionary
281
     1
  3
CANNOSCALE
350
1C11
  3
CMLEADERSTYLE
350
1C10
  3
CTABLESTYLE
350
1FB
  3
DIMASSOC
350
67
  3
HIDETEXT
350
6B
  3
INDEXCTL
350
1C13
  3
PROJECTNAME
350
1BC6
  3
SORTENTS
350
1C12
  3
XCLIPFRAME
350
1C14
  0
DICTIONARY
  5
432
102
{ACAD_REACTORS
330
C
102
}
330
C
100
AcDbDictionary
281
     1
  3
ASEBlockHierarchyIndexRecord
350
433
1001
DCO15
1040
1629023144.394
  0
XRECORD
  5
1C1B
102
{ACAD_REACTORS
330
C
102
}
330
C
100
AcDbXrecord
280
     1
  1
DWGPROPS COOKIE
  2

  3

  4

  6

  7

  8
jgayle
  9

300
=
301
=
302
=
303
=
304
=
305
=
306
=
307
=
308
=
309
=
 40
0.0269866550925926
 41
2454741.57157603
 42
2456134.633699167
  1

 90
        0
  0
DICTIONARY
  5
1D1
102
{ACAD_REACTORS
330
1D0
102
}
330
1D0
100
AcDbDictionary
281
     1
  0
XRECORD
  5
1C23
102
{ACAD_REACTORS
330
1C22
102
}
330
1C22
100
AcDbXrecord
280
     1
102
SHADEPLOT
 70
     0
  0
XRECORD
  5
1C1D
102
{ACAD_REACTORS
330
1C1C
102
}
330
1C1C
100
AcDbXrecord
280
     1
 40
0.18
  0
LAYOUT
  5
59
102
{ACAD_XDICTIONARY
360
227
102
}
102
{ACAD_REACTORS
330
1A
102
}
330
1A
100
AcDbPlotSettings
  1

  2
none_device
  4
ISO_A4_(210.00_x_297.00_MM)
  6

 40
7.5
 41
20.0
 42
7.5
 43
20.0
 44
210.0
 45
297.0
 46
0.0
 47
0.0
 48
0.0
 49
0.0
140
0.0
141
0.0
142
1.0
143
1.0
 70
   688
 72
     1
 73
     1
 74
     5
  7

 75
    16
147
1.0
148
0.0
149
0.0
100
AcDbLayout
  1
Layout1
 70
     1
 71
     1
 10
-20.0
 20
-7.5
 11
277.0
 21
202.5
 12
0.0
 22
0.0
 32
0.0
 14
1.000000000000000E+20
 24
1.000000000000000E+20
 34
1.000000000000000E+20
 15
-1.000000000000000E+20
 25
-1.000000000000000E+20
 35
-1.000000000000000E+20
146
0.0
 13
0.0
 23
0.0
 33
0.0
 16
1.0
 26
0.0
 36
0.0
 17
0.0
 27
1.0
 37
0.0
 76
     0
330
58
331
220
1001
ACAD_PSEXT
1000
None
1000
None
1000
Not applicable
1000
The layout will not be plotted unless a new plotter configuration name is selected.
1070
     0
  0
LAYOUT
  5
22
102
{ACAD_XDICTIONARY
360
1C1E
102
}
102
{ACAD_REACTORS
330
1A
102
}
330
1A
100
AcDbPlotSettings
  1

  2
none_device
  4
ANSI_A_(8.50_x_11.00_Inches)
  6

 40
6.349999904632568
 41
19.04999923706055
 42
6.350006103515625
 43
19.04998779296875
 44
215.8999938964844
 45
279.3999938964844
 46
0.0
 47
0.0
 48
0.0
 49
0.0
140
0.0
141
0.0
142
1.0
143
2.584895464708373
 70
 11952
 72
     0
 73
     1
 74
     0
  7

 75
     0
147
0.3868628397755418
148
0.0
149
0.0
100
AcDbLayout
  1
Model
 70
     1
 71
     0
 10
0.0
 20
0.0
 11
12.0
 21
9.0
 12
0.0
 22
0.0
 32
0.0
 14
0.0
 24
0.0
 34
0.0
 15
0.0
 25
0.0
 35
0.0
146
0.0
 13
0.0
 23
0.0
 33
0.0
 16
1.0
 26
0.0
 36
0.0
 17
0.0
 27
1.0
 37
0.0
 76
     0
330
1F
331
1BBE
  0
MATERIAL
  5
1BD0
102
{ACAD_XDICTIONARY
360
1BD1
102
}
102
{ACAD_REACTORS
330
72
102
}
330
72
100
AcDbMaterial
  1
ByBlock
 72
     0
 43
0.0208333333333333
 43
0.0
 43
0.0
 43
0.0
 43
0.0
 43
0.0208333333333333
 43
0.0
 43
0.0
 43
0.0
 43
0.0
 43
1.0
 43
0.0
 43
0.0
 43
0.0
 43
0.0
 43
1.0
 77
     0
 47
0.0208333333333333
 47
0.0
 47
0.0
 47
0.0
 47
0.0
 47
0.0208333333333333
 47
0.0
 47
0.0
 47
0.0
 47
0.0
 47
1.0
 47
0.0
 47
0.0
 47
0.0
 47
0.0
 47
1.0
171
     0
 49
0.0208333333333333
 49
0.0
 49
0.0
 49
0.0
 49
0.0
 49
0.0208333333333333
 49
0.0
 49
0.0
 49
0.0
 49
0.0
 49
1.0
 49
0.0
 49
0.0
 49
0.0
 49
0.0
 49
1.0
175
     0
142
0.0208333333333333
142
0.0
142
0.0
142
0.0
142
0.0
142
0.0208333333333333
142
0.0
142
0.0
142
0.0
142
0.0
142
1.0
142
0.0
142
0.0
142
0.0
142
0.0
142
1.0
179
     0
144
0.0208333333333333
144
0.0
144
0.0
144
0.0
144
0.0
144
0.0208333333333333
144
0.0
144
0.0
144
0.0
144
0.0
144
1.0
144
0.0
144
0.0
144
0.0
144
0.0
144
1.0
147
0.0208333333333333
147
0.0
147
0.0
147
0.0
147
0.0
147
0.0208333333333333
147
0.0
147
0.0
147
0.0
147
0.0
147
1.0
147
0.0
147
0.0
147
0.0
147
0.0
147
1.0
  0
MATERIAL
  5
1BC8
102
{ACAD_XDICTIONARY
360
1BC9
102
}
102
{ACAD_REACTORS
330
72
102
}
330
72
100
AcDbMaterial
  1
ByLayer
 72
     0
 43
0.0208333333333333
 43
0.0
 43
0.0
 43
0.0
 43
0.0
 43
0.0208333333333333
 43
0.0
 43
0.0
 43
0.0
 43
0.0
 43
1.0
 43
0.0
 43
0.0
 43
0.0
 43
0.0
 43
1.0
 77
     0
 47
0.0208333333333333
 47
0.0
 47
0.0
 47
0.0
 47
0.0
 47
0.0208333333333333
 47
0.0
 47
0.0
 47
0.0
 47
0.0
 47
1.0
 47
0.0
 47
0.0
 47
0.0
 47
0.0
 47
1.0
171
     0
 49
0.0208333333333333
 49
0.0
 49
0.0
 49
0.0
 49
0.0
 49
0.0208333333333333
 49
0.0
 49
0.0
 49
0.0
 49
0.0
 49
1.0
 49
0.0
 49
0.0
 49
0.0
 49
0.0
 49
1.0
175
     0
142
0.0208333333333333
142
0.0
142
0.0
142
0.0
142
0.0
142
0.0208333333333333
142
0.0
142
0.0
142
0.0
142
0.0
142
1.0
142
0.0
142
0.0
142
0.0
142
0.0
142
1.0
179
     0
144
0.0208333333333333
144
0.0
144
0.0
144
0.0
144
0.0
144
0.0208333333333333
144
0.0
144
0.0
144
0.0
144
0.0
144
1.0
144
0.0
144
0.0
144
0.0
144
0.0
144
1.0
147
0.0208333333333333
147
0.0
147
0.0
147
0.0
147
0.0
147
0.0208333333333333
147
0.0
147
0.0
147
0.0
147
0.0
147
1.0
147
0.0
147
0.0
147
0.0
147
0.0
147
1.0
  0
MATERIAL
  5
1BD8
102
{ACAD_XDICTIONARY
360
1BD9
102
}
102
{ACAD_REACTORS
330
72
102
}
330
72
100
AcDbMaterial
  1
Global
 72
     0
 43
0.0208333333333333
 43
0.0
 43
0.0
 43
0.0
 43
0.0
 43
0.0208333333333333
 43
0.0
 43
0.0
 43
0.0
 43
0.0
 43
1.0
 43
0.0
 43
0.0
 43
0.0
 43
0.0
 43
1.0
 77
     0
 47
0.0208333333333333
 47
0.0
 47
0.0
 47
0.0
 47
0.0
 47
0.0208333333333333
 47
0.0
 47
0.0
 47
0.0
 47
0.0
 47
1.0
 47
0.0
 47
0.0
 47
0.0
 47
0.0
 47
1.0
171
     0
 49
0.0208333333333333
 49
0.0
 49
0.0
 49
0.0
 49
0.0
 49
0.0208333333333333
 49
0.0
 49
0.0
 49
0.0
 49
0.0
 49
1.0
 49
0.0
 49
0.0
 49
0.0
 49
0.0
 49
1.0
175
     0
142
0.0208333333333333
142
0.0
142
0.0
142
0.0
142
0.0
142
0.0208333333333333
142
0.0
142
0.0
142
0.0
142
0.0
142
1.0
142
0.0
142
0.0
142
0.0
142
0.0
142
1.0
179
     0
144
0.0208333333333333
144
0.0
144
0.0
144
0.0
144
0.0
144
0.0208333333333333
144
0.0
144
0.0
144
0.0
144
0.0
144
1.0
144
0.0
144
0.0
144
0.0
144
0.0
144
1.0
147
0.0208333333333333
147
0.0
147
0.0
147
0.0
147
0.0
147
0.0208333333333333
147
0.0
147
0.0
147
0.0
147
0.0
147
1.0
147
0.0
147
0.0
147
0.0
147
0.0
147
1.0
  0
MLEADERSTYLE
  5
1C0C
102
{ACAD_XDICTIONARY
360
1C18
102
}
102
{ACAD_REACTORS
330
1C0B
102
}
330
1C0B
100
AcDbMLeaderStyle
170
     2
171
     1
172
     0
 90
        2
 40
0.0
 41
0.0
173
     1
 91
-1056964608
340
14
 92
       -2
290
     1
 42
0.09
291
     1
 43
0.36
  3
Standard
 44
0.18
300

342
11
174
     1
178
     6
175
     1
176
     0
 93
-1056964608
 45
0.18
292
     0
297
     0
 46
0.18
 94
-1056964608
 47
1.0
 49
1.0
140
1.0
293
     1
141
0.0
294
     1
177
     0
142
1.0
295
     0
296
     0
143
0.125
1001
ACAD_MLEADERVER
1070
     2
  0
MLINESTYLE
  5
18
102
{ACAD_REACTORS
330
17
102
}
330
17
100
AcDbMlineStyle
  2
STANDARD
 70
     0
  3

 62
   256
 51
90.0
 52
90.0
 71
     2
 49
0.5
 62
   256
  6
BYLAYER
 49
-0.5
 62
   256
  6
BYLAYER
  0
ACDBPLACEHOLDER
  5
F
102
{ACAD_REACTORS
330
E
102
}
330
E
  0
SCALE
  5
1BFA
102
{ACAD_REACTORS
330
1BF9
102
}
330
1BF9
100
AcDbScale
 70
     0
300
1:1
140
1.0
141
1.0
290
     1
  0
SCALE
  5
1BFB
102
{ACAD_REACTORS
330
1BF9
102
}
330
1BF9
100
AcDbScale
 70
     0
300
1/128" = 1'-0"
140
0.0078125
141
12.0
290
     0
  0
SCALE
  5
1BFC
102
{ACAD_REACTORS
330
1BF9
102
}
330
1BF9
100
AcDbScale
 70
     0
300
1/64" = 1'-0"
140
0.015625
141
12.0
290
     0
  0
SCALE
  5
1BFD
102
{ACAD_REACTORS
330
1BF9
102
}
330
1BF9
100
AcDbScale
 70
     0
300
1/32" = 1'-0"
140
0.03125
141
12.0
290
     0
  0
SCALE
  5
1BFE
102
{ACAD_REACTORS
330
1BF9
102
}
330
1BF9
100
AcDbScale
 70
     0
300
1/16" = 1'-0"
140
0.0625
141
12.0
290
     0
  0
SCALE
  5
1BFF
102
{ACAD_REACTORS
330
1BF9
102
}
330
1BF9
100
AcDbScale
 70
     0
300
3/32" = 1'-0"
140
0.09375
141
12.0
290
     0
  0
SCALE
  5
1C00
102
{ACAD_REACTORS
330
1BF9
102
}
330
1BF9
100
AcDbScale
 70
     0
300
1/8" = 1'-0"
140
0.125
141
12.0
290
     0
  0
SCALE
  5
1C01
102
{ACAD_REACTORS
330
1BF9
102
}
330
1BF9
100
AcDbScale
 70
     0
300
3/16" = 1'-0"
140
0.1875
141
12.0
290
     0
  0
SCALE
  5
1C02
102
{ACAD_REACTORS
330
1BF9
102
}
330
1BF9
100
AcDbScale
 70
     0
300
1/4" = 1'-0"
140
0.25
141
12.0
290
     0
  0
SCALE
  5
1C03
102
{ACAD_REACTORS
330
1BF9
102
}
330
1BF9
100
AcDbScale
 70
     0
300
3/8" = 1'-0"
140
0.375
141
12.0
290
     0
  0
SCALE
  5
1C04
102
{ACAD_REACTORS
330
1BF9
102
}
330
1BF9
100
AcDbScale
 70
     0
300
1/2" = 1'-0"
140
0.5
141
12.0
290
     0
  0
SCALE
  5
1C05
102
{ACAD_REACTORS
330
1BF9
102
}
330
1BF9
100
AcDbScale
 70
     0
300
3/4" = 1'-0"
140
0.75
141
12.0
290
     0
  0
SCALE
  5
1C06
102
{ACAD_REACTORS
330
1BF9
102
}
330
1BF9
100
AcDbScale
 70
     0
300
1" = 1'-0"
140
1.0
141
12.0
290
     0
  0
SCALE
  5
1C07
102
{ACAD_REACTORS
330
1BF9
102
}
330
1BF9
100
AcDbScale
 70
     0
300
1-1/2" = 1'-0"
140
1.5
141
12.0
290
     0
  0
SCALE
  5
1C08
102
{ACAD_REACTORS
330
1BF9
102
}
330
1BF9
100
AcDbScale
 70
     0
300
3" = 1'-0"
140
3.0
141
12.0
290
     0
  0
SCALE
  5
1C09
102
{ACAD_REACTORS
330
1BF9
102
}
330
1BF9
100
AcDbScale
 70
     0
300
6" = 1'-0"
140
6.0
141
12.0
290
     0
  0
SCALE
  5
1C0A
102
{ACAD_REACTORS
330
1BF9
102
}
330
1BF9
100
AcDbScale
 70
     0
300
1'-0" = 1'-0"
140
12.0
141
12.0
290
     0
  0
TABLESTYLE
  5
87
102
{ACAD_XDICTIONARY
360
1C16
102
}
102
{ACAD_REACTORS
330
86
102
}
330
86
100
AcDbTableStyle
  3
Standard
 70
     0
 71
     0
 40
0.06
 41
0.06
280
     0
281
     0
  7
Standard
140
0.18
170
     2
 62
     0
 63
     7
283
     0
274
    -2
284
     1
 64
     0
275
    -2
285
     1
 65
     0
276
    -2
286
     1
 66
     0
277
    -2
287
     1
 67
     0
278
    -2
288
     1
 68
     0
279
    -2
289
     1
 69
     0
  7
Standard
140
0.25
170
     5
 62
     0
 63
     7
283
     0
274
    -2
284
     1
 64
     0
275
    -2
285
     1
 65
     0
276
    -2
286
     1
 66
     0
277
    -2
287
     1
 67
     0
278
    -2
288
     1
 68
     0
279
    -2
289
     1
 69
     0
  7
Standard
140
0.18
170
     5
 62
     0
 63
     7
283
     0
274
    -2
284
     1
 64
     0
275
    -2
285
     1
 65
     0
276
    -2
286
     1
 66
     0
277
    -2
287
     1
 67
     0
278
    -2
288
     1
 68
     0
279
    -2
289
     1
 69
     0
  0
VISUALSTYLE
  5
1BE6
102
{ACAD_XDICTIONARY
360
1C31
102
}
102
{ACAD_REACTORS
330
1BE0
102
}
330
1BE0
100
AcDbVisualStyle
  2
2dWireframe
 70
     4
 71
     0
 72
     2
 73
     0
 90
        0
 40
-0.6
 41
-30.0
 62
     5
 63
     7
 74
     1
 91
        4
 64
     7
 65
   257
 75
     1
175
     1
 42
1.0
 92
        0
 66
   257
 43
1.0
 76
     1
 77
     6
 78
     2
 67
     7
 79
     5
170
     0
171
     0
290
     0
174
     0
 93
        1
 44
0.0
173
     0
291
     0
 45
0.0
1001
ACAD
1000
AcDbSavedByObjectVersion
1070
     0
  0
VISUALSTYLE
  5
1BE5
102
{ACAD_XDICTIONARY
360
1C2F
102
}
102
{ACAD_REACTORS
330
1BE0
102
}
330
1BE0
100
AcDbVisualStyle
  2
Basic
 70
     7
 71
     1
 72
     0
 73
     1
 90
        0
 40
-0.6
 41
-30.0
 62
     5
 63
     7
 74
     0
 91
        4
 64
     7
 65
   257
 75
     1
175
     1
 42
1.0
 92
        8
 66
     7
 43
1.0
 76
     1
 77
     6
 78
     2
 67
     7
 79
     5
170
     0
171
     0
290
     0
174
     0
 93
        1
 44
0.0
173
     0
291
     1
 45
0.0
1001
ACAD
1000
AcDbSavedByObjectVersion
1070
     0
  0
VISUALSTYLE
  5
1BEC
102
{ACAD_XDICTIONARY
360
1C3D
102
}
102
{ACAD_REACTORS
330
1BE0
102
}
330
1BE0
100
AcDbVisualStyle
  2
Brighten
 70
    12
 71
     2
 72
     2
 73
     0
 90
        0
 40
-0.6
 41
-30.0
 62
     5
 63
     7
 74
     1
 91
        4
 64
     7
 65
   257
 75
     1
175
     1
 42
1.0
 92
        8
 66
     7
 43
1.0
 76
     1
 77
     6
 78
     2
 67
     7
 79
     5
170
     0
171
     0
290
     0
174
     0
 93
        1
 44
50.0
173
     0
291
     1
 45
0.0
1001
ACAD
1000
AcDbSavedByObjectVersion
1070
     0
  0
VISUALSTYLE
  5
1BF0
102
{ACAD_XDICTIONARY
360
1C45
102
}
102
{ACAD_REACTORS
330
1BE0
102
}
330
1BE0
100
AcDbVisualStyle
  2
ColorChange
 70
    16
 71
     2
 72
     2
 73
     3
 90
        0
 40
-0.6
 41
-30.0
 62
     5
 63
     8
 74
     1
 91
        4
 64
     7
 65
   257
 75
     1
175
     1
 42
1.0
 92
        8
 66
     8
 43
1.0
 76
     1
 77
     6
 78
     2
 67
     7
 79
     5
170
     0
171
     0
290
     0
174
     0
 93
        1
 44
0.0
173
     0
291
     1
 45
0.0
1001
ACAD
1000
AcDbSavedByObjectVersion
1070
     0
  0
VISUALSTYLE
  5
1BE9
102
{ACAD_XDICTIONARY
360
1C37
102
}
102
{ACAD_REACTORS
330
1BE0
102
}
330
1BE0
100
AcDbVisualStyle
  2
Conceptual
 70
     9
 71
     3
 72
     2
 73
     0
 90
        0
 40
-0.6
 41
-30.0
 62
     5
 63
     7
 74
     2
 91
        2
 64
     7
 65
   257
 75
     1
175
     1
 42
179.0
 92
        8
 66
     7
 43
1.0
 76
     1
 77
     6
 78
     2
 67
     7
 79
     3
170
     0
171
     0
290
     0
174
     0
 93
        1
 44
0.0
173
     0
291
     0
 45
0.0
1001
ACAD
1000
AcDbSavedByObjectVersion
1070
     0
  0
VISUALSTYLE
  5
1BEB
102
{ACAD_XDICTIONARY
360
1C3B
102
}
102
{ACAD_REACTORS
330
1BE0
102
}
330
1BE0
100
AcDbVisualStyle
  2
Dim
 70
    11
 71
     2
 72
     2
 73
     0
 90
        0
 40
-0.6
 41
-30.0
 62
     5
 63
     7
 74
     1
 91
        4
 64
     7
 65
   257
 75
     1
175
     1
 42
1.0
 92
        8
 66
     7
 43
1.0
 76
     1
 77
     6
 78
     2
 67
     7
 79
     5
170
     0
171
     0
290
     0
174
     0
 93
        1
 44
-50.0
173
     0
291
     1
 45
0.0
1001
ACAD
1000
AcDbSavedByObjectVersion
1070
     0
  0
VISUALSTYLE
  5
1BF8
102
{ACAD_XDICTIONARY
360
1C55
102
}
102
{ACAD_REACTORS
330
1BE0
102
}
330
1BE0
100
AcDbVisualStyle
  2
EdgeColorOff
 70
    22
 71
     2
 72
     2
 73
     0
 90
        0
 40
-0.6
 41
-30.0
 62
     5
 63
     7
 74
     1
 91
        4
 64
     7
 65
   257
 75
     1
175
     1
 42
1.0
 92
        8
 66
     7
 43
1.0
 76
     1
 77
     6
 78
     2
 67
     7
 79
     5
170
     0
171
     0
290
     0
174
     0
 93
        1
 44
0.0
173
     0
291
     1
 45
0.0
1001
ACAD
1000
AcDbSavedByObjectVersion
1070
     0
  0
VISUALSTYLE
  5
1BEF
102
{ACAD_XDICTIONARY
360
1C43
102
}
102
{ACAD_REACTORS
330
1BE0
102
}
330
1BE0
100
AcDbVisualStyle
  2
Facepattern
 70
    15
 71
     2
 72
     2
 73
     0
 90
        0
 40
-0.6
 41
-30.0
 62
     5
 63
     7
 74
     1
 91
        4
 64
     7
 65
   257
 75
     1
175
     1
 42
1.0
 92
        8
 66
     7
 43
1.0
 76
     1
 77
     6
 78
     2
 67
     7
 79
     5
170
     0
171
     0
290
     0
174
     0
 93
        1
 44
0.0
173
     0
291
     1
 45
0.0
1001
ACAD
1000
AcDbSavedByObjectVersion
1070
     0
  0
VISUALSTYLE
  5
1BE1
102
{ACAD_XDICTIONARY
360
1C27
102
}
102
{ACAD_REACTORS
330
1BE0
102
}
330
1BE0
100
AcDbVisualStyle
  2
Flat
 70
     0
 71
     2
 72
     1
 73
     1
 90
        2
 40
-0.6
 41
30.0
 62
     5
 63
     7
 74
     0
 91
        0
 64
     7
 65
   257
 75
     1
175
     1
 42
1.0
 92
        8
 66
     7
 43
1.0
 76
     1
 77
     6
 78
     2
 67
     7
 79
     5
170
     0
171
     0
290
     0
174
     0
 93
       13
 44
0.0
173
     0
291
     1
 45
0.0
1001
ACAD
1000
AcDbSavedByObjectVersion
1070
     0
  0
VISUALSTYLE
  5
1BE2
102
{ACAD_XDICTIONARY
360
1C29
102
}
102
{ACAD_REACTORS
330
1BE0
102
}
330
1BE0
100
AcDbVisualStyle
  2
FlatWithEdges
 70
     1
 71
     2
 72
     1
 73
     1
 90
        2
 40
-0.6
 41
30.0
 62
     5
 63
     7
 74
     1
 91
        0
 64
     7
 65
   257
 75
     1
175
     1
 42
1.0
 92
        0
 66
   257
 43
1.0
 76
     1
 77
     6
 78
     2
 67
     7
 79
     5
170
     0
171
     0
290
     0
174
     0
 93
       13
 44
0.0
173
     0
291
     1
 45
0.0
1001
ACAD
1000
AcDbSavedByObjectVersion
1070
     0
  0
VISUALSTYLE
  5
1BE3
102
{ACAD_XDICTIONARY
360
1C2B
102
}
102
{ACAD_REACTORS
330
1BE0
102
}
330
1BE0
100
AcDbVisualStyle
  2
Gouraud
 70
     2
 71
     2
 72
     2
 73
     1
 90
        2
 40
-0.6
 41
30.0
 62
     5
 63
     7
 74
     0
 91
        0
 64
     7
 65
   257
 75
     1
175
     1
 42
1.0
 92
        0
 66
     7
 43
1.0
 76
     1
 77
     6
 78
     2
 67
     7
 79
     5
170
     0
171
     0
290
     0
174
     0
 93
       13
 44
0.0
173
     0
291
     1
 45
0.0
1001
ACAD
1000
AcDbSavedByObjectVersion
1070
     0
  0
VISUALSTYLE
  5
1BE4
102
{ACAD_XDICTIONARY
360
1C2D
102
}
102
{ACAD_REACTORS
330
1BE0
102
}
330
1BE0
100
AcDbVisualStyle
  2
GouraudWithEdges
 70
     3
 71
     2
 72
     2
 73
     1
 90
        2
 40
-0.6
 41
30.0
 62
     5
 63
     7
 74
     1
 91
        0
 64
     7
 65
   257
 75
     1
175
     1
 42
1.0
 92
        0
 66
   257
 43
1.0
 76
     1
 77
     6
 78
     2
 67
     7
 79
     5
170
     0
171
     0
290
     0
174
     0
 93
       13
 44
0.0
173
     0
291
     1
 45
0.0
1001
ACAD
1000
AcDbSavedByObjectVersion
1070
     0
  0
VISUALSTYLE
  5
1BE8
102
{ACAD_XDICTIONARY
360
1C35
102
}
102
{ACAD_REACTORS
330
1BE0
102
}
330
1BE0
100
AcDbVisualStyle
  2
Hidden
 70
     6
 71
     1
 72
     2
 73
     2
 90
        0
 40
-0.6
 41
-30.0
 62
     5
 63
     7
 74
     2
 91
        2
 64
     7
 65
   257
 75
     2
175
     1
 42
40.0
 92
        0
 66
   257
 43
1.0
 76
     1
 77
     6
 78
     2
 67
     7
 79
     3
170
     0
171
     0
290
     0
174
     0
 93
        1
 44
0.0
173
     0
291
     0
 45
0.0
1001
ACAD
1000
AcDbSavedByObjectVersion
1070
     0
  0
VISUALSTYLE
  5
1BF6
102
{ACAD_XDICTIONARY
360
1C51
102
}
102
{ACAD_REACTORS
330
1BE0
102
}
330
1BE0
100
AcDbVisualStyle
  2
JitterOff
 70
    20
 71
     2
 72
     2
 73
     0
 90
        0
 40
-0.6
 41
-30.0
 62
     5
 63
     7
 74
     1
 91
        4
 64
     7
 65
   257
 75
     1
175
     1
 42
1.0
 92
       10
 66
     7
 43
1.0
 76
     1
 77
     6
 78
     2
 67
     7
 79
     5
170
     0
171
     0
290
     0
174
     0
 93
        1
 44
0.0
173
     0
291
     1
 45
0.0
1001
ACAD
1000
AcDbSavedByObjectVersion
1070
     0
  0
VISUALSTYLE
  5
1BEE
102
{ACAD_XDICTIONARY
360
1C41
102
}
102
{ACAD_REACTORS
330
1BE0
102
}
330
1BE0
100
AcDbVisualStyle
  2
Linepattern
 70
    14
 71
     2
 72
     2
 73
     0
 90
        0
 40
-0.6
 41
-30.0
 62
     5
 63
     7
 74
     1
 91
        4
 64
     7
 65
   257
 75
     7
175
     7
 42
1.0
 92
        8
 66
     7
 43
1.0
 76
     1
 77
     6
 78
     2
 67
     7
 79
     5
170
     0
171
     0
290
     0
174
     0
 93
        1
 44
0.0
173
     0
291
     1
 45
0.0
1001
ACAD
1000
AcDbSavedByObjectVersion
1070
     0
  0
VISUALSTYLE
  5
1BF7
102
{ACAD_XDICTIONARY
360
1C53
102
}
102
{ACAD_REACTORS
330
1BE0
102
}
330
1BE0
100
AcDbVisualStyle
  2
OverhangOff
 70
    21
 71
     2
 72
     2
 73
     0
 90
        0
 40
-0.6
 41
-30.0
 62
     5
 63
     7
 74
     1
 91
        4
 64
     7
 65
   257
 75
     1
175
     1
 42
1.0
 92
        9
 66
     7
 43
1.0
 76
     1
 77
     6
 78
     2
 67
     7
 79
     5
170
     0
171
     0
290
     0
174
     0
 93
        1
 44
0.0
173
     0
291
     1
 45
0.0
1001
ACAD
1000
AcDbSavedByObjectVersion
1070
     0
  0
VISUALSTYLE
  5
1BEA
102
{ACAD_XDICTIONARY
360
1C39
102
}
102
{ACAD_REACTORS
330
1BE0
102
}
330
1BE0
100
AcDbVisualStyle
  2
Realistic
 70
     8
 71
     2
 72
     3
 73
     0
 90
        2
 40
-0.6
 41
30.0
 62
     5
 63
     7
 74
     0
 91
        0
 64
     7
 65
   257
 75
     1
175
     1
 42
1.0
 92
        8
 66
   257
 43
1.0
 76
     1
 77
     6
 78
     2
 67
     7
 79
     3
170
     0
171
     0
290
     0
174
     0
 93
       13
 44
0.0
173
     0
291
     0
 45
0.0
1001
ACAD
1000
AcDbSavedByObjectVersion
1070
     0
  0
VISUALSTYLE
  5
1BF5
102
{ACAD_XDICTIONARY
360
1C4F
102
}
102
{ACAD_REACTORS
330
1BE0
102
}
330
1BE0
100
AcDbVisualStyle
  2
Shaded
 70
    27
 71
     2
 72
     2
 73
     1
 90
        2
 40
-0.6
 41
30.0
 62
     5
 63
     7
 74
     0
 91
        4
 64
     7
 65
   257
 75
     1
175
     1
 42
1.0
 92
        8
 66
   257
 43
1.0
 76
     1
 77
     6
 78
     2
 67
     8
 79
     3
170
     0
171
     0
290
     0
174
     0
 93
        5
 44
0.0
173
     0
291
     0
 45
0.0
1001
ACAD
1000
AcDbSavedByObjectVersion
1070
     0
  0
VISUALSTYLE
  5
1BF4
102
{ACAD_XDICTIONARY
360
1C4D
102
}
102
{ACAD_REACTORS
330
1BE0
102
}
330
1BE0
100
AcDbVisualStyle
  2
Shaded with edges
 70
    26
 71
     2
 72
     2
 73
     1
 90
        2
 40
-0.6
 41
30.0
 62
     5
 63
     7
 74
     1
 91
       10
 64
     7
 65
   257
 75
     2
175
     1
 42
1.0
 92
        8
 66
   257
 43
1.0
 76
     1
 77
     6
 78
     2
 67
     7
 79
     3
170
     0
171
     0
290
     0
174
     0
 93
        5
 44
0.0
173
     0
291
     0
 45
0.0
1001
ACAD
1000
AcDbSavedByObjectVersion
1070
     0
  0
VISUALSTYLE
  5
1BF1
102
{ACAD_XDICTIONARY
360
1C47
102
}
102
{ACAD_REACTORS
330
1BE0
102
}
330
1BE0
100
AcDbVisualStyle
  2
Shades of Gray
 70
    23
 71
     2
 72
     2
 73
     3
 90
        0
 40
-0.6
 41
-30.0
 62
     5
 63
     7
 74
     2
 91
        2
 64
     7
 65
     7
 75
     1
175
     1
 42
40.0
 92
        8
 66
     7
 43
1.0
 76
     1
 77
     6
 78
     2
 67
     7
 79
     3
170
     0
171
     0
290
     0
174
     0
 93
        1
 44
0.0
173
     0
291
     0
 45
0.0
1001
ACAD
1000
AcDbSavedByObjectVersion
1070
     0
  0
VISUALSTYLE
  5
1BF2
102
{ACAD_XDICTIONARY
360
1C49
102
}
102
{ACAD_REACTORS
330
1BE0
102
}
330
1BE0
100
AcDbVisualStyle
  2
Sketchy
 70
    24
 71
     1
 72
     2
 73
     2
 90
        0
 40
-0.6
 41
-30.0
 62
     5
 63
     7
 74
     2
 91
        2
 64
     7
 65
     7
 75
     1
175
     1
 42
40.0
 92
       11
 66
     7
 43
1.0
 76
     1
 77
     6
 78
     2
 67
     7
 79
     6
170
     0
171
     0
290
     0
174
     0
 93
        1
 44
0.0
173
     0
291
     0
 45
0.0
1001
ACAD
1000
AcDbSavedByObjectVersion
1070
     0
  0
VISUALSTYLE
  5
1BED
102
{ACAD_XDICTIONARY
360
1C3F
102
}
102
{ACAD_REACTORS
330
1BE0
102
}
330
1BE0
100
AcDbVisualStyle
  2
Thicken
 70
    13
 71
     2
 72
     2
 73
     0
 90
        0
 40
-0.6
 41
-30.0
 62
     5
 63
     7
 74
     1
 91
        4
 64
     7
 65
   257
 75
     1
175
     1
 42
1.0
 92
       12
 66
     7
 43
1.0
 76
     1
 77
     6
 78
     2
 67
     7
 79
     5
170
     0
171
     0
290
     0
174
     0
 93
        1
 44
0.0
173
     0
291
     1
 45
0.0
1001
ACAD
1000
AcDbSavedByObjectVersion
1070
     0
  0
VISUALSTYLE
  5
1BE7
102
{ACAD_XDICTIONARY
360
1C33
102
}
102
{ACAD_REACTORS
330
1BE0
102
}
330
1BE0
100
AcDbVisualStyle
  2
Wireframe
 70
     5
 71
     0
 72
     2
 73
     0
 90
        0
 40
-0.6
 41
-30.0
 62
     5
 63
     7
 74
     1
 91
        4
 64
     7
 65
   257
 75
     1
175
     1
 42
1.0
 92
        0
 66
   257
 43
1.0
 76
     1
 77
     6
 78
     2
 67
     7
 79
     3
170
     0
171
     0
290
     0
174
     0
 93
        1
 44
0.0
173
     0
291
     0
 45
0.0
1001
ACAD
1000
AcDbSavedByObjectVersion
1070
     0
  0
VISUALSTYLE
  5
1BF3
102
{ACAD_XDICTIONARY
360
1C4B
102
}
102
{ACAD_REACTORS
330
1BE0
102
}
330
1BE0
100
AcDbVisualStyle
  2
X-Ray
 70
    25
 71
     2
 72
     2
 73
     1
 90
        1
 40
0.5
 41
-30.0
 62
     5
 63
     7
 74
     1
 91
        0
 64
     7
 65
   257
 75
     1
175
     1
 42
1.0
 92
        8
 66
     7
 43
1.0
 76
     1
 77
     6
 78
     2
 67
     7
 79
     3
170
     0
171
     0
290
     0
174
     0
 93
       13
 44
0.0
173
     0
291
     0
 45
0.0
1001
ACAD
1000
AcDbSavedByObjectVersion
1070
     0
  0
DICTIONARYVAR
  5
1C11
102
{ACAD_REACTORS
330
66
102
}
330
66
100
DictionaryVariables
280
     0
  1
1:1
  0
DICTIONARYVAR
  5
1C10
102
{ACAD_REACTORS
330
66
102
}
330
66
100
DictionaryVariables
280
     0
  1
STANDARD
  0
DICTIONARYVAR
  5
1FB
102
{ACAD_REACTORS
330
66
102
}
330
66
100
DictionaryVariables
280
     0
  1
STANDARD
  0
DICTIONARYVAR
  5
67
102
{ACAD_REACTORS
330
66
102
}
330
66
100
DictionaryVariables
280
     0
  1
2
  0
DICTIONARYVAR
  5
6B
102
{ACAD_REACTORS
330
66
102
}
330
66
100
DictionaryVariables
280
     0
  1
1
  0
DICTIONARYVAR
  5
1C13
102
{ACAD_REACTORS
330
66
102
}
330
66
100
DictionaryVariables
280
     0
  1
0
  0
DICTIONARYVAR
  5
1BC6
102
{ACAD_REACTORS
330
66
102
}
330
66
100
DictionaryVariables
280
     0
  1

  0
DICTIONARYVAR
  5
1C12
102
{ACAD_REACTORS
330
66
102
}
330
66
100
DictionaryVariables
280
     0
  1
127
  0
DICTIONARYVAR
  5
1C14
102
{ACAD_REACTORS
330
66
102
}
330
66
100
DictionaryVariables
280
     0
  1
2
  0
XRECORD
  5
433
102
{ACAD_REACTORS
330
432
102
}
330
432
100
AcDbXrecord
280
     1
  0
DICTIONARY
  5
227
330
59
100
AcDbDictionary
280
     1
281
     1
  3
ACAD_XREC_ROUNDTRIP
360
1C20
  3
ADSK_XREC_LAYOUTTHUMBNAIL
360
228
  0
DICTIONARY
  5
1C1E
330
22
100
AcDbDictionary
280
     1
281
     1
  3
ACAD_XREC_ROUNDTRIP
360
1C1F
  0
DICTIONARY
  5
1BD1
330
1BD0
100
AcDbDictionary
280
     1
281
     1
  3
ACAD_XREC_ROUNDTRIP
360
1C25
  3
BUMPTILE
360
1BD3
  3
DIFFUSETILE
360
1BD2
  3
OPACITYTILE
360
1BD6
  3
REFLECTIONTILE
360
1BD5
  3
REFRACTIONTILE
360
1BD7
  3
SPECULARTILE
360
1BD4
  0
DICTIONARY
  5
1BC9
330
1BC8
100
AcDbDictionary
280
     1
281
     1
  3
ACAD_XREC_ROUNDTRIP
360
1C24
  3
BUMPTILE
360
1BCB
  3
DIFFUSETILE
360
1BCA
  3
OPACITYTILE
360
1BCE
  3
REFLECTIONTILE
360
1BCD
  3
REFRACTIONTILE
360
1BCF
  3
SPECULARTILE
360
1BCC
  0
DICTIONARY
  5
1BD9
330
1BD8
100
AcDbDictionary
280
     1
281
     1
  3
ACAD_XREC_ROUNDTRIP
360
1C26
  3
BUMPTILE
360
1BDB
  3
DIFFUSETILE
360
1BDA
  3
OPACITYTILE
360
1BDE
  3
REFLECTIONTILE
360
1BDD
  3
REFRACTIONTILE
360
1BDF
  3
SPECULARTILE
360
1BDC
  0
DICTIONARY
  5
1C18
330
1C0C
100
AcDbDictionary
280
     1
281
     1
  3
ACAD_XREC_ROUNDTRIP
360
1C19
  0
DICTIONARY
  5
1C16
330
87
100
AcDbDictionary
280
     1
281
     1
  3
ACAD_ROUNDTRIP_2008_TABLESTYLE_CELLSTYLEMAP
360
1C17
  3
ACAD_XREC_ROUNDTRIP
360
1C21
  0
DICTIONARY
  5
1C31
330
1BE6
100
AcDbDictionary
280
     1
281
     1
  3
ACAD_XREC_ROUNDTRIP
360
1C32
  0
DICTIONARY
  5
1C2F
330
1BE5
100
AcDbDictionary
280
     1
281
     1
  3
ACAD_XREC_ROUNDTRIP
360
1C30
  0
DICTIONARY
  5
1C3D
330
1BEC
100
AcDbDictionary
280
     1
281
     1
  3
ACAD_XREC_ROUNDTRIP
360
1C3E
  0
DICTIONARY
  5
1C45
330
1BF0
100
AcDbDictionary
280
     1
281
     1
  3
ACAD_XREC_ROUNDTRIP
360
1C46
  0
DICTIONARY
  5
1C37
330
1BE9
100
AcDbDictionary
280
     1
281
     1
  3
ACAD_XREC_ROUNDTRIP
360
1C38
  0
DICTIONARY
  5
1C3B
330
1BEB
100
AcDbDictionary
280
     1
281
     1
  3
ACAD_XREC_ROUNDTRIP
360
1C3C
  0
DICTIONARY
  5
1C55
330
1BF8
100
AcDbDictionary
280
     1
281
     1
  3
ACAD_XREC_ROUNDTRIP
360
1C56
  0
DICTIONARY
  5
1C43
330
1BEF
100
AcDbDictionary
280
     1
281
     1
  3
ACAD_XREC_ROUNDTRIP
360
1C44
  0
DICTIONARY
  5
1C27
330
1BE1
100
AcDbDictionary
280
     1
281
     1
  3
ACAD_XREC_ROUNDTRIP
360
1C28
  0
DICTIONARY
  5
1C29
330
1BE2
100
AcDbDictionary
280
     1
281
     1
  3
ACAD_XREC_ROUNDTRIP
360
1C2A
  0
DICTIONARY
  5
1C2B
330
1BE3
100
AcDbDictionary
280
     1
281
     1
  3
ACAD_XREC_ROUNDTRIP
360
1C2C
  0
DICTIONARY
  5
1C2D
330
1BE4
100
AcDbDictionary
280
     1
281
     1
  3
ACAD_XREC_ROUNDTRIP
360
1C2E
  0
DICTIONARY
  5
1C35
330
1BE8
100
AcDbDictionary
280
     1
281
     1
  3
ACAD_XREC_ROUNDTRIP
360
1C36
  0
DICTIONARY
  5
1C51
330
1BF6
100
AcDbDictionary
280
     1
281
     1
  3
ACAD_XREC_ROUNDTRIP
360
1C52
  0
DICTIONARY
  5
1C41
330
1BEE
100
AcDbDictionary
280
     1
281
     1
  3
ACAD_XREC_ROUNDTRIP
360
1C42
  0
DICTIONARY
  5
1C53
330
1BF7
100
AcDbDictionary
280
     1
281
     1
  3
ACAD_XREC_ROUNDTRIP
360
1C54
  0
DICTIONARY
  5
1C39
330
1BEA
100
AcDbDictionary
280
     1
281
     1
  3
ACAD_XREC_ROUNDTRIP
360
1C3A
  0
DICTIONARY
  5
1C4F
330
1BF5
100
AcDbDictionary
280
     1
281
     1
  3
ACAD_XREC_ROUNDTRIP
360
1C50
  0
DICTIONARY
  5
1C4D
330
1BF4
100
AcDbDictionary
280
     1
281
     1
  3
ACAD_XREC_ROUNDTRIP
360
1C4E
  0
DICTIONARY
  5
1C47
330
1BF1
100
AcDbDictionary
280
     1
281
     1
  3
ACAD_XREC_ROUNDTRIP
360
1C48
  0
DICTIONARY
  5
1C49
330
1BF2
100
AcDbDictionary
280
     1
281
     1
  3
ACAD_XREC_ROUNDTRIP
360
1C4A
  0
DICTIONARY
  5
1C3F
330
1BED
100
AcDbDictionary
280
     1
281
     1
  3
ACAD_XREC_ROUNDTRIP
360
1C40
  0
DICTIONARY
  5
1C33
330
1BE7
100
AcDbDictionary
280
     1
281
     1
  3
ACAD_XREC_ROUNDTRIP
360
1C34
  0
DICTIONARY
  5
1C4B
330
1BF3
100
AcDbDictionary
280
     1
281
     1
  3
ACAD_XREC_ROUNDTRIP
360
1C4C
  0
XRECORD
  5
1C20
102
{ACAD_REACTORS
330
227
102
}
330
227
100
AcDbXrecord
280
     1
102
SHADEPLOT
 70
     0
102
SHADEPLOTRESLEVEL
 70
     2
102
SHADEPLOTCUSTOMDPI
 70
   300
  0
XRECORD
  5
228
102
{ACAD_REACTORS
330
227
102
}
330
227
100
AcDbXrecord
280
     1
310
28000000B40000007F00000001000800000000004C59000000000000000000000001000000000000FFFFFF0000000000FFFFFF000000000000000000000000000000000000000000000000000000000000000000330000006600000099000000CC000000FF00000000330000333300006633000099330000CC330000FF3300
310
0000660000336600006666000099660000CC660000FF66000000990000339900006699000099990000CC990000FF99000000CC000033CC000066CC000099CC0000CCCC0000FFCC000000FF000033FF000066FF000099FF0000CCFF0000FFFF000000003300330033006600330099003300CC003300FF003300003333003333
310
33006633330099333300CC333300FF33330000663300336633006666330099663300CC663300FF66330000993300339933006699330099993300CC993300FF99330000CC330033CC330066CC330099CC3300CCCC3300FFCC330000FF330033FF330066FF330099FF3300CCFF3300FFFF330000006600330066006600660099
310
006600CC006600FF00660000336600333366006633660099336600CC336600FF33660000666600336666006666660099666600CC666600FF66660000996600339966006699660099996600CC996600FF99660000CC660033CC660066CC660099CC6600CCCC6600FFCC660000FF660033FF660066FF660099FF6600CCFF6600
310
FFFF660000009900330099006600990099009900CC009900FF00990000339900333399006633990099339900CC339900FF33990000669900336699006666990099669900CC669900FF66990000999900339999006699990099999900CC999900FF99990000CC990033CC990066CC990099CC9900CCCC9900FFCC990000FF99
310
0033FF990066FF990099FF9900CCFF9900FFFF99000000CC003300CC006600CC009900CC00CC00CC00FF00CC000033CC003333CC006633CC009933CC00CC33CC00FF33CC000066CC003366CC006666CC009966CC00CC66CC00FF66CC000099CC003399CC006699CC009999CC00CC99CC00FF99CC0000CCCC0033CCCC0066CC
310
CC0099CCCC00CCCCCC00FFCCCC0000FFCC0033FFCC0066FFCC0099FFCC00CCFFCC00FFFFCC000000FF003300FF006600FF009900FF00CC00FF00FF00FF000033FF003333FF006633FF009933FF00CC33FF00FF33FF000066FF003366FF006666FF009966FF00CC66FF00FF66FF000099FF003399FF006699FF009999FF00CC
310
99FF00FF99FF0000CCFF0033CCFF0066CCFF0099CCFF00CCCCFF00FFCCFF0000FFFF0033FFFF0066FFFF0099FFFF00CCFFFF00FFFFFF00000000000D0D0D001A1A1A00282828003535350043434300505050005D5D5D006B6B6B00787878008686860093939300A1A1A100AEAEAE00BBBBBB00C9C9C900D6D6D600E4E4E400
310
F1F1F100FFFFFF0000000000000000000000000000000000000000000000000000000000000000000000000000000000E2E2E2E2E2E2E2E2E2E2E2E2E2E2E2E2E2E2E2E2E2E2E2E2E2E2E2E2E2E2E2E2E2E2E2E2E2E2E2E2E2E2E2E2E2E2E2E2E2E2E2E2E2E2E2E2E2E2E2E2E2E2E2E2E2E2E2E2E2E2E2E2E2E2E2E2E2E2E2
310
E2E2E2E2E2E2E2E2E2E2E2E2E2E2E2E2E2E2E2E2E2E2E2E2E2E2E2E2E2E2E2E2E2E2E2E2E2E2E2E2E2E2E2E2E2E2E2E2E2E2E2E2E2E2E2E2E2E2E2E2E2E2E2E2E2E2E2E2E2E2E2E2E2E2E2E2E2E2E2E2E2E2E2E2E2E2E2E2E2E2E2E2E2E2E2E2E2E2E2E2E2E2F5F5F5F5F5F5F5F5F5F5F5F5F5F5F5F5F5F5F5F5F5F5F5F5F5
310
F5F5F5F5F5F5F5F5F5F5F5F5F5F5F5F5F5F5F5F5F5F5F5F5F5F5F5F5F5F5F5F5F5F5F5F5F5F5F5F5F5F5F5F5F5F5F5F5F5F5F5F5F5F5F5F5F5F5F5F5F5F5F5F5F5F5F5F5F5F5F5F5F5F5F5F5F5F5F5F5F5F5F5F5F5F5F5F5F5F5F5F5F5F5F5F5F5F5F5F5F5F5F5F5F5F5F5F5F5F5F5F5F5F5F5F5F5F5F5F5F5F5F5F5F5F5F5
310
F5F5F5F5F5F5F5F5F5F5F5F5F5F5F5F5F5F5F5F5F5F5F5F5F5E2E2E2F5F5F5F5F5F5F5F5F5F5F5F5F5F5F5F5F5F5F5F5F5F5F5F5F5F5F5F5F5F5F5F5F5F5F5F5F5F5F5F5F5F5F5F5F5F5F5F5F5F5F5F5F5F5F5F5F5F5F5F5F5F5F5F5F5F5F5F5F5F5F5F5F5F5F5F5F5F5F5F5F5F5F5F5F5F5F5F5F5F5F5F5F5F5F5F5F5F5F5
310
F5F5F5F5F5F5F5F5F5F5F5F5F5F5F5F5F5F5F5F5F5F5F5F5F5F5F5F5F5F5F5F5F5F5F5F5F5F5F5F5F5F5F5F5F5F5F5F5F5F5F5F5F5F5F5F5F5F5F5F5F5F5F5F5F5F5F5F5F5F5F5F5F5F5F5F5F5F5E2E2E2F5F5F5F5F5F5F5F5F5F5F5F5F5F5F5F5F5F5F5F5F5F5F5F5F5F5F5F5F5F5F5F5F5F5F5F5F5F5F5F5F5F5F5F5F5F5
310
F5F5F5F5F5F5F5F5F5F5F5F5F5F5F5F5F5F5F5F5F5F5F5F5F5F5F5F5F5F5F5F5F5F5F5F5F5F5F5F5F5F5F5F5F5F5F5F5F5F5F5F5F5F5F5F5F5F5F5F5F5F5F5F5F5F5F5F5F5F5F5F5F5F5F5F5F5F5F5F5F5F5F5F5F5F5F5F5F5F5F5F5F5F5F5F5F5F5F5F5F5F5F5F5F5F5F5F5F5F5F5F5F5F5F5F5F5F5F5F5F5F5F5F5F5F5F5
310
F5F5F5F5E2E2E2F5F5F5F5F5F5F5F5F5F5F5F5F5F5F5F5F5F5F5F5F5F5F5F5F5F5F5F5F5F5F5F5F5F5F5F5F5F5F5F5F5F5F5F5F5F5F5F5F5F5F5F5F5F5F5F5F5F5F5F5F5F5F5F5F5F5F5F5F5F5F5F5F5F5F5F5F5F5F5F5F5F5F5F5F5F5F5F5F5F5F5F5F5F5F5F5F5F5F5F5F5F5F5F5F5F5F5F5F5F5F5F5F5F5F5F5F5F5F5F5
310
F5F5F5F5F5F5F5F5F5F5F5F5F5F5F5F5F5F5F5F5F5F5F5F5F5F5F5F5F5F5F5F5F5F5F5F5F5F5F5F5F5F5F5F5F5F5F5F5F5F5F5F5F5F5F5F5F5E2E2E2F5F5F5F5F5F5F5F5F5F5F5E2E2E2E2E2E2E2E2E2F5F5F5F5F5F5F5F5F5E2E2E2E2E2E2E2E2E2E2E2E2E2E2E2E2F5F5F5F5F5F5F5F5F5F5E2E2E2E2E2E2E2E2E2E2E2E2
310
E2E2E2E2F5F5F5F5F5F5F5F5F5E2E2E2E2E2E2E2E2E2E2E2E2E2E2E2E2E2F5F5F5F5F5F5F5F5F5E2E2E2E2E2E2E2E2E2E2E2E2E2E2E2E2F5F5F5F5F5F5F5F5F5F5E2E2E2E2E2E2E2E2E2E2E2E2E2E2E2E2F5F5F5F5F5F5F5F5F5E2E2E2E2E2E2E2E2E2F5F5F5F5F5F5F5F5F5F5F5E2E2E2F5F5F5F5F5F5F5F5F5F5F5E2F5F5
310
F5F5F5F5F5F5F5F5F5F5F5F5F5F5F5F5F5F5F5F5F5F5F5F5F5F5F5F5F5F5F5F5F5F5F5F5F5F5F5F5F5F5F5F5F5F5F5F5F5F5F5F5F5F5F5F5F5F5F5F5F5F5F5F5F5F5F5F5F5F5F5F5F5F5F5F5F5F5F5F5F5F5F5F5F5F5F5F5F5F5F5F5F5F5F5F5F5F5F5F5F5F5F5F5F5F5F5F5F5F5F5F5F5F5F5F5F5F5F5F5F5F5F5F5F5F5F5
310
F5F5F5F5F5F5F5F5F5F5F5F5F5F5F5F5F5F5F5F5F5F5F5F5E2F5F5F5F5F5F5F5F5F5F5F5E2E2E2F5F5F5F5F5F5F5F5F5F5F5E2F5F5F5F5F5F5F5F5F5F5F5F5F5F5F5F5F5F5F5F5F5F5F5F5F5F5F5F5F5F5F5F5F5F5F5F5F5F5F5F5F5F5F5F5F5F5F5F5F5F5F5F5F5F5F5F5F5F5F5F5F5F5F5F5F5F5F5F5F5F5F5F5F5F5F5F5
310
F5F5F5F5F5F5F5F5F5F5F5F5F5F5F5F5F5F5F5F5F5F5F5F5F5F5F5F5F5F5F5F5F5F5F5F5F5F5F5F5F5F5F5F5F5F5F5F5F5F5F5F5F5F5F5F5F5F5F5F5F5F5F5F5F5F5F5F5F5F5F5F5F5F5F5F5F5E2F5F5F5F5F5F5F5F5F5F5F5E2E2E2F5F5F5F5F5F5F5F5F5F5F5E2F5F5F5F5F5F5F5F5F5F5F5F5F5F5F5F5F5F5F5F5F5F5F5
310
F5F5F5F5F5F5F5F5F5F5F5F5F5F5F5F5F5F5F5F5F5F5F5F5F5F5F5F5F5F5F5F5F5F5F5F5F5F5F5F5F5F5F5F5F5F5F5F5F5F5F5F5F5F5F5F5F5F5F5F5F5F5F5F5F5F5F5F5F5F5F5F5F5F5F5F5F5F5F5F5F5F5F5F5F5F5F5F5F5F5F5F5F5F5F5F5F5F5F5F5F5F5F5F5F5F5F5F5F5F5F5F5F5F5F5F5F5F5F5F5F5F5F5F5F5F5F5
310
F5F5F5E2F5F5F5F5F5F5F5F5F5F5F5E2E2E2F5F5F5F5F5F5F5F5F5F5F5E2F5F5F5F5F5F5F5F5F5F5F5F5F5F5F5F5F5F5F5F5F5F5F5F5F5F5F5F5F5F5F5F5F5F5F5F5F5F5F5F5F5F5F5F5F5F5F5F5F5F5F5F5F5F5F5F5F5F5F5F5F5F5F5F5F5F5F5F5F5F5F5F5F5F5F5F5F5F5F5F5F5F5F5F5F5F5F5F5F5F5F5F5F5F5F5F5F5
310
F5F5F5F5F5F5F5F5F5F5F5F5F5F5F5F5F5F5F5F5F5F5F5F5F5F5F5F5F5F5F5F5F5F5F5F5F5F5F5F5F5F5F5F5F5F5F5F5F5F5F5F5F5F5F5F5E2F5F5F5F5F5F5F5F5F5F5F5E2E2E2F5F5F5F5F5F5F5F5F5F5F5E2F5F5F5F5F5F5F5F5F5F5F5F5F5F5F5F5F5F5F5F5F5F5F5F5F5F5F5F5F5F5F5F5F5F5F5F5F5F5F5F5F5F5F5F5
310
F5F5F5F5F5F5F5F5F5F5F5F5F5F5F5F5F5F5F5F5F5F5F5F5F5F5F5F5F5F5F5F5F5F5F5F5F5F5F5F5F5F5F5F5F5F5F5F5F5F5F5F5F5F5F5F5F5F5F5F5F5F5F5F5F5F5F5F5F5F5F5F5F5F5F5F5F5F5F5F5F5F5F5F5F5F5F5F5F5F5F5F5F5F5F5F5F5F5F5F5F5F5F5F5F5F5F5F5F5E2F5F5F5F5F5F5F5F5F5F5F5E2E2E2F5F5F5
310
F5F5F5F5F5F5F5F5E2F5F5F5F5F5F5F5F5F5F5F5F5F5F5F5F5F5F5F5F5F5F5F5F5F5F5F5F5F5F5F5F5F5F5F5F5F5F5F5F5F5F5F5F5F5F5F5F5F5F5F5F5F5F5F5F5F5F5F5F5F5F5F5F5F5F5F5F5F5F5F5F5F5F5F5F5F5F5F5F5F5F5F5F5F5F5F5F5F5F5F5F5F5F5F5F5F5F5F5F5F5F5F5F5F5F5F5F5F5F5F5F5F5F5F5F5F5F5
310
F5F5F5F5F5F5F5F5F5F5F5F5F5F5F5F5F5F5F5F5F5F5F5F5F5F5F5F5F5F5F5F5F5F5F5E2F5F5F5F5F5F5F5F5F5F5F5E2E2E2F5F5F5F5F5F5F5F5F5F5F5E2F5F5F5F5F5F5F5F5F5F5F5F5F5F5F5F5F5F5F5F5F5F5F5F5F5F5F5F5F5F5F5F5F5F5F5F5F5F5F5F5F5F5F5F5F5F5F5F5F5F5F5F5F5F5F5F5F5F5F5F5F5F5F5F5F5
310
F5F5F5F5F5F5F5F5F5F5F5F5F5F5F5F5F5F5F5F5F5F5F5F5F5F5F5F5F5F5F5F5F5F5F5F5F5F5F5F5F5F5F5F5F5F5F5F5F5F5F5F5F5F5F5F5F5F5F5F5F5F5F5F5F5F5F5F5F5F5F5F5F5F5F5F5F5F5F5F5F5F5F5F5F5F5F5F5E2F5F5F5F5F5F5F5F5F5F5F5E2E2E2F5F5F5F5F5F5F5F5F5F5F5F5F5F5F5F5F5F5F5F5F5F5F5F5
310
F5F5F5F5F5F5F5F5F5F5F5F5F5F5F5F5F5F5F5F5F5F5F5F5F5F5F5F5F5F5F5F5F5F5F5F5F5F5F5F5F5F5F5F5F5F5F5F5F5F5F5F5F5F5F5F5F5F5F5F5F5F5F5F5F5F5F5F5F5F5F5F5F5F5F5F5F5F5F5F5F5F5F5F5F5F5F5F5F5F5F5F5F5F5F5F5F5F5F5F5F5F5F5F5F5F5F5F5F5F5F5F5F5F5F5F5F5F5F5F5F5F5F5F5F5F5F5
310
F5F5F5F5F5F5F5F5F5F5F5F5F5F5F5F5F5F5F5F5F5F5F5F5F5F5E2E2E2F5F5F5F5F5F5F5F5F5F5F5F5F5F5F5F5F5F5F5F5F5F5F5F5F5F5F5F5F5F5F5F5F5F5F5F5F5F5F5F5F5F5F5F5F5F5F5F5F5F5F5F5F5F5F5F5F5F5F5F5F5F5F5F5F5F5F5F5F5F5F5F5F5F5F5F5F5F5F5F5F5F5F5F5F5F5F5F5F5F5F5F5F5F5F5F5F5F5
310
F5F5F5F5F5F5F5F5F5F5F5F5F5F5F5F5F5F5F5F5F5F5F5F5F5F5F5F5F5F5F5F5F5F5F5F5F5F5F5F5F5F5F5F5F5F5F5F5F5F5F5F5F5F5F5F5F5F5F5F5F5F5F5F5F5F5F5F5F5F5F5F5F5F5F5F5F5F5F5E2E2E2F5F5F5F5F5F5F5F5F5F5F5F5F5F5F5F5F5F5F5F5F5F5F5F5F5F5F5F5F5F5F5F5F5F5F5F5F5F5F5F5F5F5F5F5F5
310
F5F5F5F5F5F5F5F5F5F5F5F5F5F5F5F5F5F5F5F5F5F5F5F5F5F5F5F5F5F5F5F5F5F5F5F5F5F5F5F5F5F5F5F5F5F5F5F5F5F5F5F5F5F5F5F5F5F5F5F5F5F5F5F5F5F5F5F5F5F5F5F5F5F5F5F5F5F5F5F5F5F5F5F5F5F5F5F5F5F5F5F5F5F5F5F5F5F5F5F5F5F5F5F5F5F5F5F5F5F5F5F5F5F5F5F5F5F5F5F5F5F5F5F5F5F5F5
310
F5F5F5F5F5E2E2E2F5F5F5F5F5F5F5F5F5F5F5F5F5F5F5F5F5F5F5F5F5F5F5F5F5F5F5F5F5F5F5F5F5F5F5F5F5F5F5F5F5F5F5F5F5F5F5F5F5F5F5F5F5F5F5F5F5F5F5F5F5F5F5F5F5F5F5F5F5F5F5F5F5F5F5F5F5F5F5F5F5F5F5F5F5F5F5F5F5F5F5F5F5F5F5F5F5F5F5F5F5F5F5F5F5F5F5F5F5F5F5F5F5F5F5F5F5F5F5
310
F5F5F5F5F5F5F5F5F5F5F5F5F5F5F5F5F5F5F5F5F5F5F5F5F5F5F5F5F5F5F5F5F5F5F5F5F5F5F5F5F5F5F5F5F5F5F5F5F5F5F5F5F5F5F5F5F5F5E2E2E2F5F5F5F5F5F5F5F5F5F5F5F5F5F5F5F5F5F5F5F5F5F5F5F5F5F5F5F5F5F5F5F5F5F5F5F5F5F5F5F5F5F5F5F5F5F5F5F5F5F5F5F5F5F5F5F5F5F5F5F5F5F5F5F5F5F5
310
F5F5F5F5F5F5F5F5F5F5F5F5F5F5F5F5F5F5F5F5F5F5F5F5F5F5F5F5F5F5F5F5F5F5F5F5F5F5F5F5F5F5F5F5F5F5F5F5F5F5F5F5F5F5F5F5F5F5F5F5F5F5F5F5F5F5F5F5F5F5F5F5F5F5F5F5F5F5F5F5F5F5F5F5F5F5F5F5F5F5F5F5F5F5F5F5F5F5F5F5F5F5F5F5F5F5F5F5F5F5F5E2E2E2F5F5F5F5F5F5F5F5F5F5F5F5F5
310
F5F5F5F5F5F5F5F5F5F5F5F5F5F5F5F5F5F5F5F5F5F5F5F5F5F5F5F5F5F5F5F5F5F5F5F5F5F5F5F5F5F5F5F5F5F5F5F5F5F5F5F5F5F5F5F5F5F5F5F5F5F5F5F5F5F5F5F5F5F5F5F5F5F5F5F5F5F5F5F5F5F5F5F5F5F5F5F5F5F5F5F5F5F5F5F5F5F5F5F5F5F5F5F5F5F5F5F5F5F5F5F5F5F5F5F5F5F5F5F5F5F5F5F5F5F5F5
310
F5F5F5F5F5F5F5F5F5F5F5F5F5F5F5F5F5F5F5F5F5F5F5F5F5F5F5F5F5F5F5F5F5F5F5F5F5E2E2E2F5F5F5F5F5F5F5F5F5F5F5F5F5F5F5F5F5F5F5F5F5F5F5F5F5F5F5F5F5F5F5F5F5F5F5F5F5F5F5F5F5F5F5F5F5F5F5F5F5F5F5F5F5F5F5F5F5F5F5F5F5F5F5F5F5F5F5F5F5F5F5F5F5F5F5F5F5F5F5F5F5F5F5F5F5F5F5
310
F5F5F5F5F5F5F5F5F5F5F5F5F5F5F5F5F5F5F5F5F5F5F5F5F5F5F5F5F5F5F5F5F5F5F5F5F5F5F5F5F5F5F5F5F5F5F5F5F5F5F5F5F5F5F5F5F5F5F5F5F5F5F5F5F5F5F5F5F5F5F5F5F5F5F5F5F5F5F5F5F5F5F5F5F5F5F5F5F5F5E2E2E2F5F5F5F5F5F5F5F5F5F5F5F5F5F5F5F5F5F5F5F5F5F5F5F5F5F5F5F5F5F5F5F5F5F5
310
F5F5F5F5F5F5F5F5F5F5F5F5F5F5F5F5F5F5F5F5F5F5F5F5F5F5F5F5F5F5F5F5F5F5F5F5F5F5F5F5F5F5F5F5F5F5F5F5F5F5F5F5F5F5F5F5F5F5F5F5F5F5F5F5F5F5F5F5F5F5F5F5F5F5F5F5F5F5F5F5F5F5F5F5F5F5F5F5F5F5F5F5F5F5F5F5F5F5F5F5F5F5F5F5F5F5F5F5F5F5F5F5F5F5F5F5F5F5F5F5F5F5F5F5F5F5F5
310
F5F5F5F5F5F5F5F5F5F5F5F5F5F5F5F5E2E2E2F5F5F5F5F5F5F5F5F5F5F5E2F5F5F5F5F5F5F5F5F5F5F5F5F5F5F5F5F5F5F5F5F5F5F5F5F5F5F5F5F5F5F5F5F5F5F5F5F5F5F5F5F5F5F5F5F5F5F5F5F5F5F5F5F5F5F5F5F5F5F5F5F5F5F5F5F5F5F5F5F5F5F5F5F5F5F5F5F5F5F5F5F5F5F5F5F5F5F5F5F5F5F5F5F5F5F5F5
310
F5F5F5F5F5F5F5F5F5F5F5F5F5F5F5F5F5F5F5F5F5F5F5F5F5F5F5F5F5F5F5F5F5F5F5F5F5F5F5F5F5F5F5F5F5F5F5F5F5F5F5F5F5F5F5F5F5E2F5F5F5F5F5F5F5F5F5F5F5E2E2E2F5F5F5F5F5F5F5F5F5F5F5E2F5F5F5F5F5F5F5F5F5F5F5F5F5F5F5F5F5F5F5F5F5F5F5F5F5F5F5F5F5F5F5F5F5F5F5F5F5F5F5F5F5F5F5
310
F5F5F5F5F5F5F5F5F5F5F5F5F5F5F5F5F5F5F5F5F5F5F5F5F5F5F5F5F5F5F5F5F5F5F5F5F5F5F5F5F5F5F5F5F5F5F5F5F5F5F5F5F5F5F5F5F5F5F5F5F5F5F5F5F5F5F5F5F5F5F5F5F5F5F5F5F5F5F5F5F5F5F5F5F5F5F5F5F5F5F5F5F5F5F5F5F5F5F5F5F5F5F5F5F5F5F5F5F5F5E2F5F5F5F5F5F5F5F5F5F5F5E2E2E2F5F5
310
F5F5F5F5F5F5F5F5F5E2F5F5F5F5F5F5F5F5F5F5F5F5F5F5F5F5F5F5F5F5F5F5F5F5F5F5F5F5F5F5F5F5F5F5F5F5F5F5F5F5F5F5F5F5F5F5F5F5F5F5F5F5F5F5F5F5F5F5F5F5F5F5F5F5F5F5F5F5F5F5F5F5F5F5F5F5F5F5F5F5F5F5F5F5F5F5F5F5F5F5F5F5F5F5F5F5F5F5F5F5F5F5F5F5F5F5F5F5F5F5F5F5F5F5F5F5F5
310
F5F5F5F5F5F5F5F5F5F5F5F5F5F5F5F5F5F5F5F5F5F5F5F5F5F5F5F5F5F5F5F5F5F5F5F5E2F5F5F5F5F5F5F5F5F5F5F5E2E2E2F5F5F5F5F5F5F5F5F5F5F5E2F5F5F5F5F5F5F5F5F5F5F5F5F5F5F5F5F5F5F5F5F5F5F5F5F5F5F5F5F5F5F5F5F5F5F5F5F5F5F5F5F5F5F5F5F5F5F5F5F5F5F5F5F5F5F5F5F5F5F5F5F5F5F5F5
310
F5F5F5F5F5F5F5F5F5F5F5F5F5F5F5F5F5F5F5F5F5F5F5F5F5F5F5F5F5F5F5F5F5F5F5F5F5F5F5F5F5F5F5F5F5F5F5F5F5F5F5F5F5F5F5F5F5F5F5F5F5F5F5F5F5F5F5F5F5F5F5F5F5F5F5F5F5F5F5F5F5F5F5F5F5F5F5F5F5E2F5F5F5F5F5F5F5F5F5F5F5E2E2E2F5F5F5F5F5F5F5F5F5F5F5E2F5F5F5F5F5F5F5F5F5F5F5
310
F5F5F5F5F5F5F5F5F5F5F5F5F5F5F5F5F5F5F5F5F5F5F5F5F5F5F5F5F5F5F5F5F5F5F5F5F5F5F5F5F5F5F5F5F5F5F5F5F5F5F5F5F5F5F5F5F5F5F5F5F5F5F5F5F5F5F5F5F5F5F5F5F5F5F5F5F5F5F5F5F5F5F5F5F5F5F5F5F5F5F5F5F5F5F5F5F5F5F5F5F5F5F5F5F5F5F5F5F5F5F5F5F5F5F5F5F5F5F5F5F5F5F5F5F5F5F5
310
F5F5F5F5F5F5F5F5F5F5F5F5F5F5F5E2F5F5F5F5F5F5F5F5F5F5F5E2E2E2F5F5F5F5F5F5F5F5F5F5F5E2F5F5F5F5F5F5F5F5F5F5F5F5F5F5F5F5F5F5F5F5F5F5F5F5F5F5F5F5F5F5F5F5F5F5F5F5F5F5F5F5F5F5F5F5F5F5F5F5F5F5F5F5F5F5F5F5F5F5F5F5F5F5F5F5F5F5F5F5F5F5F5F5F5F5F5F5F5F5F5F5F5F5F5F5F5
310
F5F5F5F5F5F5F5F5F5F5F5F5F5F5F5F5F5F5F5F5F5F5F5F5F5F5F5F5F5F5F5F5F5F5F5F5F5F5F5F5F5F5F5F5F5F5F5F5F5F5F5F5F5F5F5F5F5F5F5F5F5F5F5F5F5F5F5F5E2F5F5F5F5F5F5F5F5F5F5F5E2E2E2F5F5F5F5F5F5F5F5F5F5F5E2F5F5F5F5F5F5F5F5F5F5F5F5F5F5F5F5F5F5F5F5F5F5F5F5F5F5F5F5F5F5F5F5
310
F5F5F5F5F5F5F5F5F5F5F5F5F5F5F5F5F5F5F5F5F5F5F5F5F5F5F5F5F5F5F5F5F5F5F5F5F5F5F5F5F5F5F5F5F5F5F5F5F5F5F5F5F5F5F5F5F5F5F5F5F5F5F5F5F5F5F5F5F5F5F5F5F5F5F5F5F5F5F5F5F5F5F5F5F5F5F5F5F5F5F5F5F5F5F5F5F5F5F5F5F5F5F5F5F5F5F5F5F5F5F5F5F5F5F5F5F5F5F5F5F5E2F5F5F5F5F5
310
F5F5F5F5F5F5E2E2E2F5F5F5F5F5F5F5F5F5F5F5E2F5F5F5F5F5F5F5F5F5F5F5F5F5F5F5F5F5F5F5F5F5F5F5F5F5F5F5F5F5F5F5F5F5F5F5F5F5F5F5F5F5F5F5F5F5F5F5F5F5F5F5F5F5F5F5F5F5F5F5F5F5F5F5F5F5F5F5F5F5F5F5F5F5F5F5F5F5F5F5F5F5F5F5F5F5F5F5F5F5F5F5F5F5F5F5F5F5F5F5F5F5F5F5F5F5F5
310
F5F5F5F5F5F5F5F5F5F5F5F5F5F5F5F5F5F5F5F5F5F5F5F5F5F5F5F5F5F5F5F5F5F5F5F5F5F5F5F5F5F5F5F5F5F5F5E2F5F5F5F5F5F5F5F5F5F5F5E2E2E2F5F5F5F5F5F5F5F5F5F5F5E2F5F5F5F5F5F5F5F5F5F5F5F5F5F5F5F5F5F5F5F5F5F5F5F5F5F5F5F5F5F5F5F5F5F5F5F5F5F5F5F5F5F5F5F5F5F5F5F5F5F5F5F5F5
310
F5F5F5F5F5F5F5F5F5F5F5F5F5F5F5F5F5F5F5F5F5F5F5F5F5F5F5F5F5F5F5F5F5F5F5F5F5F5F5F5F5F5F5F5F5F5F5F5F5F5F5F5F5F5F5F5F5F5F5F5F5F5F5F5F5F5F5F5F5F5F5F5F5F5F5F5F5F5F5F5F5F5F5F5F5F5F5F5F5F5F5F5F5F5F5F5F5F5F5F5E2F5F5F5F5F5F5F5F5F5F5F5E2E2E2F5F5F5F5F5F5F5F5F5F5F5E2
310
F5F5F5F5F5F5F5F5F5F5F5F5F5F5F5F5F5F5F5F5F5F5F5F5F5F5F5F5F5F5F5F5F5F5F5F5F5F5F5F5F5F5F5F5F5F5F5F5F5F5F5F5F5F5F5F5F5F5F5F5F5F5F5F5F5F5F5F5F5F5F5F5F5F5F5F5F5F5F5F5F5F5F5F5F5F5F5F5F5F5F5F5F5F5F5F5F5F5F5F5F5F5F5F5F5F5F5F5F5F5F5F5F5F5F5F5F5F5F5F5F5F5F5F5F5F5F5
310
F5F5F5F5F5F5F5F5F5F5F5F5F5F5F5F5F5F5F5F5F5F5F5F5F5F5E2F5F5F5F5F5F5F5F5F5F5F5E2E2E2F5F5F5F5F5F5F5F5F5F5F5E2F5F5F5F5F5F5F5F5F5F5F5F5F5F5F5F5F5F5F5F5F5F5F5F5F5F5F5F5F5F5F5F5F5F5F5F5F5F5F5F5F5F5F5F5F5F5F5F5F5F5F5F5F5F5F5F5F5F5F5F5F5F5F5F5F5F5F5F5F5F5F5F5F5F5
310
F5F5F5F5F5F5F5F5F5F5F5F5F5F5F5F5F5F5F5F5F5F5F5F5F5F5F5F5F5F5F5F5F5F5F5F5F5F5F5F5F5F5F5F5F5F5F5F5F5F5F5F5F5F5F5F5F5F5F5F5F5F5F5F5F5F5F5F5F5F5F5F5F5F5F5F5F5F5F5E2F5F5F5F5F5F5F5F5F5F5F5E2E2E2F5F5F5F5F5F5F5F5F5F5F5E2F5F5F5F5F5F5F5F5F5F5F5F5F5F5F5F5F5F5F5F5F5
310
F5F5F5F5F5F5F5F5F5F5F5F5F5F5F5F5F5F5F5F5F5F5F5F5F5F5F5F5F5F5F5F5F5F5F5F5F5F5F5F5F5F5F5F5F5F5F5F5F5F5F5F5F5F5F5F5F5F5F5F5F5F5F5F5F5F5F5F5F5F5F5F5F5F5F5F5F5F5F5F5F5F5F5F5F5F5F5F5F5F5F5F5F5F5F5F5F5F5F5F5F5F5F5F5F5F5F5F5F5F5F5F5F5F5F5F5F5F5F5F5F5F5F5F5F5F5F5
310
F5F5F5F5F5E2F5F5F5F5F5F5F5F5F5F5F5E2E2E2F5F5F5F5F5F5F5F5F5F5F5E2F5F5F5F5F5F5F5F5F5F5F5F5F5F5F5F5F5F5F5F5F5F5F5F5F5F5F5F5F5F5F5F5F5F5F5F5F5F5F5F5F5F5F5F5F5F5F5F5F5F5F5F5F5F5F5F5F5F5F5F5F5F5F5F5F5F5F5F5F5F5F5F5F5F5F5F5F5F5F5F5F5F5F5F5F5F5F5F5F5F5F5F5F5F5F5
310
F5F5F5F5F5F5F5F5F5F5F5F5F5F5F5F5F5F5F5F5F5F5F5F5F5F5F5F5F5F5F5F5F5F5F5F5F5F5F5F5F5F5F5F5F5F5F5F5F5F5F5F5F5F5F5F5F5F5E2F5F5F5F5F5F5F5F5F5F5F5E2E2E2F5F5F5F5F5F5F5F5F5F5F5E2F5F5F5F5F5F5F5F5F5F5F5F5F5F5F5F5F5F5F5F5F5F5F5F5F5F5F5F5F5F5F5F5F5F5F5F5F5F5F5F5F5F5
310
F5F5F5F5F5F5F5F5F5F5F5F5F5F5F5F5F5F5F5F5F5F5F5F5F5F5F5F5F5F5F5F5F5F5F5F5F5F5F5F5F5F5F5F5F5F5F5F5F5F5F5F5F5F5F5F5F5F5F5F5F5F5F5F5F5F5F5F5F5F5F5F5F5F5F5F5F5F5F5F5F5F5F5F5F5F5F5F5F5F5F5F5F5F5F5F5F5F5F5F5F5F5F5F5F5F5F5F5F5F5F5E2F5F5F5F5F5F5F5F5F5F5F5E2E2E2F5
310
F5F5F5F5F5F5F5F5F5F5E2F5F5F5F5F5F5F5F5F5F5F5F5F5F5F5F5F5F5F5F5F5F5F5F5F5F5F5F5F5F5F5F5F5F5F5F5F5F5F5F5F5F5F5F5F5F5F5F5F5F5F5F5F5F5F5F5F5F5F5F5F5F5F5F5F5F5F5F5F5F5F5F5F5F5F5F5F5F5F5F5F5F5F5F5F5F5F5F5F5F5F5F5F5F5F5F5F5F5F5F5F5F5F5F5F5F5F5F5F5F5F5F5F5F5F5F5
310
F5F5F5F5F5F5F5F5F5F5F5F5F5F5F5F5F5F5F5F5F5F5F5F5F5F5F5F5F5F5F5F5F5F5F5F5F5E2F5F5F5F5F5F5F5F5F5F5F5E2E2E2F5F5F5F5F5F5F5F5F5F5F5F5F5F5F5F5F5F5F5F5F5F5F5F5F5F5F5F5F5F5F5F5F5F5F5F5F5F5F5F5F5F5F5F5F5F5F5F5F5F5F5F5F5F5F5F5F5F5F5F5F5F5F5F5F5F5F5F5F5F5F5F5F5F5F5
310
F5F5F5F5F5F5F5F5F5F5F5F5F5F5F5F5F5F5F5F5F5F5F5F5F5F5F5F5F5F5F5F5F5F5F5F5F5F5F5F5F5F5F5F5F5F5F5F5F5F5F5F5F5F5F5F5F5F5F5F5F5F5F5F5F5F5F5F5F5F5F5F5F5F5F5F5F5F5F5F5F5F5F5F5F5F5F5F5F5F5F5F5F5F5F5F5F5F5F5F5F5F5E2E2E2F5F5F5F5F5F5F5F5F5F5F5F5F5F5F5F5F5F5F5F5F5F5
310
F5F5F5F5F5F5F5F5F5F5F5F5F5F5F5F5F5F5F5F5F5F5F5F5F5F5F5F5F5F5F5F5F5F5F5F5F5F5F5F5F5F5F5F5F5F5F5F5F5F5F5F5F5F5F5F5F5F5F5F5F5F5F5F5F5F5F5F5F5F5F5F5F5F5F5F5F5F5F5F5F5F5F5F5F5F5F5F5F5F5F5F5F5F5F5F5F5F5F5F5F5F5F5F5F5F5F5F5F5F5F5F5F5F5F5F5F5F5F5F5F5F5F5F5F5F5F5
310
F5F5F5F5F5F5F5F5F5F5F5F5F5F5F5F5F5F5F5F5F5F5F5F5F5F5F5F5E2E2E2F5F5F5F5F5F5F5F5F5F5F5F5F5F5F5F5F5F5F5F5F5F5F5F5F5F5F5F5F5F5F5F5F5F5F5F5F5F5F5F5F5F5F5F5F5F5F5F5F5F5F5F5F5F5F5F5F5F5F5F5F5F5F5F5F5F5F5F5F5F5F5F5F5F5F5F5F5F5F5F5F5F5F5F5F5F5F5F5F5F5F5F5F5F5F5F5
310
F5F5F5F5F5F5F5F5F5F5F5F5F5F5F5F5F5F5F5F5F5F5F5F5F5F5F5F5F5F5F5F5F5F5F5F5F5F5F5F5F5F5F5F5F5F5F5F5F5F5F5F5F5F5F5F5F5F5F5F5F5F5F5F5F5F5F5F5F5F5F5F5F5F5F5F5F5F5F5F5F5E2E2E2F5F5F5F5F5F5F5F5F5F5F5F5F5F5F5F5F5F5F5F5F5F5F5F5F5F5F5F5F5F5F5F5F5F5F5F5F5F5F5F5F5F5F5
310
F5F5F5F5F5F5F5F5F5F5F5F5F5F5F5F5F5F5F5F5F5F5F5F5F5F5F5F5F5F5F5F5F5F5F5F5F5F5F5F5F5F5F5F5F5F5F5F5F5F5F5F5F5F5F5F5F5F5F5F5F5F5F5F5F5F5F5F5F5F5F5F5F5F5F5F5F5F5F5F5F5F5F5F5F5F5F5F5F5F5F5F5F5F5F5F5F5F5F5F5F5F5F5F5F5F5F5F5F5F5F5F5F5F5F5F5F5F5F5F5F5F5F5F5F5F5F5
310
F5F5F5F5F5F5F5E2E2E2F5F5F5F5F5F5F5F5F5F5F5F5F5F5F5F5F5F5F5F5F5F5F5F5F5F5F5F5F5F5F5F5F5F5F5F5F5F5F5F5F5F5F5F5F5F5F5F5F5F5F5F5F5F5F5F5F5F5F5F5F5F5F5F5F5F5F5F5F5F5F5F5F5F5F5F5F5F5F5F5F5F5F5F5F5F5F5F5F5F5F5F5F5F5F5F5F5F5F5F5F5F5F5F5F5F5F5F5F5F5F5F5F5F5F5F5F5
310
F5F5F5F5F5F5F5F5F5F5F5F5F5F5F5F5F5F5F5F5F5F5F5F5F5F5F5F5F5F5F5F5F5F5F5F5F5F5F5F5F5F5F5F5F5F5F5F5F5F5F5F5F5F5F5F5F5F5F5F5E2E2E2F5F5F5F5F5F5F5F5F5F5F5F5F5F5F5F5F5F5F5F5F5F5F5F5F5F5F5F5F5F5F5F5F5F5F5F5F5F5F5F5F5F5F5F5F5F5F5F5F5F5F5F5F5F5F5F5F5F5F5F5F5F5F5F5
310
F5F5F5F5F5F5F5F5F5F5F5F5F5F5F5F5F5F5F5F5F5F5F5F5F5F5F5F5F5F5F5F5F5F5F5F5F5F5F5F5F5F5F5F5F5F5F5F5F5F5F5F5F5F5F5F5F5F5F5F5F5F5F5F5F5F5F5F5F5F5F5F5F5F5F5F5F5F5F5F5F5F5F5F5F5F5F5F5F5F5F5F5F5F5F5F5F5F5F5F5F5F5F5F5F5F5F5F5F5F5F5F5F5E2E2E2F5F5F5F5F5F5F5F5F5F5F5
310
F5F5F5F5F5F5F5F5F5F5F5F5F5F5F5F5F5F5F5F5F5F5F5F5F5F5F5F5F5F5F5F5F5F5F5F5F5F5F5F5F5F5F5F5F5F5F5F5F5F5F5F5F5F5F5F5F5F5F5F5F5F5F5F5F5F5F5F5F5F5F5F5F5F5F5F5F5F5F5F5F5F5F5F5F5F5F5F5F5F5F5F5F5F5F5F5F5F5F5F5F5F5F5F5F5F5F5F5F5F5F5F5F5F5F5F5F5F5F5F5F5F5F5F5F5F5F5
310
F5F5F5F5F5F5F5F5F5F5F5F5F5F5F5F5F5F5F5F5F5F5F5F5F5F5F5F5F5F5F5F5F5F5F5F5F5F5F5E2E2E2F5F5F5F5F5F5F5F5F5F5F5F5F5F5F5F5F5F5F5F5F5F5F5F5F5F5F5F5F5F5F5F5F5F5F5F5F5F5F5F5F5F5F5F5F5F5F5F5F5F5F5F5F5F5F5F5F5F5F5F5F5F5F5F5F5F5F5F5F5F5F5F5F5F5F5F5F5F5F5F5F5F5F5F5F5
310
F5F5F5F5F5F5F5F5F5F5F5F5F5F5F5F5F5F5F5F5F5F5F5F5F5F5F5F5F5F5F5F5F5F5F5F5F5F5F5F5F5F5F5F5F5F5F5F5F5F5F5F5F5F5F5F5F5F5F5F5F5F5F5F5F5F5F5F5F5F5F5F5F5F5F5F5F5F5F5F5F5F5F5F5F5F5F5F5F5F5F5F5E2E2E2F5F5F5F5F5F5F5F5F5F5F5E2F5F5F5F5F5F5F5F5F5F5F5F5F5F5F5F5F5F5F5F5
310
F5F5F5F5F5F5F5F5F5F5F5F5F5F5F5F5F5F5F5F5F5F5F5F5F5F5F5F5F5F5F5F5F5F5F5F5F5F5F5F5F5F5F5F5F5F5F5F5F5F5F5F5F5F5F5F5F5F5F5F5F5F5F5F5F5F5F5F5F5F5F5F5F5F5F5F5F5F5F5F5F5F5F5F5F5F5F5F5F5F5F5F5F5F5F5F5F5F5F5F5F5F5F5F5F5F5F5F5F5F5F5F5F5F5F5F5F5F5F5F5F5F5F5F5F5F5F5
310
F5F5F5F5F5F5E2F5F5F5F5F5F5F5F5F5F5F5E2E2E2F5F5F5F5F5F5F5F5F5F5F5E2F5F5F5F5F5F5F5F5F5F5F5F5F5F5F5F5F5F5F5F5F5F5F5F5F5F5F5F5F5F5F5F5F5F5F5F5F5F5F5F5F5F5F5F5F5F5F5F5F5F5F5F5F5F5F5F5F5F5F5F5F5F5F5F5F5F5F5F5F5F5F5F5F5F5F5F5F5F5F5F5F5F5F5F5F5F5F5F5F5F5F5F5F5F5
310
F5F5F5F5F5F5F5F5F5F5F5F5F5F5F5F5F5F5F5F5F5F5F5F5F5F5F5F5F5F5F5F5F5F5F5F5F5F5F5F5F5F5F5F5F5F5F5F5F5F5F5F5F5F5F5F5F5F5F5E2F5F5F5F5F5F5F5F5F5F5F5E2E2E2F5F5F5F5F5F5F5F5F5F5F5E2F5F5F5F5F5F5F5F5F5F5F5F5F5F5F5F5F5F5F5F5F5F5F5F5F5F5F5F5F5F5F5F5F5F5F5F5F5F5F5F5F5
310
F5F5F5F5F5F5F5F5F5F5F5F5F5F5F5F5F5F5F5F5F5F5F5F5F5F5F5F5F5F5F5F5F5F5F5F5F5F5F5F5F5F5F5F5F5F5F5F5F5F5F5F5F5F5F5F5F5F5F5F5F5F5F5F5F5F5F5F5F5F5F5F5F5F5F5F5F5F5F5F5F5F5F5F5F5F5F5F5F5F5F5F5F5F5F5F5F5F5F5F5F5F5F5F5F5F5F5F5F5F5F5F5E2F5F5F5F5F5F5F5F5F5F5F5E2E2E2
310
F5F5F5F5F5F5F5F5F5F5F5E2F5F5F5F5F5F5F5F5F5F5F5F5F5F5F5F5F5F5F5F5F5F5F5F5F5F5F5F5F5F5F5F5F5F5F5F5F5F5F5F5F5F5F5F5F5F5F5F5F5F5F5F5F5F5F5F5F5F5F5F5F5F5F5F5F5F5F5F5F5F5F5F5F5F5F5F5F5F5F5F5F5F5F5F5F5F5F5F5F5F5F5F5F5F5F5F5F5F5F5F5F5F5F5F5F5F5F5F5F5F5F5F5F5F5F5
310
F5F5F5F5F5F5F5F5F5F5F5F5F5F5F5F5F5F5F5F5F5F5F5F5F5F5F5F5F5F5F5F5F5F5F5F5F5F5E2F5F5F5F5F5F5F5F5F5F5F5E2E2E2F5F5F5F5F5F5F5F5F5F5F5E2F5F5F5F5F5F5F5F5F5F5F5F5F5F5F5F5F5F5F5F5F5F5F5F5F5F5F5F5F5F5F5F5F5F5F5F5F5F5F5F5F5F5F5F5F5F5F5F5F5F5F5F5F5F5F5F5F5F5F5F5F5F5
310
F5F5F5F5F5F5F5F5F5F5F5F5F5F5F5F5F5F5F5F5F5F5F5F5F5F5F5F5F5F5F5F5F5F5F5F5F5F5F5F5F5F5F5F5F5F5F5F5F5F5F5F5F5F5F5F5F5F5F5F5F5F5F5F5F5F5F5F5F5F5F5F5F5F5F5F5F5F5F5F5F5F5F5F5F5F5F5F5F5F5F5E2F5F5F5F5F5F5F5F5F5F5F5E2E2E2F5F5F5F5F5F5F5F5F5F5F5E2F5F5F5F5F5F5F5F5F5
310
F5F5F5F5F5F5F5F5F5F5F5F5F5F5F5F5F5F5F5F5F5F5F5F5F5F5F5F5F5F5F5F5F5F5F5F5F5F5F5F5F5F5F5F5F5F5F5F5F5F5F5F5F5F5F5F5F5F5F5F5F5F5F5F5F5F5F5F5F5F5F5F5F5F5F5F5F5F5F5F5F5F5F5F5F5F5F5F5F5F5F5F5F5F5F5F5F5F5F5F5F5F5F5F5F5F5F5F5F5F5F5F5F5F5F5F5F5F5F5F5F5F5F5F5F5F5F5
310
F5F5F5F5F5F5F5F5F5F5F5F5F5F5F5F5F5E2F5F5F5F5F5F5F5F5F5F5F5E2E2E2F5F5F5F5F5F5F5F5F5F5F5E2F5F5F5F5F5F5F5F5F5F5F5F5F5F5F5F5F5F5F5F5F5F5F5F5F5F5F5F5F5F5F5F5F5F5F5F5F5F5F5F5F5F5F5F5F5F5F5F5F5F5F5F5F5F5F5F5F5F5F5F5F5F5F5F5F5F5F5F5F5F5F5F5F5F5F5F5F5F5F5F5F5F5F5
310
F5F5F5F5F5F5F5F5F5F5F5F5F5F5F5F5F5F5F5F5F5F5F5F5F5F5F5F5F5F5F5F5F5F5F5F5F5F5F5F5F5F5F5F5F5F5F5F5F5F5F5F5F5F5F5F5F5F5F5F5F5F5F5F5F5F5F5F5F5F5E2F5F5F5F5F5F5F5F5F5F5F5E2E2E2F5F5F5F5F5F5F5F5F5F5F5E2F5F5F5F5F5F5F5F5F5F5F5F5F5F5F5F5F5F5F5F5F5F5F5F5F5F5F5F5F5F5
310
F5F5F5F5F5F5F5F5F5F5F5F5F5F5F5F5F5F5F5F5F5F5F5F5F5F5F5F5F5F5F5F5F5F5F5F5F5F5F5F5F5F5F5F5F5F5F5F5F5F5F5F5F5F5F5F5F5F5F5F5F5F5F5F5F5F5F5F5F5F5F5F5F5F5F5F5F5F5F5F5F5F5F5F5F5F5F5F5F5F5F5F5F5F5F5F5F5F5F5F5F5F5F5F5F5F5F5F5F5F5F5F5F5F5F5F5F5F5F5F5F5F5F5E2F5F5F5
310
F5F5F5F5F5F5F5F5E2E2E2F5F5F5F5F5F5F5F5F5F5F5E2F5F5F5F5F5F5F5F5F5F5F5F5F5F5F5F5F5F5F5F5F5F5F5F5F5F5F5F5F5F5F5F5F5F5F5F5F5F5F5F5F5F5F5F5F5F5F5F5F5F5F5F5F5F5F5F5F5F5F5F5F5F5F5F5F5F5F5F5F5F5F5F5F5F5F5F5F5F5F5F5F5F5F5F5F5F5F5F5F5F5F5F5F5F5F5F5F5F5F5F5F5F5F5F5
310
F5F5F5F5F5F5F5F5F5F5F5F5F5F5F5F5F5F5F5F5F5F5F5F5F5F5F5F5F5F5F5F5F5F5F5F5F5F5F5F5F5F5F5F5F5F5F5F5F5E2F5F5F5F5F5F5F5F5F5F5F5E2E2E2F5F5F5F5F5F5F5F5F5F5F5E2F5F5F5F5F5F5F5F5F5F5F5F5F5F5F5F5F5F5F5F5F5F5F5F5F5F5F5F5F5F5F5F5F5F5F5F5F5F5F5F5F5F5F5F5F5F5F5F5F5F5F5
310
F5F5F5F5F5F5F5F5F5F5F5F5F5F5F5F5F5F5F5F5F5F5F5F5F5F5F5F5F5F5F5F5F5F5F5F5F5F5F5F5F5F5F5F5F5F5F5F5F5F5F5F5F5F5F5F5F5F5F5F5F5F5F5F5F5F5F5F5F5F5F5F5F5F5F5F5F5F5F5F5F5F5F5F5F5F5F5F5F5F5F5F5F5F5F5F5F5F5F5F5F5F5E2F5F5F5F5F5F5F5F5F5F5F5E2E2E2F5F5F5F5F5F5F5F5F5F5
310
F5E2F5F5F5F5F5F5F5F5F5F5F5F5F5F5F5F5F5F5F5F5F5F5F5F5F5F5F5F5F5F5F5F5F5F5F5F5F5F5F5F5F5F5F5F5F5F5F5F5F5F5F5F5F5F5F5F5F5F5F5F5F5F5F5F5F5F5F5F5F5F5F5F5F5F5F5F5F5F5F5F5F5F5F5F5F5F5F5F5F5F5F5F5F5F5F5F5F5F5F5F5F5F5F5F5F5F5F5F5F5F5F5F5F5F5F5F5F5F5F5F5F5F5F5F5F5
310
F5F5F5F5F5F5F5F5F5F5F5F5F5F5F5F5F5F5F5F5F5F5F5F5F5F5F5F5E2F5F5F5F5F5F5F5F5F5F5F5E2E2E2F5F5F5F5F5F5F5F5F5F5F5E2F5F5F5F5F5F5F5F5F5F5F5F5F5F5F5F5F5F5F5F5F5F5F5F5F5F5F5F5F5F5F5F5F5F5F5F5F5F5F5F5F5F5F5F5F5F5F5F5F5F5F5F5F5F5F5F5F5F5F5F5F5F5F5F5F5F5F5F5F5F5F5F5
310
F5F5F5F5F5F5F5F5F5F5F5F5F5F5F5F5F5F5F5F5F5F5F5F5F5F5F5F5F5F5F5F5F5F5F5F5F5F5F5F5F5F5F5F5F5F5F5F5F5F5F5F5F5F5F5F5F5F5F5F5F5F5F5F5F5F5F5F5F5F5F5F5F5F5F5F5F5F5F5F5F5E2F5F5F5F5F5F5F5F5F5F5F5E2E2E2F5F5F5F5F5F5F5F5F5F5F5E2F5F5F5F5F5F5F5F5F5F5F5F5F5F5F5F5F5F5F5
310
F5F5F5F5F5F5F5F5F5F5F5F5F5F5F5F5F5F5F5F5F5F5F5F5F5F5F5F5F5F5F5F5F5F5F5F5F5F5F5F5F5F5F5F5F5F5F5F5F5F5F5F5F5F5F5F5F5F5F5F5F5F5F5F5F5F5F5F5F5F5F5F5F5F5F5F5F5F5F5F5F5F5F5F5F5F5F5F5F5F5F5F5F5F5F5F5F5F5F5F5F5F5F5F5F5F5F5F5F5F5F5F5F5F5F5F5F5F5F5F5F5F5F5F5F5F5F5
310
F5F5F5F5F5F5F5E2F5F5F5F5F5F5F5F5F5F5F5E2E2E2F5F5F5F5F5F5F5F5F5F5F5E2F5F5F5F5F5F5F5F5F5F5F5F5F5F5F5F5F5F5F5F5F5F5F5F5F5F5F5F5F5F5F5F5F5F5F5F5F5F5F5F5F5F5F5F5F5F5F5F5F5F5F5F5F5F5F5F5F5F5F5F5F5F5F5F5F5F5F5F5F5F5F5F5F5F5F5F5F5F5F5F5F5F5F5F5F5F5F5F5F5F5F5F5F5
310
F5F5F5F5F5F5F5F5F5F5F5F5F5F5F5F5F5F5F5F5F5F5F5F5F5F5F5F5F5F5F5F5F5F5F5F5F5F5F5F5F5F5F5F5F5F5F5F5F5F5F5F5F5F5F5F5F5F5F5F5E2F5F5F5F5F5F5F5F5F5F5F5E2E2E2F5F5F5F5F5F5F5F5F5F5F5E2F5F5F5F5F5F5F5F5F5F5F5F5F5F5F5F5F5F5F5F5F5F5F5F5F5F5F5F5F5F5F5F5F5F5F5F5F5F5F5F5
310
F5F5F5F5F5F5F5F5F5F5F5F5F5F5F5F5F5F5F5F5F5F5F5F5F5F5F5F5F5F5F5F5F5F5F5F5F5F5F5F5F5F5F5F5F5F5F5F5F5F5F5F5F5F5F5F5F5F5F5F5F5F5F5F5F5F5F5F5F5F5F5F5F5F5F5F5F5F5F5F5F5F5F5F5F5F5F5F5F5F5F5F5F5F5F5F5F5F5F5F5F5F5F5F5F5F5F5F5F5F5F5F5F5E2F5F5F5F5F5F5F5F5F5F5F5E2E2
310
E2F5F5F5F5F5F5F5F5F5F5F5F5F5F5F5F5F5F5F5F5F5F5F5F5F5F5F5F5F5F5F5F5F5F5F5F5F5F5F5F5F5F5F5F5F5F5F5F5F5F5F5F5F5F5F5F5F5F5F5F5F5F5F5F5F5F5F5F5F5F5F5F5F5F5F5F5F5F5F5F5F5F5F5F5F5F5F5F5F5F5F5F5F5F5F5F5F5F5F5F5F5F5F5F5F5F5F5F5F5F5F5F5F5F5F5F5F5F5F5F5F5F5F5F5F5F5
310
F5F5F5F5F5F5F5F5F5F5F5F5F5F5F5F5F5F5F5F5F5F5F5F5F5F5F5F5F5F5F5F5F5F5F5F5F5F5F5F5F5F5F5F5F5F5F5F5F5F5F5E2E2E2F5F5F5F5F5F5F5F5F5F5F5F5F5F5F5F5F5F5F5F5F5F5F5F5F5F5F5F5F5F5F5F5F5F5F5F5F5F5F5F5F5F5F5F5F5F5F5F5F5F5F5F5F5F5F5F5F5F5F5F5F5F5F5F5F5F5F5F5F5F5F5F5F5
310
F5F5F5F5F5F5F5F5F5F5F5F5F5F5F5F5F5F5F5F5F5F5F5F5F5F5F5F5F5F5F5F5F5F5F5F5F5F5F5F5F5F5F5F5F5F5F5F5F5F5F5F5F5F5F5F5F5F5F5F5F5F5F5F5F5F5F5F5F5F5F5F5F5F5F5F5F5F5F5F5F5F5F5F5F5F5F5F5F5F5F5F5F5F5F5F5F5F5F5F5F5F5F5F5E2E2E2F5F5F5F5F5F5F5F5F5F5F5F5F5F5F5F5F5F5F5F5
310
F5F5F5F5F5F5F5F5F5F5F5F5F5F5F5F5F5F5F5F5F5F5F5F5F5F5F5F5F5F5F5F5F5F5F5F5F5F5F5F5F5F5F5F5F5F5F5F5F5F5F5F5F5F5F5F5F5F5F5F5F5F5F5F5F5F5F5F5F5F5F5F5F5F5F5F5F5F5F5F5F5F5F5F5F5F5F5F5F5F5F5F5F5F5F5F5F5F5F5F5F5F5F5F5F5F5F5F5F5F5F5F5F5F5F5F5F5F5F5F5F5F5F5F5F5F5F5
310
F5F5F5F5F5F5F5F5F5F5F5F5F5F5F5F5F5F5F5F5F5F5F5F5F5F5F5F5F5F5E2E2E2F5F5F5F5F5F5F5F5F5F5F5F5F5F5F5F5F5F5F5F5F5F5F5F5F5F5F5F5F5F5F5F5F5F5F5F5F5F5F5F5F5F5F5F5F5F5F5F5F5F5F5F5F5F5F5F5F5F5F5F5F5F5F5F5F5F5F5F5F5F5F5F5F5F5F5F5F5F5F5F5F5F5F5F5F5F5F5F5F5F5F5F5F5F5
310
F5F5F5F5F5F5F5F5F5F5F5F5F5F5F5F5F5F5F5F5F5F5F5F5F5F5F5F5F5F5F5F5F5F5F5F5F5F5F5F5F5F5F5F5F5F5F5F5F5F5F5F5F5F5F5F5F5F5F5F5F5F5F5F5F5F5F5F5F5F5F5F5F5F5F5F5F5F5F5F5F5F5F5E2E2E2F5F5F5F5F5F5F5F5F5F5F5F5F5F5F5F5F5F5F5F5F5F5F5F5F5F5F5F5F5F5F5F5F5F5F5F5F5F5F5F5F5
310
F5F5F5F5F5F5F5F5F5F5F5F5F5F5F5F5F5F5F5F5F5F5F5F5F5F5F5F5F5F5F5F5F5F5F5F5F5F5F5F5F5F5F5F5F5F5F5F5F5F5F5F5F5F5F5F5F5F5F5F5F5F5F5F5F5F5F5F5F5F5F5F5F5F5F5F5F5F5F5F5F5F5F5F5F5F5F5F5F5F5F5F5F5F5F5F5F5F5F5F5F5F5F5F5F5F5F5F5F5F5F5F5F5F5F5F5F5F5F5F5F5F5F5F5F5F5F5
310
F5F5F5F5F5F5F5F5F5E2E2E2F5F5F5F5F5F5F5F5F5F5F5F5F5F5F5F5F5F5F5F5F5F5F5F5F5F5F5F5F5F5F5F5F5F5F5F5F5F5F5F5F5F5F5F5F5F5F5F5F5F5F5F5F5F5F5F5F5F5F5F5F5F5F5F5F5F5F5F5F5F5F5F5F5F5F5F5F5F5F5F5F5F5F5F5F5F5F5F5F5F5F5F5F5F5F5F5F5F5F5F5F5F5F5F5F5F5F5F5F5F5F5F5F5F5F5
310
F5F5F5F5F5F5F5F5F5F5F5F5F5F5F5F5F5F5F5F5F5F5F5F5F5F5F5F5F5F5F5F5F5F5F5F5F5F5F5F5F5F5F5F5F5F5F5F5F5F5F5F5F5F5F5F5F5F5F5F5F5F5E2E2E2F5F5F5F5F5F5F5F5F5F5F5F5F5F5F5F5F5F5F5F5F5F5F5F5F5F5F5F5F5F5F5F5F5F5F5F5F5F5F5F5F5F5F5F5F5F5F5F5F5F5F5F5F5F5F5F5F5F5F5F5F5F5
310
F5F5F5F5F5F5F5F5F5F5F5F5F5F5F5F5F5F5F5F5F5F5F5F5F5F5F5F5F5F5F5F5F5F5F5F5F5F5F5F5F5F5F5F5F5F5F5F5F5F5F5F5F5F5F5F5F5F5F5F5F5F5F5F5F5F5F5F5F5F5F5F5F5F5F5F5F5F5F5F5F5F5F5F5F5F5F5F5F5F5F5F5F5F5F5F5F5F5F5F5F5F5F5F5F5F5F5F5F5F5F5F5F5F5F5E2E2E2F5F5F5F5F5F5F5F5F5
310
F5F5F5F5F5F5F5F5F5F5F5F5F5F5F5F5F5F5F5F5F5F5F5F5F5F5F5F5F5F5F5F5F5F5F5F5F5F5F5F5F5F5F5F5F5F5F5F5F5F5F5F5F5F5F5F5F5F5F5F5F5F5F5F5F5F5F5F5F5F5F5F5F5F5F5F5F5F5F5F5F5F5F5F5F5F5F5F5F5F5F5F5F5F5F5F5F5F5F5F5F5F5F5F5F5F5F5F5F5F5F5F5F5F5F5F5F5F5F5F5F5F5F5F5F5F5F5
310
F5F5F5F5F5F5F5F5F5F5F5F5F5F5F5F5F5F5F5F5F5F5F5F5F5F5F5F5F5F5F5F5F5F5F5F5F5F5F5F5F5E2E2E2F5F5F5F5F5F5F5F5F5F5F5F5F5F5F5F5F5F5F5F5F5F5F5F5F5F5F5F5F5F5F5F5F5F5F5F5F5F5F5F5F5F5F5F5F5F5F5F5F5F5F5F5F5F5F5F5F5F5F5F5F5F5F5F5F5F5F5F5F5F5F5F5F5F5F5F5F5F5F5F5F5F5F5
310
F5F5F5F5F5F5F5F5F5F5F5F5F5F5F5F5F5F5F5F5F5F5F5F5F5F5F5F5F5F5F5F5F5F5F5F5F5F5F5F5F5F5F5F5F5F5F5F5F5F5F5F5F5F5F5F5F5F5F5F5F5F5F5F5F5F5F5F5F5F5F5F5F5F5F5F5F5F5F5F5F5F5F5F5F5F5F5F5F5F5F5F5F5F5E2E2E2F5F5F5F5F5F5F5F5F5F5F5E2F5F5F5F5F5F5F5F5F5F5F5F5F5F5F5F5F5F5
310
F5F5F5F5F5F5F5F5F5F5F5F5F5F5F5F5F5F5F5F5F5F5F5F5F5F5F5F5F5F5F5F5F5F5F5F5F5F5F5F5F5F5F5F5F5F5F5F5F5F5F5F5F5F5F5F5F5F5F5F5F5F5F5F5F5F5F5F5F5F5F5F5F5F5F5F5F5F5F5F5F5F5F5F5F5F5F5F5F5F5F5F5F5F5F5F5F5F5F5F5F5F5F5F5F5F5F5F5F5F5F5F5F5F5F5F5F5F5F5F5F5F5F5F5F5F5F5
310
F5F5F5F5F5F5F5F5E2F5F5F5F5F5F5F5F5F5F5F5E2E2E2F5F5F5F5F5F5F5F5F5F5F5E2F5F5F5F5F5F5F5F5F5F5F5F5F5F5F5F5F5F5F5F5F5F5F5F5F5F5F5F5F5F5F5F5F5F5F5F5F5F5F5F5F5F5F5F5F5F5F5F5F5F5F5F5F5F5F5F5F5F5F5F5F5F5F5F5F5F5F5F5F5F5F5F5F5F5F5F5F5F5F5F5F5F5F5F5F5F5F5F5F5F5F5F5
310
F5F5F5F5F5F5F5F5F5F5F5F5F5F5F5F5F5F5F5F5F5F5F5F5F5F5F5F5F5F5F5F5F5F5F5F5F5F5F5F5F5F5F5F5F5F5F5F5F5F5F5F5F5F5F5F5F5F5F5F5F5E2F5F5F5F5F5F5F5F5F5F5F5E2E2E2F5F5F5F5F5F5F5F5F5F5F5E2F5F5F5F5F5F5F5F5F5F5F5F5F5F5F5F5F5F5F5F5F5F5F5F5F5F5F5F5F5F5F5F5F5F5F5F5F5F5F5
310
F5F5F5F5F5F5F5F5F5F5F5F5F5F5F5F5F5F5F5F5F5F5F5F5F5F5F5F5F5F5F5F5F5F5F5F5F5F5F5F5F5F5F5F5F5F5F5F5F5F5F5F5F5F5F5F5F5F5F5F5F5F5F5F5F5F5F5F5F5F5F5F5F5F5F5F5F5F5F5F5F5F5F5F5F5F5F5F5F5F5F5F5F5F5F5F5F5F5F5F5F5F5F5F5F5F5F5F5F5F5F5F5F5F5E2F5F5F5F5F5F5F5F5F5F5F5E2
310
E2E2F5F5F5F5F5F5F5F5F5F5F5E2F5F5F5F5F5F5F5F5F5F5F5F5F5F5F5F5F5F5F5F5F5F5F5F5F5F5F5F5F5F5F5F5F5F5F5F5F5F5F5F5F5F5F5F5F5F5F5F5F5F5F5F5F5F5F5F5F5F5F5F5F5F5F5F5F5F5F5F5F5F5F5F5F5F5F5F5F5F5F5F5F5F5F5F5F5F5F5F5F5F5F5F5F5F5F5F5F5F5F5F5F5F5F5F5F5F5F5F5F5F5F5F5F5
310
F5F5F5F5F5F5F5F5F5F5F5F5F5F5F5F5F5F5F5F5F5F5F5F5F5F5F5F5F5F5F5F5F5F5F5F5F5F5F5F5E2F5F5F5F5F5F5F5F5F5F5F5E2E2E2F5F5F5F5F5F5F5F5F5F5F5E2F5F5F5F5F5F5F5F5F5F5F5F5F5F5F5F5F5F5F5F5F5F5F5F5F5F5F5F5F5F5F5F5F5F5F5F5F5F5F5F5F5F5F5F5F5F5F5F5F5F5F5F5F5F5F5F5F5F5F5F5
310
F5F5F5F5F5F5F5F5F5F5F5F5F5F5F5F5F5F5F5F5F5F5F5F5F5F5F5F5F5F5F5F5F5F5F5F5F5F5F5F5F5F5F5F5F5F5F5F5F5F5F5F5F5F5F5F5F5F5F5F5F5F5F5F5F5F5F5F5F5F5F5F5F5F5F5F5F5F5F5F5F5F5F5F5F5F5F5F5F5F5F5F5F5E2F5F5F5F5F5F5F5F5F5F5F5E2E2E2F5F5F5F5F5F5F5F5F5F5F5E2F5F5F5F5F5F5F5
310
F5F5F5F5F5F5F5F5F5F5F5F5F5F5F5F5F5F5F5F5F5F5F5F5F5F5F5F5F5F5F5F5F5F5F5F5F5F5F5F5F5F5F5F5F5F5F5F5F5F5F5F5F5F5F5F5F5F5F5F5F5F5F5F5F5F5F5F5F5F5F5F5F5F5F5F5F5F5F5F5F5F5F5F5F5F5F5F5F5F5F5F5F5F5F5F5F5F5F5F5F5F5F5F5F5F5F5F5F5F5F5F5F5F5F5F5F5F5F5F5F5F5F5F5F5F5F5
310
F5F5F5F5F5F5F5F5F5F5F5F5F5F5F5F5F5F5F5E2F5F5F5F5F5F5F5F5F5F5F5E2E2E2F5F5F5F5F5F5F5F5F5F5F5E2F5F5F5F5F5F5F5F5F5F5F5F5F5F5F5F5F5F5F5F5F5F5F5F5F5F5F5F5F5F5F5F5F5F5F5F5F5F5F5F5F5F5F5F5F5F5F5F5F5F5F5F5F5F5F5F5F5F5F5F5F5F5F5F5F5F5F5F5F5F5F5F5F5F5F5F5F5F5F5F5F5
310
F5F5F5F5F5F5F5F5F5F5F5F5F5F5F5F5F5F5F5F5F5F5F5F5F5F5F5F5F5F5F5F5F5F5F5F5F5F5F5F5F5F5F5F5F5F5F5F5F5F5F5F5F5F5F5F5F5F5F5F5F5F5F5F5F5F5F5F5F5F5F5F5E2F5F5F5F5F5F5F5F5F5F5F5E2E2E2F5F5F5F5F5F5F5F5F5F5F5E2F5F5F5F5F5F5F5F5F5F5F5F5F5F5F5F5F5F5F5F5F5F5F5F5F5F5F5F5
310
F5F5F5F5F5F5F5F5F5F5F5F5F5F5F5F5F5F5F5F5F5F5F5F5F5F5F5F5F5F5F5F5F5F5F5F5F5F5F5F5F5F5F5F5F5F5F5F5F5F5F5F5F5F5F5F5F5F5F5F5F5F5F5F5F5F5F5F5F5F5F5F5F5F5F5F5F5F5F5F5F5F5F5F5F5F5F5F5F5F5F5F5F5F5F5F5F5F5F5F5F5F5F5F5F5F5F5F5F5F5F5F5F5F5F5F5F5F5F5F5F5F5F5F5F5E2F5
310
F5F5F5F5F5F5F5F5F5F5E2E2E2F5F5F5F5F5F5F5F5F5F5F5E2F5F5F5F5F5F5F5F5F5F5F5F5F5F5F5F5F5F5F5F5F5F5F5F5F5F5F5F5F5F5F5F5F5F5F5F5F5F5F5F5F5F5F5F5F5F5F5F5F5F5F5F5F5F5F5F5F5F5F5F5F5F5F5F5F5F5F5F5F5F5F5F5F5F5F5F5F5F5F5F5F5F5F5F5F5F5F5F5F5F5F5F5F5F5F5F5F5F5F5F5F5F5
310
F5F5F5F5F5F5F5F5F5F5F5F5F5F5F5F5F5F5F5F5F5F5F5F5F5F5F5F5F5F5F5F5F5F5F5F5F5F5F5F5F5F5F5F5F5F5F5F5F5F5F5E2F5F5F5F5F5F5F5F5F5F5F5E2E2E2F5F5F5F5F5F5F5F5F5F5F5E2F5F5F5F5F5F5F5F5F5F5F5F5F5F5F5F5F5F5F5F5F5F5F5F5F5F5F5F5F5F5F5F5F5F5F5F5F5F5F5F5F5F5F5F5F5F5F5F5F5
310
F5F5F5F5F5F5F5F5F5F5F5F5F5F5F5F5F5F5F5F5F5F5F5F5F5F5F5F5F5F5F5F5F5F5F5F5F5F5F5F5F5F5F5F5F5F5F5F5F5F5F5F5F5F5F5F5F5F5F5F5F5F5F5F5F5F5F5F5F5F5F5F5F5F5F5F5F5F5F5F5F5F5F5F5F5F5F5F5F5F5F5F5F5F5F5F5F5F5F5F5F5F5F5F5E2F5F5F5F5F5F5F5F5F5F5F5E2E2E2F5F5F5F5F5F5F5F5
310
F5F5F5E2F5F5F5F5F5F5F5F5F5F5F5F5F5F5F5F5F5F5F5F5F5F5F5F5F5F5F5F5F5F5F5F5F5F5F5F5F5F5F5F5F5F5F5F5F5F5F5F5F5F5F5F5F5F5F5F5F5F5F5F5F5F5F5F5F5F5F5F5F5F5F5F5F5F5F5F5F5F5F5F5F5F5F5F5F5F5F5F5F5F5F5F5F5F5F5F5F5F5F5F5F5F5F5F5F5F5F5F5F5F5F5F5F5F5F5F5F5F5F5F5F5F5F5
310
F5F5F5F5F5F5F5F5F5F5F5F5F5F5F5F5F5F5F5F5F5F5F5F5F5F5F5F5F5F5E2F5F5F5F5F5F5F5F5F5F5F5E2E2E2F5F5F5F5F5F5F5F5F5F5F5E2F5F5F5F5F5F5F5F5F5F5F5F5F5F5F5F5F5F5F5F5F5F5F5F5F5F5F5F5F5F5F5F5F5F5F5F5F5F5F5F5F5F5F5F5F5F5F5F5F5F5F5F5F5F5F5F5F5F5F5F5F5F5F5F5F5F5F5F5F5F5
310
F5F5F5F5F5F5F5F5F5F5F5F5F5F5F5F5F5F5F5F5F5F5F5F5F5F5F5F5F5F5F5F5F5F5F5F5F5F5F5F5F5F5F5F5F5F5F5F5F5F5F5F5F5F5F5F5F5F5F5F5F5F5F5F5F5F5F5F5F5F5F5F5F5F5F5F5F5F5F5F5F5F5F5E2F5F5F5F5F5F5F5F5F5F5F5E2E2E2F5F5F5F5F5F5F5F5F5F5F5E2F5F5F5F5F5F5F5F5F5F5F5F5F5F5F5F5F5
310
F5F5F5F5F5F5F5F5F5F5F5F5F5F5F5F5F5F5F5F5F5F5F5F5F5F5F5F5F5F5F5F5F5F5F5F5F5F5F5F5F5F5F5F5F5F5F5F5F5F5F5F5F5F5F5F5F5F5F5F5F5F5F5F5F5F5F5F5F5F5F5F5F5F5F5F5F5F5F5F5F5F5F5F5F5F5F5F5F5F5F5F5F5F5F5F5F5F5F5F5F5F5F5F5F5F5F5F5F5F5F5F5F5F5F5F5F5F5F5F5F5F5F5F5F5F5F5
310
F5F5F5F5F5F5F5F5F5E2F5F5F5F5F5F5F5F5F5F5F5E2E2E2F5F5F5F5F5F5F5F5F5F5F5E2F5F5F5F5F5F5F5F5F5F5F5F5F5F5F5F5F5F5F5F5F5F5F5F5F5F5F5F5F5F5F5F5F5F5F5F5F5F5F5F5F5F5F5F5F5F5F5F5F5F5F5F5F5F5F5F5F5F5F5F5F5F5F5F5F5F5F5F5F5F5F5F5F5F5F5F5F5F5F5F5F5F5F5F5F5F5F5F5F5F5F5
310
F5F5F5F5F5F5F5F5F5F5F5F5F5F5F5F5F5F5F5F5F5F5F5F5F5F5F5F5F5F5F5F5F5F5F5F5F5F5F5F5F5F5F5F5F5F5F5F5F5F5F5F5F5F5F5F5F5F5F5F5F5F5E2F5F5F5F5F5F5F5F5F5F5F5E2E2E2F5F5F5F5F5F5F5F5F5F5F5E2F5F5F5F5F5F5F5F5F5F5F5F5F5F5F5F5F5F5F5F5F5F5F5F5F5F5F5F5F5F5F5F5F5F5F5F5F5F5
310
F5F5F5F5F5F5F5F5F5F5F5F5F5F5F5F5F5F5F5F5F5F5F5F5F5F5F5F5F5F5F5F5F5F5F5F5F5F5F5F5F5F5F5F5F5F5F5F5F5F5F5F5F5F5F5F5F5F5F5F5F5F5F5F5F5F5F5F5F5F5F5F5F5F5F5F5F5F5F5F5F5F5F5F5F5F5F5F5F5F5F5F5F5F5F5F5F5F5F5F5F5F5F5F5F5F5F5F5F5F5F5F5F5F5F5E2F5F5F5F5F5F5F5F5F5F5F5
310
E2E2E2F5F5F5F5F5F5F5F5F5F5F5F5F5F5F5F5F5F5F5F5F5F5F5F5F5F5F5F5F5F5F5F5F5F5F5F5F5F5F5F5F5F5F5F5F5F5F5F5F5F5F5F5F5F5F5F5F5F5F5F5F5F5F5F5F5F5F5F5F5F5F5F5F5F5F5F5F5F5F5F5F5F5F5F5F5F5F5F5F5F5F5F5F5F5F5F5F5F5F5F5F5F5F5F5F5F5F5F5F5F5F5F5F5F5F5F5F5F5F5F5F5F5F5F5
310
F5F5F5F5F5F5F5F5F5F5F5F5F5F5F5F5F5F5F5F5F5F5F5F5F5F5F5F5F5F5F5F5F5F5F5F5F5F5F5F5F5F5F5F5F5F5F5F5F5F5F5F5F5E2E2E2F5F5F5F5F5F5F5F5F5F5F5F5F5F5F5F5F5F5F5F5F5F5F5F5F5F5F5F5F5F5F5F5F5F5F5F5F5F5F5F5F5F5F5F5F5F5F5F5F5F5F5F5F5F5F5F5F5F5F5F5F5F5F5F5F5F5F5F5F5F5F5
310
F5F5F5F5F5F5F5F5F5F5F5F5F5F5F5F5F5F5F5F5F5F5F5F5F5F5F5F5F5F5F5F5F5F5F5F5F5F5F5F5F5F5F5F5F5F5F5F5F5F5F5F5F5F5F5F5F5F5F5F5F5F5F5F5F5F5F5F5F5F5F5F5F5F5F5F5F5F5F5F5F5F5F5F5F5F5F5F5F5F5F5F5F5F5F5F5F5F5F5F5F5F5F5F5F5F5E2E2E2F5F5F5F5F5F5F5F5F5F5F5F5F5F5F5F5F5F5
310
F5F5F5F5F5F5F5F5F5F5F5F5F5F5F5F5F5F5F5F5F5F5F5F5F5F5F5F5F5F5F5F5F5F5F5F5F5F5F5F5F5F5F5F5F5F5F5F5F5F5F5F5F5F5F5F5F5F5F5F5F5F5F5F5F5F5F5F5F5F5F5F5F5F5F5F5F5F5F5F5F5F5F5F5F5F5F5F5F5F5F5F5F5F5F5F5F5F5F5F5F5F5F5F5F5F5F5F5F5F5F5F5F5F5F5F5F5F5F5F5F5F5F5F5F5F5F5
310
F5F5F5F5F5F5F5F5F5F5F5F5F5F5F5F5F5F5F5F5F5F5F5F5F5F5F5F5F5F5F5F5E2E2E2F5F5F5F5F5F5F5F5F5F5F5F5F5F5F5F5F5F5F5F5F5F5F5F5F5F5F5F5F5F5F5F5F5F5F5F5F5F5F5F5F5F5F5F5F5F5F5F5F5F5F5F5F5F5F5F5F5F5F5F5F5F5F5F5F5F5F5F5F5F5F5F5F5F5F5F5F5F5F5F5F5F5F5F5F5F5F5F5F5F5F5F5
310
F5F5F5F5F5F5F5F5F5F5F5F5F5F5F5F5F5F5F5F5F5F5F5F5F5F5F5F5F5F5F5F5F5F5F5F5F5F5F5F5F5F5F5F5F5F5F5F5F5F5F5F5F5F5F5F5F5F5F5F5F5F5F5F5F5F5F5F5F5F5F5F5F5F5F5F5F5F5F5F5F5F5F5F5F5E2E2E2F5F5F5F5F5F5F5F5F5F5F5F5F5F5F5F5F5F5F5F5F5F5F5F5F5F5F5F5F5F5F5F5F5F5F5F5F5F5F5
310
F5F5F5F5F5F5F5F5F5F5F5F5F5F5F5F5F5F5F5F5F5F5F5F5F5F5F5F5F5F5F5F5F5F5F5F5F5F5F5F5F5F5F5F5F5F5F5F5F5F5F5F5F5F5F5F5F5F5F5F5F5F5F5F5F5F5F5F5F5F5F5F5F5F5F5F5F5F5F5F5F5F5F5F5F5F5F5F5F5F5F5F5F5F5F5F5F5F5F5F5F5F5F5F5F5F5F5F5F5F5F5F5F5F5F5F5F5F5F5F5F5F5F5F5F5F5F5
310
F5F5F5F5F5F5F5F5F5F5F5E2E2E2F5F5F5F5F5F5F5F5F5F5F5F5F5F5F5F5F5F5F5F5F5F5F5F5F5F5F5F5F5F5F5F5F5F5F5F5F5F5F5F5F5F5F5F5F5F5F5F5F5F5F5F5F5F5F5F5F5F5F5F5F5F5F5F5F5F5F5F5F5F5F5F5F5F5F5F5F5F5F5F5F5F5F5F5F5F5F5F5F5F5F5F5F5F5F5F5F5F5F5F5F5F5F5F5F5F5F5F5F5F5F5F5F5
310
F5F5F5F5F5F5F5F5F5F5F5F5F5F5F5F5F5F5F5F5F5F5F5F5F5F5F5F5F5F5F5F5F5F5F5F5F5F5F5F5F5F5F5F5F5F5F5F5F5F5F5F5F5F5F5F5F5F5F5F5F5F5F5F5E2E2E2F5F5F5F5F5F5F5F5F5F5F5F5F5F5F5F5F5F5F5F5F5F5F5F5F5F5F5F5F5F5F5F5F5F5F5F5F5F5F5F5F5F5F5F5F5F5F5F5F5F5F5F5F5F5F5F5F5F5F5F5
310
F5F5F5F5F5F5F5F5F5F5F5F5F5F5F5F5F5F5F5F5F5F5F5F5F5F5F5F5F5F5F5F5F5F5F5F5F5F5F5F5F5F5F5F5F5F5F5F5F5F5F5F5F5F5F5F5F5F5F5F5F5F5F5F5F5F5F5F5F5F5F5F5F5F5F5F5F5F5F5F5F5F5F5F5F5F5F5F5F5F5F5F5F5F5F5F5F5F5F5F5F5F5F5F5F5F5F5F5F5F5F5F5F5F5F5F5F5E2E2E2F5F5F5F5F5F5F5
310
F5F5F5F5F5F5F5F5F5F5F5F5F5F5F5F5F5F5F5F5F5F5F5F5F5F5F5F5F5F5F5F5F5F5F5F5F5F5F5F5F5F5F5F5F5F5F5F5F5F5F5F5F5F5F5F5F5F5F5F5F5F5F5F5F5F5F5F5F5F5F5F5F5F5F5F5F5F5F5F5F5F5F5F5F5F5F5F5F5F5F5F5F5F5F5F5F5F5F5F5F5F5F5F5F5F5F5F5F5F5F5F5F5F5F5F5F5F5F5F5F5F5F5F5F5F5F5
310
F5F5F5F5F5F5F5F5F5F5F5F5F5F5F5F5F5F5F5F5F5F5F5F5F5F5F5F5F5F5F5F5F5F5F5F5F5F5F5F5F5F5F5E2E2E2F5F5F5F5F5F5F5F5F5F5F5E2F5F5F5F5F5F5F5F5F5F5F5F5F5F5F5F5F5F5F5F5F5F5F5F5F5F5F5F5F5F5F5F5F5F5F5F5F5F5F5F5F5F5F5F5F5F5F5F5F5F5F5F5F5F5F5F5F5F5F5F5F5F5F5F5F5F5F5F5F5
310
F5F5F5F5F5F5F5F5F5F5F5F5F5F5F5F5F5F5F5F5F5F5F5F5F5F5F5F5F5F5F5F5F5F5F5F5F5F5F5F5F5F5F5F5F5F5F5F5F5F5F5F5F5F5F5F5F5F5F5F5F5F5F5F5F5F5F5F5F5F5F5F5F5F5F5F5F5F5F5F5F5F5F5F5E2F5F5F5F5F5F5F5F5F5F5F5E2E2E2F5F5F5F5F5F5F5F5F5F5F5E2F5F5F5F5F5F5F5F5F5F5F5F5F5F5F5F5
310
F5F5F5F5F5F5F5F5F5F5F5F5F5F5F5F5F5F5F5F5F5F5F5F5F5F5F5F5F5F5F5F5F5F5F5F5F5F5F5F5F5F5F5F5F5F5F5F5F5F5F5F5F5F5F5F5F5F5F5F5F5F5F5F5F5F5F5F5F5F5F5F5F5F5F5F5F5F5F5F5F5F5F5F5F5F5F5F5F5F5F5F5F5F5F5F5F5F5F5F5F5F5F5F5F5F5F5F5F5F5F5F5F5F5F5F5F5F5F5F5F5F5F5F5F5F5F5
310
F5F5F5F5F5F5F5F5F5F5E2F5F5F5F5F5F5F5F5F5F5F5E2E2E2F5F5F5F5F5F5F5F5F5F5F5E2F5F5F5F5F5F5F5F5F5F5F5F5F5F5F5F5F5F5F5F5F5F5F5F5F5F5F5F5F5F5F5F5F5F5F5F5F5F5F5F5F5F5F5F5F5F5F5F5F5F5F5F5F5F5F5F5F5F5F5F5F5F5F5F5F5F5F5F5F5F5F5F5F5F5F5F5F5F5F5F5F5F5F5F5F5F5F5F5F5F5
310
F5F5F5F5F5F5F5F5F5F5F5F5F5F5F5F5F5F5F5F5F5F5F5F5F5F5F5F5F5F5F5F5F5F5F5F5F5F5F5F5F5F5F5F5F5F5F5F5F5F5F5F5F5F5F5F5F5F5F5F5F5F5F5E2F5F5F5F5F5F5F5F5F5F5F5E2E2E2F5F5F5F5F5F5F5F5F5F5F5E2F5F5F5F5F5F5F5F5F5F5F5F5F5F5F5F5F5F5F5F5F5F5F5F5F5F5F5F5F5F5F5F5F5F5F5F5F5
310
F5F5F5F5F5F5F5F5F5F5F5F5F5F5F5F5F5F5F5F5F5F5F5F5F5F5F5F5F5F5F5F5F5F5F5F5F5F5F5F5F5F5F5F5F5F5F5F5F5F5F5F5F5F5F5F5F5F5F5F5F5F5F5F5F5F5F5F5F5F5F5F5F5F5F5F5F5F5F5F5F5F5F5F5F5F5F5F5F5F5F5F5F5F5F5F5F5F5F5F5F5F5F5F5F5F5F5F5F5F5F5F5F5F5F5F5E2F5F5F5F5F5F5F5F5F5F5
310
F5E2E2E2F5F5F5F5F5F5F5F5F5F5F5E2F5F5F5F5F5F5F5F5F5F5F5F5F5F5F5F5F5F5F5F5F5F5F5F5F5F5F5F5F5F5F5F5F5F5F5F5F5F5F5F5F5F5F5F5F5F5F5F5F5F5F5F5F5F5F5F5F5F5F5F5F5F5F5F5F5F5F5F5F5F5F5F5F5F5F5F5F5F5F5F5F5F5F5F5F5F5F5F5F5F5F5F5F5F5F5F5F5F5F5F5F5F5F5F5F5F5F5F5F5F5F5
310
F5F5F5F5F5F5F5F5F5F5F5F5F5F5F5F5F5F5F5F5F5F5F5F5F5F5F5F5F5F5F5F5F5F5F5F5F5F5F5F5F5F5E2F5F5F5F5F5F5F5F5F5F5F5E2E2E2F5F5F5F5F5F5F5F5F5F5F5E2F5F5F5F5F5F5F5F5F5F5F5F5F5F5F5F5F5F5F5F5F5F5F5F5F5F5F5F5F5F5F5F5F5F5F5F5F5F5F5F5F5F5F5F5F5F5F5F5F5F5F5F5F5F5F5F5F5F5
310
F5F5F5F5F5F5F5F5F5F5F5F5F5F5F5F5F5F5F5F5F5F5F5F5F5F5F5F5F5F5F5F5F5F5F5F5F5F5F5F5F5F5F5F5F5F5F5F5F5F5F5F5F5F5F5F5F5F5F5F5F5F5F5F5F5F5F5F5F5F5F5F5F5F5F5F5F5F5F5F5F5F5F5F5F5F5F5F5F5F5F5F5F5F5F5E2F5F5F5F5F5F5F5F5F5F5F5E2E2E2F5F5F5F5F5F5F5F5F5F5F5E2F5F5F5F5F5
310
F5F5F5F5F5F5F5F5F5F5F5F5F5F5F5F5F5F5F5F5F5F5F5F5F5F5F5F5F5F5F5F5F5F5F5F5F5F5F5F5F5F5F5F5F5F5F5F5F5F5F5F5F5F5F5F5F5F5F5F5F5F5F5F5F5F5F5F5F5F5F5F5F5F5F5F5F5F5F5F5F5F5F5F5F5F5F5F5F5F5F5F5F5F5F5F5F5F5F5F5F5F5F5F5F5F5F5F5F5F5F5F5F5F5F5F5F5F5F5F5F5F5F5F5F5F5F5
310
F5F5F5F5F5F5F5F5F5F5F5F5F5F5F5F5F5F5F5F5F5E2F5F5F5F5F5F5F5F5F5F5F5E2E2E2F5F5F5F5F5F5F5F5F5F5F5E2F5F5F5F5F5F5F5F5F5F5F5F5F5F5F5F5F5F5F5F5F5F5F5F5F5F5F5F5F5F5F5F5F5F5F5F5F5F5F5F5F5F5F5F5F5F5F5F5F5F5F5F5F5F5F5F5F5F5F5F5F5F5F5F5F5F5F5F5F5F5F5F5F5F5F5F5F5F5F5
310
F5F5F5F5F5F5F5F5F5F5F5F5F5F5F5F5F5F5F5F5F5F5F5F5F5F5F5F5F5F5F5F5F5F5F5F5F5F5F5F5F5F5F5F5F5F5F5F5F5F5F5F5F5F5F5F5F5F5F5F5F5F5F5F5F5F5F5F5F5F5F5F5F5F5E2F5F5F5F5F5F5F5F5F5F5F5E2E2E2F5F5F5F5F5F5F5F5F5F5F5E2F5F5F5F5F5F5F5F5F5F5F5F5F5F5F5F5F5F5F5F5F5F5F5F5F5F5
310
F5F5F5F5F5F5F5F5F5F5F5F5F5F5F5F5F5F5F5F5F5F5F5F5F5F5F5F5F5F5F5F5F5F5F5F5F5F5F5F5F5F5F5F5F5F5F5F5F5F5F5F5F5F5F5F5F5F5F5F5F5F5F5F5F5F5F5F5F5F5F5F5F5F5F5F5F5F5F5F5F5F5F5F5F5F5F5F5F5F5F5F5F5F5F5F5F5F5F5F5F5F5F5F5F5F5F5F5F5F5F5F5F5F5F5F5F5F5F5F5F5F5F5F5F5F5F5
310
E2F5F5F5F5F5F5F5F5F5F5F5E2E2E2F5F5F5F5F5F5F5F5F5F5F5E2F5F5F5F5F5F5F5F5F5F5F5F5F5F5F5F5F5F5F5F5F5F5F5F5F5F5F5F5F5F5F5F5F5F5F5F5F5F5F5F5F5F5F5F5F5F5F5F5F5F5F5F5F5F5F5F5F5F5F5F5F5F5F5F5F5F5F5F5F5F5F5F5F5F5F5F5F5F5F5F5F5F5F5F5F5F5F5F5F5F5F5F5F5F5F5F5F5F5F5F5
310
F5F5F5F5F5F5F5F5F5F5F5F5F5F5F5F5F5F5F5F5F5F5F5F5F5F5F5F5F5F5F5F5F5F5F5F5F5F5F5F5F5F5F5F5F5F5F5F5F5F5F5F5F5E2F5F5F5F5F5F5F5F5F5F5F5E2E2E2F5F5F5F5F5F5F5F5F5F5F5E2F5F5F5F5F5F5F5F5F5F5F5F5F5F5F5F5F5F5F5F5F5F5F5F5F5F5F5F5F5F5F5F5F5F5F5F5F5F5F5F5F5F5F5F5F5F5F5
310
F5F5F5F5F5F5F5F5F5F5F5F5F5F5F5F5F5F5F5F5F5F5F5F5F5F5F5F5F5F5F5F5F5F5F5F5F5F5F5F5F5F5F5F5F5F5F5F5F5F5F5F5F5F5F5F5F5F5F5F5F5F5F5F5F5F5F5F5F5F5F5F5F5F5F5F5F5F5F5F5F5F5F5F5F5F5F5F5F5F5F5F5F5F5F5F5F5F5F5F5F5F5F5F5F5F5E2F5F5F5F5F5F5F5F5F5F5F5E2E2E2F5F5F5F5F5F5
310
F5F5F5F5F5E2F5F5F5F5F5F5F5F5F5F5F5F5F5F5F5F5F5F5F5F5F5F5F5F5F5F5F5F5F5F5F5F5F5F5F5F5F5F5F5F5F5F5F5F5F5F5F5F5F5F5F5F5F5F5F5F5F5F5F5F5F5F5F5F5F5F5F5F5F5F5F5F5F5F5F5F5F5F5F5F5F5F5F5F5F5F5F5F5F5F5F5F5F5F5F5F5F5F5F5F5F5F5F5F5F5F5F5F5F5F5F5F5F5F5F5F5F5F5F5F5F5
310
F5F5F5F5F5F5F5F5F5F5F5F5F5F5F5F5F5F5F5F5F5F5F5F5F5F5F5F5F5F5F5F5E2F5F5F5F5F5F5F5F5F5F5F5E2E2E2F5F5F5F5F5F5F5F5F5F5F5E2F5F5F5F5F5F5F5F5F5F5F5F5F5F5F5F5F5F5F5F5F5F5F5F5F5F5F5F5F5F5F5F5F5F5F5F5F5F5F5F5F5F5F5F5F5F5F5F5F5F5F5F5F5F5F5F5F5F5F5F5F5F5F5F5F5F5F5F5
310
F5F5F5F5F5F5F5F5F5F5F5F5F5F5F5F5F5F5F5F5F5F5F5F5F5F5F5F5F5F5F5F5F5F5F5F5F5F5F5F5F5F5F5F5F5F5F5F5F5F5F5F5F5F5F5F5F5F5F5F5F5F5F5F5F5F5F5F5F5F5F5F5F5F5F5F5F5F5F5F5F5F5F5F5F5E2F5F5F5F5F5F5F5F5F5F5F5E2E2E2F5F5F5F5F5F5F5F5F5F5F5E2F5F5F5F5F5F5F5F5F5F5F5F5F5F5F5
310
F5F5F5F5F5F5F5F5F5F5F5F5F5F5F5F5F5F5F5F5F5F5F5F5F5F5F5F5F5F5F5F5F5F5F5F5F5F5F5F5F5F5F5F5F5F5F5F5F5F5F5F5F5F5F5F5F5F5F5F5F5F5F5F5F5F5F5F5F5F5F5F5F5F5F5F5F5F5F5F5F5F5F5F5F5F5F5F5F5F5F5F5F5F5F5F5F5F5F5F5F5F5F5F5F5F5F5F5F5F5F5F5F5F5F5F5F5F5F5F5F5F5F5F5F5F5F5
310
F5F5F5F5F5F5F5F5F5F5F5E2F5F5F5F5F5F5F5F5F5F5F5E2E2E2F5F5F5F5F5F5F5F5F5F5F5E2F5F5F5F5F5F5F5F5F5F5F5F5F5F5F5F5F5F5F5F5F5F5F5F5F5F5F5F5F5F5F5F5F5F5F5F5F5F5F5F5F5F5F5F5F5F5F5F5F5F5F5F5F5F5F5F5F5F5F5F5F5F5F5F5F5F5F5F5F5F5F5F5F5F5F5F5F5F5F5F5F5F5F5F5F5F5F5F5F5
310
F5F5F5F5F5F5F5F5F5F5F5F5F5F5F5F5F5F5F5F5F5F5F5F5F5F5F5F5F5F5F5F5F5F5F5F5F5F5F5F5F5F5F5F5F5F5F5F5F5F5F5F5F5F5F5F5F5F5F5F5F5F5F5F5E2F5F5F5F5F5F5F5F5F5F5F5E2E2E2F5F5F5F5F5F5F5F5F5F5F5F5F5F5F5F5F5F5F5F5F5F5F5F5F5F5F5F5F5F5F5F5F5F5F5F5F5F5F5F5F5F5F5F5F5F5F5F5
310
F5F5F5F5F5F5F5F5F5F5F5F5F5F5F5F5F5F5F5F5F5F5F5F5F5F5F5F5F5F5F5F5F5F5F5F5F5F5F5F5F5F5F5F5F5F5F5F5F5F5F5F5F5F5F5F5F5F5F5F5F5F5F5F5F5F5F5F5F5F5F5F5F5F5F5F5F5F5F5F5F5F5F5F5F5F5F5F5F5F5F5F5F5F5F5F5F5F5F5F5F5F5F5F5F5F5F5F5F5F5F5F5F5F5F5F5F5F5F5F5F5F5F5F5F5F5F5
310
F5F5E2E2E2F5F5F5F5F5F5F5F5F5F5F5F5F5F5F5F5F5F5F5F5F5F5F5F5F5F5F5F5F5F5F5F5F5F5F5F5F5F5F5F5F5F5F5F5F5F5F5F5F5F5F5F5F5F5F5F5F5F5F5F5F5F5F5F5F5F5F5F5F5F5F5F5F5F5F5F5F5F5F5F5F5F5F5F5F5F5F5F5F5F5F5F5F5F5F5F5F5F5F5F5F5F5F5F5F5F5F5F5F5F5F5F5F5F5F5F5F5F5F5F5F5F5
310
F5F5F5F5F5F5F5F5F5F5F5F5F5F5F5F5F5F5F5F5F5F5F5F5F5F5F5F5F5F5F5F5F5F5F5F5F5F5F5F5F5F5F5F5F5F5F5F5F5F5F5F5F5F5F5E2E2E2F5F5F5F5F5F5F5F5F5F5F5F5F5F5F5F5F5F5F5F5F5F5F5F5F5F5F5F5F5F5F5F5F5F5F5F5F5F5F5F5F5F5F5F5F5F5F5F5F5F5F5F5F5F5F5F5F5F5F5F5F5F5F5F5F5F5F5F5F5
310
F5F5F5F5F5F5F5F5F5F5F5F5F5F5F5F5F5F5F5F5F5F5F5F5F5F5F5F5F5F5F5F5F5F5F5F5F5F5F5F5F5F5F5F5F5F5F5F5F5F5F5F5F5F5F5F5F5F5F5F5F5F5F5F5F5F5F5F5F5F5F5F5F5F5F5F5F5F5F5F5F5F5F5F5F5F5F5F5F5F5F5F5F5F5F5F5F5F5F5F5F5F5F5F5F5F5F5F5E2E2E2F5F5F5F5F5F5F5F5F5F5F5F5F5F5F5F5
310
F5F5F5F5F5F5F5F5F5F5F5F5F5F5F5F5F5F5F5F5F5F5F5F5F5F5F5F5F5F5F5F5F5F5F5F5F5F5F5F5F5F5F5F5F5F5F5F5F5F5F5F5F5F5F5F5F5F5F5F5F5F5F5F5F5F5F5F5F5F5F5F5F5F5F5F5F5F5F5F5F5F5F5F5F5F5F5F5F5F5F5F5F5F5F5F5F5F5F5F5F5F5F5F5F5F5F5F5F5F5F5F5F5F5F5F5F5F5F5F5F5F5F5F5F5F5F5
310
F5F5F5F5F5F5F5F5F5F5F5F5F5F5F5F5F5F5F5F5F5F5F5F5F5F5F5F5F5F5F5F5F5F5E2E2E2F5F5F5F5F5F5F5F5F5F5F5F5F5F5F5F5F5F5F5F5F5F5F5F5F5F5F5F5F5F5F5F5F5F5F5F5F5F5F5F5F5F5F5F5F5F5F5F5F5F5F5F5F5F5F5F5F5F5F5F5F5F5F5F5F5F5F5F5F5F5F5F5F5F5F5F5F5F5F5F5F5F5F5F5F5F5F5F5F5F5
310
F5F5F5F5F5F5F5F5F5F5F5F5F5F5F5F5F5F5F5F5F5F5F5F5F5F5F5F5F5F5F5F5F5F5F5F5F5F5F5F5F5F5F5F5F5F5F5F5F5F5F5F5F5F5F5F5F5F5F5F5F5F5F5F5F5F5F5F5F5F5F5F5F5F5F5F5F5F5F5F5F5F5F5F5F5F5F5E2E2E2F5F5F5F5F5F5F5F5F5F5F5F5F5F5F5F5F5F5F5F5F5F5F5F5F5F5F5F5F5F5F5F5F5F5F5F5F5
310
F5F5F5F5F5F5F5F5F5F5F5F5F5F5F5F5F5F5F5F5F5F5F5F5F5F5F5F5F5F5F5F5F5F5F5F5F5F5F5F5F5F5F5F5F5F5F5F5F5F5F5F5F5F5F5F5F5F5F5F5F5F5F5F5F5F5F5F5F5F5F5F5F5F5F5F5F5F5F5F5F5F5F5F5F5F5F5F5F5F5F5F5F5F5F5F5F5F5F5F5F5F5F5F5F5F5F5F5F5F5F5F5F5F5F5F5F5F5F5F5F5F5F5F5F5F5F5
310
F5F5F5F5F5F5F5F5F5F5F5F5F5E2E2E2F5F5F5F5F5F5F5F5F5F5F5F5F5F5F5F5F5F5F5F5F5F5F5F5F5F5F5F5F5F5F5F5F5F5F5F5F5F5F5F5F5F5F5F5F5F5F5F5F5F5F5F5F5F5F5F5F5F5F5F5F5F5F5F5F5F5F5F5F5F5F5F5F5F5F5F5F5F5F5F5F5F5F5F5F5F5F5F5F5F5F5F5F5F5F5F5F5F5F5F5F5F5F5F5F5F5F5F5F5F5F5
310
F5F5F5F5F5F5F5F5F5F5F5F5F5F5F5F5F5F5F5F5F5F5F5F5F5F5F5F5F5F5F5F5F5F5F5F5F5F5F5F5F5F5F5F5F5F5F5F5F5F5F5F5F5F5F5F5F5F5F5F5F5F5F5F5F5F5E2E2E2F5F5F5F5F5F5F5F5F5F5F5F5F5F5F5F5F5F5F5F5F5F5F5F5F5F5F5F5F5F5F5F5F5F5F5F5F5F5F5F5F5F5F5F5F5F5F5F5F5F5F5F5F5F5F5F5F5F5
310
F5F5F5F5F5F5F5F5F5F5F5F5F5F5F5F5F5F5F5F5F5F5F5F5F5F5F5F5F5F5F5F5F5F5F5F5F5F5F5F5F5F5F5F5F5F5F5F5F5F5F5F5F5F5F5F5F5F5F5F5F5F5F5F5F5F5F5F5F5F5F5F5F5F5F5F5F5F5F5F5F5F5F5F5F5F5F5F5F5F5F5F5F5F5F5F5F5F5F5F5F5F5F5F5F5F5F5F5F5F5F5F5F5F5F5F5F5F5F5E2E2E2F5F5F5F5F5
310
F5F5F5F5F5F5E2F5F5F5F5F5F5F5F5F5F5F5F5F5F5F5F5F5F5F5F5F5F5F5F5F5F5F5F5F5F5F5F5F5F5F5F5F5F5F5F5F5F5F5F5F5F5F5F5F5F5F5F5F5F5F5F5F5F5F5F5F5F5F5F5F5F5F5F5F5F5F5F5F5F5F5F5F5F5F5F5F5F5F5F5F5F5F5F5F5F5F5F5F5F5F5F5F5F5F5F5F5F5F5F5F5F5F5F5F5F5F5F5F5F5F5F5F5F5F5F5
310
F5F5F5F5F5F5F5F5F5F5F5F5F5F5F5F5F5F5F5F5F5F5F5F5F5F5F5F5F5F5F5F5F5E2F5F5F5F5F5F5F5F5F5F5F5E2E2E2F5F5F5F5F5F5F5F5F5F5F5E2F5F5F5F5F5F5F5F5F5F5F5F5F5F5F5F5F5F5F5F5F5F5F5F5F5F5F5F5F5F5F5F5F5F5F5F5F5F5F5F5F5F5F5F5F5F5F5F5F5F5F5F5F5F5F5F5F5F5F5F5F5F5F5F5F5F5F5
310
F5F5F5F5F5F5F5F5F5F5F5F5F5F5F5F5F5F5F5F5F5F5F5F5F5F5F5F5F5F5F5F5F5F5F5F5F5F5F5F5F5F5F5F5F5F5F5F5F5F5F5F5F5F5F5F5F5F5F5F5F5F5F5F5F5F5F5F5F5F5F5F5F5F5F5F5F5F5F5F5F5F5F5F5F5F5E2F5F5F5F5F5F5F5F5F5F5F5E2E2E2F5F5F5F5F5F5F5F5F5F5F5E2F5F5F5F5F5F5F5F5F5F5F5F5F5F5
310
F5F5F5F5F5F5F5F5F5F5F5F5F5F5F5F5F5F5F5F5F5F5F5F5F5F5F5F5F5F5F5F5F5F5F5F5F5F5F5F5F5F5F5F5F5F5F5F5F5F5F5F5F5F5F5F5F5F5F5F5F5F5F5F5F5F5F5F5F5F5F5F5F5F5F5F5F5F5F5F5F5F5F5F5F5F5F5F5F5F5F5F5F5F5F5F5F5F5F5F5F5F5F5F5F5F5F5F5F5F5F5F5F5F5F5F5F5F5F5F5F5F5F5F5F5F5F5
310
F5F5F5F5F5F5F5F5F5F5F5F5E2F5F5F5F5F5F5F5F5F5F5F5E2E2E2F5F5F5F5F5F5F5F5F5F5F5E2F5F5F5F5F5F5F5F5F5F5F5F5F5F5F5F5F5F5F5F5F5F5F5F5F5F5F5F5F5F5F5F5F5F5F5F5F5F5F5F5F5F5F5F5F5F5F5F5F5F5F5F5F5F5F5F5F5F5F5F5F5F5F5F5F5F5F5F5F5F5F5F5F5F5F5F5F5F5F5F5F5F5F5F5F5F5F5F5
310
F5F5F5F5F5F5F5F5F5F5F5F5F5F5F5F5F5F5F5F5F5F5F5F5F5F5F5F5F5F5F5F5F5F5F5F5F5F5F5F5F5F5F5F5F5F5F5F5F5F5F5F5F5F5F5F5F5F5F5F5F5F5F5F5F5E2F5F5F5F5F5F5F5F5F5F5F5E2E2E2F5F5F5F5F5F5F5F5F5F5F5E2F5F5F5F5F5F5F5F5F5F5F5F5F5F5F5F5F5F5F5F5F5F5F5F5F5F5F5F5F5F5F5F5F5F5F5
310
F5F5F5F5F5F5F5F5F5F5F5F5F5F5F5F5F5F5F5F5F5F5F5F5F5F5F5F5F5F5F5F5F5F5F5F5F5F5F5F5F5F5F5F5F5F5F5F5F5F5F5F5F5F5F5F5F5F5F5F5F5F5F5F5F5F5F5F5F5F5F5F5F5F5F5F5F5F5F5F5F5F5F5F5F5F5F5F5F5F5F5F5F5F5F5F5F5F5F5F5F5F5F5F5F5F5F5F5F5F5F5F5F5F5F5F5F5F5E2F5F5F5F5F5F5F5F5
310
F5F5F5E2E2E2F5F5F5F5F5F5F5F5F5F5F5E2F5F5F5F5F5F5F5F5F5F5F5F5F5F5F5F5F5F5F5F5F5F5F5F5F5F5F5F5F5F5F5F5F5F5F5F5F5F5F5F5F5F5F5F5F5F5F5F5F5F5F5F5F5F5F5F5F5F5F5F5F5F5F5F5F5F5F5F5F5F5F5F5F5F5F5F5F5F5F5F5F5F5F5F5F5F5F5F5F5F5F5F5F5F5F5F5F5F5F5F5F5F5F5F5F5F5F5F5F5
310
F5F5F5F5F5F5F5F5F5F5F5F5F5F5F5F5F5F5F5F5F5F5F5F5F5F5F5F5F5F5F5F5F5F5F5F5F5F5F5F5F5F5F5F5E2F5F5F5F5F5F5F5F5F5F5F5E2E2E2F5F5F5F5F5F5F5F5F5F5F5E2F5F5F5F5F5F5F5F5F5F5F5F5F5F5F5F5F5F5F5F5F5F5F5F5F5F5F5F5F5F5F5F5F5F5F5F5F5F5F5F5F5F5F5F5F5F5F5F5F5F5F5F5F5F5F5F5
310
F5F5F5F5F5F5F5F5F5F5F5F5F5F5F5F5F5F5F5F5F5F5F5F5F5F5F5F5F5F5F5F5F5F5F5F5F5F5F5F5F5F5F5F5F5F5F5F5F5F5F5F5F5F5F5F5F5F5F5F5F5F5F5F5F5F5F5F5F5F5F5F5F5F5F5F5F5F5F5F5F5F5F5F5F5F5F5F5F5F5F5F5F5F5F5F5F5E2F5F5F5F5F5F5F5F5F5F5F5E2E2E2F5F5F5F5F5F5F5F5F5F5F5E2E2E2E2
310
E2E2E2E2E2F5F5F5F5F5F5F5F5F5E2E2E2E2E2E2E2E2E2E2E2E2E2E2E2E2F5F5F5F5F5F5F5F5F5F5E2E2E2E2E2E2E2E2E2E2E2E2E2E2E2E2F5F5F5F5F5F5F5F5F5E2E2E2E2E2E2E2E2E2E2E2E2E2E2E2E2E2F5F5F5F5F5F5F5F5F5E2E2E2E2E2E2E2E2E2E2E2E2E2E2E2E2F5F5F5F5F5F5F5F5F5F5E2E2E2E2E2E2E2E2E2E2
310
E2E2E2E2E2E2F5F5F5F5F5F5F5F5F5E2E2E2E2E2E2E2E2E2F5F5F5F5F5F5F5F5F5F5F5E2E2E2F5F5F5F5F5F5F5F5F5F5F5F5F5F5F5F5F5F5F5F5F5F5F5F5F5F5F5F5F5F5F5F5F5F5F5F5F5F5F5F5F5F5F5F5F5F5F5F5F5F5F5F5F5F5F5F5F5F5F5F5F5F5F5F5F5F5F5F5F5F5F5F5F5F5F5F5F5F5F5F5F5F5F5F5F5F5F5F5F5
310
F5F5F5F5F5F5F5F5F5F5F5F5F5F5F5F5F5F5F5F5F5F5F5F5F5F5F5F5F5F5F5F5F5F5F5F5F5F5F5F5F5F5F5F5F5F5F5F5F5F5F5F5F5F5F5F5F5F5F5F5F5F5F5F5F5F5F5F5F5F5F5F5F5F5F5F5F5F5F5F5F5F5F5F5F5F5F5F5E2E2E2F5F5F5F5F5F5F5F5F5F5F5F5F5F5F5F5F5F5F5F5F5F5F5F5F5F5F5F5F5F5F5F5F5F5F5F5
310
F5F5F5F5F5F5F5F5F5F5F5F5F5F5F5F5F5F5F5F5F5F5F5F5F5F5F5F5F5F5F5F5F5F5F5F5F5F5F5F5F5F5F5F5F5F5F5F5F5F5F5F5F5F5F5F5F5F5F5F5F5F5F5F5F5F5F5F5F5F5F5F5F5F5F5F5F5F5F5F5F5F5F5F5F5F5F5F5F5F5F5F5F5F5F5F5F5F5F5F5F5F5F5F5F5F5F5F5F5F5F5F5F5F5F5F5F5F5F5F5F5F5F5F5F5F5F5
310
F5F5F5F5F5F5F5F5F5F5F5F5F5F5E2E2E2F5F5F5F5F5F5F5F5F5F5F5F5F5F5F5F5F5F5F5F5F5F5F5F5F5F5F5F5F5F5F5F5F5F5F5F5F5F5F5F5F5F5F5F5F5F5F5F5F5F5F5F5F5F5F5F5F5F5F5F5F5F5F5F5F5F5F5F5F5F5F5F5F5F5F5F5F5F5F5F5F5F5F5F5F5F5F5F5F5F5F5F5F5F5F5F5F5F5F5F5F5F5F5F5F5F5F5F5F5F5
310
F5F5F5F5F5F5F5F5F5F5F5F5F5F5F5F5F5F5F5F5F5F5F5F5F5F5F5F5F5F5F5F5F5F5F5F5F5F5F5F5F5F5F5F5F5F5F5F5F5F5F5F5F5F5F5F5F5F5F5F5F5F5F5F5F5F5F5E2E2E2F5F5F5F5F5F5F5F5F5F5F5F5F5F5F5F5F5F5F5F5F5F5F5F5F5F5F5F5F5F5F5F5F5F5F5F5F5F5F5F5F5F5F5F5F5F5F5F5F5F5F5F5F5F5F5F5F5
310
F5F5F5F5F5F5F5F5F5F5F5F5F5F5F5F5F5F5F5F5F5F5F5F5F5F5F5F5F5F5F5F5F5F5F5F5F5F5F5F5F5F5F5F5F5F5F5F5F5F5F5F5F5F5F5F5F5F5F5F5F5F5F5F5F5F5F5F5F5F5F5F5F5F5F5F5F5F5F5F5F5F5F5F5F5F5F5F5F5F5F5F5F5F5F5F5F5F5F5F5F5F5F5F5F5F5F5F5F5F5F5F5F5F5F5F5F5F5F5F5E2EFE2E2E2E2E2
310
E2E2E2E2E2E2E2E2E2E2E2E2E2E2E2E2E2E2E2E2E2E2E2E2E2E2E2E2E2E2E2E2E2E2E2E2E2E2E2E2E2E2E2E2E2E2E2E2E2E2E2E2E2E2E2E2E2E2E2E2E2E2E2E2E2E2E2E2E2E2E2E2E2E2E2E2E2E2E2E2E2E2E2E2E2E2E2E2E2E2E2E2E2E2E2E2E2E2E2E2E2E2E2E2E2E2E2E2E2E2E2E2E2E2E2E2E2E2E2E2E2E2E2E2E2E2E2
310
E2E2E2E2E2E2E2E2E2E2E2E2E2E2E2E2E2E2E2E2E2E2E2E2E2E2E2E2E2E2E2E2E2E2E2E2E2E2E2E2E2E2E2E2E2E2E2EF
  0
XRECORD
  5
1C1F
102
{ACAD_REACTORS
330
1C1E
102
}
330
1C1E
100
AcDbXrecord
280
     1
102
SHADEPLOT
 70
     0
102
SHADEPLOTRESLEVEL
 70
     2
102
SHADEPLOTCUSTOMDPI
 70
   300
  0
XRECORD
  5
1C25
102
{ACAD_REACTORS
330
1BD1
102
}
330
1BD1
100
AcDbXrecord
280
     1
102
MATERIAL
148
0.0
149
0.0
149
0.0
 93
        0
 94
      127
282
     0
 72
     0
 77
     0
171
     0
175
     0
179
     0
273
     0
  0
XRECORD
  5
1BD3
102
{ACAD_REACTORS
330
1BD1
102
}
330
1BD1
100
AcDbXrecord
280
     1
270
     1
271
     1
  0
XRECORD
  5
1BD2
102
{ACAD_REACTORS
330
1BD1
102
}
330
1BD1
100
AcDbXrecord
280
     1
270
     1
271
     1
  0
XRECORD
  5
1BD6
102
{ACAD_REACTORS
330
1BD1
102
}
330
1BD1
100
AcDbXrecord
280
     1
270
     1
271
     1
  0
XRECORD
  5
1BD5
102
{ACAD_REACTORS
330
1BD1
102
}
330
1BD1
100
AcDbXrecord
280
     1
270
     1
271
     1
  0
XRECORD
  5
1BD7
102
{ACAD_REACTORS
330
1BD1
102
}
330
1BD1
100
AcDbXrecord
280
     1
270
     1
271
     1
  0
XRECORD
  5
1BD4
102
{ACAD_REACTORS
330
1BD1
102
}
330
1BD1
100
AcDbXrecord
280
     1
270
     1
271
     1
  0
XRECORD
  5
1C24
102
{ACAD_REACTORS
330
1BC9
102
}
330
1BC9
100
AcDbXrecord
280
     1
102
MATERIAL
148
0.0
149
0.0
149
0.0
 93
        0
 94
      127
282
     0
 72
     0
 77
     0
171
     0
175
     0
179
     0
273
     0
  0
XRECORD
  5
1BCB
102
{ACAD_REACTORS
330
1BC9
102
}
330
1BC9
100
AcDbXrecord
280
     1
270
     1
271
     1
  0
XRECORD
  5
1BCA
102
{ACAD_REACTORS
330
1BC9
102
}
330
1BC9
100
AcDbXrecord
280
     1
270
     1
271
     1
  0
XRECORD
  5
1BCE
102
{ACAD_REACTORS
330
1BC9
102
}
330
1BC9
100
AcDbXrecord
280
     1
270
     1
271
     1
  0
XRECORD
  5
1BCD
102
{ACAD_REACTORS
330
1BC9
102
}
330
1BC9
100
AcDbXrecord
280
     1
270
     1
271
     1
  0
XRECORD
  5
1BCF
102
{ACAD_REACTORS
330
1BC9
102
}
330
1BC9
100
AcDbXrecord
280
     1
270
     1
271
     1
  0
XRECORD
  5
1BCC
102
{ACAD_REACTORS
330
1BC9
102
}
330
1BC9
100
AcDbXrecord
280
     1
270
     1
271
     1
  0
XRECORD
  5
1C26
102
{ACAD_REACTORS
330
1BD9
102
}
330
1BD9
100
AcDbXrecord
280
     1
102
MATERIAL
148
0.0
149
0.0
149
0.0
 93
        0
 94
      127
282
     0
 72
     0
 77
     0
171
     0
175
     0
179
     0
273
     0
  0
XRECORD
  5
1BDB
102
{ACAD_REACTORS
330
1BD9
102
}
330
1BD9
100
AcDbXrecord
280
     1
270
     1
271
     1
  0
XRECORD
  5
1BDA
102
{ACAD_REACTORS
330
1BD9
102
}
330
1BD9
100
AcDbXrecord
280
     1
270
     1
271
     1
  0
XRECORD
  5
1BDE
102
{ACAD_REACTORS
330
1BD9
102
}
330
1BD9
100
AcDbXrecord
280
     1
270
     1
271
     1
  0
XRECORD
  5
1BDD
102
{ACAD_REACTORS
330
1BD9
102
}
330
1BD9
100
AcDbXrecord
280
     1
270
     1
271
     1
  0
XRECORD
  5
1BDF
102
{ACAD_REACTORS
330
1BD9
102
}
330
1BD9
100
AcDbXrecord
280
     1
270
     1
271
     1
  0
XRECORD
  5
1BDC
102
{ACAD_REACTORS
330
1BD9
102
}
330
1BD9
100
AcDbXrecord
280
     1
270
     1
271
     1
  0
XRECORD
  5
1C19
102
{ACAD_REACTORS
330
1C18
102
}
330
1C18
100
AcDbXrecord
280
     1
102
ACAD_ROUNDTRIP_2012_MLEADER_STYLE
298
     1
  0
CELLSTYLEMAP
  5
1C17
102
{ACAD_REACTORS
330
1C16
102
}
330
1C16
100
AcDbCellStyleMap
 90
        3
300
CELLSTYLE
  1
TABLEFORMAT_BEGIN
 90
        5
170
     1
 91
        0
 92
    32768
 62
   257
 93
        1
300
CONTENTFORMAT
  1
CONTENTFORMAT_BEGIN
 90
        0
 91
        0
 92
        4
 93
        0
300

 40
0.0
140
1.0
 94
        5
 62
     0
340
11
144
0.25
309
CONTENTFORMAT_END
171
     0
 94
        6
 95
        1
302
GRIDFORMAT
  1
GRIDFORMAT_BEGIN
 90
        0
 91
        1
 62
     0
 92
       -2
340
0
 93
        0
 40
0.045
309
GRIDFORMAT_END
 95
        2
302
GRIDFORMAT
  1
GRIDFORMAT_BEGIN
 90
        0
 91
        1
 62
     0
 92
       -2
340
0
 93
        0
 40
0.045
309
GRIDFORMAT_END
 95
        4
302
GRIDFORMAT
  1
GRIDFORMAT_BEGIN
 90
        0
 91
        1
 62
     0
 92
       -2
340
0
 93
        0
 40
0.045
309
GRIDFORMAT_END
 95
        8
302
GRIDFORMAT
  1
GRIDFORMAT_BEGIN
 90
        0
 91
        1
 62
     0
 92
       -2
340
0
 93
        0
 40
0.045
309
GRIDFORMAT_END
 95
       16
302
GRIDFORMAT
  1
GRIDFORMAT_BEGIN
 90
        0
 91
        1
 62
     0
 92
       -2
340
0
 93
        0
 40
0.045
309
GRIDFORMAT_END
 95
       32
302
GRIDFORMAT
  1
GRIDFORMAT_BEGIN
 90
        0
 91
        1
 62
     0
 92
       -2
340
0
 93
        0
 40
0.045
309
GRIDFORMAT_END
309
TABLEFORMAT_END
  1
CELLSTYLE_BEGIN
 90
        1
 91
        1
300
_TITLE
309
CELLSTYLE_END
300
CELLSTYLE
  1
TABLEFORMAT_BEGIN
 90
        5
170
     1
 91
        0
 92
        0
 62
   257
 93
        1
300
CONTENTFORMAT
  1
CONTENTFORMAT_BEGIN
 90
        0
 91
        0
 92
        4
 93
        0
300

 40
0.0
140
1.0
 94
        5
 62
     0
340
11
144
0.18
309
CONTENTFORMAT_END
171
     0
 94
        6
 95
        1
302
GRIDFORMAT
  1
GRIDFORMAT_BEGIN
 90
        0
 91
        1
 62
     0
 92
       -2
340
0
 93
        0
 40
0.045
309
GRIDFORMAT_END
 95
        2
302
GRIDFORMAT
  1
GRIDFORMAT_BEGIN
 90
        0
 91
        1
 62
     0
 92
       -2
340
0
 93
        0
 40
0.045
309
GRIDFORMAT_END
 95
        4
302
GRIDFORMAT
  1
GRIDFORMAT_BEGIN
 90
        0
 91
        1
 62
     0
 92
       -2
340
0
 93
        0
 40
0.045
309
GRIDFORMAT_END
 95
        8
302
GRIDFORMAT
  1
GRIDFORMAT_BEGIN
 90
        0
 91
        1
 62
     0
 92
       -2
340
0
 93
        0
 40
0.045
309
GRIDFORMAT_END
 95
       16
302
GRIDFORMAT
  1
GRIDFORMAT_BEGIN
 90
        0
 91
        1
 62
     0
 92
       -2
340
0
 93
        0
 40
0.045
309
GRIDFORMAT_END
 95
       32
302
GRIDFORMAT
  1
GRIDFORMAT_BEGIN
 90
        0
 91
        1
 62
     0
 92
       -2
340
0
 93
        0
 40
0.045
309
GRIDFORMAT_END
309
TABLEFORMAT_END
  1
CELLSTYLE_BEGIN
 90
        2
 91
        1
300
_HEADER
309
CELLSTYLE_END
300
CELLSTYLE
  1
TABLEFORMAT_BEGIN
 90
        5
170
     1
 91
        0
 92
        0
 62
   257
 93
        1
300
CONTENTFORMAT
  1
CONTENTFORMAT_BEGIN
 90
        0
 91
        0
 92
        4
 93
        0
300

 40
0.0
140
1.0
 94
        2
 62
     0
340
11
144
0.18
309
CONTENTFORMAT_END
171
     0
 94
        6
 95
        1
302
GRIDFORMAT
  1
GRIDFORMAT_BEGIN
 90
        0
 91
        1
 62
     0
 92
       -2
340
0
 93
        0
 40
0.045
309
GRIDFORMAT_END
 95
        2
302
GRIDFORMAT
  1
GRIDFORMAT_BEGIN
 90
        0
 91
        1
 62
     0
 92
       -2
340
0
 93
        0
 40
0.045
309
GRIDFORMAT_END
 95
        4
302
GRIDFORMAT
  1
GRIDFORMAT_BEGIN
 90
        0
 91
        1
 62
     0
 92
       -2
340
0
 93
        0
 40
0.045
309
GRIDFORMAT_END
 95
        8
302
GRIDFORMAT
  1
GRIDFORMAT_BEGIN
 90
        0
 91
        1
 62
     0
 92
       -2
340
0
 93
        0
 40
0.045
309
GRIDFORMAT_END
 95
       16
302
GRIDFORMAT
  1
GRIDFORMAT_BEGIN
 90
        0
 91
        1
 62
     0
 92
       -2
340
0
 93
        0
 40
0.045
309
GRIDFORMAT_END
 95
       32
302
GRIDFORMAT
  1
GRIDFORMAT_BEGIN
 90
        0
 91
        1
 62
     0
 92
       -2
340
0
 93
        0
 40
0.045
309
GRIDFORMAT_END
309
TABLEFORMAT_END
  1
CELLSTYLE_BEGIN
 90
        3
 91
        2
300
_DATA
309
CELLSTYLE_END
  0
XRECORD
  5
1C21
102
{ACAD_REACTORS
330
1C16
102
}
330
1C16
100
AcDbXrecord
280
     1
102
ACAD_ROUNDTRIP_PRE2007_TABLESTYLE
 90
        4
 91
        0
  1

 92
        4
 93
        0
  2

 94
        4
 95
        0
  3

  0
XRECORD
  5
1C32
102
{ACAD_REACTORS
330
1C31
102
}
330
1C31
100
AcDbXrecord
280
     1
102
RTVSPropertyOp0
 70
     1
102
RTVSPropertyOp1
 70
     1
102
RTVSPropertyOp2
 70
     1
102
RTVSPropertyOp3
 70
     1
102
RTVSPropertyOp4
 70
     1
102
RTVSPropertyOp5
 70
     1
102
RTVSPropertyOp6
 70
     1
102
RTVSPropertyOp7
 70
     1
102
RTVSPropertyOp8
 70
     1
102
RTVSPropertyOp9
 70
     1
102
RTVSPropertyOp10
 70
     1
102
RTVSPropertyOp11
 70
     1
102
RTVSPropertyOp12
 70
     1
102
RTVSPropertyOp13
 70
     1
102
RTVSPropertyOp14
 70
     1
102
RTVSPropertyOp15
 70
     1
102
RTVSPropertyOp16
 70
     1
102
RTVSPropertyOp17
 70
     1
102
RTVSPropertyOp18
 70
     1
102
RTVSPropertyOp19
 70
     1
102
RTVSPropertyOp20
 70
     1
102
RTVSPropertyOp21
 70
     1
102
RTVSPropertyOp22
 70
     1
102
RTVSPropertyOp23
 70
     1
102
RTVSPropertyOp24
 70
     1
102
RTVSPropertyOp25
 70
     1
102
RTVSPropertyOp26
 70
     1
102
RTVSPropertyOp27
 70
     1
102
RTVSPropertyOp28
 70
     1
102
RTVSPropertyOp29
 70
     1
102
RTVSPropertyOp30
 70
     1
102
RTVSPropertyOp31
 70
     1
102
RTVSPropertyOp32
 70
     1
  0
XRECORD
  5
1C30
102
{ACAD_REACTORS
330
1C2F
102
}
330
1C2F
100
AcDbXrecord
280
     1
102
RTVSPropertyOp0
 70
     1
102
RTVSPropertyOp1
 70
     1
102
RTVSPropertyOp2
 70
     1
102
RTVSPropertyOp3
 70
     1
102
RTVSPropertyOp4
 70
     1
102
RTVSPropertyOp5
 70
     1
102
RTVSPropertyOp6
 70
     1
102
RTVSPropertyOp7
 70
     1
102
RTVSPropertyOp8
 70
     1
102
RTVSPropertyOp9
 70
     1
102
RTVSPropertyOp10
 70
     1
102
RTVSPropertyOp11
 70
     1
102
RTVSPropertyOp12
 70
     1
102
RTVSPropertyOp13
 70
     1
102
RTVSPropertyOp14
 70
     1
102
RTVSPropertyOp15
 70
     1
102
RTVSPropertyOp16
 70
     1
102
RTVSPropertyOp17
 70
     1
102
RTVSPropertyOp18
 70
     1
102
RTVSPropertyOp19
 70
     1
102
RTVSPropertyOp20
 70
     1
102
RTVSPropertyOp21
 70
     1
102
RTVSPropertyOp22
 70
     1
102
RTVSPropertyOp23
 70
     1
102
RTVSPropertyOp24
 70
     1
102
RTVSPropertyOp25
 70
     1
102
RTVSPropertyOp26
 70
     1
102
RTVSPropertyOp27
 70
     1
102
RTVSPropertyOp28
 70
     1
102
RTVSPropertyOp29
 70
     1
102
RTVSPropertyOp30
 70
     1
102
RTVSPropertyOp31
 70
     1
102
RTVSPropertyOp32
 70
     1
  0
XRECORD
  5
1C3E
102
{ACAD_REACTORS
330
1C3D
102
}
330
1C3D
100
AcDbXrecord
280
     1
102
RTVSPropertyOp0
 70
     1
102
RTVSPropertyOp1
 70
     1
102
RTVSPropertyOp2
 70
     1
102
RTVSPropertyOp3
 70
     1
102
RTVSPropertyOp4
 70
     1
102
RTVSPropertyOp5
 70
     1
102
RTVSPropertyOp6
 70
     1
102
RTVSPropertyOp7
 70
     1
102
RTVSPropertyOp8
 70
     1
102
RTVSPropertyOp9
 70
     1
102
RTVSPropertyOp10
 70
     1
102
RTVSPropertyOp11
 70
     1
102
RTVSPropertyOp12
 70
     1
102
RTVSPropertyOp13
 70
     1
102
RTVSPropertyOp14
 70
     1
102
RTVSPropertyOp15
 70
     1
102
RTVSPropertyOp16
 70
     1
102
RTVSPropertyOp17
 70
     1
102
RTVSPropertyOp18
 70
     1
102
RTVSPropertyOp19
 70
     1
102
RTVSPropertyOp20
 70
     1
102
RTVSPropertyOp21
 70
     1
102
RTVSPropertyOp22
 70
     1
102
RTVSPropertyOp23
 70
     1
102
RTVSPropertyOp24
 70
     1
102
RTVSPropertyOp25
 70
     1
102
RTVSPropertyOp26
 70
     1
102
RTVSPropertyOp27
 70
     1
102
RTVSPropertyOp28
 70
     1
102
RTVSPropertyOp29
 70
     1
102
RTVSPropertyOp30
 70
     1
102
RTVSPropertyOp31
 70
     1
102
RTVSPropertyOp32
 70
     1
  0
XRECORD
  5
1C46
102
{ACAD_REACTORS
330
1C45
102
}
330
1C45
100
AcDbXrecord
280
     1
102
RTVSPropertyOp0
 70
     1
102
RTVSPropertyOp1
 70
     1
102
RTVSPropertyOp2
 70
     1
102
RTVSPropertyOp3
 70
     1
102
RTVSPropertyOp4
 70
     1
102
RTVSPropertyOp5
 70
     1
102
RTVSPropertyOp6
 70
     1
102
RTVSPropertyOp7
 70
     1
102
RTVSPropertyOp8
 70
     1
102
RTVSPropertyOp9
 70
     1
102
RTVSPropertyOp10
 70
     1
102
RTVSPropertyOp11
 70
     1
102
RTVSPropertyOp12
 70
     1
102
RTVSPropertyOp13
 70
     1
102
RTVSPropertyOp14
 70
     1
102
RTVSPropertyOp15
 70
     1
102
RTVSPropertyOp16
 70
     1
102
RTVSPropertyOp17
 70
     1
102
RTVSPropertyOp18
 70
     1
102
RTVSPropertyOp19
 70
     1
102
RTVSPropertyOp20
 70
     1
102
RTVSPropertyOp21
 70
     1
102
RTVSPropertyOp22
 70
     1
102
RTVSPropertyOp23
 70
     1
102
RTVSPropertyOp24
 70
     1
102
RTVSPropertyOp25
 70
     1
102
RTVSPropertyOp26
 70
     1
102
RTVSPropertyOp27
 70
     1
102
RTVSPropertyOp28
 70
     1
102
RTVSPropertyOp29
 70
     1
102
RTVSPropertyOp30
 70
     1
102
RTVSPropertyOp31
 70
     1
102
RTVSPropertyOp32
 70
     1
  0
XRECORD
  5
1C38
102
{ACAD_REACTORS
330
1C37
102
}
330
1C37
100
AcDbXrecord
280
     1
102
RTVSPropertyOp0
 70
     1
102
RTVSPropertyOp1
 70
     1
102
RTVSPropertyOp2
 70
     1
102
RTVSPropertyOp3
 70
     1
102
RTVSPropertyOp4
 70
     1
102
RTVSPropertyOp5
 70
     1
102
RTVSPropertyOp6
 70
     1
102
RTVSPropertyOp7
 70
     1
102
RTVSPropertyOp8
 70
     1
102
RTVSPropertyOp9
 70
     1
102
RTVSPropertyOp10
 70
     1
102
RTVSPropertyOp11
 70
     1
102
RTVSPropertyOp12
 70
     1
102
RTVSPropertyOp13
 70
     1
102
RTVSPropertyOp14
 70
     1
102
RTVSPropertyOp15
 70
     1
102
RTVSPropertyOp16
 70
     1
102
RTVSPropertyOp17
 70
     1
102
RTVSPropertyOp18
 70
     1
102
RTVSPropertyOp19
 70
     1
102
RTVSPropertyOp20
 70
     1
102
RTVSPropertyOp21
 70
     1
102
RTVSPropertyOp22
 70
     1
102
RTVSPropertyOp23
 70
     1
102
RTVSPropertyOp24
 70
     1
102
RTVSPropertyOp25
 70
     1
102
RTVSPropertyOp26
 70
     1
102
RTVSPropertyOp27
 70
     1
102
RTVSPropertyOp28
 70
     1
102
RTVSPropertyOp29
 70
     1
102
RTVSPropertyOp30
 70
     1
102
RTVSPropertyOp31
 70
     1
102
RTVSPropertyOp32
 70
     1
  0
XRECORD
  5
1C3C
102
{ACAD_REACTORS
330
1C3B
102
}
330
1C3B
100
AcDbXrecord
280
     1
102
RTVSPropertyOp0
 70
     1
102
RTVSPropertyOp1
 70
     1
102
RTVSPropertyOp2
 70
     1
102
RTVSPropertyOp3
 70
     1
102
RTVSPropertyOp4
 70
     1
102
RTVSPropertyOp5
 70
     1
102
RTVSPropertyOp6
 70
     1
102
RTVSPropertyOp7
 70
     1
102
RTVSPropertyOp8
 70
     1
102
RTVSPropertyOp9
 70
     1
102
RTVSPropertyOp10
 70
     1
102
RTVSPropertyOp11
 70
     1
102
RTVSPropertyOp12
 70
     1
102
RTVSPropertyOp13
 70
     1
102
RTVSPropertyOp14
 70
     1
102
RTVSPropertyOp15
 70
     1
102
RTVSPropertyOp16
 70
     1
102
RTVSPropertyOp17
 70
     1
102
RTVSPropertyOp18
 70
     1
102
RTVSPropertyOp19
 70
     1
102
RTVSPropertyOp20
 70
     1
102
RTVSPropertyOp21
 70
     1
102
RTVSPropertyOp22
 70
     1
102
RTVSPropertyOp23
 70
     1
102
RTVSPropertyOp24
 70
     1
102
RTVSPropertyOp25
 70
     1
102
RTVSPropertyOp26
 70
     1
102
RTVSPropertyOp27
 70
     1
102
RTVSPropertyOp28
 70
     1
102
RTVSPropertyOp29
 70
     1
102
RTVSPropertyOp30
 70
     1
102
RTVSPropertyOp31
 70
     1
102
RTVSPropertyOp32
 70
     1
  0
XRECORD
  5
1C56
102
{ACAD_REACTORS
330
1C55
102
}
330
1C55
100
AcDbXrecord
280
     1
102
RTVSPropertyOp0
 70
     0
102
RTVSPropertyOp1
 70
     0
102
RTVSPropertyOp2
 70
     0
102
RTVSPropertyOp3
 70
     0
102
RTVSPropertyOp4
 70
     0
102
RTVSPropertyOp5
 70
     0
102
RTVSPropertyOp6
 70
     0
102
RTVSPropertyOp7
 70
     0
102
RTVSPropertyOp8
 70
     0
102
RTVSPropertyOp9
 70
     0
102
RTVSPropertyOp10
 70
     0
102
RTVSPropertyOp11
 70
     0
102
RTVSPropertyOp12
 70
     0
102
RTVSPropertyOp13
 70
     0
102
RTVSPropertyOp14
 70
     2
102
RTVSPropertyOp15
 70
     0
102
RTVSPropertyOp16
 70
     0
102
RTVSPropertyOp17
 70
     0
102
RTVSPropertyOp18
 70
     0
102
RTVSPropertyOp19
 70
     0
102
RTVSPropertyOp20
 70
     0
102
RTVSPropertyOp21
 70
     0
102
RTVSPropertyOp22
 70
     0
102
RTVSPropertyOp23
 70
     0
102
RTVSPropertyOp24
 70
     0
102
RTVSPropertyOp25
 70
     0
102
RTVSPropertyOp26
 70
     0
102
RTVSPropertyOp27
 70
     0
102
RTVSPropertyOp28
 70
     0
102
RTVSPropertyOp29
 70
     0
102
RTVSPropertyOp30
 70
     0
102
RTVSPropertyOp31
 70
     0
102
RTVSPropertyOp32
 70
     0
  0
XRECORD
  5
1C44
102
{ACAD_REACTORS
330
1C43
102
}
330
1C43
100
AcDbXrecord
280
     1
102
RTVSPropertyOp0
 70
     1
102
RTVSPropertyOp1
 70
     1
102
RTVSPropertyOp2
 70
     1
102
RTVSPropertyOp3
 70
     1
102
RTVSPropertyOp4
 70
     1
102
RTVSPropertyOp5
 70
     1
102
RTVSPropertyOp6
 70
     1
102
RTVSPropertyOp7
 70
     1
102
RTVSPropertyOp8
 70
     1
102
RTVSPropertyOp9
 70
     1
102
RTVSPropertyOp10
 70
     1
102
RTVSPropertyOp11
 70
     1
102
RTVSPropertyOp12
 70
     1
102
RTVSPropertyOp13
 70
     1
102
RTVSPropertyOp14
 70
     1
102
RTVSPropertyOp15
 70
     1
102
RTVSPropertyOp16
 70
     1
102
RTVSPropertyOp17
 70
     1
102
RTVSPropertyOp18
 70
     1
102
RTVSPropertyOp19
 70
     1
102
RTVSPropertyOp20
 70
     1
102
RTVSPropertyOp21
 70
     1
102
RTVSPropertyOp22
 70
     1
102
RTVSPropertyOp23
 70
     1
102
RTVSPropertyOp24
 70
     1
102
RTVSPropertyOp25
 70
     1
102
RTVSPropertyOp26
 70
     1
102
RTVSPropertyOp27
 70
     1
102
RTVSPropertyOp28
 70
     1
102
RTVSPropertyOp29
 70
     1
102
RTVSPropertyOp30
 70
     1
102
RTVSPropertyOp31
 70
     1
102
RTVSPropertyOp32
 70
     1
  0
XRECORD
  5
1C28
102
{ACAD_REACTORS
330
1C27
102
}
330
1C27
100
AcDbXrecord
280
     1
102
RTVSPropertyOp0
 70
     1
102
RTVSPropertyOp1
 70
     1
102
RTVSPropertyOp2
 70
     1
102
RTVSPropertyOp3
 70
     1
102
RTVSPropertyOp4
 70
     1
102
RTVSPropertyOp5
 70
     1
102
RTVSPropertyOp6
 70
     1
102
RTVSPropertyOp7
 70
     1
102
RTVSPropertyOp8
 70
     1
102
RTVSPropertyOp9
 70
     1
102
RTVSPropertyOp10
 70
     1
102
RTVSPropertyOp11
 70
     1
102
RTVSPropertyOp12
 70
     1
102
RTVSPropertyOp13
 70
     1
102
RTVSPropertyOp14
 70
     1
102
RTVSPropertyOp15
 70
     1
102
RTVSPropertyOp16
 70
     1
102
RTVSPropertyOp17
 70
     1
102
RTVSPropertyOp18
 70
     1
102
RTVSPropertyOp19
 70
     1
102
RTVSPropertyOp20
 70
     1
102
RTVSPropertyOp21
 70
     1
102
RTVSPropertyOp22
 70
     1
102
RTVSPropertyOp23
 70
     1
102
RTVSPropertyOp24
 70
     1
102
RTVSPropertyOp25
 70
     1
102
RTVSPropertyOp26
 70
     1
102
RTVSPropertyOp27
 70
     1
102
RTVSPropertyOp28
 70
     1
102
RTVSPropertyOp29
 70
     1
102
RTVSPropertyOp30
 70
     1
102
RTVSPropertyOp31
 70
     1
102
RTVSPropertyOp32
 70
     1
  0
XRECORD
  5
1C2A
102
{ACAD_REACTORS
330
1C29
102
}
330
1C29
100
AcDbXrecord
280
     1
102
RTVSPropertyOp0
 70
     1
102
RTVSPropertyOp1
 70
     1
102
RTVSPropertyOp2
 70
     1
102
RTVSPropertyOp3
 70
     1
102
RTVSPropertyOp4
 70
     1
102
RTVSPropertyOp5
 70
     1
102
RTVSPropertyOp6
 70
     1
102
RTVSPropertyOp7
 70
     1
102
RTVSPropertyOp8
 70
     1
102
RTVSPropertyOp9
 70
     1
102
RTVSPropertyOp10
 70
     1
102
RTVSPropertyOp11
 70
     1
102
RTVSPropertyOp12
 70
     1
102
RTVSPropertyOp13
 70
     1
102
RTVSPropertyOp14
 70
     1
102
RTVSPropertyOp15
 70
     1
102
RTVSPropertyOp16
 70
     1
102
RTVSPropertyOp17
 70
     1
102
RTVSPropertyOp18
 70
     1
102
RTVSPropertyOp19
 70
     1
102
RTVSPropertyOp20
 70
     1
102
RTVSPropertyOp21
 70
     1
102
RTVSPropertyOp22
 70
     1
102
RTVSPropertyOp23
 70
     1
102
RTVSPropertyOp24
 70
     1
102
RTVSPropertyOp25
 70
     1
102
RTVSPropertyOp26
 70
     1
102
RTVSPropertyOp27
 70
     1
102
RTVSPropertyOp28
 70
     1
102
RTVSPropertyOp29
 70
     1
102
RTVSPropertyOp30
 70
     1
102
RTVSPropertyOp31
 70
     1
102
RTVSPropertyOp32
 70
     1
  0
XRECORD
  5
1C2C
102
{ACAD_REACTORS
330
1C2B
102
}
330
1C2B
100
AcDbXrecord
280
     1
102
RTVSPropertyOp0
 70
     1
102
RTVSPropertyOp1
 70
     1
102
RTVSPropertyOp2
 70
     1
102
RTVSPropertyOp3
 70
     1
102
RTVSPropertyOp4
 70
     1
102
RTVSPropertyOp5
 70
     1
102
RTVSPropertyOp6
 70
     1
102
RTVSPropertyOp7
 70
     1
102
RTVSPropertyOp8
 70
     1
102
RTVSPropertyOp9
 70
     1
102
RTVSPropertyOp10
 70
     1
102
RTVSPropertyOp11
 70
     1
102
RTVSPropertyOp12
 70
     1
102
RTVSPropertyOp13
 70
     1
102
RTVSPropertyOp14
 70
     1
102
RTVSPropertyOp15
 70
     1
102
RTVSPropertyOp16
 70
     1
102
RTVSPropertyOp17
 70
     1
102
RTVSPropertyOp18
 70
     1
102
RTVSPropertyOp19
 70
     1
102
RTVSPropertyOp20
 70
     1
102
RTVSPropertyOp21
 70
     1
102
RTVSPropertyOp22
 70
     1
102
RTVSPropertyOp23
 70
     1
102
RTVSPropertyOp24
 70
     1
102
RTVSPropertyOp25
 70
     1
102
RTVSPropertyOp26
 70
     1
102
RTVSPropertyOp27
 70
     1
102
RTVSPropertyOp28
 70
     1
102
RTVSPropertyOp29
 70
     1
102
RTVSPropertyOp30
 70
     1
102
RTVSPropertyOp31
 70
     1
102
RTVSPropertyOp32
 70
     1
  0
XRECORD
  5
1C2E
102
{ACAD_REACTORS
330
1C2D
102
}
330
1C2D
100
AcDbXrecord
280
     1
102
RTVSPropertyOp0
 70
     1
102
RTVSPropertyOp1
 70
     1
102
RTVSPropertyOp2
 70
     1
102
RTVSPropertyOp3
 70
     1
102
RTVSPropertyOp4
 70
     1
102
RTVSPropertyOp5
 70
     1
102
RTVSPropertyOp6
 70
     1
102
RTVSPropertyOp7
 70
     1
102
RTVSPropertyOp8
 70
     1
102
RTVSPropertyOp9
 70
     1
102
RTVSPropertyOp10
 70
     1
102
RTVSPropertyOp11
 70
     1
102
RTVSPropertyOp12
 70
     1
102
RTVSPropertyOp13
 70
     1
102
RTVSPropertyOp14
 70
     1
102
RTVSPropertyOp15
 70
     1
102
RTVSPropertyOp16
 70
     1
102
RTVSPropertyOp17
 70
     1
102
RTVSPropertyOp18
 70
     1
102
RTVSPropertyOp19
 70
     1
102
RTVSPropertyOp20
 70
     1
102
RTVSPropertyOp21
 70
     1
102
RTVSPropertyOp22
 70
     1
102
RTVSPropertyOp23
 70
     1
102
RTVSPropertyOp24
 70
     1
102
RTVSPropertyOp25
 70
     1
102
RTVSPropertyOp26
 70
     1
102
RTVSPropertyOp27
 70
     1
102
RTVSPropertyOp28
 70
     1
102
RTVSPropertyOp29
 70
     1
102
RTVSPropertyOp30
 70
     1
102
RTVSPropertyOp31
 70
     1
102
RTVSPropertyOp32
 70
     1
  0
XRECORD
  5
1C36
102
{ACAD_REACTORS
330
1C35
102
}
330
1C35
100
AcDbXrecord
280
     1
102
RTVSPropertyOp0
 70
     1
102
RTVSPropertyOp1
 70
     1
102
RTVSPropertyOp2
 70
     1
102
RTVSPropertyOp3
 70
     1
102
RTVSPropertyOp4
 70
     1
102
RTVSPropertyOp5
 70
     1
102
RTVSPropertyOp6
 70
     1
102
RTVSPropertyOp7
 70
     1
102
RTVSPropertyOp8
 70
     1
102
RTVSPropertyOp9
 70
     1
102
RTVSPropertyOp10
 70
     1
102
RTVSPropertyOp11
 70
     1
102
RTVSPropertyOp12
 70
     1
102
RTVSPropertyOp13
 70
     1
102
RTVSPropertyOp14
 70
     1
102
RTVSPropertyOp15
 70
     1
102
RTVSPropertyOp16
 70
     1
102
RTVSPropertyOp17
 70
     1
102
RTVSPropertyOp18
 70
     1
102
RTVSPropertyOp19
 70
     1
102
RTVSPropertyOp20
 70
     1
102
RTVSPropertyOp21
 70
     1
102
RTVSPropertyOp22
 70
     1
102
RTVSPropertyOp23
 70
     1
102
RTVSPropertyOp24
 70
     1
102
RTVSPropertyOp25
 70
     1
102
RTVSPropertyOp26
 70
     1
102
RTVSPropertyOp27
 70
     1
102
RTVSPropertyOp28
 70
     1
102
RTVSPropertyOp29
 70
     1
102
RTVSPropertyOp30
 70
     1
102
RTVSPropertyOp31
 70
     1
102
RTVSPropertyOp32
 70
     1
  0
XRECORD
  5
1C52
102
{ACAD_REACTORS
330
1C51
102
}
330
1C51
100
AcDbXrecord
280
     1
102
RTVSPropertyOp0
 70
     0
102
RTVSPropertyOp1
 70
     0
102
RTVSPropertyOp2
 70
     0
102
RTVSPropertyOp3
 70
     0
102
RTVSPropertyOp4
 70
     0
102
RTVSPropertyOp5
 70
     0
102
RTVSPropertyOp6
 70
     0
102
RTVSPropertyOp7
 70
     0
102
RTVSPropertyOp8
 70
     0
102
RTVSPropertyOp9
 70
     0
102
RTVSPropertyOp10
 70
     0
102
RTVSPropertyOp11
 70
     0
102
RTVSPropertyOp12
 70
     0
102
RTVSPropertyOp13
 70
     0
102
RTVSPropertyOp14
 70
     2
102
RTVSPropertyOp15
 70
     0
102
RTVSPropertyOp16
 70
     0
102
RTVSPropertyOp17
 70
     0
102
RTVSPropertyOp18
 70
     0
102
RTVSPropertyOp19
 70
     0
102
RTVSPropertyOp20
 70
     0
102
RTVSPropertyOp21
 70
     0
102
RTVSPropertyOp22
 70
     0
102
RTVSPropertyOp23
 70
     0
102
RTVSPropertyOp24
 70
     0
102
RTVSPropertyOp25
 70
     0
102
RTVSPropertyOp26
 70
     0
102
RTVSPropertyOp27
 70
     0
102
RTVSPropertyOp28
 70
     0
102
RTVSPropertyOp29
 70
     0
102
RTVSPropertyOp30
 70
     0
102
RTVSPropertyOp31
 70
     0
102
RTVSPropertyOp32
 70
     0
  0
XRECORD
  5
1C42
102
{ACAD_REACTORS
330
1C41
102
}
330
1C41
100
AcDbXrecord
280
     1
102
RTVSPropertyOp0
 70
     1
102
RTVSPropertyOp1
 70
     1
102
RTVSPropertyOp2
 70
     1
102
RTVSPropertyOp3
 70
     1
102
RTVSPropertyOp4
 70
     1
102
RTVSPropertyOp5
 70
     1
102
RTVSPropertyOp6
 70
     1
102
RTVSPropertyOp7
 70
     1
102
RTVSPropertyOp8
 70
     1
102
RTVSPropertyOp9
 70
     1
102
RTVSPropertyOp10
 70
     1
102
RTVSPropertyOp11
 70
     1
102
RTVSPropertyOp12
 70
     1
102
RTVSPropertyOp13
 70
     1
102
RTVSPropertyOp14
 70
     1
102
RTVSPropertyOp15
 70
     1
102
RTVSPropertyOp16
 70
     1
102
RTVSPropertyOp17
 70
     1
102
RTVSPropertyOp18
 70
     1
102
RTVSPropertyOp19
 70
     1
102
RTVSPropertyOp20
 70
     1
102
RTVSPropertyOp21
 70
     1
102
RTVSPropertyOp22
 70
     1
102
RTVSPropertyOp23
 70
     1
102
RTVSPropertyOp24
 70
     1
102
RTVSPropertyOp25
 70
     1
102
RTVSPropertyOp26
 70
     1
102
RTVSPropertyOp27
 70
     1
102
RTVSPropertyOp28
 70
     1
102
RTVSPropertyOp29
 70
     1
102
RTVSPropertyOp30
 70
     1
102
RTVSPropertyOp31
 70
     1
102
RTVSPropertyOp32
 70
     1
  0
XRECORD
  5
1C54
102
{ACAD_REACTORS
330
1C53
102
}
330
1C53
100
AcDbXrecord
280
     1
102
RTVSPropertyOp0
 70
     0
102
RTVSPropertyOp1
 70
     0
102
RTVSPropertyOp2
 70
     0
102
RTVSPropertyOp3
 70
     0
102
RTVSPropertyOp4
 70
     0
102
RTVSPropertyOp5
 70
     0
102
RTVSPropertyOp6
 70
     0
102
RTVSPropertyOp7
 70
     0
102
RTVSPropertyOp8
 70
     0
102
RTVSPropertyOp9
 70
     0
102
RTVSPropertyOp10
 70
     0
102
RTVSPropertyOp11
 70
     0
102
RTVSPropertyOp12
 70
     0
102
RTVSPropertyOp13
 70
     0
102
RTVSPropertyOp14
 70
     2
102
RTVSPropertyOp15
 70
     0
102
RTVSPropertyOp16
 70
     0
102
RTVSPropertyOp17
 70
     0
102
RTVSPropertyOp18
 70
     0
102
RTVSPropertyOp19
 70
     0
102
RTVSPropertyOp20
 70
     0
102
RTVSPropertyOp21
 70
     0
102
RTVSPropertyOp22
 70
     0
102
RTVSPropertyOp23
 70
     0
102
RTVSPropertyOp24
 70
     0
102
RTVSPropertyOp25
 70
     0
102
RTVSPropertyOp26
 70
     0
102
RTVSPropertyOp27
 70
     0
102
RTVSPropertyOp28
 70
     0
102
RTVSPropertyOp29
 70
     0
102
RTVSPropertyOp30
 70
     0
102
RTVSPropertyOp31
 70
     0
102
RTVSPropertyOp32
 70
     0
  0
XRECORD
  5
1C3A
102
{ACAD_REACTORS
330
1C39
102
}
330
1C39
100
AcDbXrecord
280
     1
102
RTVSPropertyOp0
 70
     1
102
RTVSPropertyOp1
 70
     1
102
RTVSPropertyOp2
 70
     1
102
RTVSPropertyOp3
 70
     1
102
RTVSPropertyOp4
 70
     1
102
RTVSPropertyOp5
 70
     1
102
RTVSPropertyOp6
 70
     1
102
RTVSPropertyOp7
 70
     1
102
RTVSPropertyOp8
 70
     1
102
RTVSPropertyOp9
 70
     1
102
RTVSPropertyOp10
 70
     1
102
RTVSPropertyOp11
 70
     1
102
RTVSPropertyOp12
 70
     1
102
RTVSPropertyOp13
 70
     1
102
RTVSPropertyOp14
 70
     1
102
RTVSPropertyOp15
 70
     1
102
RTVSPropertyOp16
 70
     1
102
RTVSPropertyOp17
 70
     1
102
RTVSPropertyOp18
 70
     1
102
RTVSPropertyOp19
 70
     1
102
RTVSPropertyOp20
 70
     1
102
RTVSPropertyOp21
 70
     1
102
RTVSPropertyOp22
 70
     1
102
RTVSPropertyOp23
 70
     1
102
RTVSPropertyOp24
 70
     1
102
RTVSPropertyOp25
 70
     1
102
RTVSPropertyOp26
 70
     1
102
RTVSPropertyOp27
 70
     1
102
RTVSPropertyOp28
 70
     1
102
RTVSPropertyOp29
 70
     1
102
RTVSPropertyOp30
 70
     1
102
RTVSPropertyOp31
 70
     1
102
RTVSPropertyOp32
 70
     1
  0
XRECORD
  5
1C50
102
{ACAD_REACTORS
330
1C4F
102
}
330
1C4F
100
AcDbXrecord
280
     1
102
RTVSPropertyOp0
 70
     1
102
RTVSPropertyOp1
 70
     1
102
RTVSPropertyOp2
 70
     1
102
RTVSPropertyOp3
 70
     1
102
RTVSPropertyOp4
 70
     1
102
RTVSPropertyOp5
 70
     1
102
RTVSPropertyOp6
 70
     1
102
RTVSPropertyOp7
 70
     1
102
RTVSPropertyOp8
 70
     1
102
RTVSPropertyOp9
 70
     1
102
RTVSPropertyOp10
 70
     1
102
RTVSPropertyOp11
 70
     1
102
RTVSPropertyOp12
 70
     1
102
RTVSPropertyOp13
 70
     1
102
RTVSPropertyOp14
 70
     1
102
RTVSPropertyOp15
 70
     1
102
RTVSPropertyOp16
 70
     1
102
RTVSPropertyOp17
 70
     1
102
RTVSPropertyOp18
 70
     1
102
RTVSPropertyOp19
 70
     1
102
RTVSPropertyOp20
 70
     1
102
RTVSPropertyOp21
 70
     1
102
RTVSPropertyOp22
 70
     1
102
RTVSPropertyOp23
 70
     1
102
RTVSPropertyOp24
 70
     1
102
RTVSPropertyOp25
 70
     1
102
RTVSPropertyOp26
 70
     1
102
RTVSPropertyOp27
 70
     1
102
RTVSPropertyOp28
 70
     1
102
RTVSPropertyOp29
 70
     1
102
RTVSPropertyOp30
 70
     1
102
RTVSPropertyOp31
 70
     1
102
RTVSPropertyOp32
 70
     1
  0
XRECORD
  5
1C4E
102
{ACAD_REACTORS
330
1C4D
102
}
330
1C4D
100
AcDbXrecord
280
     1
102
RTVSPropertyOp0
 70
     1
102
RTVSPropertyOp1
 70
     1
102
RTVSPropertyOp2
 70
     1
102
RTVSPropertyOp3
 70
     1
102
RTVSPropertyOp4
 70
     1
102
RTVSPropertyOp5
 70
     1
102
RTVSPropertyOp6
 70
     1
102
RTVSPropertyOp7
 70
     1
102
RTVSPropertyOp8
 70
     1
102
RTVSPropertyOp9
 70
     1
102
RTVSPropertyOp10
 70
     1
102
RTVSPropertyOp11
 70
     1
102
RTVSPropertyOp12
 70
     1
102
RTVSPropertyOp13
 70
     1
102
RTVSPropertyOp14
 70
     1
102
RTVSPropertyOp15
 70
     1
102
RTVSPropertyOp16
 70
     1
102
RTVSPropertyOp17
 70
     1
102
RTVSPropertyOp18
 70
     1
102
RTVSPropertyOp19
 70
     1
102
RTVSPropertyOp20
 70
     1
102
RTVSPropertyOp21
 70
     1
102
RTVSPropertyOp22
 70
     1
102
RTVSPropertyOp23
 70
     1
102
RTVSPropertyOp24
 70
     1
102
RTVSPropertyOp25
 70
     1
102
RTVSPropertyOp26
 70
     1
102
RTVSPropertyOp27
 70
     1
102
RTVSPropertyOp28
 70
     1
102
RTVSPropertyOp29
 70
     1
102
RTVSPropertyOp30
 70
     1
102
RTVSPropertyOp31
 70
     1
102
RTVSPropertyOp32
 70
     1
  0
XRECORD
  5
1C48
102
{ACAD_REACTORS
330
1C47
102
}
330
1C47
100
AcDbXrecord
280
     1
102
RTVSPropertyOp0
 70
     1
102
RTVSPropertyOp1
 70
     1
102
RTVSPropertyOp2
 70
     1
102
RTVSPropertyOp3
 70
     1
102
RTVSPropertyOp4
 70
     1
102
RTVSPropertyOp5
 70
     1
102
RTVSPropertyOp6
 70
     1
102
RTVSPropertyOp7
 70
     1
102
RTVSPropertyOp8
 70
     1
102
RTVSPropertyOp9
 70
     1
102
RTVSPropertyOp10
 70
     1
102
RTVSPropertyOp11
 70
     1
102
RTVSPropertyOp12
 70
     1
102
RTVSPropertyOp13
 70
     1
102
RTVSPropertyOp14
 70
     1
102
RTVSPropertyOp15
 70
     1
102
RTVSPropertyOp16
 70
     1
102
RTVSPropertyOp17
 70
     1
102
RTVSPropertyOp18
 70
     1
102
RTVSPropertyOp19
 70
     1
102
RTVSPropertyOp20
 70
     1
102
RTVSPropertyOp21
 70
     1
102
RTVSPropertyOp22
 70
     1
102
RTVSPropertyOp23
 70
     1
102
RTVSPropertyOp24
 70
     1
102
RTVSPropertyOp25
 70
     1
102
RTVSPropertyOp26
 70
     1
102
RTVSPropertyOp27
 70
     1
102
RTVSPropertyOp28
 70
     1
102
RTVSPropertyOp29
 70
     1
102
RTVSPropertyOp30
 70
     1
102
RTVSPropertyOp31
 70
     1
102
RTVSPropertyOp32
 70
     1
  0
XRECORD
  5
1C4A
102
{ACAD_REACTORS
330
1C49
102
}
330
1C49
100
AcDbXrecord
280
     1
102
RTVSPropertyOp0
 70
     1
102
RTVSPropertyOp1
 70
     1
102
RTVSPropertyOp2
 70
     1
102
RTVSPropertyOp3
 70
     1
102
RTVSPropertyOp4
 70
     1
102
RTVSPropertyOp5
 70
     1
102
RTVSPropertyOp6
 70
     1
102
RTVSPropertyOp7
 70
     1
102
RTVSPropertyOp8
 70
     1
102
RTVSPropertyOp9
 70
     1
102
RTVSPropertyOp10
 70
     1
102
RTVSPropertyOp11
 70
     1
102
RTVSPropertyOp12
 70
     1
102
RTVSPropertyOp13
 70
     1
102
RTVSPropertyOp14
 70
     1
102
RTVSPropertyOp15
 70
     1
102
RTVSPropertyOp16
 70
     1
102
RTVSPropertyOp17
 70
     1
102
RTVSPropertyOp18
 70
     1
102
RTVSPropertyOp19
 70
     1
102
RTVSPropertyOp20
 70
     1
102
RTVSPropertyOp21
 70
     1
102
RTVSPropertyOp22
 70
     1
102
RTVSPropertyOp23
 70
     1
102
RTVSPropertyOp24
 70
     1
102
RTVSPropertyOp25
 70
     1
102
RTVSPropertyOp26
 70
     1
102
RTVSPropertyOp27
 70
     1
102
RTVSPropertyOp28
 70
     1
102
RTVSPropertyOp29
 70
     1
102
RTVSPropertyOp30
 70
     1
102
RTVSPropertyOp31
 70
     1
102
RTVSPropertyOp32
 70
     1
  0
XRECORD
  5
1C40
102
{ACAD_REACTORS
330
1C3F
102
}
330
1C3F
100
AcDbXrecord
280
     1
102
RTVSPropertyOp0
 70
     1
102
RTVSPropertyOp1
 70
     1
102
RTVSPropertyOp2
 70
     1
102
RTVSPropertyOp3
 70
     1
102
RTVSPropertyOp4
 70
     1
102
RTVSPropertyOp5
 70
     1
102
RTVSPropertyOp6
 70
     1
102
RTVSPropertyOp7
 70
     1
102
RTVSPropertyOp8
 70
     1
102
RTVSPropertyOp9
 70
     1
102
RTVSPropertyOp10
 70
     1
102
RTVSPropertyOp11
 70
     1
102
RTVSPropertyOp12
 70
     1
102
RTVSPropertyOp13
 70
     1
102
RTVSPropertyOp14
 70
     1
102
RTVSPropertyOp15
 70
     1
102
RTVSPropertyOp16
 70
     1
102
RTVSPropertyOp17
 70
     1
102
RTVSPropertyOp18
 70
     1
102
RTVSPropertyOp19
 70
     1
102
RTVSPropertyOp20
 70
     1
102
RTVSPropertyOp21
 70
     1
102
RTVSPropertyOp22
 70
     1
102
RTVSPropertyOp23
 70
     1
102
RTVSPropertyOp24
 70
     1
102
RTVSPropertyOp25
 70
     1
102
RTVSPropertyOp26
 70
     1
102
RTVSPropertyOp27
 70
     1
102
RTVSPropertyOp28
 70
     1
102
RTVSPropertyOp29
 70
     1
102
RTVSPropertyOp30
 70
     1
102
RTVSPropertyOp31
 70
     1
102
RTVSPropertyOp32
 70
     1
  0
XRECORD
  5
1C34
102
{ACAD_REACTORS
330
1C33
102
}
330
1C33
100
AcDbXrecord
280
     1
102
RTVSPropertyOp0
 70
     1
102
RTVSPropertyOp1
 70
     1
102
RTVSPropertyOp2
 70
     1
102
RTVSPropertyOp3
 70
     1
102
RTVSPropertyOp4
 70
     1
102
RTVSPropertyOp5
 70
     1
102
RTVSPropertyOp6
 70
     1
102
RTVSPropertyOp7
 70
     1
102
RTVSPropertyOp8
 70
     1
102
RTVSPropertyOp9
 70
     1
102
RTVSPropertyOp10
 70
     1
102
RTVSPropertyOp11
 70
     1
102
RTVSPropertyOp12
 70
     1
102
RTVSPropertyOp13
 70
     1
102
RTVSPropertyOp14
 70
     1
102
RTVSPropertyOp15
 70
     1
102
RTVSPropertyOp16
 70
     1
102
RTVSPropertyOp17
 70
     1
102
RTVSPropertyOp18
 70
     1
102
RTVSPropertyOp19
 70
     1
102
RTVSPropertyOp20
 70
     1
102
RTVSPropertyOp21
 70
     1
102
RTVSPropertyOp22
 70
     1
102
RTVSPropertyOp23
 70
     1
102
RTVSPropertyOp24
 70
     1
102
RTVSPropertyOp25
 70
     1
102
RTVSPropertyOp26
 70
     1
102
RTVSPropertyOp27
 70
     1
102
RTVSPropertyOp28
 70
     1
102
RTVSPropertyOp29
 70
     1
102
RTVSPropertyOp30
 70
     1
102
RTVSPropertyOp31
 70
     1
102
RTVSPropertyOp32
 70
     1
  0
XRECORD
  5
1C4C
102
{ACAD_REACTORS
330
1C4B
102
}
330
1C4B
100
AcDbXrecord
280
     1
102
RTVSPropertyOp0
 70
     1
102
RTVSPropertyOp1
 70
     1
102
RTVSPropertyOp2
 70
     1
102
RTVSPropertyOp3
 70
     1
102
RTVSPropertyOp4
 70
     1
102
RTVSPropertyOp5
 70
     1
102
RTVSPropertyOp6
 70
     1
102
RTVSPropertyOp7
 70
     1
102
RTVSPropertyOp8
 70
     1
102
RTVSPropertyOp9
 70
     1
102
RTVSPropertyOp10
 70
     1
102
RTVSPropertyOp11
 70
     1
102
RTVSPropertyOp12
 70
     1
102
RTVSPropertyOp13
 70
     1
102
RTVSPropertyOp14
 70
     1
102
RTVSPropertyOp15
 70
     1
102
RTVSPropertyOp16
 70
     1
102
RTVSPropertyOp17
 70
     1
102
RTVSPropertyOp18
 70
     1
102
RTVSPropertyOp19
 70
     1
102
RTVSPropertyOp20
 70
     1
102
RTVSPropertyOp21
 70
     1
102
RTVSPropertyOp22
 70
     1
102
RTVSPropertyOp23
 70
     1
102
RTVSPropertyOp24
 70
     1
102
RTVSPropertyOp25
 70
     1
102
RTVSPropertyOp26
 70
     1
102
RTVSPropertyOp27
 70
     1
102
RTVSPropertyOp28
 70
     1
102
RTVSPropertyOp29
 70
     1
102
RTVSPropertyOp30
 70
     1
102
RTVSPropertyOp31
 70
     1
102
RTVSPropertyOp32
 70
     1
  0
ENDSEC
  0
EOF
