  0
SECTION
  2
HEADER
  9
$ACADVER
  1
AC1018
  9
$ACADMAINTVER
 70
   104
  9
$DWGCODEPAGE
  3
ANSI_1252
  9
$LASTSAVEDBY
  1
jgayle
  9
$INSBASE
 10
0.0
 20
0.0
 30
0.0
  9
$EXTMIN
 10
189.1422276362783
 20
218.0727690902931
 30
-0.0000000000000058
  9
$EXTMAX
 10
247.763720931514
 20
294.3373787102649
 30
0.0000000000000104
  9
$LIMMIN
 10
0.0
 20
0.0
  9
$LIMMAX
 10
12.0
 20
9.0
  9
$ORTHOMODE
 70
     1
  9
$REGENMODE
 70
     1
  9
$FILLMODE
 70
     1
  9
$QTEXTMODE
 70
     0
  9
$MIRRTEXT
 70
     1
  9
$LTSCALE
 40
1.0
  9
$ATTMODE
 70
     1
  9
$TEXTSIZE
 40
0.2
  9
$TRACEWID
 40
0.05
  9
$TEXTSTYLE
  7
Standard
  9
$CLAYER
  8
Dim
  9
$CELTYPE
  6
ByLayer
  9
$CECOLOR
 62
   256
  9
$CELTSCALE
 40
1.0
  9
$DISPSILH
 70
     0
  9
$DIMSCALE
 40
1.0
  9
$DIMASZ
 40
0.75
  9
$DIMEXO
 40
1.0
  9
$DIMDLI
 40
0.38
  9
$DIMRND
 40
0.0
  9
$DIMDLE
 40
0.0
  9
$DIMEXE
 40
1.0
  9
$DIMTP
 40
0.0
  9
$DIMTM
 40
0.0
  9
$DIMTXT
 40
0.75
  9
$DIMCEN
 40
1.0
  9
$DIMTSZ
 40
0.0
  9
$DIMTOL
 70
     0
  9
$DIMLIM
 70
     0
  9
$DIMTIH
 70
     1
  9
$DIMTOH
 70
     1
  9
$DIMSE1
 70
     0
  9
$DIMSE2
 70
     0
  9
$DIMTAD
 70
     0
  9
$DIMZIN
 70
     0
  9
$DIMBLK
  1

  9
$DIMASO
 70
     1
  9
$DIMSHO
 70
     1
  9
$DIMPOST
  1
"
  9
$DIMAPOST
  1

  9
$DIMALT
 70
     1
  9
$DIMALTD
 70
     0
  9
$DIMALTF
 40
25.4
  9
$DIMLFAC
 40
1.0
  9
$DIMTOFL
 70
     0
  9
$DIMTVP
 40
0.0
  9
$DIMTIX
 70
     0
  9
$DIMSOXD
 70
     0
  9
$DIMSAH
 70
     0
  9
$DIMBLK1
  1

  9
$DIMBLK2
  1

  9
$DIMSTYLE
  2
Standard
  9
$DIMCLRD
 70
     0
  9
$DIMCLRE
 70
     0
  9
$DIMCLRT
 70
     0
  9
$DIMTFAC
 40
0.75
  9
$DIMGAP
 40
0.5
  9
$DIMJUST
 70
     0
  9
$DIMSD1
 70
     0
  9
$DIMSD2
 70
     0
  9
$DIMTOLJ
 70
     1
  9
$DIMTZIN
 70
     0
  9
$DIMALTZ
 70
     0
  9
$DIMALTTZ
 70
     0
  9
$DIMUPT
 70
     0
  9
$DIMDEC
 70
     3
  9
$DIMTDEC
 70
     3
  9
$DIMALTU
 70
     2
  9
$DIMALTTD
 70
     0
  9
$DIMTXSTY
  7
Standard
  9
$DIMAUNIT
 70
     0
  9
$DIMADEC
 70
     0
  9
$DIMALTRND
 40
0.0
  9
$DIMAZIN
 70
     0
  9
$DIMDSEP
 70
    46
  9
$DIMATFIT
 70
     3
  9
$DIMFRAC
 70
     2
  9
$DIMLDRBLK
  1

  9
$DIMLUNIT
 70
     5
  9
$DIMLWD
 70
    -2
  9
$DIMLWE
 70
    -2
  9
$DIMTMOVE
 70
     0
  9
$LUNITS
 70
     2
  9
$LUPREC
 70
     4
  9
$SKETCHINC
 40
0.1
  9
$FILLETRAD
 40
0.08
  9
$AUNITS
 70
     0
  9
$AUPREC
 70
     0
  9
$MENU
  1
.
  9
$ELEVATION
 40
0.0
  9
$PELEVATION
 40
0.0
  9
$THICKNESS
 40
0.0
  9
$LIMCHECK
 70
     0
  9
$CHAMFERA
 40
0.5
  9
$CHAMFERB
 40
0.5
  9
$CHAMFERC
 40
1.0
  9
$CHAMFERD
 40
0.0
  9
$SKPOLY
 70
     0
  9
$TDCREATE
 40
2455616.498310185
  9
$TDUCREATE
 40
2455616.664976852
  9
$TDUPDATE
 40
2456391.619125741
  9
$TDUUPDATE
 40
2456391.785792408
  9
$TDINDWG
 40
1.9799825694
  9
$TDUSRTIMER
 40
1.9799823958
  9
$USRTIMER
 70
     1
  9
$ANGBASE
 50
0.0
  9
$ANGDIR
 70
     0
  9
$PDMODE
 70
     0
  9
$PDSIZE
 40
0.0
  9
$PLINEWID
 40
0.0
  9
$SPLFRAME
 70
     0
  9
$SPLINETYPE
 70
     6
  9
$SPLINESEGS
 70
     8
  9
$HANDSEED
  5
C179
  9
$SURFTAB1
 70
     6
  9
$SURFTAB2
 70
     6
  9
$SURFTYPE
 70
     6
  9
$SURFU
 70
     6
  9
$SURFV
 70
     6
  9
$UCSBASE
  2

  9
$UCSNAME
  2

  9
$UCSORG
 10
0.0
 20
0.0
 30
0.0
  9
$UCSXDIR
 10
1.0
 20
0.0
 30
0.0
  9
$UCSYDIR
 10
0.0
 20
1.0
 30
0.0
  9
$UCSORTHOREF
  2

  9
$UCSORTHOVIEW
 70
     0
  9
$UCSORGTOP
 10
0.0
 20
0.0
 30
0.0
  9
$UCSORGBOTTOM
 10
0.0
 20
0.0
 30
0.0
  9
$UCSORGLEFT
 10
0.0
 20
0.0
 30
0.0
  9
$UCSORGRIGHT
 10
0.0
 20
0.0
 30
0.0
  9
$UCSORGFRONT
 10
0.0
 20
0.0
 30
0.0
  9
$UCSORGBACK
 10
0.0
 20
0.0
 30
0.0
  9
$PUCSBASE
  2

  9
$PUCSNAME
  2

  9
$PUCSORG
 10
0.0
 20
0.0
 30
0.0
  9
$PUCSXDIR
 10
1.0
 20
0.0
 30
0.0
  9
$PUCSYDIR
 10
0.0
 20
1.0
 30
0.0
  9
$PUCSORTHOREF
  2

  9
$PUCSORTHOVIEW
 70
     0
  9
$PUCSORGTOP
 10
0.0
 20
0.0
 30
0.0
  9
$PUCSORGBOTTOM
 10
0.0
 20
0.0
 30
0.0
  9
$PUCSORGLEFT
 10
0.0
 20
0.0
 30
0.0
  9
$PUCSORGRIGHT
 10
0.0
 20
0.0
 30
0.0
  9
$PUCSORGFRONT
 10
0.0
 20
0.0
 30
0.0
  9
$PUCSORGBACK
 10
0.0
 20
0.0
 30
0.0
  9
$USERI1
 70
     0
  9
$USERI2
 70
     0
  9
$USERI3
 70
     0
  9
$USERI4
 70
     0
  9
$USERI5
 70
     0
  9
$USERR1
 40
0.0
  9
$USERR2
 40
0.0
  9
$USERR3
 40
0.0
  9
$USERR4
 40
0.0
  9
$USERR5
 40
0.0
  9
$WORLDVIEW
 70
     1
  9
$SHADEDGE
 70
     3
  9
$SHADEDIF
 70
    70
  9
$TILEMODE
 70
     1
  9
$MAXACTVP
 70
    64
  9
$PINSBASE
 10
0.0
 20
0.0
 30
0.0
  9
$PLIMCHECK
 70
     0
  9
$PEXTMIN
 10
1.000000000000000E+20
 20
1.000000000000000E+20
 30
1.000000000000000E+20
  9
$PEXTMAX
 10
-1.000000000000000E+20
 20
-1.000000000000000E+20
 30
-1.000000000000000E+20
  9
$PLIMMIN
 10
0.0
 20
0.0
  9
$PLIMMAX
 10
12.0
 20
9.0
  9
$UNITMODE
 70
     0
  9
$VISRETAIN
 70
     1
  9
$PLINEGEN
 70
     0
  9
$PSLTSCALE
 70
     1
  9
$TREEDEPTH
 70
  3020
  9
$CMLSTYLE
  2
Standard
  9
$CMLJUST
 70
     0
  9
$CMLSCALE
 40
1.0
  9
$PROXYGRAPHICS
 70
     1
  9
$MEASUREMENT
 70
     0
  9
$CELWEIGHT
370
    -1
  9
$ENDCAPS
280
     0
  9
$JOINSTYLE
280
     0
  9
$LWDISPLAY
290
     1
  9
$INSUNITS
 70
     1
  9
$HYPERLINKBASE
  1

  9
$STYLESHEET
  1

  9
$XEDIT
290
     1
  9
$CEPSNTYPE
380
     0
  9
$PSTYLEMODE
290
     1
  9
$FINGERPRINTGUID
  2
{20589A11-D779-3122-2B98-03EE6CB50B5A}
  9
$VERSIONGUID
  2
{7D2F0DCD-DCBB-44B1-A1D2-E2FEB0708A70}
  9
$EXTNAMES
290
     1
  9
$PSVPSCALE
 40
0.0
  9
$OLESTARTUP
290
     0
  9
$SORTENTS
280
   127
  9
$INDEXCTL
280
     0
  9
$HIDETEXT
280
     1
  9
$XCLIPFRAME
290
     0
  9
$HALOGAP
280
     0
  9
$OBSCOLOR
 70
   257
  9
$OBSLTYPE
280
     0
  9
$INTERSECTIONDISPLAY
280
     0
  9
$INTERSECTIONCOLOR
 70
   257
  9
$DIMASSOC
280
     2
  9
$PROJECTNAME
  1

  0
ENDSEC
  0
SECTION
  2
CLASSES
  0
CLASS
  1
ACDBDICTIONARYWDFLT
  2
AcDbDictionaryWithDefault
  3
ObjectDBX Classes
 90
        0
 91
        1
280
     0
281
     0
  0
CLASS
  1
VISUALSTYLE
  2
AcDbVisualStyle
  3
ObjectDBX Classes
 90
     4095
 91
       26
280
     0
281
     0
  0
CLASS
  1
TABLESTYLE
  2
AcDbTableStyle
  3
ObjectDBX Classes
 90
     4095
 91
        1
280
     0
281
     0
  0
CLASS
  1
DICTIONARYVAR
  2
AcDbDictionaryVar
  3
ObjectDBX Classes
 90
        0
 91
        8
280
     0
281
     0
  0
CLASS
  1
DIMASSOC
  2
AcDbDimAssoc
  3
"AcDbDimAssoc|Product Desc:     AcDim ARX App For Dimension|Company:          Autodesk, Inc.|WEB Address:      www.autodesk.com"
 90
        0
 91
        0
280
     0
281
     0
  0
CLASS
  1
SORTENTSTABLE
  2
AcDbSortentsTable
  3
ObjectDBX Classes
 90
        0
 91
        2
280
     0
281
     0
  0
CLASS
  1
MATERIAL
  2
AcDbMaterial
  3
ObjectDBX Classes
 90
     1153
 91
        3
280
     0
281
     0
  0
CLASS
  1
SCALE
  2
AcDbScale
  3
ObjectDBX Classes
 90
     1153
 91
       17
280
     0
281
     0
  0
CLASS
  1
MLEADERSTYLE
  2
AcDbMLeaderStyle
  3
ACDB_MLEADERSTYLE_CLASS
 90
     4095
 91
        1
280
     0
281
     0
  0
CLASS
  1
CELLSTYLEMAP
  2
AcDbCellStyleMap
  3
ObjectDBX Classes
 90
     1152
 91
        2
280
     0
281
     0
  0
ENDSEC
  0
SECTION
  2
TABLES
  0
TABLE
  2
VPORT
  5
8
330
0
100
AcDbSymbolTable
 70
     1
  0
VPORT
  5
C038
330
8
100
AcDbSymbolTableRecord
100
AcDbViewportTableRecord
  2
*Active
 70
     0
 10
0.0
 20
0.0
 11
1.0
 21
1.0
 12
214.2029742838962
 22
253.0870183447235
 13
0.0
 23
0.0
 14
0.5
 24
0.5
 15
0.5
 25
0.5
 16
0.0
 26
0.0
 36
1.0
 17
4.25
 27
3.118055555555555
 37
0.0
 40
76.96859063184843
 41
2.320493066255778
 42
50.0
 43
0.0
 44
0.0
 50
0.0
 51
0.0
 71
     0
 72
   100
 73
     1
 74
     3
 75
     0
 76
     0
 77
     0
 78
     0
281
     0
 65
     1
110
0.0
120
0.0
130
0.0
111
1.0
121
0.0
131
0.0
112
0.0
122
1.0
132
0.0
 79
     0
146
0.0
1001
ACAD_NAV_VCDISPLAY
1070
     3
  0
ENDTAB
  0
TABLE
  2
LTYPE
  5
5
330
0
100
AcDbSymbolTable
 70
     5
  0
LTYPE
  5
14
330
5
100
AcDbSymbolTableRecord
100
AcDbLinetypeTableRecord
  2
ByBlock
 70
     0
  3

 72
    65
 73
     0
 40
0.0
  0
LTYPE
  5
15
330
5
100
AcDbSymbolTableRecord
100
AcDbLinetypeTableRecord
  2
ByLayer
 70
     0
  3

 72
    65
 73
     0
 40
0.0
  0
LTYPE
  5
16
330
5
100
AcDbSymbolTableRecord
100
AcDbLinetypeTableRecord
  2
Continuous
 70
     0
  3
Solid line
 72
    65
 73
     0
 40
0.0
  0
LTYPE
  5
61F0
330
5
100
AcDbSymbolTableRecord
100
AcDbLinetypeTableRecord
  2
HIDDEN
 70
     0
  3
Hidden __ __ __ __ __ __ __ __ __ __ __ __ __ _
 72
    65
 73
     2
 40
0.375
 49
0.25
 74
     0
 49
-0.125
 74
     0
  0
LTYPE
  5
B217
330
5
100
AcDbSymbolTableRecord
100
AcDbLinetypeTableRecord
  2
DASHED
 70
     0
  3
-- -- -- -- -- -- -- -- -- --
 72
    65
 73
     2
 40
3.0
 49
2.0
 74
     0
 49
-1.0
 74
     0
  0
LTYPE
  5
B218
330
5
100
AcDbSymbolTableRecord
100
AcDbLinetypeTableRecord
  2
CENTER
 70
     0
  3
--- - --- - --- - --- - --- -
 72
    65
 73
     4
 40
6.0
 49
3.0
 74
     0
 49
-1.0
 74
     0
 49
1.0
 74
     0
 49
-1.0
 74
     0
  0
LTYPE
  5
B219
330
5
100
AcDbSymbolTableRecord
100
AcDbLinetypeTableRecord
  2
CENTERX2
 70
     0
  3
Center (2x) ________  __  ________  __  _____
 72
    65
 73
     4
 40
20.32
 49
12.7
 74
     0
 49
-2.54
 74
     0
 49
2.54
 74
     0
 49
-2.54
 74
     0
  0
ENDTAB
  0
TABLE
  2
LAYER
  5
2
102
{ACAD_XDICTIONARY
360
820D
102
}
330
0
100
AcDbSymbolTable
 70
     5
  0
LAYER
  5
10
102
{ACAD_XDICTIONARY
360
C07A
102
}
330
2
100
AcDbSymbolTableRecord
100
AcDbLayerTableRecord
  2
0
 70
     0
 62
     7
  6
Continuous
370
    -3
390
F
  0
LAYER
  5
1FF8
330
2
100
AcDbSymbolTableRecord
100
AcDbLayerTableRecord
  2
Defpoints
 70
     0
 62
     7
  6
Continuous
290
     0
370
    -3
390
F
  0
LAYER
  5
8209
102
{ACAD_XDICTIONARY
360
C07C
102
}
330
2
100
AcDbSymbolTableRecord
100
AcDbLayerTableRecord
  2
Dim
 70
     0
 62
     7
  6
Continuous
370
    -3
390
F
1001
AcAecLayerStandard
1000

1000

  0
LAYER
  5
B21A
102
{ACAD_XDICTIONARY
360
C07E
102
}
330
2
100
AcDbSymbolTableRecord
100
AcDbLayerTableRecord
  2
PIC06
 70
     0
 62
     7
  6
Continuous
370
    -3
390
F
  0
LAYER
  5
B21B
102
{ACAD_XDICTIONARY
360
C080
102
}
330
2
100
AcDbSymbolTableRecord
100
AcDbLayerTableRecord
  2
PIC01
 70
     0
 62
     7
  6
Continuous
370
    -3
390
F
  0
ENDTAB
  0
TABLE
  2
STYLE
  5
3
330
0
100
AcDbSymbolTable
 70
     2
  0
STYLE
  5
11
330
3
100
AcDbSymbolTableRecord
100
AcDbTextStyleTableRecord
  2
Standard
 70
     0
 40
0.0
 41
1.0
 50
0.0
 71
     0
 42
0.2
  3
txt.shx
  4

  0
STYLE
  5
B21C
330
3
100
AcDbSymbolTableRecord
100
AcDbTextStyleTableRecord
  2
SLDTEXTSTYLE0
 70
     0
 40
0.0
 41
0.75
 50
0.0
 71
     0
 42
0.0
  3
txt
  4

  0
ENDTAB
  0
TABLE
  2
VIEW
  5
6
330
0
100
AcDbSymbolTable
 70
     1
  0
ENDTAB
  0
TABLE
  2
UCS
  5
7
330
0
100
AcDbSymbolTable
 70
     0
  0
ENDTAB
  0
TABLE
  2
APPID
  5
9
330
0
100
AcDbSymbolTable
 70
    15
  0
APPID
  5
12
330
9
100
AcDbSymbolTableRecord
100
AcDbRegAppTableRecord
  2
ACAD
 70
     0
  0
APPID
  5
2012
330
9
100
AcDbSymbolTableRecord
100
AcDbRegAppTableRecord
  2
ACAD_DSTYLE_DIMTEXT_FILL
 70
     0
  0
APPID
  5
2013
330
9
100
AcDbSymbolTableRecord
100
AcDbRegAppTableRecord
  2
ACAD_DSTYLE_DIMEXT_LENGTH
 70
     0
  0
APPID
  5
2014
330
9
100
AcDbSymbolTableRecord
100
AcDbRegAppTableRecord
  2
ACAD_DSTYLE_DIMEXT_ENABLED
 70
     0
  0
APPID
  5
2015
330
9
100
AcDbSymbolTableRecord
100
AcDbRegAppTableRecord
  2
ACAD_DSTYLE_DIM_LINETYPE
 70
     0
  0
APPID
  5
2016
330
9
100
AcDbSymbolTableRecord
100
AcDbRegAppTableRecord
  2
ACAD_DSTYLE_DIM_EXT1_LINETYPE
 70
     0
  0
APPID
  5
2017
330
9
100
AcDbSymbolTableRecord
100
AcDbRegAppTableRecord
  2
ACAD_DSTYLE_DIM_EXT2_LINETYPE
 70
     0
  0
APPID
  5
20D3
330
9
100
AcDbSymbolTableRecord
100
AcDbRegAppTableRecord
  2
ACAD_DSTYLE_DIMJOGGED_JOGANGLE_SYMBOL
 70
     0
  0
APPID
  5
25E7
330
9
100
AcDbSymbolTableRecord
100
AcDbRegAppTableRecord
  2
ACAD_DSTYLE_DIMARC_LENGTH_SYMBOL
 70
     0
  0
APPID
  5
378D
330
9
100
AcDbSymbolTableRecord
100
AcDbRegAppTableRecord
  2
ACAD_EXEMPT_FROM_CAD_STANDARDS
 70
     0
  0
APPID
  5
7E9D
330
9
100
AcDbSymbolTableRecord
100
AcDbRegAppTableRecord
  2
ACAD_PSEXT
 70
     0
  0
APPID
  5
820C
330
9
100
AcDbSymbolTableRecord
100
AcDbRegAppTableRecord
  2
AcAecLayerStandard
 70
     0
  0
APPID
  5
C084
330
9
100
AcDbSymbolTableRecord
100
AcDbRegAppTableRecord
  2
DCO15
 70
     0
  0
APPID
  5
C089
330
9
100
AcDbSymbolTableRecord
100
AcDbRegAppTableRecord
  2
ACAD_NAV_VCDISPLAY
 70
     0
  0
APPID
  5
C131
330
9
100
AcDbSymbolTableRecord
100
AcDbRegAppTableRecord
  2
ACAD_MLEADERVER
 70
     0
  0
ENDTAB
  0
TABLE
  2
DIMSTYLE
  5
A
330
0
100
AcDbSymbolTable
 70
     1
100
AcDbDimStyleTable
 71
     1
340
27
  0
DIMSTYLE
105
27
330
A
100
AcDbSymbolTableRecord
100
AcDbDimStyleTableRecord
  2
Standard
 70
     0
  3
"
 41
0.75
 42
1.0
 44
1.0
140
0.75
141
1.0
146
0.75
147
0.5
170
     1
171
     0
271
     3
272
     3
274
     0
276
     2
277
     5
340
11
1001
ACAD_DSTYLE_DIMJOGGED_JOGANGLE_SYMBOL
1070
   384
1040
0.7853981633974483
1001
ACAD_DSTYLE_DIMEXT_LENGTH
1070
   378
1040
0.18
  0
ENDTAB
  0
TABLE
  2
BLOCK_RECORD
  5
1
330
0
100
AcDbSymbolTable
 70
    40
  0
BLOCK_RECORD
  5
1F
102
{ACAD_XDICTIONARY
360
5B8E
102
}
330
1
100
AcDbSymbolTableRecord
100
AcDbBlockTableRecord
  2
*Model_Space
340
22
  0
BLOCK_RECORD
  5
1B
330
1
100
AcDbSymbolTableRecord
100
AcDbBlockTableRecord
  2
*Paper_Space
340
1E
  0
BLOCK_RECORD
  5
23
330
1
100
AcDbSymbolTableRecord
100
AcDbBlockTableRecord
  2
*Paper_Space0
340
26
  0
BLOCK_RECORD
  5
759D
330
1
100
AcDbSymbolTableRecord
100
AcDbBlockTableRecord
  2
*D1
340
0
  0
BLOCK_RECORD
  5
75D5
330
1
100
AcDbSymbolTableRecord
100
AcDbBlockTableRecord
  2
*D2
340
0
  0
BLOCK_RECORD
  5
826F
330
1
100
AcDbSymbolTableRecord
100
AcDbBlockTableRecord
  2
*D3
340
0
  0
BLOCK_RECORD
  5
91F6
330
1
100
AcDbSymbolTableRecord
100
AcDbBlockTableRecord
  2
*D4
340
0
  0
BLOCK_RECORD
  5
921C
330
1
100
AcDbSymbolTableRecord
100
AcDbBlockTableRecord
  2
*D5
340
0
  0
BLOCK_RECORD
  5
A1C4
102
{ACAD_XDICTIONARY
360
A1C9
102
}
330
1
100
AcDbSymbolTableRecord
100
AcDbBlockTableRecord
  2
BLOCK1
340
0
1001
ACAD
1000
DesignCenter Data
1002
{
1070
     1
1070
     1
1002
}
  0
BLOCK_RECORD
  5
A6E2
330
1
100
AcDbSymbolTableRecord
100
AcDbBlockTableRecord
  2
*D7
340
0
  0
BLOCK_RECORD
  5
A724
330
1
100
AcDbSymbolTableRecord
100
AcDbBlockTableRecord
  2
*D8
340
0
  0
BLOCK_RECORD
  5
A932
330
1
100
AcDbSymbolTableRecord
100
AcDbBlockTableRecord
  2
*D9
340
0
  0
BLOCK_RECORD
  5
A9F4
330
1
100
AcDbSymbolTableRecord
100
AcDbBlockTableRecord
  2
*D10
340
0
  0
BLOCK_RECORD
  5
ACEF
330
1
100
AcDbSymbolTableRecord
100
AcDbBlockTableRecord
  2
*D11
340
0
  0
BLOCK_RECORD
  5
B209
330
1
100
AcDbSymbolTableRecord
100
AcDbBlockTableRecord
  2
COMP65
340
0
  0
BLOCK_RECORD
  5
B5AC
330
1
100
AcDbSymbolTableRecord
100
AcDbBlockTableRecord
  2
MARK1_1
340
0
102
{BLKREFS
331
B5B4
331
B5B6
331
B5C0
331
B5C2
331
B5CB
331
B5CF
331
B5D8
331
B5DA
331
BA79
331
BA7D
331
BA86
331
BA88
331
BA91
331
BA93
331
BA9B
331
BA9D
331
BAA4
331
BAA6
331
BAB4
331
BAB6
331
BAC2
331
BAC4
331
BACD
331
BAD1
331
BADA
331
BADE
331
BAE7
331
BAEB
331
BAF2
331
BAF6
102
}
  0
BLOCK_RECORD
  5
B5B1
330
1
100
AcDbSymbolTableRecord
100
AcDbBlockTableRecord
  2
COMP5
340
0
  0
BLOCK_RECORD
  5
B5BD
330
1
100
AcDbSymbolTableRecord
100
AcDbBlockTableRecord
  2
COMP6
340
0
  0
BLOCK_RECORD
  5
B5C8
330
1
100
AcDbSymbolTableRecord
100
AcDbBlockTableRecord
  2
COMP7
340
0
  0
BLOCK_RECORD
  5
B5D5
330
1
100
AcDbSymbolTableRecord
100
AcDbBlockTableRecord
  2
COMP18
340
0
  0
BLOCK_RECORD
  5
B72A
330
1
100
AcDbSymbolTableRecord
100
AcDbBlockTableRecord
  2
*D18
340
0
  0
BLOCK_RECORD
  5
B789
330
1
100
AcDbSymbolTableRecord
100
AcDbBlockTableRecord
  2
*D19
340
0
  0
BLOCK_RECORD
  5
B7A3
330
1
100
AcDbSymbolTableRecord
100
AcDbBlockTableRecord
  2
*D20
340
0
  0
BLOCK_RECORD
  5
B7C7
330
1
100
AcDbSymbolTableRecord
100
AcDbBlockTableRecord
  2
*D21
340
0
  0
BLOCK_RECORD
  5
B7E1
330
1
100
AcDbSymbolTableRecord
100
AcDbBlockTableRecord
  2
*D22
340
0
  0
BLOCK_RECORD
  5
B7FB
330
1
100
AcDbSymbolTableRecord
100
AcDbBlockTableRecord
  2
*D23
340
0
  0
BLOCK_RECORD
  5
B815
330
1
100
AcDbSymbolTableRecord
100
AcDbBlockTableRecord
  2
*D24
340
0
  0
BLOCK_RECORD
  5
B84B
330
1
100
AcDbSymbolTableRecord
100
AcDbBlockTableRecord
  2
*D25
340
0
  0
BLOCK_RECORD
  5
B865
330
1
100
AcDbSymbolTableRecord
100
AcDbBlockTableRecord
  2
*D26
340
0
  0
BLOCK_RECORD
  5
BA27
330
1
100
AcDbSymbolTableRecord
100
AcDbBlockTableRecord
  2
*D27
340
0
  0
BLOCK_RECORD
  5
BA76
330
1
100
AcDbSymbolTableRecord
100
AcDbBlockTableRecord
  2
COMP8
340
0
  0
BLOCK_RECORD
  5
BA83
330
1
100
AcDbSymbolTableRecord
100
AcDbBlockTableRecord
  2
COMP10
340
0
  0
BLOCK_RECORD
  5
BA8E
330
1
100
AcDbSymbolTableRecord
100
AcDbBlockTableRecord
  2
COMP11
340
0
  0
BLOCK_RECORD
  5
BA98
330
1
100
AcDbSymbolTableRecord
100
AcDbBlockTableRecord
  2
COMP12
340
0
  0
BLOCK_RECORD
  5
BAA1
330
1
100
AcDbSymbolTableRecord
100
AcDbBlockTableRecord
  2
COMP15
340
0
  0
BLOCK_RECORD
  5
BAB1
330
1
100
AcDbSymbolTableRecord
100
AcDbBlockTableRecord
  2
COMP16
340
0
  0
BLOCK_RECORD
  5
BABF
330
1
100
AcDbSymbolTableRecord
100
AcDbBlockTableRecord
  2
COMP17
340
0
  0
BLOCK_RECORD
  5
BACA
330
1
100
AcDbSymbolTableRecord
100
AcDbBlockTableRecord
  2
COMP19
340
0
  0
BLOCK_RECORD
  5
BAD7
330
1
100
AcDbSymbolTableRecord
100
AcDbBlockTableRecord
  2
COMP20
340
0
  0
BLOCK_RECORD
  5
BAE4
330
1
100
AcDbSymbolTableRecord
100
AcDbBlockTableRecord
  2
COMP25
340
0
  0
BLOCK_RECORD
  5
BAEF
330
1
100
AcDbSymbolTableRecord
100
AcDbBlockTableRecord
  2
COMP26
340
0
  0
BLOCK_RECORD
  5
BFB4
330
1
100
AcDbSymbolTableRecord
100
AcDbBlockTableRecord
  2
*D39
340
0
  0
ENDTAB
  0
ENDSEC
  0
SECTION
  2
BLOCKS
  0
BLOCK
  5
20
330
1F
100
AcDbEntity
  8
0
100
AcDbBlockBegin
  2
*Model_Space
 70
     0
 10
0.0
 20
0.0
 30
0.0
  3
*Model_Space
  1

  0
ENDBLK
  5
21
330
1F
100
AcDbEntity
  8
0
100
AcDbBlockEnd
  0
BLOCK
  5
1C
330
1B
100
AcDbEntity
 67
     1
  8
0
100
AcDbBlockBegin
  2
*Paper_Space
 70
     0
 10
0.0
 20
0.0
 30
0.0
  3
*Paper_Space
  1

  0
ENDBLK
  5
1D
330
1B
100
AcDbEntity
 67
     1
  8
0
100
AcDbBlockEnd
  0
BLOCK
  5
24
330
23
100
AcDbEntity
 67
     1
  8
0
100
AcDbBlockBegin
  2
*Paper_Space0
 70
     0
 10
0.0
 20
0.0
 30
0.0
  3
*Paper_Space0
  1

  0
ENDBLK
  5
25
330
23
100
AcDbEntity
 67
     1
  8
0
100
AcDbBlockEnd
  0
BLOCK
  5
75A8
330
759D
100
AcDbEntity
  8
0
100
AcDbBlockBegin
  2
*D1
 70
     1
 10
0.0
 20
0.0
 30
0.0
  3
*D1
  1

  0
LINE
  5
B551
330
759D
100
AcDbEntity
  8
Dim
 62
     0
440
 16777216
370
    -2
100
AcDbLine
 10
195.3470536922527
 20
248.6343246456408
 30
0.0
 11
185.3202938868197
 21
248.6343246456408
 31
0.0
  0
LINE
  5
B552
330
759D
100
AcDbEntity
  8
Dim
 62
     0
440
 16777216
370
    -2
100
AcDbLine
 10
194.6829619637546
 20
227.6684840673561
 30
0.0
 11
185.3202938868197
 21
227.6684840673561
 31
0.0
  0
LINE
  5
B553
330
759D
100
AcDbEntity
  8
Dim
 62
     0
440
 16777216
370
    -2
100
AcDbLine
 10
186.3202938868196
 20
247.8843246456408
 30
0.0
 11
186.3202938868196
 21
240.5438188595314
 31
0.0
  0
LINE
  5
B554
330
759D
100
AcDbEntity
  8
Dim
 62
     0
440
 16777216
370
    -2
100
AcDbLine
 10
186.3202938868196
 20
228.4184840673561
 30
0.0
 11
186.3202938868196
 21
238.7938188595314
 31
0.0
  0
SOLID
  5
B555
330
759D
100
AcDbEntity
  8
Dim
 62
     0
440
 16777216
100
AcDbTrace
 10
186.1952938868197
 20
247.8843246456408
 30
0.0
 11
186.4452938868197
 21
247.8843246456408
 31
0.0
 12
186.3202938868196
 22
248.6343246456408
 32
0.0
 13
186.3202938868196
 23
248.6343246456408
 33
0.0
  0
SOLID
  5
B556
330
759D
100
AcDbEntity
  8
Dim
 62
     0
440
 16777216
100
AcDbTrace
 10
186.1952938868197
 20
228.4184840673561
 30
0.0
 11
186.4452938868197
 21
228.4184840673561
 31
0.0
 12
186.3202938868196
 22
227.6684840673561
 32
0.0
 13
186.3202938868196
 23
227.6684840673561
 33
0.0
  0
MTEXT
  5
B557
330
759D
100
AcDbEntity
  8
Dim
 62
     0
440
 16777216
100
AcDbMText
 10
186.3202938868196
 20
239.6688188595314
 30
0.0
 40
0.75
 41
0.0
 71
     5
 72
     1
  1
\A1;21" [533]*
 73
     1
 44
1.0
  0
POINT
  5
B558
330
759D
100
AcDbEntity
  8
Defpoints
 62
     0
440
 16777216
100
AcDbPoint
 10
196.3470536922527
 20
248.6343246456408
 30
0.0
  0
POINT
  5
B559
330
759D
100
AcDbEntity
  8
Defpoints
 62
     0
440
 16777216
100
AcDbPoint
 10
195.6829619637548
 20
227.6684840673561
 30
0.0
  0
POINT
  5
B55A
330
759D
100
AcDbEntity
  8
Defpoints
 62
     0
440
 16777216
100
AcDbPoint
 10
186.3202938868196
 20
227.6684840673561
 30
0.0
  0
ENDBLK
  5
75A9
330
759D
100
AcDbEntity
  8
0
100
AcDbBlockEnd
  0
BLOCK
  5
75E0
330
75D5
100
AcDbEntity
  8
0
100
AcDbBlockBegin
  2
*D2
 70
     1
 10
0.0
 20
0.0
 30
0.0
  3
*D2
  1

  0
LINE
  5
B547
330
75D5
100
AcDbEntity
  8
Dim
 62
     0
440
 16777216
370
    -2
100
AcDbLine
 10
199.176799145847
 20
245.6434998640755
 30
0.0
 11
191.1721523037313
 21
245.6434998640756
 31
0.0
  0
LINE
  5
B548
330
75D5
100
AcDbEntity
  8
Dim
 62
     0
440
 16777216
370
    -2
100
AcDbLine
 10
196.7653438235077
 20
227.6684840673561
 30
0.0
 11
191.1721523037313
 21
227.6684840673561
 31
0.0
  0
LINE
  5
B549
330
75D5
100
AcDbEntity
  8
Dim
 62
     0
440
 16777216
370
    -2
100
AcDbLine
 10
192.1721523037313
 20
244.8934998640755
 30
0.0
 11
192.1721523037313
 21
237.5156908230581
 31
0.0
  0
LINE
  5
B54A
330
75D5
100
AcDbEntity
  8
Dim
 62
     0
440
 16777216
370
    -2
100
AcDbLine
 10
192.1721523037313
 20
228.4184840673561
 30
0.0
 11
192.1721523037313
 21
235.7656908230581
 31
0.0
  0
SOLID
  5
B54B
330
75D5
100
AcDbEntity
  8
Dim
 62
     0
440
 16777216
100
AcDbTrace
 10
192.0471523037313
 20
244.8934998640755
 30
0.0
 11
192.2971523037313
 21
244.8934998640755
 31
0.0
 12
192.1721523037313
 22
245.6434998640755
 32
0.0
 13
192.1721523037313
 23
245.6434998640755
 33
0.0
  0
SOLID
  5
B54C
330
75D5
100
AcDbEntity
  8
Dim
 62
     0
440
 16777216
100
AcDbTrace
 10
192.0471523037313
 20
228.4184840673561
 30
0.0
 11
192.2971523037313
 21
228.4184840673561
 31
0.0
 12
192.1721523037313
 22
227.6684840673561
 32
0.0
 13
192.1721523037313
 23
227.6684840673561
 33
0.0
  0
MTEXT
  5
B54D
330
75D5
100
AcDbEntity
  8
Dim
 62
     0
440
 16777216
100
AcDbMText
 10
192.1721523037313
 20
236.6406908230581
 30
0.0
 40
0.75
 41
0.0
 71
     5
 72
     1
  1
\A1;18" [457]*
 73
     1
 44
1.0
  0
POINT
  5
B54E
330
75D5
100
AcDbEntity
  8
Defpoints
 62
     0
440
 16777216
100
AcDbPoint
 10
200.1767991458471
 20
245.6434998640755
 30
0.0
  0
POINT
  5
B54F
330
75D5
100
AcDbEntity
  8
Defpoints
 62
     0
440
 16777216
100
AcDbPoint
 10
197.7653438235077
 20
227.6684840673561
 30
0.0
  0
POINT
  5
B550
330
75D5
100
AcDbEntity
  8
Defpoints
 62
     0
440
 16777216
100
AcDbPoint
 10
192.1721523037313
 20
227.6684840673561
 30
0.0
  0
ENDBLK
  5
75E1
330
75D5
100
AcDbEntity
  8
0
100
AcDbBlockEnd
  0
BLOCK
  5
827A
330
826F
100
AcDbEntity
  8
0
100
AcDbBlockBegin
  2
*D3
 70
     1
 10
0.0
 20
0.0
 30
0.0
  3
*D3
  1

  0
LINE
  5
C01E
330
826F
100
AcDbEntity
  8
Dim
 62
     0
440
 16777216
370
    -2
100
AcDbLine
 10
243.2648673178878
 20
226.6684840673561
 30
0.0
 11
243.2648673178878
 21
223.44716801288
 31
0.0
  0
LINE
  5
C01F
330
826F
100
AcDbEntity
  8
Dim
 62
     0
440
 16777216
370
    -2
100
AcDbLine
 10
247.7502827098849
 20
226.6684840673561
 30
0.0
 11
247.7502827098849
 21
223.44716801288
 31
0.0
  0
LINE
  5
C020
330
826F
100
AcDbEntity
  8
Dim
 62
     0
440
 16777216
370
    -2
100
AcDbLine
 10
244.0148673178878
 20
224.44716801288
 30
0.0
 11
247.0002827098849
 21
224.44716801288
 31
0.0
  0
LINE
  5
C021
330
826F
100
AcDbEntity
  8
Dim
 62
     0
440
 16777216
370
    -2
100
AcDbLine
 10
247.7502827098849
 20
224.44716801288
 30
0.0
 11
248.6252827098849
 21
224.44716801288
 31
0.0
  0
SOLID
  5
C022
330
826F
100
AcDbEntity
  8
Dim
 62
     0
440
 16777216
100
AcDbTrace
 10
244.0148673178878
 20
224.57216801288
 30
0.0
 11
244.0148673178878
 21
224.32216801288
 31
0.0
 12
243.2648673178878
 22
224.44716801288
 32
0.0
 13
243.2648673178878
 23
224.44716801288
 33
0.0
  0
SOLID
  5
C023
330
826F
100
AcDbEntity
  8
Dim
 62
     0
440
 16777216
100
AcDbTrace
 10
247.0002827098849
 20
224.57216801288
 30
0.0
 11
247.0002827098849
 21
224.32216801288
 31
0.0
 12
247.7502827098849
 22
224.44716801288
 32
0.0
 13
247.7502827098849
 23
224.44716801288
 33
0.0
  0
MTEXT
  5
C024
330
826F
100
AcDbEntity
  8
Dim
 62
     0
440
 16777216
100
AcDbMText
 10
254.1215327098849
 20
224.44716801288
 30
0.0
 40
0.75
 41
0.0
 71
     5
 72
     1
  1
\A1;4 1/2"{\H0.562500;±1/4"} [114{\H0.562500;±6}]
 73
     1
 44
1.0
  0
POINT
  5
C025
330
826F
100
AcDbEntity
  8
Defpoints
 62
     0
440
 16777216
100
AcDbPoint
 10
243.2648673178878
 20
227.6684840673561
 30
0.0
  0
POINT
  5
C026
330
826F
100
AcDbEntity
  8
Defpoints
 62
     0
440
 16777216
100
AcDbPoint
 10
247.7502827098849
 20
227.6684840673561
 30
0.0
  0
POINT
  5
C027
330
826F
100
AcDbEntity
  8
Defpoints
 62
     0
440
 16777216
100
AcDbPoint
 10
247.7502827098849
 20
224.44716801288
 30
0.0
  0
ENDBLK
  5
827B
330
826F
100
AcDbEntity
  8
0
100
AcDbBlockEnd
  0
BLOCK
  5
9201
330
91F6
100
AcDbEntity
  8
0
100
AcDbBlockBegin
  2
*D4
 70
     1
 10
0.0
 20
0.0
 30
0.0
  3
*D4
  1

  0
LINE
  5
B599
330
91F6
100
AcDbEntity
  8
Dim
 62
     0
440
 16777216
370
    -2
100
AcDbLine
 10
233.0287695138369
 20
226.6684840673561
 30
0.0
 11
233.0287695138369
 21
223.44716801288
 31
0.0
  0
LINE
  5
B59A
330
91F6
100
AcDbEntity
  8
Dim
 62
     0
440
 16777216
370
    -2
100
AcDbLine
 10
243.2648673178878
 20
226.6684840673561
 30
0.0
 11
243.2648673178878
 21
223.44716801288
 31
0.0
  0
LINE
  5
B59B
330
91F6
100
AcDbEntity
  8
Dim
 62
     0
440
 16777216
370
    -2
100
AcDbLine
 10
242.5148673178878
 20
224.44716801288
 30
0.0
 11
233.7787695138369
 21
224.44716801288
 31
0.0
  0
LINE
  5
B59C
330
91F6
100
AcDbEntity
  8
Dim
 62
     0
440
 16777216
370
    -2
100
AcDbLine
 10
233.0287695138369
 20
224.44716801288
 30
0.0
 11
232.2787695138369
 21
224.44716801288
 31
0.0
  0
SOLID
  5
B59D
330
91F6
100
AcDbEntity
  8
Dim
 62
     0
440
 16777216
100
AcDbTrace
 10
242.5148673178878
 20
224.57216801288
 30
0.0
 11
242.5148673178878
 21
224.32216801288
 31
0.0
 12
243.2648673178878
 22
224.44716801288
 32
0.0
 13
243.2648673178878
 23
224.44716801288
 33
0.0
  0
SOLID
  5
B59E
330
91F6
100
AcDbEntity
  8
Dim
 62
     0
440
 16777216
100
AcDbTrace
 10
233.7787695138369
 20
224.57216801288
 30
0.0
 11
233.7787695138369
 21
224.32216801288
 31
0.0
 12
233.0287695138369
 22
224.44716801288
 32
0.0
 13
233.0287695138369
 23
224.44716801288
 33
0.0
  0
MTEXT
  5
B59F
330
91F6
100
AcDbEntity
  8
Dim
 62
     0
440
 16777216
100
AcDbMText
 10
229.3412695138369
 20
224.44716801288
 30
0.0
 40
0.75
 41
0.0
 71
     5
 72
     1
  1
\A1;8" [203]
 73
     1
 44
1.0
  0
POINT
  5
B5A0
330
91F6
100
AcDbEntity
  8
Defpoints
 62
     0
440
 16777216
100
AcDbPoint
 10
233.0287695138369
 20
227.6684840673561
 30
0.0
  0
POINT
  5
B5A1
330
91F6
100
AcDbEntity
  8
Defpoints
 62
     0
440
 16777216
100
AcDbPoint
 10
243.2648673178878
 20
227.6684840673561
 30
0.0
  0
POINT
  5
B5A2
330
91F6
100
AcDbEntity
  8
Defpoints
 62
     0
440
 16777216
100
AcDbPoint
 10
243.2648673178878
 20
224.44716801288
 30
0.0
  0
ENDBLK
  5
9202
330
91F6
100
AcDbEntity
  8
0
100
AcDbBlockEnd
  0
BLOCK
  5
9227
330
921C
100
AcDbEntity
  8
0
100
AcDbBlockBegin
  2
*D5
 70
     1
 10
0.0
 20
0.0
 30
0.0
  3
*D5
  1

  0
LINE
  5
B585
330
921C
100
AcDbEntity
  8
Dim
 62
     0
440
 16777216
370
    -2
100
AcDbLine
 10
242.6362751716648
 20
254.4763479311836
 30
0.0
 11
255.69513349097
 21
254.4763479311836
 31
0.0
  0
LINE
  5
B586
330
921C
100
AcDbEntity
  8
Dim
 62
     0
440
 16777216
370
    -2
100
AcDbLine
 10
243.9833159700471
 20
227.6667694379344
 30
0.0
 11
255.69513349097
 21
227.6667694379344
 31
0.0
  0
LINE
  5
B587
330
921C
100
AcDbEntity
  8
Dim
 62
     0
440
 16777216
370
    -2
100
AcDbLine
 10
254.69513349097
 20
253.7263479311835
 30
0.0
 11
254.69513349097
 21
242.2576005500447
 31
0.0
  0
LINE
  5
B588
330
921C
100
AcDbEntity
  8
Dim
 62
     0
440
 16777216
370
    -2
100
AcDbLine
 10
254.69513349097
 20
228.4167694379344
 30
0.0
 11
254.69513349097
 21
239.2576005500447
 31
0.0
  0
SOLID
  5
B589
330
921C
100
AcDbEntity
  8
Dim
 62
     0
440
 16777216
100
AcDbTrace
 10
254.57013349097
 20
253.7263479311835
 30
0.0
 11
254.82013349097
 21
253.7263479311835
 31
0.0
 12
254.69513349097
 22
254.4763479311836
 32
0.0
 13
254.69513349097
 23
254.4763479311836
 33
0.0
  0
SOLID
  5
B58A
330
921C
100
AcDbEntity
  8
Dim
 62
     0
440
 16777216
100
AcDbTrace
 10
254.57013349097
 20
228.4167694379344
 30
0.0
 11
254.82013349097
 21
228.4167694379344
 31
0.0
 12
254.69513349097
 22
227.6667694379344
 32
0.0
 13
254.69513349097
 23
227.6667694379344
 33
0.0
  0
MTEXT
  5
B58B
330
921C
100
AcDbEntity
  8
Dim
 62
     0
440
 16777216
100
AcDbMText
 10
254.6951334909699
 20
240.7576005500446
 30
0.0
 40
0.75
 41
0.0
 71
     5
 72
     1
  1
\A1;26 3/4" [681]\POPEN TO FLOOR
 73
     1
 44
1.0
  0
POINT
  5
B58C
330
921C
100
AcDbEntity
  8
Defpoints
 62
     0
440
 16777216
100
AcDbPoint
 10
241.6362751716648
 20
254.4763479311836
 30
0.0
  0
POINT
  5
B58D
330
921C
100
AcDbEntity
  8
Defpoints
 62
     0
440
 16777216
100
AcDbPoint
 10
242.9833159700471
 20
227.6667694379344
 30
0.0
  0
POINT
  5
B58E
330
921C
100
AcDbEntity
  8
Defpoints
 62
     0
440
 16777216
100
AcDbPoint
 10
254.69513349097
 20
227.6667694379344
 30
0.0
  0
ENDBLK
  5
9228
330
921C
100
AcDbEntity
  8
0
100
AcDbBlockEnd
  0
BLOCK
  5
A1CB
330
A1C4
100
AcDbEntity
  8
0
100
AcDbBlockBegin
  2
BLOCK1
 70
     0
 10
0.0
 20
0.0
 30
0.0
  3
BLOCK1
  1

  0
LINE
  5
A1C5
330
A1C4
100
AcDbEntity
  8
Dim
 48
0.25
100
AcDbLine
 10
1884.24930895846
 20
1998.077880090819
 30
0.0
 11
2016.24930895846
 21
1998.077880090819
 31
0.0
  0
LINE
  5
A1C6
330
A1C4
100
AcDbEntity
  8
Dim
 48
0.25
100
AcDbLine
 10
2016.24930895846
 20
1998.077880090819
 30
0.0
 11
2016.24930895846
 21
2094.077880090819
 31
0.0
  0
LINE
  5
A1C7
330
A1C4
100
AcDbEntity
  8
Dim
 48
0.25
100
AcDbLine
 10
1884.24930895846
 20
1998.077880090819
 30
0.0
 11
1884.24930895846
 21
2094.077880090819
 31
0.0
  0
LINE
  5
A1C8
330
A1C4
100
AcDbEntity
  8
Dim
 48
0.25
100
AcDbLine
 10
1884.24930895846
 20
2094.077880090819
 30
0.0
 11
2016.24930895846
 21
2094.077880090819
 31
0.0
  0
ENDBLK
  5
A1CC
330
A1C4
100
AcDbEntity
  8
0
100
AcDbBlockEnd
  0
BLOCK
  5
A6ED
330
A6E2
100
AcDbEntity
  8
0
100
AcDbBlockBegin
  2
*D7
 70
     1
 10
0.0
 20
0.0
 30
0.0
  3
*D7
  1

  0
LINE
  5
B56F
330
A6E2
100
AcDbEntity
  8
Dim
 62
     0
440
 16777216
370
    -2
100
AcDbLine
 10
196.8470536922527
 20
250.1717888273789
 30
0.0
 11
196.8470536922527
 21
252.3386488589811
 31
0.0
  0
LINE
  5
B570
330
A6E2
100
AcDbEntity
  8
Dim
 62
     0
440
 16777216
370
    -2
100
AcDbLine
 10
205.5084710150873
 20
250.1717888273788
 30
0.0
 11
205.5084710150873
 21
252.3386488589811
 31
0.0
  0
LINE
  5
B571
330
A6E2
100
AcDbEntity
  8
Dim
 62
     0
440
 16777216
370
    -2
100
AcDbLine
 10
204.7584710150873
 20
251.3386488589811
 30
0.0
 11
197.5970536922527
 21
251.3386488589811
 31
0.0
  0
LINE
  5
B572
330
A6E2
100
AcDbEntity
  8
Dim
 62
     0
440
 16777216
370
    -2
100
AcDbLine
 10
196.8470536922527
 20
251.3386488589811
 30
0.0
 11
195.2769551584163
 21
251.3386488589811
 31
0.0
  0
SOLID
  5
B573
330
A6E2
100
AcDbEntity
  8
Dim
 62
     0
440
 16777216
100
AcDbTrace
 10
204.7584710150873
 20
251.4636488589811
 30
0.0
 11
204.7584710150873
 21
251.2136488589811
 31
0.0
 12
205.5084710150873
 22
251.3386488589811
 32
0.0
 13
205.5084710150873
 23
251.3386488589811
 33
0.0
  0
SOLID
  5
B574
330
A6E2
100
AcDbEntity
  8
Dim
 62
     0
440
 16777216
100
AcDbTrace
 10
197.5970536922527
 20
251.4636488589811
 30
0.0
 11
197.5970536922527
 21
251.2136488589811
 31
0.0
 12
196.8470536922527
 22
251.3386488589811
 32
0.0
 13
196.8470536922527
 23
251.3386488589811
 33
0.0
  0
MTEXT
  5
B575
330
A6E2
100
AcDbEntity
  8
Dim
 62
     0
440
 16777216
100
AcDbMText
 10
190.8394551584163
 20
251.3386488589811
 30
0.0
 40
0.75
 41
0.0
 71
     5
 72
     1
  1
\A1;8 5/8" [220]
 73
     1
 44
1.0
  0
POINT
  5
B576
330
A6E2
100
AcDbEntity
  8
Defpoints
 62
     0
440
 16777216
100
AcDbPoint
 10
196.8470536922527
 20
249.1717888273789
 30
0.0
  0
POINT
  5
B577
330
A6E2
100
AcDbEntity
  8
Defpoints
 62
     0
440
 16777216
100
AcDbPoint
 10
205.5084710150873
 20
249.1717888273788
 30
0.0
  0
POINT
  5
B578
330
A6E2
100
AcDbEntity
  8
Defpoints
 62
     0
440
 16777216
100
AcDbPoint
 10
205.5084710150873
 20
251.3386488589811
 30
0.0
  0
ENDBLK
  5
A6EE
330
A6E2
100
AcDbEntity
  8
0
100
AcDbBlockEnd
  0
BLOCK
  5
A72F
330
A724
100
AcDbEntity
  8
0
100
AcDbBlockBegin
  2
*D8
 70
     1
 10
0.0
 20
0.0
 30
0.0
  3
*D8
  1

  0
LINE
  5
B565
330
A724
100
AcDbEntity
  8
Dim
 62
     0
440
 16777216
370
    -2
100
AcDbLine
 10
195.6439706889133
 20
226.631019885618
 30
0.0
 11
195.6439706889133
 21
222.9437568226654
 31
0.0
  0
LINE
  5
B566
330
A724
100
AcDbEntity
  8
Dim
 62
     0
440
 16777216
370
    -2
100
AcDbLine
 10
206.7115545915084
 20
226.631019885618
 30
0.0
 11
206.7115545915084
 21
222.9437568226654
 31
0.0
  0
LINE
  5
B567
330
A724
100
AcDbEntity
  8
Dim
 62
     0
440
 16777216
370
    -2
100
AcDbLine
 10
194.8939706889133
 20
223.9437568226654
 30
0.0
 11
194.1439706889133
 21
223.9437568226654
 31
0.0
  0
LINE
  5
B568
330
A724
100
AcDbEntity
  8
Dim
 62
     0
440
 16777216
370
    -2
100
AcDbLine
 10
207.4615545915083
 20
223.9437568226654
 30
0.0
 11
208.2115545915084
 21
223.9437568226654
 31
0.0
  0
SOLID
  5
B569
330
A724
100
AcDbEntity
  8
Dim
 62
     0
440
 16777216
100
AcDbTrace
 10
194.8939706889133
 20
224.0687568226654
 30
0.0
 11
194.8939706889133
 21
223.8187568226654
 31
0.0
 12
195.6439706889133
 22
223.9437568226654
 32
0.0
 13
195.6439706889133
 23
223.9437568226654
 33
0.0
  0
SOLID
  5
B56A
330
A724
100
AcDbEntity
  8
Dim
 62
     0
440
 16777216
100
AcDbTrace
 10
207.4615545915083
 20
224.0687568226654
 30
0.0
 11
207.4615545915083
 21
223.8187568226654
 31
0.0
 12
206.7115545915084
 22
223.9437568226654
 32
0.0
 13
206.7115545915084
 23
223.9437568226654
 33
0.0
  0
MTEXT
  5
B56B
330
A724
100
AcDbEntity
  8
Dim
 62
     0
440
 16777216
100
AcDbMText
 10
201.1777626402109
 20
223.9437568226654
 30
0.0
 40
0.75
 41
0.0
 71
     5
 72
     1
  1
\A1;11 1/8" [281]
 73
     1
 44
1.0
  0
POINT
  5
B56C
330
A724
100
AcDbEntity
  8
Defpoints
 62
     0
440
 16777216
100
AcDbPoint
 10
195.6439706889133
 20
227.631019885618
 30
0.0
  0
POINT
  5
B56D
330
A724
100
AcDbEntity
  8
Defpoints
 62
     0
440
 16777216
100
AcDbPoint
 10
206.7115545915084
 20
227.631019885618
 30
0.0
  0
POINT
  5
B56E
330
A724
100
AcDbEntity
  8
Defpoints
 62
     0
440
 16777216
100
AcDbPoint
 10
206.7115545915084
 20
223.9437568226654
 30
0.0
  0
ENDBLK
  5
A730
330
A724
100
AcDbEntity
  8
0
100
AcDbBlockEnd
  0
BLOCK
  5
A93D
330
A932
100
AcDbEntity
  8
0
100
AcDbBlockBegin
  2
*D9
 70
     1
 10
0.0
 20
0.0
 30
0.0
  3
*D9
  1

  0
LINE
  5
BFCD
330
A932
100
AcDbEntity
  8
Dim
 62
     0
440
 16777216
370
    -2
100
AcDbLine
 10
275.7360235179527
 20
233.8085483734059
 30
0.0
 11
275.7360235179527
 21
238.3906818044007
 31
0.0
  0
LINE
  5
BFCE
330
A932
100
AcDbEntity
  8
Dim
 62
     0
440
 16777216
370
    -2
100
AcDbLine
 10
283.6100392659842
 20
233.8085483734059
 30
0.0
 11
283.6100392659842
 21
238.3906818044007
 31
0.0
  0
LINE
  5
BFCF
330
A932
100
AcDbEntity
  8
Dim
 62
     0
440
 16777216
370
    -2
100
AcDbLine
 10
276.4860235179527
 20
237.3906818044007
 30
0.0
 11
282.8600392659842
 21
237.3906818044007
 31
0.0
  0
LINE
  5
BFD0
330
A932
100
AcDbEntity
  8
Dim
 62
     0
440
 16777216
370
    -2
100
AcDbLine
 10
283.6100392659842
 20
237.3906818044007
 30
0.0
 11
284.3600392659842
 21
237.3906818044007
 31
0.0
  0
SOLID
  5
BFD1
330
A932
100
AcDbEntity
  8
Dim
 62
     0
440
 16777216
100
AcDbTrace
 10
276.4860235179527
 20
237.5156818044008
 30
0.0
 11
276.4860235179527
 21
237.2656818044007
 31
0.0
 12
275.7360235179527
 22
237.3906818044007
 32
0.0
 13
275.7360235179527
 23
237.3906818044007
 33
0.0
  0
SOLID
  5
BFD2
330
A932
100
AcDbEntity
  8
Dim
 62
     0
440
 16777216
100
AcDbTrace
 10
282.8600392659842
 20
237.5156818044008
 30
0.0
 11
282.8600392659842
 21
237.2656818044007
 31
0.0
 12
283.6100392659842
 22
237.3906818044007
 32
0.0
 13
283.6100392659842
 23
237.3906818044007
 33
0.0
  0
MTEXT
  5
BFD3
330
A932
100
AcDbEntity
  8
Dim
 62
     0
440
 16777216
100
AcDbMText
 10
288.7350392659842
 20
237.3906818044007
 30
0.0
 40
0.75
 41
0.0
 71
     5
 72
     1
  1
\A1;7 7/8" [200]
 73
     1
 44
1.0
  0
POINT
  5
BFD4
330
A932
100
AcDbEntity
  8
Defpoints
 62
     0
440
 16777216
100
AcDbPoint
 10
275.7360235179527
 20
232.8085483734059
 30
0.0
  0
POINT
  5
BFD5
330
A932
100
AcDbEntity
  8
Defpoints
 62
     0
440
 16777216
100
AcDbPoint
 10
283.6100392659842
 20
232.8085483734059
 30
0.0
  0
POINT
  5
BFD6
330
A932
100
AcDbEntity
  8
Defpoints
 62
     0
440
 16777216
100
AcDbPoint
 10
283.6100392659842
 20
237.3906818044007
 30
0.0
  0
ENDBLK
  5
A93E
330
A932
100
AcDbEntity
  8
0
100
AcDbBlockEnd
  0
BLOCK
  5
AA00
330
A9F4
100
AcDbEntity
  8
0
100
AcDbBlockBegin
  2
*D10
 70
     1
 10
0.0
 20
0.0
 30
0.0
  3
*D10
  1

  0
LINE
  5
B53C
330
A9F4
100
AcDbEntity
  8
Dim
 62
     0
440
 16777216
370
    -2
100
AcDbLine
 10
203.1777626402168
 20
230.3987032144174
 30
0.0
 11
209.1906255158327
 21
230.3987032144174
 31
0.0
  0
LINE
  5
B53D
330
A9F4
100
AcDbEntity
  8
Dim
 62
     0
440
 16777216
370
    -2
100
AcDbLine
 10
203.1777626402168
 20
227.6684840673561
 30
0.0
 11
209.1906255158327
 21
227.6684840673561
 31
0.0
  0
LINE
  5
B53E
330
A9F4
100
AcDbEntity
  8
Dim
 62
     0
440
 16777216
370
    -2
100
AcDbLine
 10
208.1906255158326
 20
228.4184840673561
 30
0.0
 11
208.1906255158326
 21
229.6487032144174
 31
0.0
  0
LINE
  5
B53F
330
A9F4
100
AcDbEntity
  8
Dim
 62
     0
440
 16777216
370
    -2
100
AcDbLine
 10
208.1906255158326
 20
230.3987032144174
 30
0.0
 11
208.1906255158326
 21
232.0115829914559
 31
0.0
  0
LINE
  5
B540
330
A9F4
100
AcDbEntity
  8
Dim
 62
     0
440
 16777216
370
    -2
100
AcDbLine
 10
208.1906255158326
 20
232.0115829914559
 30
0.0
 11
208.9406255158327
 21
232.0115829914559
 31
0.0
  0
SOLID
  5
B541
330
A9F4
100
AcDbEntity
  8
Dim
 62
     0
440
 16777216
100
AcDbTrace
 10
208.0656255158327
 20
228.4184840673561
 30
0.0
 11
208.3156255158327
 21
228.4184840673561
 31
0.0
 12
208.1906255158326
 22
227.6684840673561
 32
0.0
 13
208.1906255158326
 23
227.6684840673561
 33
0.0
  0
SOLID
  5
B542
330
A9F4
100
AcDbEntity
  8
Dim
 62
     0
440
 16777216
100
AcDbTrace
 10
208.0656255158327
 20
229.6487032144174
 30
0.0
 11
208.3156255158327
 21
229.6487032144174
 31
0.0
 12
208.1906255158326
 22
230.3987032144174
 32
0.0
 13
208.1906255158326
 23
230.3987032144174
 33
0.0
  0
MTEXT
  5
B543
330
A9F4
100
AcDbEntity
  8
Dim
 62
     0
440
 16777216
100
AcDbMText
 10
213.0656255158327
 20
232.0115829914559
 30
0.0
 40
0.75
 41
0.0
 71
     5
 72
     1
  1
\A1;2 3/4" [69]
 73
     1
 44
1.0
  0
POINT
  5
B544
330
A9F4
100
AcDbEntity
  8
Defpoints
 62
     0
440
 16777216
100
AcDbPoint
 10
202.1777626402168
 20
230.3987032144174
 30
0.0
  0
POINT
  5
B545
330
A9F4
100
AcDbEntity
  8
Defpoints
 62
     0
440
 16777216
100
AcDbPoint
 10
202.1777626402168
 20
227.6684840673561
 30
0.0
  0
POINT
  5
B546
330
A9F4
100
AcDbEntity
  8
Defpoints
 62
     0
440
 16777216
100
AcDbPoint
 10
208.1906255158326
 20
227.6684840673561
 30
0.0
  0
ENDBLK
  5
AA01
330
A9F4
100
AcDbEntity
  8
0
100
AcDbBlockEnd
  0
BLOCK
  5
ACFA
330
ACEF
100
AcDbEntity
  8
0
100
AcDbBlockBegin
  2
*D11
 70
     1
 10
0.0
 20
0.0
 30
0.0
  3
*D11
  1

  0
LINE
  5
BF50
330
ACEF
100
AcDbEntity
  8
Dim
 62
     0
440
 16777216
370
    -2
100
AcDbLine
 10
188.4774674646477
 20
262.0385628075136
 30
0.0
 11
176.2187134561893
 21
262.0385628075136
 31
0.0
  0
LINE
  5
BF51
330
ACEF
100
AcDbEntity
  8
Dim
 62
     0
440
 16777216
370
    -2
100
AcDbLine
 10
185.3202938868197
 20
227.6427032144179
 30
0.0
 11
176.2187134561893
 21
227.6427032144179
 31
0.0
  0
LINE
  5
BF52
330
ACEF
100
AcDbEntity
  8
Dim
 62
     0
440
 16777216
370
    -2
100
AcDbLine
 10
177.2187134561893
 20
261.2885628075136
 30
0.0
 11
177.2187134561893
 21
245.7420688577919
 31
0.0
  0
LINE
  5
BF53
330
ACEF
100
AcDbEntity
  8
Dim
 62
     0
440
 16777216
370
    -2
100
AcDbLine
 10
177.2187134561893
 20
228.3927032144179
 30
0.0
 11
177.2187134561893
 21
243.9920688577919
 31
0.0
  0
SOLID
  5
BF54
330
ACEF
100
AcDbEntity
  8
Dim
 62
     0
440
 16777216
100
AcDbTrace
 10
177.0937134561893
 20
261.2885628075136
 30
0.0
 11
177.3437134561893
 21
261.2885628075136
 31
0.0
 12
177.2187134561893
 22
262.0385628075136
 32
0.0
 13
177.2187134561893
 23
262.0385628075136
 33
0.0
  0
SOLID
  5
BF55
330
ACEF
100
AcDbEntity
  8
Dim
 62
     0
440
 16777216
100
AcDbTrace
 10
177.0937134561893
 20
228.3927032144179
 30
0.0
 11
177.3437134561893
 21
228.3927032144179
 31
0.0
 12
177.2187134561893
 22
227.6427032144179
 32
0.0
 13
177.2187134561893
 23
227.6427032144179
 33
0.0
  0
MTEXT
  5
BF56
330
ACEF
100
AcDbEntity
  8
Dim
 62
     0
440
 16777216
100
AcDbMText
 10
177.2187134561893
 20
244.8670688577919
 30
0.0
 40
0.75
 41
0.0
 71
     5
 72
     1
  1
\A1;34 3/8" [874]
 73
     1
 44
1.0
  0
POINT
  5
BF57
330
ACEF
100
AcDbEntity
  8
Defpoints
 62
     0
440
 16777216
100
AcDbPoint
 10
189.4774674646477
 20
262.0385628075136
 30
0.0
  0
POINT
  5
BF58
330
ACEF
100
AcDbEntity
  8
Defpoints
 62
     0
440
 16777216
100
AcDbPoint
 10
186.3202938868196
 20
227.6427032144179
 30
0.0
  0
POINT
  5
BF59
330
ACEF
100
AcDbEntity
  8
Defpoints
 62
     0
440
 16777216
100
AcDbPoint
 10
177.2187134561893
 20
227.6427032144179
 30
0.0
  0
ENDBLK
  5
ACFB
330
ACEF
100
AcDbEntity
  8
0
100
AcDbBlockEnd
  0
BLOCK
  5
B20A
330
B209
100
AcDbEntity
  8
0
 62
     0
100
AcDbBlockBegin
  2
COMP65
 70
     0
 10
0.0
 20
0.0
 30
0.0
  3
COMP65
  1

  0
MTEXT
  5
B20B
330
B209
100
AcDbEntity
  8
0
 62
     7
100
AcDbMText
 10
-44.4613577963
 20
-252.1310073316999
 30
0.0
 40
2.5
 41
0.0
 71
     1
 72
     5
  1
5
  7
SLDTEXTSTYLE0
 11
0.0
 21
1.0
 31
0.0
 73
     1
 44
1.0
  0
LINE
  5
B20C
330
B209
100
AcDbEntity
  8
PIC01
  6
Continuous
 62
     7
100
AcDbLine
 10
-41.36135768309999
 20
-251.0476848140999
 30
0.0
 11
-41.36135768309999
 21
-249.0477047816999
 31
0.0
  0
LINE
  5
B20D
330
B209
100
AcDbEntity
  8
0
  6
Continuous
 62
     7
100
AcDbLine
 10
-40.73635768309999
 20
-248.5476848140999
 30
0.0
 11
-41.36135768309999
 21
-251.0476848140999
 31
0.0
  0
LINE
  5
B20E
330
B209
100
AcDbEntity
  8
0
  6
Continuous
 62
     7
100
AcDbLine
 10
-41.36135768309999
 20
-251.0476848140999
 30
0.0
 11
-41.98635768309999
 21
-248.5476848140999
 31
0.0
  0
LINE
  5
B20F
330
B209
100
AcDbEntity
  8
PIC01
  6
Continuous
 62
     7
100
AcDbLine
 10
-41.36135768309999
 20
-251.0476848140999
 30
0.0
 11
-41.36135768309999
 21
-251.8810098275999
 31
0.0
  0
LINE
  5
B210
330
B209
100
AcDbEntity
  8
PIC01
  6
Continuous
 62
     7
100
AcDbLine
 10
-41.36135768309999
 20
-252.7143348411999
 30
0.0
 11
-41.36135768309999
 21
-251.8810098275999
 31
0.0
  0
LINE
  5
B211
330
B209
100
AcDbEntity
  8
PIC01
  6
Continuous
 62
     7
100
AcDbLine
 10
-41.36135768309999
 20
-252.7143348411999
 30
0.0
 11
-41.36135768309999
 21
-254.7143148736
 31
0.0
  0
LINE
  5
B212
330
B209
100
AcDbEntity
  8
0
  6
Continuous
 62
     7
100
AcDbLine
 10
-41.98635768309999
 20
-255.2143348411
 30
0.0
 11
-41.36135768309999
 21
-252.7143348411999
 31
0.0
  0
LINE
  5
B213
330
B209
100
AcDbEntity
  8
0
  6
Continuous
 62
     7
100
AcDbLine
 10
-41.36135768309999
 20
-252.7143348411999
 30
0.0
 11
-40.73635768309999
 21
-255.2143348411
 31
0.0
  0
LINE
  5
B214
330
B209
100
AcDbEntity
  8
PIC01
  6
Continuous
 62
     7
100
AcDbLine
 10
-28.17083080639999
 20
-251.0476848140999
 30
0.0
 11
-42.02801769399999
 21
-251.0476848140999
 31
0.0
  0
LINE
  5
B215
330
B209
100
AcDbEntity
  8
PIC01
  6
Continuous
 62
     7
100
AcDbLine
 10
-32.5041208767
 20
-252.7143348411999
 30
0.0
 11
-42.02801769399999
 21
-252.7143348411999
 31
0.0
  0
ENDBLK
  5
B216
330
B209
100
AcDbEntity
  8
0
100
AcDbBlockEnd
  0
BLOCK
  5
B5AD
330
B5AC
100
AcDbEntity
  8
0
100
AcDbBlockBegin
  2
MARK1_1
 70
     0
 10
0.0
 20
0.0
 30
0.0
  3
MARK1_1
  1

  0
LINE
  5
B5AE
330
B5AC
100
AcDbEntity
  8
0
  6
Continuous
 62
     0
100
AcDbLine
 10
1.0
 20
-0.25
 30
0.0
 11
0.0
 21
0.0
 31
0.0
  0
LINE
  5
B5AF
330
B5AC
100
AcDbEntity
  8
0
  6
Continuous
 62
     0
100
AcDbLine
 10
0.0
 20
0.0
 30
0.0
 11
1.0
 21
0.25
 31
0.0
  0
ENDBLK
  5
B5B0
330
B5AC
100
AcDbEntity
  8
0
100
AcDbBlockEnd
  0
BLOCK
  5
B5B2
330
B5B1
100
AcDbEntity
  8
PIC06
100
AcDbBlockBegin
  2
COMP5
 70
     0
 10
0.0
 20
0.0
 30
0.0
  3
COMP5
  1

  0
LINE
  5
B5B3
330
B5B1
100
AcDbEntity
  8
PIC06
  6
Continuous
 62
     7
100
AcDbLine
 10
-83.71142896624951
 20
-99.00301440641852
 30
0.0
 11
-51.62745500716119
 21
-99.00301440641852
 31
0.0
  0
INSERT
  5
B5B4
330
B5B1
100
AcDbEntity
  8
PIC06
  6
Continuous
 62
     7
100
AcDbBlockReference
  2
MARK1_1
 10
-83.71142896624951
 20
-99.00301440641852
 30
0.0
 41
2.5
 42
2.5
  0
LINE
  5
B5B5
330
B5B1
100
AcDbEntity
  8
PIC06
  6
Continuous
 62
     7
100
AcDbLine
 10
-19.54348104807285
 20
-99.00301440641852
 30
0.0
 11
-51.62745500716119
 21
-99.00301440641852
 31
0.0
  0
INSERT
  5
B5B6
330
B5B1
100
AcDbEntity
  8
PIC06
  6
Continuous
 62
     7
100
AcDbBlockReference
  2
MARK1_1
 10
-19.54348104807285
 20
-99.00301440641852
 30
0.0
 41
2.5
 42
2.5
 50
180.0
  0
LINE
  5
B5B7
330
B5B1
100
AcDbEntity
  8
PIC06
  6
Continuous
 62
     7
100
AcDbLine
 10
-83.71142896624951
 20
-83.23746625549118
 30
0.0
 11
-83.71142896624951
 21
-100.0030140285161
 31
0.0
  0
LINE
  5
B5B8
330
B5B1
100
AcDbEntity
  8
PIC06
  6
Continuous
 62
     7
100
AcDbLine
 10
-19.54348104807285
 20
-83.23746625549118
 30
0.0
 11
-19.54348104807285
 21
-100.0030140285161
 31
0.0
  0
TEXT
  5
B5B9
330
B5B1
100
AcDbEntity
  8
PIC06
  6
Continuous
 62
     7
100
AcDbText
 10
-53.97120602883934
 20
-98.40301666770573
 30
0.0
 40
2.5
  1
3
 41
0.6547619344966496
100
AcDbText
  0
TEXT
  5
B5BA
330
B5B1
100
AcDbEntity
  8
PIC06
  6
Continuous
 62
     7
100
AcDbText
 10
-52.25245602883934
 20
-98.40301666770573
 30
0.0
 40
2.5
  1
8
 41
0.6547619344966496
100
AcDbText
  0
TEXT
  5
B5BB
330
B5B1
100
AcDbEntity
  8
PIC06
  6
Continuous
 62
     7
100
AcDbText
 10
-50.53370602883934
 20
-98.40301666770573
 30
0.0
 40
2.5
  1
5
 41
0.6547619344966496
100
AcDbText
  0
ENDBLK
  5
B5BC
330
B5B1
100
AcDbEntity
  8
PIC06
100
AcDbBlockEnd
  0
BLOCK
  5
B5BE
330
B5BD
100
AcDbEntity
  8
PIC06
100
AcDbBlockBegin
  2
COMP6
 70
     0
 10
0.0
 20
0.0
 30
0.0
  3
COMP6
  1

  0
LINE
  5
B5BF
330
B5BD
100
AcDbEntity
  8
PIC06
  6
Continuous
 62
     7
100
AcDbLine
 10
-55.79420487197785
 20
-66.96703029715263
 30
0.0
 11
-51.62745500716119
 21
-66.96703029715263
 31
0.0
  0
INSERT
  5
B5C0
330
B5BD
100
AcDbEntity
  8
PIC06
  6
Continuous
 62
     7
100
AcDbBlockReference
  2
MARK1_1
 10
-55.79420487197785
 20
-66.96703029715263
 30
0.0
 41
2.5
 42
2.5
  0
LINE
  5
B5C1
330
B5BD
100
AcDbEntity
  8
PIC06
  6
Continuous
 62
     7
100
AcDbLine
 10
-47.46070514234452
 20
-66.96703029715263
 30
0.0
 11
-51.62745500716119
 21
-66.96703029715263
 31
0.0
  0
INSERT
  5
B5C2
330
B5BD
100
AcDbEntity
  8
PIC06
  6
Continuous
 62
     7
100
AcDbBlockReference
  2
MARK1_1
 10
-47.46070514234452
 20
-66.96703029715263
 30
0.0
 41
2.5
 42
2.5
 50
180.0
  0
LINE
  5
B5C3
330
B5BD
100
AcDbEntity
  8
PIC06
  6
Continuous
 62
     7
100
AcDbLine
 10
-55.79420487197785
 20
-61.32036196655554
 30
0.0
 11
-55.79420487197785
 21
-67.96702991925032
 31
0.0
  0
LINE
  5
B5C4
330
B5BD
100
AcDbEntity
  8
PIC06
  6
Continuous
 62
     7
100
AcDbLine
 10
-47.46070514234452
 20
-61.32036196655554
 30
0.0
 11
-47.46070514234452
 21
-67.96702991925032
 31
0.0
  0
TEXT
  5
B5C5
330
B5BD
100
AcDbEntity
  8
PIC06
  6
Continuous
 62
     7
100
AcDbText
 10
-53.11182912831464
 20
-66.36702747207528
 30
0.0
 40
2.5
  1
5
 41
0.6547619344966496
100
AcDbText
  0
TEXT
  5
B5C6
330
B5BD
100
AcDbEntity
  8
PIC06
  6
Continuous
 62
     7
100
AcDbText
 10
-51.39307912831464
 20
-66.36702747207528
 30
0.0
 40
2.5
  1
0
 41
0.6547619344966496
100
AcDbText
  0
ENDBLK
  5
B5C7
330
B5BD
100
AcDbEntity
  8
PIC06
100
AcDbBlockEnd
  0
BLOCK
  5
B5C9
330
B5C8
100
AcDbEntity
  8
PIC06
100
AcDbBlockBegin
  2
COMP7
 70
     0
 10
0.0
 20
0.0
 30
0.0
  3
COMP7
  1

  0
LINE
  5
B5CA
330
B5C8
100
AcDbEntity
  8
PIC06
  6
Continuous
 62
     7
100
AcDbLine
 10
-41.03196248012589
 20
-60.2370070017032
 30
0.0
 11
-41.03196248012589
 21
-57.23700813541018
 31
0.0
  0
INSERT
  5
B5CB
330
B5C8
100
AcDbEntity
  8
PIC06
  6
Continuous
 62
     7
100
AcDbBlockReference
  2
MARK1_1
 10
-41.03196248012589
 20
-60.2370070017032
 30
0.0
 41
2.5
 42
2.5
 50
90.0
  0
LINE
  5
B5CC
330
B5C8
100
AcDbEntity
  8
PIC06
  6
Continuous
 62
     7
100
AcDbLine
 10
-41.03196248012589
 20
-60.2370070017032
 30
0.0
 11
-41.03196248012589
 21
-61.32036196655554
 31
0.0
  0
LINE
  5
B5CD
330
B5C8
100
AcDbEntity
  8
PIC06
  6
Continuous
 62
     7
100
AcDbLine
 10
-41.03196248012589
 20
-62.40371693140787
 30
0.0
 11
-41.03196248012589
 21
-61.32036196655554
 31
0.0
  0
LINE
  5
B5CE
330
B5C8
100
AcDbEntity
  8
PIC06
  6
Continuous
 62
     7
100
AcDbLine
 10
-41.03196248012589
 20
-62.40371693140787
 30
0.0
 11
-41.03196248012589
 21
-69.37246366210546
 31
0.0
  0
INSERT
  5
B5CF
330
B5C8
100
AcDbEntity
  8
PIC06
  6
Continuous
 62
     7
100
AcDbBlockReference
  2
MARK1_1
 10
-41.03196248012589
 20
-62.40371693140787
 30
0.0
 41
2.5
 42
2.5
 50
270.0
  0
LINE
  5
B5D0
330
B5C8
100
AcDbEntity
  8
PIC06
  6
Continuous
 62
     7
100
AcDbLine
 10
-48.54406010719685
 20
-60.2370070017032
 30
0.0
 11
-40.03196285802824
 21
-60.2370070017032
 31
0.0
  0
LINE
  5
B5D1
330
B5C8
100
AcDbEntity
  8
PIC06
  6
Continuous
 62
     7
100
AcDbLine
 10
-48.54406010719685
 20
-62.40371693140787
 30
0.0
 11
-40.03196285802824
 21
-62.40371693140787
 31
0.0
  0
TEXT
  5
B5D2
330
B5C8
100
AcDbEntity
  8
PIC06
  6
Continuous
 62
     7
100
AcDbText
 10
-41.63196276202095
 20
-68.87246385105664
 30
0.0
 40
2.5
  1
1
 50
90.0
 41
0.6547619344966496
100
AcDbText
  0
TEXT
  5
B5D3
330
B5C8
100
AcDbEntity
  8
PIC06
  6
Continuous
 62
     7
100
AcDbText
 10
-41.63196220034224
 20
-67.15371385105672
 30
0.0
 40
2.5
  1
3
 50
90.0
 41
0.6547619344966496
100
AcDbText
  0
ENDBLK
  5
B5D4
330
B5C8
100
AcDbEntity
  8
PIC06
100
AcDbBlockEnd
  0
BLOCK
  5
B5D6
330
B5D5
100
AcDbEntity
  8
PIC06
100
AcDbBlockBegin
  2
COMP18
 70
     0
 10
0.0
 20
0.0
 30
0.0
  3
COMP18
  1

  0
LINE
  5
B5D7
330
B5D5
100
AcDbEntity
  8
PIC06
  6
Continuous
 62
     7
100
AcDbLine
 10
-24.1269058993712
 20
-46.6333418204931
 30
0.0
 11
-51.62745500716119
 21
-46.6333418204931
 31
0.0
  0
INSERT
  5
B5D8
330
B5D5
100
AcDbEntity
  8
PIC06
  6
Continuous
 62
     7
100
AcDbBlockReference
  2
MARK1_1
 10
-24.1269058993712
 20
-46.6333418204931
 30
0.0
 41
2.5
 42
2.5
 50
180.0
  0
LINE
  5
B5D9
330
B5D5
100
AcDbEntity
  8
PIC06
  6
Continuous
 62
     7
100
AcDbLine
 10
-79.12800411495119
 20
-46.6333418204931
 30
0.0
 11
-51.62745500716119
 21
-46.6333418204931
 31
0.0
  0
INSERT
  5
B5DA
330
B5D5
100
AcDbEntity
  8
PIC06
  6
Continuous
 62
     7
100
AcDbBlockReference
  2
MARK1_1
 10
-79.12800411495119
 20
-46.6333418204931
 30
0.0
 41
2.5
 42
2.5
  0
LINE
  5
B5DB
330
B5D5
100
AcDbEntity
  8
PIC06
  6
Continuous
 62
     7
100
AcDbLine
 10
-24.1269058993712
 20
-55.7369171477012
 30
0.0
 11
-24.1269058993712
 21
-45.63334219839543
 31
0.0
  0
LINE
  5
B5DC
330
B5D5
100
AcDbEntity
  8
PIC06
  6
Continuous
 62
     7
100
AcDbLine
 10
-79.12800411495119
 20
-55.7369171477012
 30
0.0
 11
-79.12800411495119
 21
-45.63334219839543
 31
0.0
  0
TEXT
  5
B5DD
330
B5D5
100
AcDbEntity
  8
PIC06
  6
Continuous
 62
     7
100
AcDbText
 10
-53.97120602883934
 20
-46.03333899541575
 30
0.0
 40
2.5
  1
3
 41
0.6547619344966496
100
AcDbText
  0
TEXT
  5
B5DE
330
B5D5
100
AcDbEntity
  8
PIC06
  6
Continuous
 62
     7
100
AcDbText
 10
-52.25245602883934
 20
-46.03333899541575
 30
0.0
 40
2.5
  1
3
 41
0.6547619344966496
100
AcDbText
  0
TEXT
  5
B5DF
330
B5D5
100
AcDbEntity
  8
PIC06
  6
Continuous
 62
     7
100
AcDbText
 10
-50.53370602883934
 20
-46.03333899541575
 30
0.0
 40
2.5
  1
0
 41
0.6547619344966496
100
AcDbText
  0
ENDBLK
  5
B5E0
330
B5D5
100
AcDbEntity
  8
PIC06
100
AcDbBlockEnd
  0
BLOCK
  5
B735
330
B72A
100
AcDbEntity
  8
0
100
AcDbBlockBegin
  2
*D18
 70
     1
 10
0.0
 20
0.0
 30
0.0
  3
*D18
  1

  0
LINE
  5
BF64
330
B72A
100
AcDbEntity
  8
Dim
 62
     0
440
 16777216
370
    -2
100
AcDbLine
 10
199.4494030969472
 20
259.6748668124491
 30
0.0
 11
181.7832022346896
 21
259.6748668124491
 31
0.0
  0
LINE
  5
BF65
330
B72A
100
AcDbEntity
  8
Dim
 62
     0
440
 16777216
370
    -2
100
AcDbLine
 10
198.9186750439298
 20
254.2873047928694
 30
0.0
 11
181.7832022346896
 21
254.2873047928694
 31
0.0
  0
LINE
  5
BF66
330
B72A
100
AcDbEntity
  8
Dim
 62
     0
440
 16777216
370
    -2
100
AcDbLine
 10
182.7832022346896
 20
258.9248668124491
 30
0.0
 11
182.7832022346896
 21
257.906935900266
 31
0.0
  0
LINE
  5
BF67
330
B72A
100
AcDbEntity
  8
Dim
 62
     0
440
 16777216
370
    -2
100
AcDbLine
 10
182.7832022346896
 20
255.0373047928694
 30
0.0
 11
182.7832022346896
 21
256.156935900266
 31
0.0
  0
SOLID
  5
BF68
330
B72A
100
AcDbEntity
  8
Dim
 62
     0
440
 16777216
100
AcDbTrace
 10
182.6582022346896
 20
258.9248668124491
 30
0.0
 11
182.9082022346896
 21
258.9248668124491
 31
0.0
 12
182.7832022346896
 22
259.6748668124491
 32
0.0
 13
182.7832022346896
 23
259.6748668124491
 33
0.0
  0
SOLID
  5
BF69
330
B72A
100
AcDbEntity
  8
Dim
 62
     0
440
 16777216
100
AcDbTrace
 10
182.6582022346896
 20
255.0373047928694
 30
0.0
 11
182.9082022346896
 21
255.0373047928694
 31
0.0
 12
182.7832022346896
 22
254.2873047928694
 32
0.0
 13
182.7832022346896
 23
254.2873047928694
 33
0.0
  0
MTEXT
  5
BF6A
330
B72A
100
AcDbEntity
  8
Dim
 62
     0
440
 16777216
100
AcDbMText
 10
182.7832022346895
 20
257.031935900266
 30
0.0
 40
0.75
 41
0.0
 71
     5
 72
     1
  1
\A1;5 3/8" [137]
 73
     1
 44
1.0
  0
POINT
  5
BF6B
330
B72A
100
AcDbEntity
  8
Defpoints
 62
     0
440
 16777216
100
AcDbPoint
 10
200.4494030969472
 20
259.6748668124491
 30
0.0
  0
POINT
  5
BF6C
330
B72A
100
AcDbEntity
  8
Defpoints
 62
     0
440
 16777216
100
AcDbPoint
 10
199.9186750439298
 20
254.2873047928694
 30
0.0
  0
POINT
  5
BF6D
330
B72A
100
AcDbEntity
  8
Defpoints
 62
     0
440
 16777216
100
AcDbPoint
 10
182.7832022346896
 20
254.2873047928694
 30
0.0
  0
ENDBLK
  5
B736
330
B72A
100
AcDbEntity
  8
0
100
AcDbBlockEnd
  0
BLOCK
  5
B794
330
B789
100
AcDbEntity
  8
0
100
AcDbBlockBegin
  2
*D19
 70
     1
 10
0.0
 20
0.0
 30
0.0
  3
*D19
  1

  0
LINE
  5
BF6E
330
B789
100
AcDbEntity
  8
Dim
 62
     0
440
 16777216
370
    -2
100
AcDbLine
 10
213.8780578157859
 20
262.0385628075136
 30
0.0
 11
220.0690200322001
 21
262.0385628075136
 31
0.0
  0
LINE
  5
BF6F
330
B789
100
AcDbEntity
  8
Dim
 62
     0
440
 16777216
370
    -2
100
AcDbLine
 10
208.2083739943262
 20
260.0700588705056
 30
0.0
 11
220.0690200322001
 21
260.0700588705056
 31
0.0
  0
LINE
  5
BF70
330
B789
100
AcDbEntity
  8
Dim
 62
     0
440
 16777216
370
    -2
100
AcDbLine
 10
219.0690200322001
 20
262.7885628075136
 30
0.0
 11
219.0690200322001
 21
263.5385628075136
 31
0.0
  0
LINE
  5
BF71
330
B789
100
AcDbEntity
  8
Dim
 62
     0
440
 16777216
370
    -2
100
AcDbLine
 10
219.0690200322001
 20
259.3200588705057
 30
0.0
 11
219.0690200322001
 21
258.5700588705056
 31
0.0
  0
SOLID
  5
BF72
330
B789
100
AcDbEntity
  8
Dim
 62
     0
440
 16777216
100
AcDbTrace
 10
218.9440200322001
 20
262.7885628075136
 30
0.0
 11
219.1940200322001
 21
262.7885628075136
 31
0.0
 12
219.0690200322001
 22
262.0385628075136
 32
0.0
 13
219.0690200322001
 23
262.0385628075136
 33
0.0
  0
SOLID
  5
BF73
330
B789
100
AcDbEntity
  8
Dim
 62
     0
440
 16777216
100
AcDbTrace
 10
218.9440200322001
 20
259.3200588705057
 30
0.0
 11
219.1940200322001
 21
259.3200588705057
 31
0.0
 12
219.0690200322001
 22
260.0700588705056
 32
0.0
 13
219.0690200322001
 23
260.0700588705056
 33
0.0
  0
MTEXT
  5
BF74
330
B789
100
AcDbEntity
  8
Dim
 62
     0
440
 16777216
100
AcDbMText
 10
219.0690200322001
 20
261.0543108390096
 30
0.0
 40
0.75
 41
0.0
 71
     5
 72
     1
  1
\A1;2" [50]
 73
     1
 44
1.0
  0
POINT
  5
BF75
330
B789
100
AcDbEntity
  8
Defpoints
 62
     0
440
 16777216
100
AcDbPoint
 10
212.8780578157859
 20
262.0385628075136
 30
0.0
  0
POINT
  5
BF76
330
B789
100
AcDbEntity
  8
Defpoints
 62
     0
440
 16777216
100
AcDbPoint
 10
207.2083739943262
 20
260.0700588705056
 30
0.0
  0
POINT
  5
BF77
330
B789
100
AcDbEntity
  8
Defpoints
 62
     0
440
 16777216
100
AcDbPoint
 10
219.0690200322001
 20
260.0700588705056
 30
0.0
  0
ENDBLK
  5
B795
330
B789
100
AcDbEntity
  8
0
100
AcDbBlockEnd
  0
BLOCK
  5
B7AE
330
B7A3
100
AcDbEntity
  8
0
100
AcDbBlockBegin
  2
*D20
 70
     1
 10
0.0
 20
0.0
 30
0.0
  3
*D20
  1

  0
LINE
  5
B7B1
330
B7A3
100
AcDbEntity
  8
Dim
 62
     0
440
 16777216
370
    -2
100
AcDbLine
 10
196.0596524039963
 20
261.9146616271735
 30
0.0
 11
196.0596524039963
 21
268.4814184189426
 31
0.0
  0
LINE
  5
B7B2
330
B7A3
100
AcDbEntity
  8
Dim
 62
     0
440
 16777216
370
    -2
100
AcDbLine
 10
206.2958728764372
 20
261.9146616271735
 30
0.0
 11
206.2958728764372
 21
268.4814184189426
 31
0.0
  0
LINE
  5
B7B3
330
B7A3
100
AcDbEntity
  8
Dim
 62
     0
440
 16777216
370
    -2
100
AcDbLine
 10
195.3096524039962
 20
267.4814184189426
 30
0.0
 11
194.5596524039962
 21
267.4814184189426
 31
0.0
  0
LINE
  5
B7B4
330
B7A3
100
AcDbEntity
  8
Dim
 62
     0
440
 16777216
370
    -2
100
AcDbLine
 10
207.0458728764372
 20
267.4814184189426
 30
0.0
 11
207.7958728764372
 21
267.4814184189426
 31
0.0
  0
SOLID
  5
B7B5
330
B7A3
100
AcDbEntity
  8
Dim
 62
     0
440
 16777216
100
AcDbTrace
 10
195.3096524039962
 20
267.6064184189426
 30
0.0
 11
195.3096524039962
 21
267.3564184189426
 31
0.0
 12
196.0596524039963
 22
267.4814184189426
 32
0.0
 13
196.0596524039963
 23
267.4814184189426
 33
0.0
  0
SOLID
  5
B7B6
330
B7A3
100
AcDbEntity
  8
Dim
 62
     0
440
 16777216
100
AcDbTrace
 10
207.0458728764372
 20
267.6064184189426
 30
0.0
 11
207.0458728764372
 21
267.3564184189426
 31
0.0
 12
206.2958728764372
 22
267.4814184189426
 32
0.0
 13
206.2958728764372
 23
267.4814184189426
 33
0.0
  0
MTEXT
  5
B7B7
330
B7A3
100
AcDbEntity
  8
Dim
 62
     0
440
 16777216
100
AcDbMText
 10
201.1777626402167
 20
267.4814184189426
 30
0.0
 40
0.75
 41
0.0
 71
     5
 72
     1
  1
\A1;10 1/4" [260]
 73
     1
 44
1.0
  0
POINT
  5
B7B8
330
B7A3
100
AcDbEntity
  8
Defpoints
 62
     0
440
 16777216
100
AcDbPoint
 10
196.0596524039963
 20
260.9146616271735
 30
0.0
  0
POINT
  5
B7B9
330
B7A3
100
AcDbEntity
  8
Defpoints
 62
     0
440
 16777216
100
AcDbPoint
 10
206.2958728764372
 20
260.9146616271735
 30
0.0
  0
POINT
  5
B7BA
330
B7A3
100
AcDbEntity
  8
Defpoints
 62
     0
440
 16777216
100
AcDbPoint
 10
206.2958728764372
 20
267.4814184189426
 30
0.0
  0
ENDBLK
  5
B7AF
330
B7A3
100
AcDbEntity
  8
0
100
AcDbBlockEnd
  0
BLOCK
  5
B7D2
330
B7C7
100
AcDbEntity
  8
0
100
AcDbBlockBegin
  2
*D21
 70
     1
 10
0.0
 20
0.0
 30
0.0
  3
*D21
  1

  0
LINE
  5
BEFB
330
B7C7
100
AcDbEntity
  8
Dim
 62
     0
440
 16777216
370
    -2
100
AcDbLine
 10
189.1623079986391
 20
300.3313476312849
 30
0.0
 11
189.1623079986391
 21
307.0708703980784
 31
0.0
  0
LINE
  5
BEFC
330
B7C7
100
AcDbEntity
  8
Dim
 62
     0
440
 16777216
370
    -2
100
AcDbLine
 10
213.1932172817945
 20
300.3313476312849
 30
0.0
 11
213.1932172817945
 21
307.0708703980784
 31
0.0
  0
LINE
  5
BEFD
330
B7C7
100
AcDbEntity
  8
Dim
 62
     0
440
 16777216
370
    -2
100
AcDbLine
 10
189.9123079986391
 20
306.0708703980783
 30
0.0
 11
197.9902626402168
 21
306.0708703980783
 31
0.0
  0
LINE
  5
BEFE
330
B7C7
100
AcDbEntity
  8
Dim
 62
     0
440
 16777216
370
    -2
100
AcDbLine
 10
212.4432172817945
 20
306.0708703980783
 30
0.0
 11
204.3652626402168
 21
306.0708703980783
 31
0.0
  0
SOLID
  5
BEFF
330
B7C7
100
AcDbEntity
  8
Dim
 62
     0
440
 16777216
100
AcDbTrace
 10
189.9123079986391
 20
306.1958703980784
 30
0.0
 11
189.9123079986391
 21
305.9458703980784
 31
0.0
 12
189.1623079986391
 22
306.0708703980783
 32
0.0
 13
189.1623079986391
 23
306.0708703980783
 33
0.0
  0
SOLID
  5
BF00
330
B7C7
100
AcDbEntity
  8
Dim
 62
     0
440
 16777216
100
AcDbTrace
 10
212.4432172817945
 20
306.1958703980784
 30
0.0
 11
212.4432172817945
 21
305.9458703980784
 31
0.0
 12
213.1932172817945
 22
306.0708703980783
 32
0.0
 13
213.1932172817945
 23
306.0708703980783
 33
0.0
  0
MTEXT
  5
BF01
330
B7C7
100
AcDbEntity
  8
Dim
 62
     0
440
 16777216
100
AcDbMText
 10
201.1777626402168
 20
306.0708703980783
 30
0.0
 40
0.75
 41
0.0
 71
     5
 72
     1
  1
\A1;24" [610]
 73
     1
 44
1.0
  0
POINT
  5
BF02
330
B7C7
100
AcDbEntity
  8
Defpoints
 62
     0
440
 16777216
100
AcDbPoint
 10
189.1623079986391
 20
299.3313476312849
 30
0.0
  0
POINT
  5
BF03
330
B7C7
100
AcDbEntity
  8
Defpoints
 62
     0
440
 16777216
100
AcDbPoint
 10
213.1932172817945
 20
299.3313476312849
 30
0.0
  0
POINT
  5
BF04
330
B7C7
100
AcDbEntity
  8
Defpoints
 62
     0
440
 16777216
100
AcDbPoint
 10
213.1932172817945
 20
306.0708703980783
 30
0.0
  0
ENDBLK
  5
B7D3
330
B7C7
100
AcDbEntity
  8
0
100
AcDbBlockEnd
  0
BLOCK
  5
B7EC
330
B7E1
100
AcDbEntity
  8
0
100
AcDbBlockBegin
  2
*D22
 70
     1
 10
0.0
 20
0.0
 30
0.0
  3
*D22
  1

  0
LINE
  5
BEE7
330
B7E1
100
AcDbEntity
  8
Dim
 62
     0
440
 16777216
370
    -2
100
AcDbLine
 10
191.7229786599589
 20
292.7675204470787
 30
0.0
 11
191.7229786599589
 21
303.6791698294595
 31
0.0
  0
LINE
  5
BEE8
330
B7E1
100
AcDbEntity
  8
Dim
 62
     0
440
 16777216
370
    -2
100
AcDbLine
 10
210.6325466204746
 20
292.7675204470787
 30
0.0
 11
210.6325466204746
 21
303.6791698294595
 31
0.0
  0
LINE
  5
BEE9
330
B7E1
100
AcDbEntity
  8
Dim
 62
     0
440
 16777216
370
    -2
100
AcDbLine
 10
192.4729786599589
 20
302.6791698294595
 30
0.0
 11
196.4902626402168
 21
302.6791698294595
 31
0.0
  0
LINE
  5
BEEA
330
B7E1
100
AcDbEntity
  8
Dim
 62
     0
440
 16777216
370
    -2
100
AcDbLine
 10
209.8825466204746
 20
302.6791698294595
 30
0.0
 11
205.8652626402168
 21
302.6791698294595
 31
0.0
  0
SOLID
  5
BEEB
330
B7E1
100
AcDbEntity
  8
Dim
 62
     0
440
 16777216
100
AcDbTrace
 10
192.4729786599589
 20
302.8041698294595
 30
0.0
 11
192.4729786599589
 21
302.5541698294595
 31
0.0
 12
191.7229786599589
 22
302.6791698294595
 32
0.0
 13
191.7229786599589
 23
302.6791698294595
 33
0.0
  0
SOLID
  5
BEEC
330
B7E1
100
AcDbEntity
  8
Dim
 62
     0
440
 16777216
100
AcDbTrace
 10
209.8825466204746
 20
302.8041698294595
 30
0.0
 11
209.8825466204746
 21
302.5541698294595
 31
0.0
 12
210.6325466204746
 22
302.6791698294595
 32
0.0
 13
210.6325466204746
 23
302.6791698294595
 33
0.0
  0
MTEXT
  5
BEED
330
B7E1
100
AcDbEntity
  8
Dim
 62
     0
440
 16777216
100
AcDbMText
 10
201.1777626402168
 20
302.6791698294595
 30
0.0
 40
0.75
 41
0.0
 71
     5
 72
     1
  1
\A1;18 7/8" [480]
 73
     1
 44
1.0
  0
POINT
  5
BEEE
330
B7E1
100
AcDbEntity
  8
Defpoints
 62
     0
440
 16777216
100
AcDbPoint
 10
191.7229786599589
 20
291.7675204470786
 30
0.0
  0
POINT
  5
BEEF
330
B7E1
100
AcDbEntity
  8
Defpoints
 62
     0
440
 16777216
100
AcDbPoint
 10
210.6325466204746
 20
291.7675204470786
 30
0.0
  0
POINT
  5
BEF0
330
B7E1
100
AcDbEntity
  8
Defpoints
 62
     0
440
 16777216
100
AcDbPoint
 10
210.6325466204746
 20
302.6791698294595
 30
0.0
  0
ENDBLK
  5
B7ED
330
B7E1
100
AcDbEntity
  8
0
100
AcDbBlockEnd
  0
BLOCK
  5
B806
330
B7FB
100
AcDbEntity
  8
0
100
AcDbBlockBegin
  2
*D23
 70
     1
 10
0.0
 20
0.0
 30
0.0
  3
*D23
  1

  0
LINE
  5
BF24
330
B7FB
100
AcDbEntity
  8
Dim
 62
     0
440
 16777216
370
    -2
100
AcDbLine
 10
214.0750324820413
 20
299.4495324310382
 30
0.0
 11
228.7763542350806
 21
299.4495324310382
 31
0.0
  0
LINE
  5
BF25
330
B7FB
100
AcDbEntity
  8
Dim
 62
     0
440
 16777216
370
    -2
100
AcDbLine
 10
213.0113692842622
 20
280.1460151380117
 30
0.0
 11
228.7763542350806
 21
280.1460151380117
 31
0.0
  0
LINE
  5
BF26
330
B7FB
100
AcDbEntity
  8
Dim
 62
     0
440
 16777216
370
    -2
100
AcDbLine
 10
227.7763542350806
 20
298.6995324310381
 30
0.0
 11
227.7763542350806
 21
290.4925147534708
 31
0.0
  0
LINE
  5
BF27
330
B7FB
100
AcDbEntity
  8
Dim
 62
     0
440
 16777216
370
    -2
100
AcDbLine
 10
227.7763542350806
 20
280.8960151380117
 30
0.0
 11
227.7763542350806
 21
288.7425147534708
 31
0.0
  0
SOLID
  5
BF28
330
B7FB
100
AcDbEntity
  8
Dim
 62
     0
440
 16777216
100
AcDbTrace
 10
227.6513542350806
 20
298.6995324310381
 30
0.0
 11
227.9013542350806
 21
298.6995324310381
 31
0.0
 12
227.7763542350806
 22
299.4495324310382
 32
0.0
 13
227.7763542350806
 23
299.4495324310382
 33
0.0
  0
SOLID
  5
BF29
330
B7FB
100
AcDbEntity
  8
Dim
 62
     0
440
 16777216
100
AcDbTrace
 10
227.6513542350806
 20
280.8960151380117
 30
0.0
 11
227.9013542350806
 21
280.8960151380117
 31
0.0
 12
227.7763542350806
 22
280.1460151380117
 32
0.0
 13
227.7763542350806
 23
280.1460151380117
 33
0.0
  0
MTEXT
  5
BF2A
330
B7FB
100
AcDbEntity
  8
Dim
 62
     0
440
 16777216
100
AcDbMText
 10
227.7763542350806
 20
289.6175147534708
 30
0.0
 40
0.75
 41
0.0
 71
     5
 72
     1
  1
\A1;19 1/4" [490]
 73
     1
 44
1.0
  0
POINT
  5
BF2B
330
B7FB
100
AcDbEntity
  8
Defpoints
 62
     0
440
 16777216
100
AcDbPoint
 10
213.0750324820413
 20
299.4495324310382
 30
0.0
  0
POINT
  5
BF2C
330
B7FB
100
AcDbEntity
  8
Defpoints
 62
     0
440
 16777216
100
AcDbPoint
 10
212.0113692842623
 20
280.1460151380117
 30
0.0
  0
POINT
  5
BF2D
330
B7FB
100
AcDbEntity
  8
Defpoints
 62
     0
440
 16777216
100
AcDbPoint
 10
227.7763542350806
 20
280.1460151380117
 30
0.0
  0
ENDBLK
  5
B807
330
B7FB
100
AcDbEntity
  8
0
100
AcDbBlockEnd
  0
BLOCK
  5
B820
330
B815
100
AcDbEntity
  8
0
100
AcDbBlockBegin
  2
*D24
 70
     1
 10
0.0
 20
0.0
 30
0.0
  3
*D24
  1

  0
LINE
  5
BF2E
330
B815
100
AcDbEntity
  8
Dim
 62
     0
440
 16777216
370
    -2
100
AcDbLine
 10
209.0676502116857
 20
294.1296468787974
 30
0.0
 11
222.1328118122229
 21
294.1296468787974
 31
0.0
  0
LINE
  5
BF2F
330
B815
100
AcDbEntity
  8
Dim
 62
     0
440
 16777216
370
    -2
100
AcDbLine
 10
209.0676502116857
 20
282.7066857993315
 30
0.0
 11
222.1328118122229
 21
282.7066857993315
 31
0.0
  0
LINE
  5
BF30
330
B815
100
AcDbEntity
  8
Dim
 62
     0
440
 16777216
370
    -2
100
AcDbLine
 10
221.1328118122229
 20
293.3796468787974
 30
0.0
 11
221.1328118122229
 21
286.8843227561123
 31
0.0
  0
LINE
  5
BF31
330
B815
100
AcDbEntity
  8
Dim
 62
     0
440
 16777216
370
    -2
100
AcDbLine
 10
221.1328118122229
 20
283.4566857993315
 30
0.0
 11
221.1328118122229
 21
285.1343227561123
 31
0.0
  0
SOLID
  5
BF32
330
B815
100
AcDbEntity
  8
Dim
 62
     0
440
 16777216
100
AcDbTrace
 10
221.0078118122229
 20
293.3796468787974
 30
0.0
 11
221.2578118122229
 21
293.3796468787974
 31
0.0
 12
221.1328118122229
 22
294.1296468787974
 32
0.0
 13
221.1328118122229
 23
294.1296468787974
 33
0.0
  0
SOLID
  5
BF33
330
B815
100
AcDbEntity
  8
Dim
 62
     0
440
 16777216
100
AcDbTrace
 10
221.0078118122229
 20
283.4566857993315
 30
0.0
 11
221.2578118122229
 21
283.4566857993315
 31
0.0
 12
221.1328118122229
 22
282.7066857993315
 32
0.0
 13
221.1328118122229
 23
282.7066857993315
 33
0.0
  0
MTEXT
  5
BF34
330
B815
100
AcDbEntity
  8
Dim
 62
     0
440
 16777216
100
AcDbMText
 10
221.1328118122228
 20
286.0093227561123
 30
0.0
 40
0.75
 41
0.0
 71
     5
 72
     1
  1
\A1;11 3/8" [290]
 73
     1
 44
1.0
  0
POINT
  5
BF35
330
B815
100
AcDbEntity
  8
Defpoints
 62
     0
440
 16777216
100
AcDbPoint
 10
208.0676502116857
 20
294.1296468787974
 30
0.0
  0
POINT
  5
BF36
330
B815
100
AcDbEntity
  8
Defpoints
 62
     0
440
 16777216
100
AcDbPoint
 10
208.0676502116857
 20
282.7066857993315
 30
0.0
  0
POINT
  5
BF37
330
B815
100
AcDbEntity
  8
Defpoints
 62
     0
440
 16777216
100
AcDbPoint
 10
221.1328118122229
 20
282.7066857993315
 30
0.0
  0
ENDBLK
  5
B821
330
B815
100
AcDbEntity
  8
0
100
AcDbBlockEnd
  0
BLOCK
  5
B856
330
B84B
100
AcDbEntity
  8
0
100
AcDbBlockBegin
  2
*D25
 70
     1
 10
0.0
 20
0.0
 30
0.0
  3
*D25
  1

  0
LINE
  5
BF38
330
B84B
100
AcDbEntity
  8
Dim
 62
     0
440
 16777216
370
    -2
100
AcDbLine
 10
188.2804927983923
 20
299.4495324310382
 30
0.0
 11
179.9104944541513
 21
299.4495324310382
 31
0.0
  0
LINE
  5
BF39
330
B84B
100
AcDbEntity
  8
Dim
 62
     0
440
 16777216
370
    -2
100
AcDbLine
 10
198.4633899156816
 20
291.5705457808233
 30
0.0
 11
179.9104944541513
 21
291.5705457808233
 31
0.0
  0
LINE
  5
BF3A
330
B84B
100
AcDbEntity
  8
Dim
 62
     0
440
 16777216
370
    -2
100
AcDbLine
 10
180.9104944541513
 20
298.6995324310381
 30
0.0
 11
180.9104944541513
 21
296.3377858347424
 31
0.0
  0
LINE
  5
BF3B
330
B84B
100
AcDbEntity
  8
Dim
 62
     0
440
 16777216
370
    -2
100
AcDbLine
 10
180.9104944541513
 20
292.3205457808233
 30
0.0
 11
180.9104944541513
 21
294.5877858347425
 31
0.0
  0
SOLID
  5
BF3C
330
B84B
100
AcDbEntity
  8
Dim
 62
     0
440
 16777216
100
AcDbTrace
 10
180.7854944541514
 20
298.6995324310381
 30
0.0
 11
181.0354944541513
 21
298.6995324310381
 31
0.0
 12
180.9104944541513
 22
299.4495324310382
 32
0.0
 13
180.9104944541513
 23
299.4495324310382
 33
0.0
  0
SOLID
  5
BF3D
330
B84B
100
AcDbEntity
  8
Dim
 62
     0
440
 16777216
100
AcDbTrace
 10
180.7854944541514
 20
292.3205457808233
 30
0.0
 11
181.0354944541513
 21
292.3205457808233
 31
0.0
 12
180.9104944541513
 22
291.5705457808233
 32
0.0
 13
180.9104944541513
 23
291.5705457808233
 33
0.0
  0
MTEXT
  5
BF3E
330
B84B
100
AcDbEntity
  8
Dim
 62
     0
440
 16777216
100
AcDbMText
 10
180.9104944541513
 20
295.4627858347425
 30
0.0
 40
0.75
 41
0.0
 71
     5
 72
     1
  1
\A1;7 7/8" [200]
 73
     1
 44
1.0
  0
POINT
  5
BF3F
330
B84B
100
AcDbEntity
  8
Defpoints
 62
     0
440
 16777216
100
AcDbPoint
 10
189.2804927983923
 20
299.4495324310382
 30
0.0
  0
POINT
  5
BF40
330
B84B
100
AcDbEntity
  8
Defpoints
 62
     0
440
 16777216
100
AcDbPoint
 10
199.4633899156815
 20
291.5705457808233
 30
0.0
  0
POINT
  5
BF41
330
B84B
100
AcDbEntity
  8
Defpoints
 62
     0
440
 16777216
100
AcDbPoint
 10
180.9104944541513
 20
291.5705457808233
 30
0.0
  0
ENDBLK
  5
B857
330
B84B
100
AcDbEntity
  8
0
100
AcDbBlockEnd
  0
BLOCK
  5
B871
330
B865
100
AcDbEntity
  8
0
100
AcDbBlockBegin
  2
*D26
 70
     1
 10
0.0
 20
0.0
 30
0.0
  3
*D26
  1

  0
LINE
  5
BF0F
330
B865
100
AcDbEntity
  8
Dim
 62
     0
440
 16777216
370
    -2
100
AcDbLine
 10
214.0750324820413
 20
299.4495324310382
 30
0.0
 11
222.1328118122229
 21
299.4495324310382
 31
0.0
  0
LINE
  5
BF10
330
B865
100
AcDbEntity
  8
Dim
 62
     0
440
 16777216
370
    -2
100
AcDbLine
 10
203.1777626402167
 20
296.2950401155449
 30
0.0
 11
222.1328118122229
 21
296.2950401155449
 31
0.0
  0
LINE
  5
BF11
330
B865
100
AcDbEntity
  8
Dim
 62
     0
440
 16777216
370
    -2
100
AcDbLine
 10
221.1328118122229
 20
297.0450401155448
 30
0.0
 11
221.1328118122229
 21
298.6995324310381
 31
0.0
  0
LINE
  5
BF12
330
B865
100
AcDbEntity
  8
Dim
 62
     0
440
 16777216
370
    -2
100
AcDbLine
 10
221.1328118122229
 20
299.4495324310382
 30
0.0
 11
221.1328118122229
 21
302.6791698294594
 31
0.0
  0
LINE
  5
BF13
330
B865
100
AcDbEntity
  8
Dim
 62
     0
440
 16777216
370
    -2
100
AcDbLine
 10
221.1328118122229
 20
302.6791698294594
 30
0.0
 11
221.8828118122229
 21
302.6791698294594
 31
0.0
  0
SOLID
  5
BF14
330
B865
100
AcDbEntity
  8
Dim
 62
     0
440
 16777216
100
AcDbTrace
 10
221.0078118122229
 20
297.0450401155448
 30
0.0
 11
221.2578118122229
 21
297.0450401155448
 31
0.0
 12
221.1328118122229
 22
296.2950401155449
 32
0.0
 13
221.1328118122229
 23
296.2950401155449
 33
0.0
  0
SOLID
  5
BF15
330
B865
100
AcDbEntity
  8
Dim
 62
     0
440
 16777216
100
AcDbTrace
 10
221.0078118122229
 20
298.6995324310381
 30
0.0
 11
221.2578118122229
 21
298.6995324310381
 31
0.0
 12
221.1328118122229
 22
299.4495324310382
 32
0.0
 13
221.1328118122229
 23
299.4495324310382
 33
0.0
  0
MTEXT
  5
BF16
330
B865
100
AcDbEntity
  8
Dim
 62
     0
440
 16777216
100
AcDbMText
 10
225.8203118122228
 20
302.6791698294595
 30
0.0
 40
0.75
 41
0.0
 71
     5
 72
     1
  1
\A1;3 1/8" [80]
 73
     1
 44
1.0
  0
POINT
  5
BF17
330
B865
100
AcDbEntity
  8
Defpoints
 62
     0
440
 16777216
100
AcDbPoint
 10
213.0750324820413
 20
299.4495324310382
 30
0.0
  0
POINT
  5
BF18
330
B865
100
AcDbEntity
  8
Defpoints
 62
     0
440
 16777216
100
AcDbPoint
 10
202.1777626402168
 20
296.2950401155449
 30
0.0
  0
POINT
  5
BF19
330
B865
100
AcDbEntity
  8
Defpoints
 62
     0
440
 16777216
100
AcDbPoint
 10
221.1328118122229
 20
296.2950401155449
 30
0.0
  0
ENDBLK
  5
B872
330
B865
100
AcDbEntity
  8
0
100
AcDbBlockEnd
  0
BLOCK
  5
BA32
330
BA27
100
AcDbEntity
  8
0
100
AcDbBlockBegin
  2
*D27
 70
     1
 10
0.0
 20
0.0
 30
0.0
  3
*D27
  1

  0
LINE
  5
BED3
330
BA27
100
AcDbEntity
  8
Dim
 62
     0
440
 16777216
370
    -2
100
AcDbLine
 10
203.1777626402167
 20
296.2950401155449
 30
0.0
 11
222.1328118122229
 21
296.2950401155449
 31
0.0
  0
LINE
  5
BED4
330
BA27
100
AcDbEntity
  8
Dim
 62
     0
440
 16777216
370
    -2
100
AcDbLine
 10
209.2688506254102
 20
294.1312164421431
 30
0.0
 11
222.1328118122229
 21
294.1312164421431
 31
0.0
  0
LINE
  5
BED5
330
BA27
100
AcDbEntity
  8
Dim
 62
     0
440
 16777216
370
    -2
100
AcDbLine
 10
221.1328118122229
 20
297.0450401155448
 30
0.0
 11
221.1328118122229
 21
297.7950401155449
 31
0.0
  0
LINE
  5
BED6
330
BA27
100
AcDbEntity
  8
Dim
 62
     0
440
 16777216
370
    -2
100
AcDbLine
 10
221.1328118122229
 20
293.3812164421431
 30
0.0
 11
221.1328118122229
 21
292.6312164421431
 31
0.0
  0
SOLID
  5
BED7
330
BA27
100
AcDbEntity
  8
Dim
 62
     0
440
 16777216
100
AcDbTrace
 10
221.0078118122229
 20
297.0450401155448
 30
0.0
 11
221.2578118122229
 21
297.0450401155448
 31
0.0
 12
221.1328118122229
 22
296.2950401155449
 32
0.0
 13
221.1328118122229
 23
296.2950401155449
 33
0.0
  0
SOLID
  5
BED8
330
BA27
100
AcDbEntity
  8
Dim
 62
     0
440
 16777216
100
AcDbTrace
 10
221.0078118122229
 20
293.3812164421431
 30
0.0
 11
221.2578118122229
 21
293.3812164421431
 31
0.0
 12
221.1328118122229
 22
294.1312164421431
 32
0.0
 13
221.1328118122229
 23
294.1312164421431
 33
0.0
  0
MTEXT
  5
BED9
330
BA27
100
AcDbEntity
  8
Dim
 62
     0
440
 16777216
100
AcDbMText
 10
221.1328118122228
 20
295.213128278844
 30
0.0
 40
0.75
 41
0.0
 71
     5
 72
     1
  1
\A1;2 1/8" [55]
 73
     1
 44
1.0
  0
POINT
  5
BEDA
330
BA27
100
AcDbEntity
  8
Defpoints
 62
     0
440
 16777216
100
AcDbPoint
 10
202.1777626402168
 20
296.2950401155449
 30
0.0
  0
POINT
  5
BEDB
330
BA27
100
AcDbEntity
  8
Defpoints
 62
     0
440
 16777216
100
AcDbPoint
 10
208.2688506254102
 20
294.1312164421431
 30
0.0
  0
POINT
  5
BEDC
330
BA27
100
AcDbEntity
  8
Defpoints
 62
     0
440
 16777216
100
AcDbPoint
 10
221.1328118122229
 20
294.1312164421431
 30
0.0
  0
ENDBLK
  5
BA33
330
BA27
100
AcDbEntity
  8
0
100
AcDbBlockEnd
  0
BLOCK
  5
BA77
330
BA76
100
AcDbEntity
  8
PIC06
100
AcDbBlockBegin
  2
COMP8
 70
     0
 10
0.0
 20
0.0
 30
0.0
  3
COMP8
  1

  0
LINE
  5
BA78
330
BA76
100
AcDbEntity
  8
PIC06
  6
Continuous
 62
     7
100
AcDbLine
 10
10.69613006504527
 20
-119.0603912135757
 30
0.0
 11
10.69613006504527
 21
-116.0603923472826
 31
0.0
  0
INSERT
  5
BA79
330
BA76
100
AcDbEntity
  8
PIC06
  6
Continuous
 62
     7
100
AcDbBlockReference
  2
MARK1_1
 10
10.69613006504527
 20
-119.0603912135757
 30
0.0
 41
2.5
 42
2.5
 50
90.0
  0
LINE
  5
BA7A
330
BA76
100
AcDbEntity
  8
PIC06
  6
Continuous
 62
     7
100
AcDbLine
 10
10.69613006504527
 20
-119.0603912135757
 30
0.0
 11
10.69613006504527
 21
-120.143746178428
 31
0.0
  0
LINE
  5
BA7B
330
BA76
100
AcDbEntity
  8
PIC06
  6
Continuous
 62
     7
100
AcDbLine
 10
10.69613006504527
 20
-121.2271011432804
 30
0.0
 11
10.69613006504527
 21
-120.143746178428
 31
0.0
  0
LINE
  5
BA7C
330
BA76
100
AcDbEntity
  8
PIC06
  6
Continuous
 62
     7
100
AcDbLine
 10
10.69613006504527
 20
-121.2271011432804
 30
0.0
 11
10.69613006504527
 21
-128.195847873978
 31
0.0
  0
INSERT
  5
BA7D
330
BA76
100
AcDbEntity
  8
PIC06
  6
Continuous
 62
     7
100
AcDbBlockReference
  2
MARK1_1
 10
10.69613006504527
 20
-121.2271011432804
 30
0.0
 41
2.5
 42
2.5
 50
270.0
  0
LINE
  5
BA7E
330
BA76
100
AcDbEntity
  8
PIC06
  6
Continuous
 62
     7
100
AcDbLine
 10
2.619704897221962
 20
-119.0603912135757
 30
0.0
 11
11.19614004882328
 21
-119.0603912135757
 31
0.0
  0
LINE
  5
BA7F
330
BA76
100
AcDbEntity
  8
PIC06
  6
Continuous
 62
     7
100
AcDbLine
 10
2.619704897221962
 20
-121.2271011432804
 30
0.0
 11
11.19614004882328
 21
-121.2271011432804
 31
0.0
  0
TEXT
  5
BA80
330
BA76
100
AcDbEntity
  8
PIC06
  6
Continuous
 62
     7
100
AcDbText
 10
10.09612978315022
 20
-127.6958480629291
 30
0.0
 40
2.5
  1
1
 50
90.0
 41
0.6547619344966496
100
AcDbText
  0
TEXT
  5
BA81
330
BA76
100
AcDbEntity
  8
PIC06
  6
Continuous
 62
     7
100
AcDbText
 10
10.09613034482894
 20
-125.9770980629292
 30
0.0
 40
2.5
  1
3
 50
90.0
 41
0.6547619344966496
100
AcDbText
  0
ENDBLK
  5
BA82
330
BA76
100
AcDbEntity
  8
PIC06
100
AcDbBlockEnd
  0
BLOCK
  5
BA84
330
BA83
100
AcDbEntity
  8
PIC06
100
AcDbBlockBegin
  2
COMP10
 70
     0
 10
0.0
 20
0.0
 30
0.0
  3
COMP10
  1

  0
LINE
  5
BA85
330
BA83
100
AcDbEntity
  8
PIC06
  6
Continuous
 62
     7
100
AcDbLine
 10
108.2636668446194
 20
-144.0608904024756
 30
0.0
 11
108.2636668446194
 21
-147.8109652808106
 31
0.0
  0
INSERT
  5
BA86
330
BA83
100
AcDbEntity
  8
PIC06
  6
Continuous
 62
     7
100
AcDbBlockReference
  2
MARK1_1
 10
108.2636668446194
 20
-144.0608904024756
 30
0.0
 41
2.5
 42
2.5
 50
270.0
  0
LINE
  5
BA87
330
BA83
100
AcDbEntity
  8
PIC06
  6
Continuous
 62
     7
100
AcDbLine
 10
108.2636668446194
 20
-151.5610401591456
 30
0.0
 11
108.2636668446194
 21
-147.8109652808106
 31
0.0
  0
INSERT
  5
BA88
330
BA83
100
AcDbEntity
  8
PIC06
  6
Continuous
 62
     7
100
AcDbBlockReference
  2
MARK1_1
 10
108.2636668446194
 20
-151.5610401591456
 30
0.0
 41
2.5
 42
2.5
 50
90.0
  0
LINE
  5
BA89
330
BA83
100
AcDbEntity
  8
PIC06
  6
Continuous
 62
     7
100
AcDbLine
 10
121.1343665442382
 20
-144.0608904024756
 30
0.0
 11
107.7636568608414
 21
-144.0608904024756
 31
0.0
  0
LINE
  5
BA8A
330
BA83
100
AcDbEntity
  8
PIC06
  6
Continuous
 62
     7
100
AcDbLine
 10
121.4479510933907
 20
-151.5610401591456
 30
0.0
 11
107.7636568608414
 21
-151.5610401591456
 31
0.0
  0
TEXT
  5
BA8B
330
BA83
100
AcDbEntity
  8
PIC06
  6
Continuous
 62
     7
100
AcDbText
 10
107.6636691059066
 20
-148.3031829540504
 30
0.0
 40
2.5
  1
4
 50
90.0
 41
0.6547619344966496
100
AcDbText
  0
TEXT
  5
BA8C
330
BA83
100
AcDbEntity
  8
PIC06
  6
Continuous
 62
     7
100
AcDbText
 10
107.6636696675852
 20
-146.5844329540506
 30
0.0
 40
2.5
  1
5
 50
90.0
 41
0.6547619344966496
100
AcDbText
  0
ENDBLK
  5
BA8D
330
BA83
100
AcDbEntity
  8
PIC06
100
AcDbBlockEnd
  0
BLOCK
  5
BA8F
330
BA8E
100
AcDbEntity
  8
PIC06
100
AcDbBlockBegin
  2
COMP11
 70
     0
 10
0.0
 20
0.0
 30
0.0
  3
COMP11
  1

  0
LINE
  5
BA90
330
BA8E
100
AcDbEntity
  8
PIC06
  6
Continuous
 62
     7
100
AcDbLine
 10
108.2636668446194
 20
-144.0608904024756
 30
0.0
 11
108.2636668446194
 21
-132.6439957728779
 31
0.0
  0
INSERT
  5
BA91
330
BA8E
100
AcDbEntity
  8
PIC06
  6
Continuous
 62
     7
100
AcDbBlockReference
  2
MARK1_1
 10
108.2636668446194
 20
-144.0608904024756
 30
0.0
 41
2.5
 42
2.5
 50
90.0
  0
LINE
  5
BA92
330
BA8E
100
AcDbEntity
  8
PIC06
  6
Continuous
 62
     7
100
AcDbLine
 10
108.2636668446194
 20
-121.2271011432804
 30
0.0
 11
108.2636668446194
 21
-132.6439957728779
 31
0.0
  0
INSERT
  5
BA93
330
BA8E
100
AcDbEntity
  8
PIC06
  6
Continuous
 62
     7
100
AcDbBlockReference
  2
MARK1_1
 10
108.2636668446194
 20
-121.2271011432804
 30
0.0
 41
2.5
 42
2.5
 50
270.0
  0
TEXT
  5
BA94
330
BA8E
100
AcDbEntity
  8
PIC06
  6
Continuous
 62
     7
100
AcDbText
 10
107.6636691059066
 20
-133.565909525927
 30
0.0
 40
2.5
  1
1
 50
90.0
 41
0.6547619344966496
100
AcDbText
  0
TEXT
  5
BA95
330
BA8E
100
AcDbEntity
  8
PIC06
  6
Continuous
 62
     7
100
AcDbText
 10
107.6636696675852
 20
-131.847159525927
 30
0.0
 40
2.5
  1
3
 50
90.0
 41
0.6547619344966496
100
AcDbText
  0
TEXT
  5
BA96
330
BA8E
100
AcDbEntity
  8
PIC06
  6
Continuous
 62
     7
100
AcDbText
 10
107.6636702292639
 20
-130.1284095259271
 30
0.0
 40
2.5
  1
7
 50
90.0
 41
0.6547619344966496
100
AcDbText
  0
ENDBLK
  5
BA97
330
BA8E
100
AcDbEntity
  8
PIC06
100
AcDbBlockEnd
  0
BLOCK
  5
BA99
330
BA98
100
AcDbEntity
  8
PIC06
100
AcDbBlockBegin
  2
COMP12
 70
     0
 10
0.0
 20
0.0
 30
0.0
  3
COMP12
  1

  0
LINE
  5
BA9A
330
BA98
100
AcDbEntity
  8
PIC06
  6
Continuous
 62
     7
100
AcDbLine
 10
108.2636668446194
 20
-121.2271011432804
 30
0.0
 11
108.2636668446194
 21
-117.0603512784637
 31
0.0
  0
INSERT
  5
BA9B
330
BA98
100
AcDbEntity
  8
PIC06
  6
Continuous
 62
     7
100
AcDbBlockReference
  2
MARK1_1
 10
108.2636668446194
 20
-121.2271011432804
 30
0.0
 41
2.5
 42
2.5
 50
90.0
  0
LINE
  5
BA9C
330
BA98
100
AcDbEntity
  8
PIC06
  6
Continuous
 62
     7
100
AcDbLine
 10
108.2636668446194
 20
-112.893601413647
 30
0.0
 11
108.2636668446194
 21
-117.0603512784637
 31
0.0
  0
INSERT
  5
BA9D
330
BA98
100
AcDbEntity
  8
PIC06
  6
Continuous
 62
     7
100
AcDbBlockReference
  2
MARK1_1
 10
108.2636668446194
 20
-112.893601413647
 30
0.0
 41
2.5
 42
2.5
 50
270.0
  0
TEXT
  5
BA9E
330
BA98
100
AcDbEntity
  8
PIC06
  6
Continuous
 62
     7
100
AcDbText
 10
107.6636691059066
 20
-117.5525689517034
 30
0.0
 40
2.5
  1
5
 50
90.0
 41
0.6547619344966496
100
AcDbText
  0
TEXT
  5
BA9F
330
BA98
100
AcDbEntity
  8
PIC06
  6
Continuous
 62
     7
100
AcDbText
 10
107.6636696675852
 20
-115.8338189517035
 30
0.0
 40
2.5
  1
0
 50
90.0
 41
0.6547619344966496
100
AcDbText
  0
ENDBLK
  5
BAA0
330
BA98
100
AcDbEntity
  8
PIC06
100
AcDbBlockEnd
  0
BLOCK
  5
BAA2
330
BAA1
100
AcDbEntity
  8
PIC06
100
AcDbBlockBegin
  2
COMP15
 70
     0
 10
0.0
 20
0.0
 30
0.0
  3
COMP15
  1

  0
LINE
  5
BAA3
330
BAA1
100
AcDbEntity
  8
PIC06
  6
Continuous
 62
     7
100
AcDbLine
 10
121.1343665442382
 20
-131.7265275024729
 30
0.0
 11
126.4678063712036
 21
-131.7265275024729
 31
0.0
  0
INSERT
  5
BAA4
330
BAA1
100
AcDbEntity
  8
PIC06
  6
Continuous
 62
     7
100
AcDbBlockReference
  2
MARK1_1
 10
121.1343665442382
 20
-131.7265275024729
 30
0.0
 41
2.5
 42
2.5
  0
LINE
  5
BAA5
330
BAA1
100
AcDbEntity
  8
PIC06
  6
Continuous
 62
     7
100
AcDbLine
 10
131.8012461981689
 20
-131.7265275024729
 30
0.0
 11
126.4678063712036
 21
-131.7265275024729
 31
0.0
  0
INSERT
  5
BAA6
330
BAA1
100
AcDbEntity
  8
PIC06
  6
Continuous
 62
     7
100
AcDbBlockReference
  2
MARK1_1
 10
131.8012461981689
 20
-131.7265275024729
 30
0.0
 41
2.5
 42
2.5
 50
180.0
  0
LINE
  5
BAA7
330
BAA1
100
AcDbEntity
  8
PIC06
  6
Continuous
 62
     7
100
AcDbLine
 10
121.1343665442382
 20
-144.0608904024756
 30
0.0
 11
121.1343665442382
 21
-131.2265175186949
 31
0.0
  0
LINE
  5
BAA8
330
BAA1
100
AcDbEntity
  8
PIC06
  6
Continuous
 62
     7
100
AcDbLine
 10
131.8012461981689
 20
-144.0608904024756
 30
0.0
 11
131.8012461981689
 21
-131.2265175186949
 31
0.0
  0
TEXT
  5
BAA9
330
BAA1
100
AcDbEntity
  8
PIC06
  6
Continuous
 62
     7
100
AcDbText
 10
122.2400099586848
 20
-129.5819025677792
 30
0.0
 40
2.5
  1
%%c
 41
0.6547619344966496
100
AcDbText
  0
TEXT
  5
BAAA
330
BAA1
100
AcDbEntity
  8
PIC06
  6
Continuous
 62
     7
100
AcDbText
 10
123.9587599586847
 20
-129.5819025677792
 30
0.0
 40
2.5
  1
6
 41
0.6547619344966496
100
AcDbText
  0
TEXT
  5
BAAB
330
BAA1
100
AcDbEntity
  8
PIC06
  6
Continuous
 62
     7
100
AcDbText
 10
125.6775099586848
 20
-129.5819025677792
 30
0.0
 40
2.5
  1
4
 41
0.6547619344966496
100
AcDbText
  0
TEXT
  5
BAAC
330
BAA1
100
AcDbEntity
  8
PIC06
  6
Continuous
 62
     7
100
AcDbText
 10
127.9275014514095
 20
-128.0319041708007
 30
0.0
 40
2.1
  1
+
 41
0.6547619344966496
100
AcDbText
  0
TEXT
  5
BAAD
330
BAA1
100
AcDbEntity
  8
PIC06
  6
Continuous
 62
     7
100
AcDbText
 10
129.3712514514095
 20
-128.0319041708007
 30
0.0
 40
2.1
  1
3
 41
0.6547619344966496
100
AcDbText
  0
TEXT
  5
BAAE
330
BAA1
100
AcDbEntity
  8
PIC06
  6
Continuous
 62
     7
100
AcDbText
 10
127.9275014514095
 20
-130.7318889086436
 30
0.0
 40
2.1
  1
-
 41
0.6547619344966496
100
AcDbText
  0
TEXT
  5
BAAF
330
BAA1
100
AcDbEntity
  8
PIC06
  6
Continuous
 62
     7
100
AcDbText
 10
129.3712514514095
 20
-130.7318889086436
 30
0.0
 40
2.1
  1
2
 41
0.6547619344966496
100
AcDbText
  0
ENDBLK
  5
BAB0
330
BAA1
100
AcDbEntity
  8
PIC06
100
AcDbBlockEnd
  0
BLOCK
  5
BAB2
330
BAB1
100
AcDbEntity
  8
PIC06
100
AcDbBlockBegin
  2
COMP16
 70
     0
 10
0.0
 20
0.0
 30
0.0
  3
COMP16
  1

  0
LINE
  5
BAB3
330
BAB1
100
AcDbEntity
  8
PIC06
  6
Continuous
 62
     7
100
AcDbLine
 10
122.8010664901649
 20
-137.7991381758183
 30
0.0
 11
126.4678063712036
 21
-137.7991381758183
 31
0.0
  0
INSERT
  5
BAB4
330
BAB1
100
AcDbEntity
  8
PIC06
  6
Continuous
 62
     7
100
AcDbBlockReference
  2
MARK1_1
 10
122.8010664901649
 20
-137.7991381758183
 30
0.0
 41
2.5
 42
2.5
  0
LINE
  5
BAB5
330
BAB1
100
AcDbEntity
  8
PIC06
  6
Continuous
 62
     7
100
AcDbLine
 10
130.1345462522422
 20
-137.7991381758183
 30
0.0
 11
126.4678063712036
 21
-137.7991381758183
 31
0.0
  0
INSERT
  5
BAB6
330
BAB1
100
AcDbEntity
  8
PIC06
  6
Continuous
 62
     7
100
AcDbBlockReference
  2
MARK1_1
 10
130.1345462522422
 20
-137.7991381758183
 30
0.0
 41
2.5
 42
2.5
 50
180.0
  0
LINE
  5
BAB7
330
BAB1
100
AcDbEntity
  8
PIC06
  6
Continuous
 62
     7
100
AcDbLine
 10
122.8010664901649
 20
-145.8942603429949
 30
0.0
 11
122.8010664901649
 21
-137.2991281920403
 31
0.0
  0
LINE
  5
BAB8
330
BAB1
100
AcDbEntity
  8
PIC06
  6
Continuous
 62
     7
100
AcDbLine
 10
130.1345462522422
 20
-145.8942603429949
 30
0.0
 11
130.1345462522422
 21
-137.2991281920403
 31
0.0
  0
TEXT
  5
BAB9
330
BAB1
100
AcDbEntity
  8
PIC06
  6
Continuous
 62
     7
100
AcDbText
 10
121.8139353704573
 20
-136.4466026246064
 30
0.0
 40
2.5
  1
%%c
 41
0.6547619344966496
100
AcDbText
  0
TEXT
  5
BABA
330
BAB1
100
AcDbEntity
  8
PIC06
  6
Continuous
 62
     7
100
AcDbText
 10
123.5326853704572
 20
-136.4466026246064
 30
0.0
 40
2.5
  1
4
 41
0.6547619344966496
100
AcDbText
  0
TEXT
  5
BABB
330
BAB1
100
AcDbEntity
  8
PIC06
  6
Continuous
 62
     7
100
AcDbText
 10
125.2514353704573
 20
-136.4466026246064
 30
0.0
 40
2.5
  1
4
 41
0.6547619344966496
100
AcDbText
  0
TEXT
  5
BABC
330
BAB1
100
AcDbEntity
  8
PIC06
  6
Continuous
 62
     7
100
AcDbText
 10
127.501426863182
 20
-136.4466026246064
 30
0.0
 40
2.5
  1
%%p
 41
0.6547619344966496
100
AcDbText
  0
TEXT
  5
BABD
330
BAB1
100
AcDbEntity
  8
PIC06
  6
Continuous
 62
     7
100
AcDbText
 10
129.220176863182
 20
-136.4466026246064
 30
0.0
 40
2.5
  1
2
 41
0.6547619344966496
100
AcDbText
  0
ENDBLK
  5
BABE
330
BAB1
100
AcDbEntity
  8
PIC06
100
AcDbBlockEnd
  0
BLOCK
  5
BAC0
330
BABF
100
AcDbEntity
  8
PIC06
100
AcDbBlockBegin
  2
COMP17
 70
     0
 10
0.0
 20
0.0
 30
0.0
  3
COMP17
  1

  0
LINE
  5
BAC1
330
BABF
100
AcDbEntity
  8
PIC06
  6
Continuous
 62
     7
100
AcDbLine
 10
36.54915354978811
 20
-111.2269014677204
 30
0.0
 11
36.54915354978811
 21
-115.393651332537
 31
0.0
  0
INSERT
  5
BAC2
330
BABF
100
AcDbEntity
  8
PIC06
  6
Continuous
 62
     7
100
AcDbBlockReference
  2
MARK1_1
 10
36.54915354978811
 20
-111.2269014677204
 30
0.0
 41
2.5
 42
2.5
 50
270.0
  0
LINE
  5
BAC3
330
BABF
100
AcDbEntity
  8
PIC06
  6
Continuous
 62
     7
100
AcDbLine
 10
36.54915354978811
 20
-119.5604011973537
 30
0.0
 11
36.54915354978811
 21
-115.393651332537
 31
0.0
  0
INSERT
  5
BAC4
330
BABF
100
AcDbEntity
  8
PIC06
  6
Continuous
 62
     7
100
AcDbBlockReference
  2
MARK1_1
 10
36.54915354978811
 20
-119.5604011973537
 30
0.0
 41
2.5
 42
2.5
 50
90.0
  0
LINE
  5
BAC5
330
BABF
100
AcDbEntity
  8
PIC06
  6
Continuous
 62
     7
100
AcDbLine
 10
32.15671151577998
 20
-111.2269014677204
 30
0.0
 11
37.54915317188579
 21
-111.2269014677204
 31
0.0
  0
LINE
  5
BAC6
330
BABF
100
AcDbEntity
  8
PIC06
  6
Continuous
 62
     7
100
AcDbLine
 10
21.67804769680742
 20
-119.5604011973537
 30
0.0
 11
37.54915317188579
 21
-119.5604011973537
 31
0.0
  0
TEXT
  5
BAC7
330
BABF
100
AcDbEntity
  8
PIC06
  6
Continuous
 62
     7
100
AcDbText
 10
35.94915326789304
 20
-116.8780254536905
 30
0.0
 40
2.5
  1
5
 50
90.0
 41
0.6547619344966496
100
AcDbText
  0
TEXT
  5
BAC8
330
BABF
100
AcDbEntity
  8
PIC06
  6
Continuous
 62
     7
100
AcDbText
 10
35.94915382957179
 20
-115.1592754536905
 30
0.0
 40
2.5
  1
0
 50
90.0
 41
0.6547619344966496
100
AcDbText
  0
ENDBLK
  5
BAC9
330
BABF
100
AcDbEntity
  8
PIC06
100
AcDbBlockEnd
  0
BLOCK
  5
BACB
330
BACA
100
AcDbEntity
  8
PIC06
100
AcDbBlockBegin
  2
COMP19
 70
     0
 10
0.0
 20
0.0
 30
0.0
  3
COMP19
  1

  0
LINE
  5
BACC
330
BACA
100
AcDbEntity
  8
PIC06
  6
Continuous
 62
     7
100
AcDbLine
 10
31.66351726054063
 20
-122.2271211108364
 30
0.0
 11
31.66351726054063
 21
-125.2271199771294
 31
0.0
  0
INSERT
  5
BACD
330
BACA
100
AcDbEntity
  8
PIC06
  6
Continuous
 62
     7
100
AcDbBlockReference
  2
MARK1_1
 10
31.66351726054063
 20
-122.2271211108364
 30
0.0
 41
2.5
 42
2.5
 50
270.0
  0
LINE
  5
BACE
330
BACA
100
AcDbEntity
  8
PIC06
  6
Continuous
 62
     7
100
AcDbLine
 10
31.66351726054063
 20
-122.2271211108364
 30
0.0
 11
31.66351726054063
 21
-119.5604011973537
 31
0.0
  0
LINE
  5
BACF
330
BACA
100
AcDbEntity
  8
PIC06
  6
Continuous
 62
     7
100
AcDbLine
 10
31.66351726054063
 20
-116.893681283871
 30
0.0
 11
31.66351726054063
 21
-119.5604011973537
 31
0.0
  0
LINE
  5
BAD0
330
BACA
100
AcDbEntity
  8
PIC06
  6
Continuous
 62
     7
100
AcDbLine
 10
31.66351726054063
 20
-116.893681283871
 30
0.0
 11
31.66351726054063
 21
-113.893682417578
 31
0.0
  0
INSERT
  5
BAD1
330
BACA
100
AcDbEntity
  8
PIC06
  6
Continuous
 62
     7
100
AcDbBlockReference
  2
MARK1_1
 10
31.66351726054063
 20
-116.893681283871
 30
0.0
 41
2.5
 42
2.5
 50
90.0
  0
LINE
  5
BAD2
330
BACA
100
AcDbEntity
  8
PIC06
  6
Continuous
 62
     7
100
AcDbLine
 10
21.20340977115096
 20
-122.2271211108364
 30
0.0
 11
32.66351688263831
 21
-122.2271211108364
 31
0.0
  0
LINE
  5
BAD3
330
BACA
100
AcDbEntity
  8
PIC06
  6
Continuous
 62
     7
100
AcDbLine
 10
21.20340977115096
 20
-116.893681283871
 30
0.0
 11
32.66351688263831
 21
-116.893681283871
 31
0.0
  0
TEXT
  5
BAD4
330
BACA
100
AcDbEntity
  8
PIC06
  6
Continuous
 62
     7
100
AcDbText
 10
31.06351697864557
 20
-121.0447753185071
 30
0.0
 40
2.5
  1
3
 50
90.0
 41
0.6547619344966496
100
AcDbText
  0
TEXT
  5
BAD5
330
BACA
100
AcDbEntity
  8
PIC06
  6
Continuous
 62
     7
100
AcDbText
 10
31.06351754032429
 20
-119.3260253185072
 30
0.0
 40
2.5
  1
2
 50
90.0
 41
0.6547619344966496
100
AcDbText
  0
ENDBLK
  5
BAD6
330
BACA
100
AcDbEntity
  8
PIC06
100
AcDbBlockEnd
  0
BLOCK
  5
BAD8
330
BAD7
100
AcDbEntity
  8
PIC06
100
AcDbBlockBegin
  2
COMP20
 70
     0
 10
0.0
 20
0.0
 30
0.0
  3
COMP20
  1

  0
LINE
  5
BAD9
330
BAD7
100
AcDbEntity
  8
PIC06
  6
Continuous
 62
     7
100
AcDbLine
 10
159.8018052897369
 20
-135.0413926817927
 30
0.0
 11
162.8018041560299
 21
-135.0413926817927
 31
0.0
  0
INSERT
  5
BADA
330
BAD7
100
AcDbEntity
  8
PIC06
  6
Continuous
 62
     7
100
AcDbBlockReference
  2
MARK1_1
 10
159.8018052897369
 20
-135.0413926817927
 30
0.0
 41
2.5
 42
2.5
  0
LINE
  5
BADB
330
BAD7
100
AcDbEntity
  8
PIC06
  6
Continuous
 62
     7
100
AcDbLine
 10
159.8018052897369
 20
-135.0413926817927
 30
0.0
 11
157.2184203735504
 21
-135.0413926817927
 31
0.0
  0
LINE
  5
BADC
330
BAD7
100
AcDbEntity
  8
PIC06
  6
Continuous
 62
     7
100
AcDbLine
 10
154.6350558028225
 20
-135.0413926817927
 30
0.0
 11
157.2184203735504
 21
-135.0413926817927
 31
0.0
  0
LINE
  5
BADD
330
BAD7
100
AcDbEntity
  8
PIC06
  6
Continuous
 62
     7
100
AcDbLine
 10
154.6350558028225
 20
-135.0413926817927
 30
0.0
 11
151.6350569365295
 21
-135.0413926817927
 31
0.0
  0
INSERT
  5
BADE
330
BAD7
100
AcDbEntity
  8
PIC06
  6
Continuous
 62
     7
100
AcDbBlockReference
  2
MARK1_1
 10
154.6350558028225
 20
-135.0413926817927
 30
0.0
 41
2.5
 42
2.5
 50
180.0
  0
LINE
  5
BADF
330
BAD7
100
AcDbEntity
  8
PIC06
  6
Continuous
 62
     7
100
AcDbLine
 10
159.8018052897369
 20
-139.0607905646957
 30
0.0
 11
159.8018052897369
 21
-134.041393059695
 31
0.0
  0
LINE
  5
BAE0
330
BAD7
100
AcDbEntity
  8
PIC06
  6
Continuous
 62
     7
100
AcDbLine
 10
154.6350558028225
 20
-124.5605010351337
 30
0.0
 11
154.6350558028225
 21
-136.0413923038904
 31
0.0
  0
TEXT
  5
BAE1
330
BAD7
100
AcDbEntity
  8
PIC06
  6
Continuous
 62
     7
100
AcDbText
 10
155.7340462523971
 20
-134.44139494308
 30
0.0
 40
2.5
  1
3
 41
0.6547619344966496
100
AcDbText
  0
TEXT
  5
BAE2
330
BAD7
100
AcDbEntity
  8
PIC06
  6
Continuous
 62
     7
100
AcDbText
 10
157.452796252397
 20
-134.44139494308
 30
0.0
 40
2.5
  1
1
 41
0.6547619344966496
100
AcDbText
  0
ENDBLK
  5
BAE3
330
BAD7
100
AcDbEntity
  8
PIC06
100
AcDbBlockEnd
  0
BLOCK
  5
BAE5
330
BAE4
100
AcDbEntity
  8
PIC06
100
AcDbBlockBegin
  2
COMP25
 70
     0
 10
0.0
 20
0.0
 30
0.0
  3
COMP25
  1

  0
LINE
  5
BAE6
330
BAE4
100
AcDbEntity
  8
PIC06
  6
Continuous
 62
     7
100
AcDbLine
 10
1.545061126459188
 20
-11.36655487933876
 30
0.0
 11
7.630971053695247
 21
-6.444968165232237
 31
0.0
  0
INSERT
  5
BAE7
330
BAE4
100
AcDbEntity
  8
PIC06
  6
Continuous
 62
     7
100
AcDbBlockReference
  2
MARK1_1
 10
1.545061126459188
 20
-11.36655487933876
 30
0.0
 41
2.5
 42
2.5
 50
39.0
  0
LINE
  5
BAE8
330
BAE4
100
AcDbEntity
  8
PIC06
  6
Continuous
 62
     7
100
AcDbLine
 10
1.545061126459188
 20
-11.36655487933876
 30
0.0
 11
-0.4636849163777867
 21
-12.99099857991699
 31
0.0
  0
LINE
  5
BAE9
330
BAE4
100
AcDbEntity
  8
PIC06
  6
Continuous
 62
     7
100
AcDbLine
 10
-2.472430959214759
 20
-14.61544228049524
 30
0.0
 11
-0.4636849163777867
 21
-12.99099857991699
 31
0.0
  0
LINE
  5
BAEA
330
BAE4
100
AcDbEntity
  8
PIC06
  6
Continuous
 62
     7
100
AcDbLine
 10
-2.472430959214759
 20
-14.61544228049524
 30
0.0
 11
-4.805121681111358
 21
-16.50185537404832
 31
0.0
  0
INSERT
  5
BAEB
330
BAE4
100
AcDbEntity
  8
PIC06
  6
Continuous
 62
     7
100
AcDbBlockReference
  2
MARK1_1
 10
-2.472430959214759
 20
-14.61544228049524
 30
0.0
 41
2.5
 42
2.5
 50
219.0
  0
TEXT
  5
BAEC
330
BAE4
100
AcDbEntity
  8
PIC06
  6
Continuous
 62
     7
100
AcDbText
 10
3.722068719156026
 20
-8.706952061496167
 30
0.0
 40
2.5
  1
3
 50
39.0
 41
0.6547619344966496
100
AcDbText
  0
TEXT
  5
BAED
330
BAE4
100
AcDbEntity
  8
PIC06
  6
Continuous
 62
     7
100
AcDbText
 10
5.057788493583063
 20
-7.625307828532021
 30
0.0
 40
2.5
  1
1
 50
39.0
 41
0.6547619344966496
100
AcDbText
  0
ENDBLK
  5
BAEE
330
BAE4
100
AcDbEntity
  8
PIC06
100
AcDbBlockEnd
  0
BLOCK
  5
BAF0
330
BAEF
100
AcDbEntity
  8
PIC06
100
AcDbBlockBegin
  2
COMP26
 70
     0
 10
0.0
 20
0.0
 30
0.0
  3
COMP26
  1

  0
LINE
  5
BAF1
330
BAEF
100
AcDbEntity
  8
PIC06
  6
Continuous
 62
     7
100
AcDbLine
 10
-6.955108915664596
 20
-11.36655487933876
 30
0.0
 11
-0.8691986705307501
 21
-6.444968165232237
 31
0.0
  0
INSERT
  5
BAF2
330
BAEF
100
AcDbEntity
  8
PIC06
  6
Continuous
 62
     7
100
AcDbBlockReference
  2
MARK1_1
 10
-6.955108915664596
 20
-11.36655487933876
 30
0.0
 41
2.5
 42
2.5
 50
39.0
  0
LINE
  5
BAF3
330
BAEF
100
AcDbEntity
  8
PIC06
  6
Continuous
 62
     7
100
AcDbLine
 10
-6.955108915664596
 20
-11.36655487933876
 30
0.0
 11
-8.963854799552677
 21
-12.99099857991699
 31
0.0
  0
LINE
  5
BAF4
330
BAEF
100
AcDbEntity
  8
PIC06
  6
Continuous
 62
     7
100
AcDbLine
 10
-10.97260068344076
 20
-14.61544228049524
 30
0.0
 11
-8.963854799552677
 21
-12.99099857991699
 31
0.0
  0
LINE
  5
BAF5
330
BAEF
100
AcDbEntity
  8
PIC06
  6
Continuous
 62
     7
100
AcDbLine
 10
-10.97260068344076
 20
-14.61544228049524
 30
0.0
 11
-13.30529140533736
 21
-16.50185537404832
 31
0.0
  0
INSERT
  5
BAF6
330
BAEF
100
AcDbEntity
  8
PIC06
  6
Continuous
 62
     7
100
AcDbBlockReference
  2
MARK1_1
 10
-10.97260068344076
 20
-14.61544228049524
 30
0.0
 41
2.5
 42
2.5
 50
219.0
  0
TEXT
  5
BAF7
330
BAEF
100
AcDbEntity
  8
PIC06
  6
Continuous
 62
     7
100
AcDbText
 10
-4.778101005069971
 20
-8.706952061496167
 30
0.0
 40
2.5
  1
3
 50
39.0
 41
0.6547619344966496
100
AcDbText
  0
TEXT
  5
BAF8
330
BAEF
100
AcDbEntity
  8
PIC06
  6
Continuous
 62
     7
100
AcDbText
 10
-3.442381230642935
 20
-7.625307828532021
 30
0.0
 40
2.5
  1
1
 50
39.0
 41
0.6547619344966496
100
AcDbText
  0
ENDBLK
  5
BAF9
330
BAEF
100
AcDbEntity
  8
PIC06
100
AcDbBlockEnd
  0
BLOCK
  5
BFBF
330
BFB4
100
AcDbEntity
  8
0
100
AcDbBlockBegin
  2
*D39
 70
     1
 10
0.0
 20
0.0
 30
0.0
  3
*D39
  1

  0
LINE
  5
BFD7
330
BFB4
100
AcDbEntity
  8
Dim
 62
     0
440
 16777216
370
    -2
100
AcDbLine
 10
277.6638897961636
 20
253.295497720439
 30
0.0
 11
277.6638897961636
 21
258.0698080656256
 31
0.0
  0
LINE
  5
BFD8
330
BFB4
100
AcDbEntity
  8
Dim
 62
     0
440
 16777216
370
    -2
100
AcDbLine
 10
281.6821729877733
 20
253.295497720439
 30
0.0
 11
281.6821729877733
 21
258.0698080656256
 31
0.0
  0
LINE
  5
BFD9
330
BFB4
100
AcDbEntity
  8
Dim
 62
     0
440
 16777216
370
    -2
100
AcDbLine
 10
278.4138897961636
 20
257.0698080656256
 30
0.0
 11
280.9321729877733
 21
257.0698080656256
 31
0.0
  0
LINE
  5
BFDA
330
BFB4
100
AcDbEntity
  8
Dim
 62
     0
440
 16777216
370
    -2
100
AcDbLine
 10
281.6821729877733
 20
257.0698080656256
 30
0.0
 11
282.4321729877733
 21
257.0698080656256
 31
0.0
  0
SOLID
  5
BFDB
330
BFB4
100
AcDbEntity
  8
Dim
 62
     0
440
 16777216
100
AcDbTrace
 10
278.4138897961636
 20
257.1948080656256
 30
0.0
 11
278.4138897961636
 21
256.9448080656256
 31
0.0
 12
277.6638897961636
 22
257.0698080656256
 32
0.0
 13
277.6638897961636
 23
257.0698080656256
 33
0.0
  0
SOLID
  5
BFDC
330
BFB4
100
AcDbEntity
  8
Dim
 62
     0
440
 16777216
100
AcDbTrace
 10
280.9321729877733
 20
257.1948080656256
 30
0.0
 11
280.9321729877733
 21
256.9448080656256
 31
0.0
 12
281.6821729877733
 22
257.0698080656256
 32
0.0
 13
281.6821729877733
 23
257.0698080656256
 33
0.0
  0
MTEXT
  5
BFDD
330
BFB4
100
AcDbEntity
  8
Dim
 62
     0
440
 16777216
100
AcDbMText
 10
285.2446729877733
 20
257.0698080656256
 30
0.0
 40
0.75
 41
0.0
 71
     5
 72
     1
  1
\A1;4" [102]
 73
     1
 44
1.0
  0
POINT
  5
BFDE
330
BFB4
100
AcDbEntity
  8
Defpoints
 62
     0
440
 16777216
100
AcDbPoint
 10
277.6638897961636
 20
252.2954977204389
 30
0.0
  0
POINT
  5
BFDF
330
BFB4
100
AcDbEntity
  8
Defpoints
 62
     0
440
 16777216
100
AcDbPoint
 10
281.6821729877733
 20
252.2954977204389
 30
0.0
  0
POINT
  5
BFE0
330
BFB4
100
AcDbEntity
  8
Defpoints
 62
     0
440
 16777216
100
AcDbPoint
 10
281.6821729877733
 20
257.0698080656256
 30
0.0
  0
ENDBLK
  5
BFC0
330
BFB4
100
AcDbEntity
  8
0
100
AcDbBlockEnd
  0
ENDSEC
  0
SECTION
  2
ENTITIES
  0
MTEXT
  5
9241
330
1F
100
AcDbEntity
  8
0
100
AcDbMText
 10
288.7942721699425
 20
238.243452688226
 30
0.0
 40
1.0
 41
0.0
 71
     9
 72
     1
  1
\A1;
 73
     1
 44
1.0
  0
LINE
  5
B3C4
330
1F
100
AcDbEntity
  8
PIC01
  6
Continuous
 62
     7
100
AcDbLine
 10
235.3515763232258
 20
252.2915133472699
 30
0.0
 11
235.3515763232258
 21
254.0721323816153
 31
0.0
  0
LINE
  5
B3C5
330
1F
100
AcDbEntity
  8
PIC01
  6
Continuous
 62
     7
100
AcDbLine
 10
233.0287695138369
 20
227.6684840673561
 30
0.0
 11
243.2648673178878
 21
227.6684840673561
 31
0.0
  0
LINE
  5
B3C6
330
1F
100
AcDbEntity
  8
PIC01
  6
Continuous
 62
     7
100
AcDbLine
 10
242.5562143929957
 20
229.3220075587789
 30
0.0
 11
242.5562143929957
 21
229.4401163795923
 31
0.0
  0
LINE
  5
B3C7
330
1F
100
AcDbEntity
  8
PIC01
  6
Continuous
 62
     7
100
AcDbLine
 10
243.2648673178878
 20
227.6684840673561
 30
0.0
 11
243.2648673178878
 21
228.6527242408246
 31
0.0
  0
LINE
  5
B3C8
330
1F
100
AcDbEntity
  8
PIC01
  6
Continuous
 62
     7
100
AcDbLine
 10
233.0287695138369
 20
227.6684840673561
 30
0.0
 11
233.0287695138369
 21
228.6527242408246
 31
0.0
  0
LINE
  5
B3C9
330
1F
100
AcDbEntity
  8
PIC01
  6
Continuous
 62
     7
100
AcDbLine
 10
233.7374224387408
 20
229.3220075587789
 30
0.0
 11
233.7374224387408
 21
229.4401163795923
 31
0.0
  0
LINE
  5
B3CA
330
1F
100
AcDbEntity
  8
PIC01
  6
Continuous
 62
     7
100
AcDbLine
 10
234.1311185081188
 20
229.833812448982
 30
0.0
 11
234.1837399851748
 21
229.833812448982
 31
0.0
  0
LINE
  5
B3CB
330
1F
100
AcDbEntity
  8
PIC01
  6
Continuous
 62
     7
100
AcDbLine
 10
242.1231487166681
 20
229.833812448982
 30
0.0
 11
242.1625183236059
 21
229.833812448982
 31
0.0
  0
LINE
  5
B3CC
330
1F
100
AcDbEntity
  8
PIC01
  6
Continuous
 62
     7
100
AcDbLine
 10
233.4224655832267
 20
229.0464203102025
 30
0.0
 11
233.4618351901645
 21
229.0464203102025
 31
0.0
  0
LINE
  5
B3CD
330
1F
100
AcDbEntity
  8
PIC01
  6
Continuous
 62
     7
100
AcDbLine
 10
242.831801641572
 20
229.0464203102025
 30
0.0
 11
242.8711712485098
 21
229.0464203102025
 31
0.0
  0
LINE
  5
B3CE
330
1F
100
AcDbEntity
  8
PIC01
  6
Continuous
 62
     7
100
AcDbLine
 10
197.3392259636991
 20
252.882057669734
 30
0.0
 11
197.3392259636991
 21
254.4676379367876
 31
0.0
  0
LINE
  5
B3CF
330
1F
100
AcDbEntity
  8
PIC01
  6
Continuous
 62
     7
100
AcDbLine
 10
195.6439706889133
 20
227.6684840673561
 30
0.0
 11
206.7115545915084
 21
227.6684840673561
 31
0.0
  0
LINE
  5
B3D0
330
1F
100
AcDbEntity
  8
PIC01
  6
Continuous
 62
     7
100
AcDbLine
 10
198.1266181024668
 20
252.0946655309663
 30
0.0
 11
198.3576428628455
 21
252.0946655309663
 31
0.0
  0
LINE
  5
B3D1
330
1F
100
AcDbEntity
  8
PIC01
  6
Continuous
 62
     7
100
AcDbLine
 10
198.3576428628455
 20
252.0946655309663
 30
0.0
 11
201.1777626402167
 21
252.0946655309663
 31
0.0
  0
LINE
  5
B3D2
330
1F
100
AcDbEntity
  8
PIC01
  6
Continuous
 62
     7
100
AcDbLine
 10
197.7313472488015
 20
229.3220075587789
 30
0.0
 11
197.7313472488015
 21
229.4461484291304
 31
0.0
  0
LINE
  5
B3D3
330
1F
100
AcDbEntity
  8
PIC01
  6
Continuous
 62
     7
100
AcDbLine
 10
196.3526236138054
 20
229.3220075587789
 30
0.0
 11
196.3526236138054
 21
229.4401163795922
 31
0.0
  0
LINE
  5
B3D4
330
1F
100
AcDbEntity
  8
PIC01
  6
Continuous
 62
     7
100
AcDbLine
 10
197.1585194678412
 20
227.6684840673561
 30
0.0
 11
197.1585194678412
 21
228.6597111832207
 31
0.0
  0
LINE
  5
B3D5
330
1F
100
AcDbEntity
  8
PIC01
  6
Continuous
 62
     7
100
AcDbLine
 10
195.6439706889133
 20
227.6684840673561
 30
0.0
 11
195.6439706889133
 21
228.6527242408245
 31
0.0
  0
LINE
  5
B3D6
330
1F
100
AcDbEntity
  8
PIC01
  6
Continuous
 62
     7
100
AcDbLine
 10
198.2427162715181
 20
229.8338124489819
 30
0.0
 11
201.1777626402167
 21
229.8338124489819
 31
0.0
  0
LINE
  5
B3D7
330
1F
100
AcDbEntity
  8
PIC01
  6
Continuous
 62
     7
100
AcDbLine
 10
197.6770953585456
 20
229.0464203102025
 30
0.0
 11
201.1777626402167
 21
229.0464203102025
 31
0.0
  0
LINE
  5
B3D8
330
1F
100
AcDbEntity
  8
PIC01
  6
Continuous
 62
     7
100
AcDbLine
 10
196.7463196831952
 20
229.8338124489819
 30
0.0
 11
196.7960737781631
 21
229.8338124489819
 31
0.0
  0
LINE
  5
B3D9
330
1F
100
AcDbEntity
  8
PIC01
  6
Continuous
 62
     7
100
AcDbLine
 10
196.9402176165599
 20
229.8338124489819
 30
0.0
 11
197.9080577920175
 21
229.8338124489819
 31
0.0
  0
LINE
  5
B3DA
330
1F
100
AcDbEntity
  8
PIC01
  6
Continuous
 62
     7
100
AcDbLine
 10
196.0376667583031
 20
229.0464203102025
 30
0.0
 11
196.0770363652409
 21
229.0464203102025
 31
0.0
  0
LINE
  5
B3DB
330
1F
100
AcDbEntity
  8
PIC01
  6
Continuous
 62
     7
100
AcDbLine
 10
196.2740412872381
 20
229.0464203102025
 30
0.0
 11
197.3314386679391
 21
229.0464203102025
 31
0.0
  0
LINE
  5
B3DC
330
1F
100
AcDbEntity
  8
PIC01
  6
Continuous
 62
     7
100
AcDbLine
 10
205.0162993167343
 20
252.882057669734
 30
0.0
 11
205.0162993167343
 21
254.4676379367876
 31
0.0
  0
LINE
  5
B3DD
330
1F
100
AcDbEntity
  8
PIC01
  6
Continuous
 62
     7
100
AcDbLine
 10
204.2289071779548
 20
252.0946655309663
 30
0.0
 11
203.997882417588
 21
252.0946655309663
 31
0.0
  0
LINE
  5
B3DE
330
1F
100
AcDbEntity
  8
PIC01
  6
Continuous
 62
     7
100
AcDbLine
 10
203.997882417588
 20
252.0946655309663
 30
0.0
 11
201.1777626402167
 21
252.0946655309663
 31
0.0
  0
LINE
  5
B3DF
330
1F
100
AcDbEntity
  8
PIC01
  6
Continuous
 62
     7
100
AcDbLine
 10
204.6241780316202
 20
229.3220075587789
 30
0.0
 11
204.6241780316202
 21
229.4461484291304
 31
0.0
  0
LINE
  5
B3E0
330
1F
100
AcDbEntity
  8
PIC01
  6
Continuous
 62
     7
100
AcDbLine
 10
205.1970058125805
 20
227.6684840673561
 30
0.0
 11
205.1970058125805
 21
228.6597111832207
 31
0.0
  0
LINE
  5
B3E1
330
1F
100
AcDbEntity
  8
PIC01
  6
Continuous
 62
     7
100
AcDbLine
 10
206.0029016666162
 20
229.3220075587789
 30
0.0
 11
206.0029016666162
 21
229.4401163795922
 31
0.0
  0
LINE
  5
B3E3
330
1F
100
AcDbEntity
  8
PIC01
  6
Continuous
 62
     7
100
AcDbLine
 10
206.7115545915084
 20
227.6684840673561
 30
0.0
 11
206.7115545915084
 21
228.6527242408245
 31
0.0
  0
LINE
  5
B3E4
330
1F
100
AcDbEntity
  8
PIC01
  6
Continuous
 62
     7
100
AcDbLine
 10
204.1128090089154
 20
229.8338124489819
 30
0.0
 11
201.1777626402167
 21
229.8338124489819
 31
0.0
  0
LINE
  5
B3E5
330
1F
100
AcDbEntity
  8
PIC01
  6
Continuous
 62
     7
100
AcDbLine
 10
204.6784299218878
 20
229.0464203102025
 30
0.0
 11
201.1777626402167
 21
229.0464203102025
 31
0.0
  0
LINE
  5
B3E6
330
1F
100
AcDbEntity
  8
PIC01
  6
Continuous
 62
     7
100
AcDbLine
 10
205.6092055972265
 20
229.8338124489819
 30
0.0
 11
205.5594515022585
 21
229.8338124489819
 31
0.0
  0
LINE
  5
B3E7
330
1F
100
AcDbEntity
  8
PIC01
  6
Continuous
 62
     7
100
AcDbLine
 10
206.3178585221304
 20
229.0464203102025
 30
0.0
 11
206.2784889151808
 21
229.0464203102025
 31
0.0
  0
LINE
  5
B3E8
330
1F
100
AcDbEntity
  8
PIC01
  6
Continuous
 62
     7
100
AcDbLine
 10
206.0814839931836
 20
229.0464203102025
 30
0.0
 11
205.0240866124944
 21
229.0464203102025
 31
0.0
  0
LINE
  5
B3E9
330
1F
100
AcDbEntity
  8
PIC01
  6
Continuous
 62
     7
100
AcDbLine
 10
205.4153076638618
 20
229.8338124489819
 30
0.0
 11
204.4474674884042
 21
229.8338124489819
 31
0.0
  0
LINE
  5
B3ED
330
1F
100
AcDbEntity
  8
PIC01
  6
Continuous
 62
     7
100
AcDbLine
 10
204.7531205204591
 20
254.3710764126637
 30
0.0
 11
205.0162993167343
 21
254.4763479311715
 31
0.0
  0
LINE
  5
B3EE
330
1F
100
AcDbEntity
  8
PIC01
  6
Continuous
 62
     7
100
AcDbLine
 10
197.6024047599626
 20
254.3710764126637
 30
0.0
 11
197.3392259636991
 21
254.4763479311715
 31
0.0
  0
LINE
  5
B3EF
330
1F
100
AcDbEntity
  8
PIC01
  6
Continuous
 62
     7
100
AcDbLine
 10
233.4618351901645
 20
229.0464203102025
 30
0.0
 11
242.831801641572
 21
229.0464203102025
 31
0.0
  0
LINE
  5
B3F0
330
1F
100
AcDbEntity
  8
PIC01
  6
Continuous
 62
     7
100
AcDbLine
 10
234.1311185081188
 20
229.833812448982
 30
0.0
 11
242.1625183236059
 21
229.833812448982
 31
0.0
  0
LINE
  5
B3F3
330
1F
100
AcDbEntity
  8
PIC01
  6
Continuous
 62
     7
100
AcDbLine
 10
241.8475614681036
 20
230.1093996975466
 30
0.0
 11
241.8475614681036
 21
242.5215771933112
 31
0.0
  0
LINE
  5
B3F4
330
1F
100
AcDbEntity
  8
PIC01
  6
Continuous
 62
     7
100
AcDbLine
 10
241.8475614681036
 20
242.5215771933112
 30
0.0
 11
241.8475614681036
 21
254.0831678682794
 31
0.0
  0
LINE
  5
B3F5
330
1F
100
AcDbEntity
  8
PIC01
  6
Continuous
 62
     7
100
AcDbLine
 10
197.8357689625875
 20
251.8629577240167
 30
0.0
 11
197.0706251001342
 21
230.0997166869992
 31
0.0
  0
LINE
  5
B3F6
330
1F
100
AcDbEntity
  8
PIC01
  6
Continuous
 62
     7
100
AcDbLine
 10
198.8310276876999
 20
251.6107953851416
 30
0.0
 11
198.3102901405236
 21
230.1026472626853
 31
0.0
  0
LINE
  5
B3F7
330
1F
100
AcDbEntity
  8
PIC01
  6
Continuous
 62
     7
100
AcDbLine
 10
203.5244975927217
 20
251.6107953851416
 30
0.0
 11
204.0452351398981
 21
230.1026472626853
 31
0.0
  0
LINE
  5
B3F8
330
1F
100
AcDbEntity
  8
PIC01
  6
Continuous
 62
     7
100
AcDbLine
 10
204.5197563178341
 20
251.8629577240167
 30
0.0
 11
205.2849001802874
 21
230.0997166869992
 31
0.0
  0
LINE
  5
B3F9
330
1F
100
AcDbEntity
  8
PIC01
  6
Continuous
 62
     7
100
AcDbLine
 10
235.5363152755818
 20
251.948004222069
 30
0.0
 11
234.4589929306954
 21
230.0958295996632
 31
0.0
  0
LINE
  5
B3FA
330
1F
100
AcDbEntity
  8
PIC01
  6
Continuous
 62
     7
100
AcDbLine
 10
234.7334978952474
 20
227.6684840673561
 30
0.0
 11
234.3299916872102
 21
227.6684840673561
 31
0.0
  0
LINE
  5
B3FE
330
1F
100
AcDbEntity
  8
PIC01
  6
Continuous
 62
     7
100
AcDbLine
 10
233.4224655832267
 20
227.6684840673561
 30
0.0
 11
233.0287695138369
 21
227.6684840673561
 31
0.0
  0
LINE
  5
B3FF
330
1F
100
AcDbEntity
  8
PIC01
  6
Continuous
 62
     7
100
AcDbLine
 10
233.0287695138369
 20
227.6684840673561
 30
0.0
 11
233.0287695138369
 21
228.6527242408246
 31
0.0
  0
LINE
  5
B400
330
1F
100
AcDbEntity
  8
PIC01
  6
Continuous
 62
     7
100
AcDbLine
 10
233.4224655832267
 20
229.0464203102025
 30
0.0
 11
233.4618351901645
 21
229.0464203102025
 31
0.0
  0
LINE
  5
B401
330
1F
100
AcDbEntity
  8
PIC01
  6
Continuous
 62
     7
100
AcDbLine
 10
233.7374224387408
 20
229.3220075587789
 30
0.0
 11
233.7374224387408
 21
229.4401163795923
 31
0.0
  0
LINE
  5
B402
330
1F
100
AcDbEntity
  8
PIC01
  6
Continuous
 62
     7
100
AcDbLine
 10
234.1311185081188
 20
229.833812448982
 30
0.0
 11
234.1837399851748
 21
229.833812448982
 31
0.0
  0
LINE
  5
B403
330
1F
100
AcDbEntity
  8
PIC01
  6
Continuous
 62
     7
100
AcDbLine
 10
234.4589929306954
 20
230.0958295996632
 30
0.0
 11
235.5363152755818
 21
251.948004222069
 31
0.0
  0
LINE
  5
B404
330
1F
100
AcDbEntity
  8
PIC01
  6
Continuous
 62
     7
100
AcDbLine
 10
235.3515763232258
 20
252.2915133472699
 30
0.0
 11
235.3515763232258
 21
254.1874027410276
 31
0.0
  0
LINE
  5
B405
330
1F
100
AcDbEntity
  8
PIC01
  6
Continuous
 62
     7
100
AcDbLine
 10
241.8475614681036
 20
231.9991410140209
 30
0.0
 11
241.8475614681036
 21
230.6605741946874
 31
0.0
  0
ARC
  5
B407
330
1F
100
AcDbEntity
  8
PIC01
  6
Continuous
 62
     7
100
AcDbCircle
 10
242.8711712485098
 20
228.6527242408246
 30
0.0
 40
0.3936960693897511
100
AcDbArc
 50
0.0
 51
90.0
  0
ARC
  5
B408
330
1F
100
AcDbEntity
  8
PIC01
  6
Continuous
 62
     7
100
AcDbCircle
 10
233.4224655832267
 20
228.6527242408246
 30
0.0
 40
0.3936960693897511
100
AcDbArc
 50
90.0
 51
180.0
  0
ARC
  5
B409
330
1F
100
AcDbEntity
  8
PIC01
  6
Continuous
 62
     7
100
AcDbCircle
 10
242.831801641572
 20
229.3220075587789
 30
0.0
 40
0.275587248576369
100
AcDbArc
 50
180.0
 51
270.0
  0
ARC
  5
B40A
330
1F
100
AcDbEntity
  8
PIC01
  6
Continuous
 62
     7
100
AcDbCircle
 10
233.4618351901645
 20
229.3220075587789
 30
0.0
 40
0.275587248576369
100
AcDbArc
 50
270.0
 51
0.0
  0
ARC
  5
B40B
330
1F
100
AcDbEntity
  8
PIC01
  6
Continuous
 62
     7
100
AcDbCircle
 10
242.1625183236059
 20
229.4401163795923
 30
0.0
 40
0.3936960693897511
100
AcDbArc
 50
0.0
 51
90.0
  0
ARC
  5
B40C
330
1F
100
AcDbEntity
  8
PIC01
  6
Continuous
 62
     7
100
AcDbCircle
 10
234.1311185081188
 20
229.4401163795923
 30
0.0
 40
0.3936960693897511
100
AcDbArc
 50
90.0
 51
180.0
  0
ARC
  5
B40D
330
1F
100
AcDbEntity
  8
PIC01
  6
Continuous
 62
     7
100
AcDbCircle
 10
242.1231487166681
 20
230.1093996975466
 30
0.0
 40
0.275587248576369
100
AcDbArc
 50
180.0
 51
270.0
  0
ARC
  5
B40E
330
1F
100
AcDbEntity
  8
PIC01
  6
Continuous
 62
     7
100
AcDbCircle
 10
198.1266181024668
 20
252.882057669734
 30
0.0
 40
0.7873921387676912
100
AcDbArc
 50
180.0
 51
270.0
  0
ARC
  5
B40F
330
1F
100
AcDbEntity
  8
PIC01
  6
Continuous
 62
     7
100
AcDbCircle
 10
197.4557600002369
 20
229.3220075587789
 30
0.0
 40
0.275587248576369
100
AcDbArc
 50
278.2861874304
 51
0.0
  0
ARC
  5
B410
330
1F
100
AcDbEntity
  8
PIC01
  6
Continuous
 62
     7
100
AcDbCircle
 10
198.1250433181912
 20
229.4461484291304
 30
0.0
 40
0.3936960693897511
100
AcDbArc
 50
97.69824627730038
 51
180.0
  0
ARC
  5
B411
330
1F
100
AcDbEntity
  8
PIC01
  6
Continuous
 62
     7
100
AcDbCircle
 10
197.552215537231
 20
228.6597111832207
 30
0.0
 40
0.3936960693897511
100
AcDbArc
 50
98.28618743040001
 51
180.0
  0
ARC
  5
B412
330
1F
100
AcDbEntity
  8
PIC01
  6
Continuous
 62
     7
100
AcDbCircle
 10
196.0770363652409
 20
229.3220075587789
 30
0.0
 40
0.275587248576369
100
AcDbArc
 50
270.0
 51
0.0
  0
ARC
  5
B413
330
1F
100
AcDbEntity
  8
PIC01
  6
Continuous
 62
     7
100
AcDbCircle
 10
196.7463196831952
 20
229.4401163795922
 30
0.0
 40
0.3936960693897511
100
AcDbArc
 50
90.0
 51
180.0
  0
ARC
  5
B414
330
1F
100
AcDbEntity
  8
PIC01
  6
Continuous
 62
     7
100
AcDbCircle
 10
196.0376667583031
 20
228.6527242408245
 30
0.0
 40
0.3936960693897511
100
AcDbArc
 50
90.0
 51
180.0
  0
ARC
  5
B415
330
1F
100
AcDbEntity
  8
PIC01
  6
Continuous
 62
     7
100
AcDbCircle
 10
204.2289071779548
 20
252.882057669734
 30
0.0
 40
0.7873921387676912
100
AcDbArc
 50
270.0
 51
0.0
  0
ARC
  5
B416
330
1F
100
AcDbEntity
  8
PIC01
  6
Continuous
 62
     7
100
AcDbCircle
 10
204.2304819622423
 20
229.4461484291304
 30
0.0
 40
0.3936960693897511
100
AcDbArc
 50
0.0
 51
82.24648551210002
  0
ARC
  5
B417
330
1F
100
AcDbEntity
  8
PIC01
  6
Continuous
 62
     7
100
AcDbCircle
 10
204.8997652801966
 20
229.3220075587789
 30
0.0
 40
0.275587248576369
100
AcDbArc
 50
180.0
 51
261.7138125696
  0
ARC
  5
B418
330
1F
100
AcDbEntity
  8
PIC01
  6
Continuous
 62
     7
100
AcDbCircle
 10
204.8033097431907
 20
228.6597111832207
 30
0.0
 40
0.3936960693897511
100
AcDbArc
 50
0.0
 51
81.71381256959994
  0
ARC
  5
B419
330
1F
100
AcDbEntity
  8
PIC01
  6
Continuous
 62
     7
100
AcDbCircle
 10
206.2784889151808
 20
229.3220075587789
 30
0.0
 40
0.275587248576369
100
AcDbArc
 50
180.0
 51
270.0
  0
ARC
  5
B41A
330
1F
100
AcDbEntity
  8
PIC01
  6
Continuous
 62
     7
100
AcDbCircle
 10
205.6092055972265
 20
229.4401163795922
 30
0.0
 40
0.3936960693897511
100
AcDbArc
 50
0.0
 51
94.17936842030028
  0
ARC
  5
B41B
330
1F
100
AcDbEntity
  8
PIC01
  6
Continuous
 62
     7
100
AcDbCircle
 10
206.3178585221304
 20
228.6527242408245
 30
0.0
 40
0.3936960693897511
100
AcDbArc
 50
0.0
 51
90.0
  0
ARC
  5
B41E
330
1F
100
AcDbEntity
  8
PIC01
  6
Continuous
 62
     7
100
AcDbCircle
 10
197.8004695996825
 20
252.9015638370491
 30
0.0
 40
1.574784277547193
100
AcDbArc
 50
79.91727171519961
 51
90.71054698809971
  0
ARC
  5
B41F
330
1F
100
AcDbEntity
  8
PIC01
  6
Continuous
 62
     7
100
AcDbCircle
 10
197.5293530759363
 20
254.5700562939118
 30
0.0
 40
0.2119659785317619
100
AcDbArc
 50
206.2374049991025
 51
320.0540926429007
  0
ARC
  5
B420
330
1F
100
AcDbEntity
  8
PIC01
  6
Continuous
 62
     7
100
AcDbCircle
 10
197.782405270386
 20
254.3581272809991
 30
0.0
 40
0.118108820813382
100
AcDbArc
 50
90.71054698809971
 51
140.0541188142009
  0
ARC
  5
B421
330
1F
100
AcDbEntity
  8
PIC01
  6
Continuous
 62
     7
100
AcDbCircle
 10
204.5550556807392
 20
252.9015638370491
 30
0.0
 40
1.574784277547193
100
AcDbArc
 50
89.28945301190028
 51
100.0827282848004
  0
ARC
  5
B422
330
1F
100
AcDbEntity
  8
PIC01
  6
Continuous
 62
     7
100
AcDbCircle
 10
204.5731200100357
 20
254.3581272809991
 30
0.0
 40
0.118108820813382
100
AcDbArc
 50
39.94588118580193
 51
89.28945301190028
  0
ARC
  5
B423
330
1F
100
AcDbEntity
  8
PIC01
  6
Continuous
 62
     7
100
AcDbCircle
 10
204.8261722044972
 20
254.5700562939118
 30
0.0
 40
0.2119659785317619
100
AcDbArc
 50
219.9459073570994
 51
333.7625950008975
  0
ARC
  5
B424
330
1F
100
AcDbEntity
  8
PIC01
  6
Continuous
 62
     7
100
AcDbCircle
 10
235.8129881165382
 20
252.9015636536243
 30
0.0
 40
1.574784277547193
100
AcDbArc
 50
85.37210897519953
 51
98.22323499009891
  0
ARC
  5
B425
330
1F
100
AcDbEntity
  8
PIC01
  6
Continuous
 62
     7
100
AcDbCircle
 10
201.1777626402167
 20
271.8947393597009
 30
0.0
 40
17.71632312239705
100
AcDbArc
 50
259.9172717151995
 51
280.0827282848004
  0
ARC
  5
B426
330
1F
100
AcDbEntity
  8
PIC01
  6
Continuous
 62
     7
100
AcDbCircle
 10
235.6271635717904
 20
254.1874027410276
 30
0.0
 40
0.275587248576369
100
AcDbArc
 50
98.22323499009891
 51
180.0
  0
ARC
  5
B427
330
1F
100
AcDbEntity
  8
PIC01
  6
Continuous
 62
     7
100
AcDbCircle
 10
235.5484243579148
 20
252.2915133472699
 30
0.0
 40
0.19684803468897
100
AcDbArc
 50
180.0
 51
237.9843482797995
  0
ARC
  5
B428
330
1F
100
AcDbEntity
  8
PIC01
  6
Continuous
 62
     7
100
AcDbCircle
 10
241.3751264664361
 20
254.0826520452066
 30
0.0
 40
0.4724352832653392
100
AcDbArc
 50
0.0
 51
56.44264999670173
  0
ARC
  5
B429
330
1F
100
AcDbEntity
  8
PIC01
  6
Continuous
 62
     7
100
AcDbCircle
 10
238.7556568854527
 20
290.5816554860773
 30
0.0
 40
36.22003858838818
100
AcDbArc
 50
265.5344859405007
 51
274.5616119228996
  0
ARC
  5
B42A
330
1F
100
AcDbEntity
  8
PIC01
  6
Continuous
 62
     7
100
AcDbCircle
 10
198.3587308098901
 20
251.622230247701
 30
0.0
 40
0.4724352832653392
100
AcDbArc
 50
358.6130727858004
 51
90.0
  0
ARC
  5
B42B
330
1F
100
AcDbEntity
  8
PIC01
  6
Continuous
 62
     7
100
AcDbCircle
 10
197.3636253877663
 20
251.8795571706641
 30
0.0
 40
0.4724352832653392
100
AcDbArc
 50
357.9864458326004
 51
52.72561395269995
  0
ARC
  5
B42C
330
1F
100
AcDbEntity
  8
PIC01
  6
Continuous
 62
     7
100
AcDbCircle
 10
198.0347836284708
 20
230.1093175991792
 30
0.0
 40
0.275587248576369
100
AcDbArc
 50
277.7505366695996
 51
358.6130727858004
  0
ARC
  5
B42D
330
1F
100
AcDbEntity
  8
PIC01
  6
Continuous
 62
     7
100
AcDbCircle
 10
196.7952080148199
 20
230.1093996975465
 30
0.0
 40
0.275587248576369
100
AcDbArc
 50
270.0
 51
357.9864458324994
  0
ARC
  5
B42E
330
1F
100
AcDbEntity
  8
PIC01
  6
Continuous
 62
     7
100
AcDbCircle
 10
203.9967944705316
 20
251.622230247701
 30
0.0
 40
0.4724352832653392
100
AcDbArc
 50
90.0
 51
181.3869272143006
  0
ARC
  5
B42F
330
1F
100
AcDbEntity
  8
PIC01
  6
Continuous
 62
     7
100
AcDbCircle
 10
204.9918998926554
 20
251.8795571706641
 30
0.0
 40
0.4724352832653392
100
AcDbArc
 50
127.2743860472987
 51
182.0135541675006
  0
ARC
  5
B430
330
1F
100
AcDbEntity
  8
PIC01
  6
Continuous
 62
     7
100
AcDbCircle
 10
204.3207416519627
 20
230.1093175991792
 30
0.0
 40
0.275587248576369
100
AcDbArc
 50
181.3869272141996
 51
262.2494633304004
  0
ARC
  5
B431
330
1F
100
AcDbEntity
  8
PIC01
  6
Continuous
 62
     7
100
AcDbCircle
 10
205.5603172656018
 20
230.1093996975465
 30
0.0
 40
0.275587248576369
100
AcDbArc
 50
182.0135541675006
 51
270.0
  0
ARC
  5
B432
330
1F
100
AcDbEntity
  8
PIC01
  6
Continuous
 62
     7
100
AcDbCircle
 10
234.1837399851748
 20
230.1093996975466
 30
0.0
 40
0.275587248576369
100
AcDbArc
 50
270.0
 51
357.1775766804011
  0
ARC
  5
B433
330
1F
100
AcDbEntity
  8
PIC01
  6
Continuous
 62
     7
100
AcDbCircle
 10
235.3397060287814
 20
251.957697149132
 30
0.0
 40
0.19684803468897
100
AcDbArc
 50
357.1775766803
 51
57.98434827979949
  0
ARC
  5
B436
330
1F
100
AcDbEntity
  8
PIC01
  6
Continuous
 62
     7
100
AcDbCircle
 10
233.4224655832267
 20
228.6527242408246
 30
0.0
 40
0.3936960693897511
100
AcDbArc
 50
90.0
 51
180.0
  0
ARC
  5
B437
330
1F
100
AcDbEntity
  8
PIC01
  6
Continuous
 62
     7
100
AcDbCircle
 10
233.4618351901645
 20
229.3220075587789
 30
0.0
 40
0.275587248576369
100
AcDbArc
 50
270.0
 51
0.0
  0
ARC
  5
B438
330
1F
100
AcDbEntity
  8
PIC01
  6
Continuous
 62
     7
100
AcDbCircle
 10
234.1311185081188
 20
229.4401163795923
 30
0.0
 40
0.3936960693897511
100
AcDbArc
 50
90.0
 51
180.0
  0
ARC
  5
B439
330
1F
100
AcDbEntity
  8
PIC01
  6
Continuous
 62
     7
100
AcDbCircle
 10
234.1837399851748
 20
230.1093996975466
 30
0.0
 40
0.275587248576369
100
AcDbArc
 50
270.0
 51
357.1775766804011
  0
ARC
  5
B43A
330
1F
100
AcDbEntity
  8
PIC01
  6
Continuous
 62
     7
100
AcDbCircle
 10
235.3397060287814
 20
251.957697149132
 30
0.0
 40
0.19684803468897
100
AcDbArc
 50
357.1775766803
 51
57.98434827979949
  0
ARC
  5
B43B
330
1F
100
AcDbEntity
  8
PIC01
  6
Continuous
 62
     7
100
AcDbCircle
 10
235.5484243579148
 20
252.2915133472699
 30
0.0
 40
0.19684803468897
100
AcDbArc
 50
180.0
 51
237.9843482797995
  0
LINE
  5
B43E
330
1F
100
AcDbEntity
  8
0
100
AcDbLine
 10
235.5141837544837
 20
252.0488380948955
 30
0.0
 11
241.8475614681036
 21
252.0488380948955
 31
0.0
  0
LINE
  5
B7C4
330
1F
100
AcDbEntity
  8
Dim
100
AcDbLine
 10
200.1777626402168
 20
291.177890994534
 30
0.0
 11
202.1777626402168
 21
291.177890994534
 31
0.0
  0
LINE
  5
B7C5
330
1F
100
AcDbEntity
  8
Dim
100
AcDbLine
 10
201.1777626402167
 20
290.177890994534
 30
0.0
 11
201.1777626402167
 21
292.1778909945341
 31
0.0
  0
LINE
  5
BC52
330
1F
100
AcDbEntity
  8
PIC06
  6
Continuous
 62
     7
100
AcDbLine
 10
189.2804927983923
 20
294.3323833100274
 30
0.0
 11
213.0750324820413
 21
294.3323833100274
 31
0.0
  0
LINE
  5
BC53
330
1F
100
AcDbEntity
  8
PIC06
  6
Continuous
 62
     7
100
AcDbLine
 10
213.1932172817945
 20
276.2107140145332
 30
0.0
 11
213.1932172817945
 21
294.2141985102741
 31
0.0
  0
LINE
  5
BC54
330
1F
100
AcDbEntity
  8
PIC06
  6
Continuous
 62
     7
100
AcDbLine
 10
194.0866746550234
 20
289.0140673211323
 30
0.0
 11
208.2688506254102
 21
289.0140673211323
 31
0.0
  0
CIRCLE
  5
BC55
330
1F
100
AcDbEntity
  8
PIC06
  6
Continuous
 62
     7
100
AcDbCircle
 10
201.1777626402167
 20
286.4533966598123
 30
0.0
 40
1.260637864034382
  0
CIRCLE
  5
BC56
330
1F
100
AcDbEntity
  8
PIC06
  6
Continuous
 62
     7
100
AcDbCircle
 10
201.1777626402167
 20
286.4533966598123
 30
0.0
 40
0.8469910648981006
  0
LINE
  5
BC57
330
1F
100
AcDbEntity
  8
PIC06
  6
Continuous
 62
     7
100
AcDbLine
 10
189.1623079986391
 20
276.2107140145332
 30
0.0
 11
189.1623079986391
 21
294.2141985102741
 31
0.0
  0
LINE
  5
BC58
330
1F
100
AcDbEntity
  8
PIC06
  6
Continuous
 62
     7
100
AcDbLine
 10
190.3441559961713
 20
275.0288660170008
 30
0.0
 11
212.0113692842623
 21
275.0288660170008
 31
0.0
  0
ARC
  5
BC59
330
1F
100
AcDbEntity
  8
PIC06
  6
Continuous
 62
     7
100
AcDbCircle
 10
190.3441559961713
 20
276.2107140145332
 30
0.0
 40
1.181847997532232
100
AcDbArc
 50
180.0
 51
270.0
  0
ARC
  5
BC5A
330
1F
100
AcDbEntity
  8
PIC06
  6
Continuous
 62
     7
100
AcDbCircle
 10
212.0113692842623
 20
276.2107140145332
 30
0.0
 40
1.181847997532232
100
AcDbArc
 50
270.0
 51
0.0
  0
LINE
  5
BC5B
330
1F
100
AcDbEntity
  8
PIC06
  6
Continuous
 62
     7
100
AcDbLine
 10
190.6593154621799
 20
293.1505353124951
 30
0.0
 11
211.6962098182537
 21
293.1505353124951
 31
0.0
  0
LINE
  5
BC5C
330
1F
100
AcDbEntity
  8
PIC06
  6
Continuous
 62
     7
100
AcDbLine
 10
212.0113692842623
 20
276.5258734805417
 30
0.0
 11
212.0113692842623
 21
292.8353758464865
 31
0.0
  0
LINE
  5
BC5D
330
1F
100
AcDbEntity
  8
PIC06
  6
Continuous
 62
     7
100
AcDbLine
 10
190.3441559961713
 20
276.5258734805417
 30
0.0
 11
190.3441559961713
 21
292.8353758464865
 31
0.0
  0
LINE
  5
BC5E
330
1F
100
AcDbEntity
  8
PIC06
  6
Continuous
 62
     7
100
AcDbLine
 10
190.6593154621799
 20
276.2107140145332
 30
0.0
 11
211.6962098182537
 21
276.2107140145332
 31
0.0
  0
LINE
  5
BC5F
330
1F
100
AcDbEntity
  8
PIC06
  6
Continuous
 62
     7
100
AcDbLine
 10
194.0866746550234
 20
277.5895366783207
 30
0.0
 11
208.2688506254102
 21
277.5895366783207
 31
0.0
  0
LINE
  5
BC60
330
1F
100
AcDbEntity
  8
PIC06
  6
Continuous
 62
     7
100
AcDbLine
 10
191.7229786599589
 20
279.9532326733852
 30
0.0
 11
191.7229786599589
 21
286.6503713260678
 31
0.0
  0
LINE
  5
BC61
330
1F
100
AcDbEntity
  8
PIC06
  6
Continuous
 62
     7
100
AcDbLine
 10
210.6325466204746
 20
279.9532326733852
 30
0.0
 11
210.6325466204746
 21
286.6503713260678
 31
0.0
  0
ARC
  5
BC62
330
1F
100
AcDbEntity
  8
PIC06
  6
Continuous
 62
     7
100
AcDbCircle
 10
194.0866746550234
 20
279.9532326733852
 30
0.0
 40
2.363695995064466
100
AcDbArc
 50
180.0
 51
270.0
  0
ARC
  5
BC63
330
1F
100
AcDbEntity
  8
PIC06
  6
Continuous
 62
     7
100
AcDbCircle
 10
208.2688506254102
 20
279.9532326733852
 30
0.0
 40
2.363695995064466
100
AcDbArc
 50
270.0
 51
0.0
  0
ARC
  5
BC64
330
1F
100
AcDbEntity
  8
PIC06
  6
Continuous
 62
     7
100
AcDbCircle
 10
194.0866746550234
 20
286.6503713260678
 30
0.0
 40
2.363695995064466
100
AcDbArc
 50
90.0
 51
180.0
  0
ARC
  5
BC65
330
1F
100
AcDbEntity
  8
PIC06
  6
Continuous
 62
     7
100
AcDbCircle
 10
208.2688506254102
 20
286.6503713260678
 30
0.0
 40
2.363695995064466
100
AcDbArc
 50
0.0
 51
90.0
  0
ARC
  5
BC66
330
1F
100
AcDbEntity
  8
PIC06
  6
Continuous
 62
     7
100
AcDbCircle
 10
213.0750324820413
 20
294.2141985102741
 30
0.0
 40
0.1181847997532233
100
AcDbArc
 50
0.0
 51
90.0
  0
ARC
  5
BC67
330
1F
100
AcDbEntity
  8
PIC06
  6
Continuous
 62
     7
100
AcDbCircle
 10
189.2804927983923
 20
294.2141985102741
 30
0.0
 40
0.1181847997532233
100
AcDbArc
 50
90.0
 51
180.0
  0
ARC
  5
BC68
330
1F
100
AcDbEntity
  8
PIC06
  6
Continuous
 62
     7
100
AcDbCircle
 10
211.6962098182537
 20
276.5258734805417
 30
0.0
 40
0.3151594660085956
100
AcDbArc
 50
270.0
 51
0.0
  0
ARC
  5
BC69
330
1F
100
AcDbEntity
  8
PIC06
  6
Continuous
 62
     7
100
AcDbCircle
 10
211.6962098182537
 20
292.8353758464865
 30
0.0
 40
0.3151594660085956
100
AcDbArc
 50
0.0
 51
90.0
  0
ARC
  5
BC6A
330
1F
100
AcDbEntity
  8
PIC06
  6
Continuous
 62
     7
100
AcDbCircle
 10
190.6593154621799
 20
292.8353758464865
 30
0.0
 40
0.3151594660085956
100
AcDbArc
 50
90.0
 51
180.0
  0
ARC
  5
BC6B
330
1F
100
AcDbEntity
  8
PIC06
  6
Continuous
 62
     7
100
AcDbCircle
 10
190.6593154621799
 20
276.5258734805417
 30
0.0
 40
0.3151594660085956
100
AcDbArc
 50
180.0
 51
270.0
  0
LINE
  5
BC6C
330
1F
100
AcDbEntity
  8
PIC06
  6
Continuous
 62
     7
100
AcDbLine
 10
228.761926085105
 20
262.0385628075136
 30
0.0
 11
247.6714928433828
 21
262.0385628075136
 31
0.0
  0
ARC
  5
BC7D
330
1F
100
AcDbEntity
  8
PIC06
  6
Continuous
 62
     7
100
AcDbCircle
 10
240.9349592574491
 20
254.6240202147605
 30
0.0
 40
1.969746662553726
100
AcDbArc
 50
297.6008662592549
 51
354.8975743730733
  0
ARC
  5
BC99
330
1F
100
AcDbEntity
  8
0
100
AcDbCircle
 10
201.1777626402167
 20
268.0082374962401
 30
0.0
 40
14.1821759703868
100
AcDbArc
 50
243.2564919173581
 51
253.1363233234182
  0
ARC
  5
BC9A
330
1F
100
AcDbEntity
  8
0
100
AcDbCircle
 10
197.0864330610675
 20
254.5113296329542
 30
0.0
 40
0.0787898665000102
100
AcDbArc
 50
253.1363233234182
 51
312.6177390796316
  0
ARC
  5
BCA1
330
1F
100
AcDbEntity
  8
0
100
AcDbCircle
 10
201.1777626402167
 20
208.2805474709112
 30
0.0
 40
46.34903346621685
100
AcDbArc
 50
94.75860043300965
 51
94.99800986916914
  0
LINE
  5
BCA7
330
1F
100
AcDbEntity
  8
0
100
AcDbLine
 10
189.4774674646477
 20
262.0385628075135
 30
0.0
 11
212.8780578157859
 21
262.0385628075135
 31
0.0
  0
ARC
  5
BCAF
330
1F
100
AcDbEntity
  8
0
100
AcDbCircle
 10
197.4549641251653
 20
260.6202580031305
 30
0.0
 40
5.909239987661164
100
AcDbArc
 50
201.0992897004693
 51
243.2564919173581
  0
LINE
  5
BCBD
330
1F
100
AcDbEntity
  8
0
100
AcDbLine
 10
189.2357144162044
 20
260.1813538123396
 30
0.0
 11
189.1626679809416
 21
261.7083443218423
 31
0.0
  0
ARC
  5
BCBE
330
1F
100
AcDbEntity
  8
0
100
AcDbCircle
 10
189.3537642225942
 20
260.1870009447131
 30
0.0
 40
0.1181847997532234
100
AcDbArc
 50
182.7387625115116
 51
270.0
  0
LINE
  5
BCBF
330
1F
100
AcDbEntity
  8
0
100
AcDbLine
 10
189.3537642225942
 20
260.0688161449598
 30
0.0
 11
201.1777626402167
 21
260.0688161449598
 31
0.0
  0
ARC
  5
BCC0
330
1F
100
AcDbEntity
  8
0
100
AcDbCircle
 10
189.4044391993501
 20
259.9506313452067
 30
0.0
 40
0.1181847997532233
100
AcDbArc
 50
2.862405226112618
 51
90.0
  0
LINE
  5
BCC1
330
1F
100
AcDbEntity
  8
0
100
AcDbLine
 10
189.5224765445234
 20
259.9565332124653
 30
0.0
 11
189.5769384423185
 21
258.8672952565653
 31
0.0
  0
ARC
  5
BCC2
330
1F
100
AcDbEntity
  8
0
100
AcDbCircle
 10
189.9703962595629
 20
258.8869681474276
 30
0.0
 40
0.393949332510745
100
AcDbArc
 50
182.8624052261126
 51
270.0
  0
LINE
  5
BCC3
330
1F
100
AcDbEntity
  8
0
100
AcDbLine
 10
201.1777626402167
 20
258.4930188149169
 30
0.0
 11
189.9703962595629
 21
258.4930188149169
 31
0.0
  0
ARC
  5
BCC4
330
1F
100
AcDbEntity
  8
0
100
AcDbCircle
 10
189.4774674646477
 20
261.723403341505
 30
0.0
 40
0.3151594660085956
100
AcDbArc
 50
90.0
 51
182.7387625115116
  0
LINE
  5
BCC6
330
1F
100
AcDbEntity
  8
0
100
AcDbLine
 10
193.0339805197979
 20
255.3414241548309
 30
0.0
 11
194.724769785515
 21
255.3414241548309
 31
0.0
  0
ARC
  5
BCCA
330
1F
100
AcDbEntity
  8
PIC06
  6
Continuous
 62
     7
100
AcDbCircle
 10
247.6714928433828
 20
261.9597729410114
 30
0.0
 40
0.0787898665021489
100
AcDbArc
 50
0.0
 51
90.0
  0
ARC
  5
BCCC
330
1F
100
AcDbEntity
  8
0
100
AcDbCircle
 10
194.724769785515
 20
255.0262646888223
 30
0.0
 40
0.3151594660085956
100
AcDbArc
 50
63.5692530553775
 51
90.0
  0
LINE
  5
BCF1
330
1F
100
AcDbEntity
  8
PIC06
  6
Continuous
 62
     7
100
AcDbLine
 10
247.6320979101318
 20
258.0990694824062
 30
0.0
 11
246.8692822878054
 21
258.0990694824062
 31
0.0
  0
ARC
  5
BCF2
330
1F
100
AcDbEntity
  8
PIC06
  6
Continuous
 62
     7
100
AcDbCircle
 10
247.0371260662545
 20
258.5857712776773
 30
0.0
 40
0.5148302355963126
100
AcDbArc
 50
189.179807365258
 51
250.9727554898907
  0
ARC
  5
BCF3
330
1F
100
AcDbEntity
  8
PIC06
  6
Continuous
 62
     7
100
AcDbCircle
 10
247.6320979101318
 20
258.2172542821593
 30
0.0
 40
0.1181847997532233
100
AcDbArc
 50
270.0
 51
0.0
  0
ARC
  5
BD0D
330
1F
100
AcDbEntity
  8
0
100
AcDbCircle
 10
197.2812976956365
 20
259.8775785677895
 30
0.0
 40
6.303189320171914
100
AcDbArc
 50
192.6890750084838
 51
224.821906922682
  0
ARC
  5
BD0E
330
1F
100
AcDbEntity
  8
0
100
AcDbCircle
 10
193.0339805197979
 20
255.6565836208394
 30
0.0
 40
0.3151594660085956
100
AcDbArc
 50
224.821906922682
 51
270.0
  0
ARC
  5
BD14
330
1F
100
AcDbEntity
  8
PIC06
  6
Continuous
 62
     7
100
AcDbCircle
 10
228.761926085105
 20
261.7234027403861
 30
0.0
 40
0.3151594660085956
100
AcDbArc
 50
90.0
 51
182.7387625115116
  0
LINE
  5
BD15
330
1F
100
AcDbEntity
  8
PIC06
  6
Continuous
 62
     7
100
AcDbLine
 10
228.5201730366618
 20
260.1813532112207
 30
0.0
 11
228.4471266013989
 21
261.7083437207234
 31
0.0
  0
ARC
  5
BD1F
330
1F
100
AcDbEntity
  8
PIC06
  6
Continuous
 62
     7
100
AcDbCircle
 10
229.2548548800203
 20
258.8869675463087
 30
0.0
 40
0.393949332510745
100
AcDbArc
 50
182.8624052261126
 51
270.0
  0
ARC
  5
BD20
330
1F
100
AcDbEntity
  8
PIC06
  6
Continuous
 62
     7
100
AcDbCircle
 10
228.6382228430516
 20
260.1870003435942
 30
0.0
 40
0.1181847997532234
100
AcDbArc
 50
182.7387625115116
 51
270.0
  0
ARC
  5
BD21
330
1F
100
AcDbEntity
  8
PIC06
  6
Continuous
 62
     7
100
AcDbCircle
 10
228.6888978198075
 20
259.9506307440877
 30
0.0
 40
0.1181847997532233
100
AcDbArc
 50
2.862405226112618
 51
90.0
  0
LINE
  5
BD22
330
1F
100
AcDbEntity
  8
PIC06
  6
Continuous
 62
     7
100
AcDbLine
 10
228.8069351649808
 20
259.9565326113463
 30
0.0
 11
228.8613970627758
 21
258.8672946554464
 31
0.0
  0
LINE
  5
BD23
330
1F
100
AcDbEntity
  8
PIC06
  6
Continuous
 62
     7
100
AcDbLine
 10
228.6888978198075
 20
260.0688155438409
 30
0.0
 11
228.6382228430516
 21
260.0688155438409
 31
0.0
  0
LINE
  5
BD26
330
1F
100
AcDbEntity
  8
PIC06
  6
Continuous
 62
     7
100
AcDbLine
 10
229.2548548800203
 20
258.4930182137979
 30
0.0
 11
231.4730119799876
 21
258.4930182137979
 31
0.0
  0
LINE
  5
BD2A
330
1F
100
AcDbEntity
  8
PIC06
  6
Continuous
 62
     7
100
AcDbLine
 10
234.7366460269869
 20
254.9105517104719
 30
0.0
 11
235.5915822153239
 21
254.4607060293287
 31
0.0
  0
ARC
  5
BD2B
330
1F
100
AcDbEntity
  8
PIC06
  6
Continuous
 62
     7
100
AcDbCircle
 10
238.0386009677083
 20
261.1859498957029
 30
0.0
 40
7.091087985193393
100
AcDbArc
 50
202.2262609004596
 51
242.2477958961763
  0
CIRCLE
  5
BD97
330
1F
100
AcDbEntity
  8
PIC06
  6
Continuous
 62
     7
100
AcDbCircle
 10
201.1777626402167
 20
291.1807886499413
 30
0.0
 40
0.610621465391654
  0
ARC
  5
BDB3
330
1F
100
AcDbEntity
  8
0
100
AcDbCircle
 10
201.1777626402167
 20
268.0082374962401
 30
0.0
 40
14.1821759703868
100
AcDbArc
 50
286.8636766765818
 51
296.7435080826419
  0
ARC
  5
BDB4
330
1F
100
AcDbEntity
  8
0
100
AcDbCircle
 10
205.2690922193659
 20
254.5113296329542
 30
0.0
 40
0.0787898665000102
100
AcDbArc
 50
227.3822609203677
 51
286.8636766765818
  0
ARC
  5
BDB8
330
1F
100
AcDbEntity
  8
0
100
AcDbCircle
 10
201.1777626402167
 20
208.2805474709112
 30
0.0
 40
46.34903346621685
100
AcDbArc
 50
85.00199013083083
 51
85.24139956699036
  0
ARC
  5
BDB9
330
1F
100
AcDbEntity
  8
0
100
AcDbCircle
 10
204.9005611552682
 20
260.6202580031305
 30
0.0
 40
5.909239987661164
100
AcDbArc
 50
296.7435080826419
 51
338.9007102995299
  0
LINE
  5
BDBA
330
1F
100
AcDbEntity
  8
0
100
AcDbLine
 10
213.119810864229
 20
260.1813538123396
 30
0.0
 11
213.192857299492
 21
261.7083443218423
 31
0.0
  0
ARC
  5
BDBB
330
1F
100
AcDbEntity
  8
0
100
AcDbCircle
 10
213.0017610578393
 20
260.1870009447131
 30
0.0
 40
0.1181847997532234
100
AcDbArc
 50
270.0
 51
357.2612374884883
  0
LINE
  5
BDBC
330
1F
100
AcDbEntity
  8
0
100
AcDbLine
 10
213.0017610578393
 20
260.0688161449598
 30
0.0
 11
201.1777626402167
 21
260.0688161449598
 31
0.0
  0
ARC
  5
BDBD
330
1F
100
AcDbEntity
  8
0
100
AcDbCircle
 10
212.9510860810834
 20
259.9506313452067
 30
0.0
 40
0.1181847997532233
100
AcDbArc
 50
90.0
 51
177.1375947738873
  0
LINE
  5
BDBE
330
1F
100
AcDbEntity
  8
0
100
AcDbLine
 10
212.83304873591
 20
259.9565332124653
 30
0.0
 11
212.778586838115
 21
258.8672952565653
 31
0.0
  0
ARC
  5
BDBF
330
1F
100
AcDbEntity
  8
0
100
AcDbCircle
 10
212.3851290208706
 20
258.8869681474276
 30
0.0
 40
0.393949332510745
100
AcDbArc
 50
270.0
 51
357.1375947738874
  0
LINE
  5
BDC0
330
1F
100
AcDbEntity
  8
0
100
AcDbLine
 10
201.1777626402167
 20
258.4930188149169
 30
0.0
 11
212.3851290208706
 21
258.4930188149169
 31
0.0
  0
ARC
  5
BDC1
330
1F
100
AcDbEntity
  8
0
100
AcDbCircle
 10
212.8780578157859
 20
261.723403341505
 30
0.0
 40
0.3151594660085956
100
AcDbArc
 50
357.2612374884883
 51
90.0
  0
LINE
  5
BDC2
330
1F
100
AcDbEntity
  8
0
100
AcDbLine
 10
209.3215447606356
 20
255.3414241548309
 30
0.0
 11
207.6307554949184
 21
255.3414241548309
 31
0.0
  0
ARC
  5
BDC3
330
1F
100
AcDbEntity
  8
0
100
AcDbCircle
 10
207.6307554949184
 20
255.0262646888223
 30
0.0
 40
0.3151594660085956
100
AcDbArc
 50
90.0
 51
116.4307469446224
  0
ARC
  5
BDC4
330
1F
100
AcDbEntity
  8
0
100
AcDbCircle
 10
205.074227584797
 20
259.8775785677895
 30
0.0
 40
6.303189320171914
100
AcDbArc
 50
315.1780930773179
 51
347.3109249915162
  0
ARC
  5
BDC5
330
1F
100
AcDbEntity
  8
0
100
AcDbCircle
 10
209.3215447606356
 20
255.6565836208394
 30
0.0
 40
0.3151594660085956
100
AcDbArc
 50
270.0
 51
315.1780930773179
  0
LINE
  5
BDDB
330
1F
100
AcDbEntity
  8
0
100
AcDbLine
 10
247.7502827098849
 20
261.9597729410114
 30
0.0
 11
247.750282709885
 21
258.2172542821593
 31
0.0
  0
LINE
  5
BDDC
330
1F
100
AcDbEntity
  8
0
100
AcDbLine
 10
212.9510860810834
 20
260.0688161449598
 30
0.0
 11
213.0017610578393
 21
260.0688161449598
 31
0.0
  0
LINE
  5
BDDD
330
1F
100
AcDbEntity
  8
0
100
AcDbLine
 10
231.4743999066868
 20
258.5036387198252
 30
0.0
 11
247.7502827098849
 21
258.5036387198254
 31
0.0
  0
LINE
  5
BDDE
330
1F
100
AcDbEntity
  8
0
100
AcDbLine
 10
228.6382228430516
 20
260.068815543841
 30
0.0
 11
247.7502827098849
 21
260.068815543841
 31
0.0
  0
LINE
  5
BDDF
330
1F
100
AcDbEntity
  8
PIC06
  6
Continuous
 62
     7
100
AcDbLine
 10
243.2589547672173
 20
258.5036387198254
 30
0.0
 11
242.8969004071928
 21
254.4488379109064
 31
0.0
  0
LINE
  5
BEBD
330
1F
100
AcDbEntity
  8
Dim
100
AcDbLine
 10
200.1777626402168
 20
291.1807886499413
 30
0.0
 11
202.1777626402168
 21
291.1807886499413
 31
0.0
  0
LINE
  5
BEBE
330
1F
100
AcDbEntity
  8
Dim
100
AcDbLine
 10
201.1777626402167
 20
290.1807886499414
 30
0.0
 11
201.1777626402167
 21
292.1807886499414
 31
0.0
  0
LINE
  5
BF42
330
1F
100
AcDbEntity
  8
Dim
100
AcDbLine
 10
200.1777626402168
 20
286.4533966598123
 30
0.0
 11
202.1777626402168
 21
286.4533966598123
 31
0.0
  0
LINE
  5
BF43
330
1F
100
AcDbEntity
  8
Dim
100
AcDbLine
 10
201.1777626402167
 20
285.4533966598124
 30
0.0
 11
201.1777626402167
 21
287.4533966598124
 31
0.0
  0
TEXT
  5
C0DF
330
1F
100
AcDbEntity
  8
0
100
AcDbText
 10
189.5932020124239
 20
220.5370142578771
 30
0.0
 40
1.0
  1
AD-00457, v01
100
AcDbText
  0
TEXT
  5
C0E0
330
1F
100
AcDbEntity
  8
0
100
AcDbText
 10
189.5192233432073
 20
218.0877057238357
 30
0.0
 40
1.0
  1
LPT532N
100
AcDbText
  0
LINE
  5
C0E1
330
1F
100
AcDbEntity
  8
0
100
AcDbLine
 10
189.3569195324026
 20
220.2261501113801
 30
0.0
 11
201.1754845227299
 21
220.2261501113801
 31
0.0
  0
ENDSEC
  0
SECTION
  2
OBJECTS
  0
DICTIONARY
  5
C
330
0
100
AcDbDictionary
281
     1
  3
ACAD_2007HEADERVARS_RT
350
C142
  3
ACAD_CIP_PREVIOUS_PRODUCT_INFO
350
C079
  3
ACAD_COLOR
350
1FE0
  3
ACAD_GROUP
350
D
  3
ACAD_LAYOUT
350
1A
  3
ACAD_MATERIAL
350
1FDF
  3
ACAD_MLEADERSTYLE
350
C075
  3
ACAD_MLINESTYLE
350
17
  3
ACAD_PLOTSETTINGS
350
19
  3
ACAD_PLOTSTYLENAME
350
E
  3
ACAD_SCALELIST
350
C063
  3
ACAD_TABLESTYLE
350
1FDD
  3
ACAD_VISUALSTYLE
350
2A
  3
AcadDim
350
7C78
  3
ACDB_RECOMPOSE_DATA
350
C141
  3
AcDbVariableDictionary
350
1FEE
  3
ASE_INDEX_DICTIONARY
350
C083
  0
DICTIONARY
  5
820D
330
2
100
AcDbDictionary
280
     1
281
     1
  3
ACAD_LAYERFILTERS
360
9690
  3
ACAD_LAYERSTATES
360
820E
  0
DICTIONARY
  5
C07A
330
10
100
AcDbDictionary
280
     1
281
     1
  3
ADSK_XREC_LAYER_RECONCILED
360
C07B
  0
DICTIONARY
  5
C07C
330
8209
100
AcDbDictionary
280
     1
281
     1
  3
ADSK_XREC_LAYER_RECONCILED
360
C07D
  0
DICTIONARY
  5
C07E
330
B21A
100
AcDbDictionary
280
     1
281
     1
  3
ADSK_XREC_LAYER_RECONCILED
360
C07F
  0
DICTIONARY
  5
C080
330
B21B
100
AcDbDictionary
280
     1
281
     1
  3
ADSK_XREC_LAYER_RECONCILED
360
C081
  0
DICTIONARY
  5
5B8E
330
1F
100
AcDbDictionary
280
     1
281
     1
  3
ACAD_SORTENTS
360
5B8F
  0
DICTIONARY
  5
A1C9
330
A1C4
100
AcDbDictionary
280
     1
281
     1
  3
ACAD_SORTENTS
360
A1CA
  0
DICTIONARY
  5
C142
102
{ACAD_REACTORS
330
C
102
}
330
C
100
AcDbDictionary
281
     1
  3
DIMFXL
350
C143
  0
XRECORD
  5
C079
102
{ACAD_REACTORS
330
C
102
}
330
C
100
AcDbXrecord
280
     1
300
ACD
300
2012
300
85730ACD_2012_0F
  0
DICTIONARY
  5
1FE0
102
{ACAD_REACTORS
330
C
102
}
330
C
100
AcDbDictionary
281
     1
  0
DICTIONARY
  5
D
102
{ACAD_REACTORS
330
C
102
}
330
C
100
AcDbDictionary
281
     1
  0
DICTIONARY
  5
1A
102
{ACAD_REACTORS
330
C
102
}
330
C
100
AcDbDictionary
281
     1
  3
Layout1
350
1E
  3
Layout2
350
26
  3
Model
350
22
  0
DICTIONARY
  5
1FDF
102
{ACAD_REACTORS
330
C
102
}
330
C
100
AcDbDictionary
281
     1
  3
ByBlock
350
C049
  3
ByLayer
350
C041
  3
Global
350
C051
  0
DICTIONARY
  5
C075
102
{ACAD_REACTORS
330
C
102
}
330
C
100
AcDbDictionary
281
     1
  3
Standard
350
C076
  0
DICTIONARY
  5
17
102
{ACAD_REACTORS
330
C
102
}
330
C
100
AcDbDictionary
281
     1
  3
Standard
350
18
  0
DICTIONARY
  5
19
102
{ACAD_REACTORS
330
C
102
}
330
C
100
AcDbDictionary
281
     1
  0
ACDBDICTIONARYWDFLT
  5
E
102
{ACAD_REACTORS
330
C
102
}
330
C
100
AcDbDictionary
281
     1
  3
Normal
350
F
100
AcDbDictionaryWithDefault
340
F
  0
DICTIONARY
  5
C063
102
{ACAD_REACTORS
330
C
102
}
330
C
100
AcDbDictionary
281
     1
  3
A0
350
C064
  3
A1
350
C065
  3
A2
350
C066
  3
A3
350
C067
  3
A4
350
C068
  3
A5
350
C069
  3
A6
350
C06A
  3
A7
350
C06B
  3
A8
350
C06C
  3
A9
350
C06D
  3
B0
350
C06E
  3
B1
350
C06F
  3
B2
350
C070
  3
B3
350
C071
  3
B4
350
C072
  3
B5
350
C073
  3
B6
350
C074
  0
DICTIONARY
  5
1FDD
102
{ACAD_REACTORS
330
C
102
}
330
C
100
AcDbDictionary
281
     1
  3
Standard
350
1FE1
  0
DICTIONARY
  5
2A
102
{ACAD_REACTORS
330
C
102
}
330
C
100
AcDbDictionary
281
     1
  3
2dWireframe
350
2F
  3
3D Hidden
350
31
  3
3dWireframe
350
30
  3
Basic
350
32
  3
Brighten
350
36
  3
ColorChange
350
3A
  3
Conceptual
350
34
  3
Dim
350
35
  3
EdgeColorOff
350
C062
  3
Facepattern
350
39
  3
Flat
350
2B
  3
FlatWithEdges
350
2C
  3
Gouraud
350
2D
  3
GouraudWithEdges
350
2E
  3
Hidden
350
C05A
  3
JitterOff
350
C060
  3
Linepattern
350
38
  3
OverhangOff
350
C061
  3
Realistic
350
33
  3
Shaded
350
C05F
  3
Shaded with edges
350
C05E
  3
Shades of Gray
350
C05B
  3
Sketchy
350
C05C
  3
Thicken
350
37
  3
Wireframe
350
C059
  3
X-Ray
350
C05D
  0
XRECORD
  5
7C78
102
{ACAD_REACTORS
330
C
102
}
330
C
100
AcDbXrecord
280
     1
 90
   990106
  3

 60
     0
 61
     0
 62
     1
 63
     3
 64
     0
 65
     0
 66
     0
 67
     3
 68
     1
 69
     0
 70
     0
 71
     0
 72
     0
 40
0.0
170
     0
340
B17C
  0
XRECORD
  5
C141
102
{ACAD_REACTORS
330
C
102
}
330
C
100
AcDbXrecord
280
     1
 90
        1
330
1FE1
  0
DICTIONARY
  5
1FEE
102
{ACAD_REACTORS
330
C
102
}
330
C
100
AcDbDictionary
281
     1
  3
CANNOSCALE
350
C087
  3
CMLEADERSTYLE
350
C086
  3
CTABLESTYLE
350
1FEF
  3
DIMASSOC
350
1FF1
  3
HIDETEXT
350
1FF0
  3
PROJECTNAME
350
1FF2
  3
XCLIPFRAME
350
C13D
  0
DICTIONARY
  5
C083
102
{ACAD_REACTORS
330
C
102
}
330
C
100
AcDbDictionary
281
     1
  3
ASEBlockHierarchyIndexRecord
350
C085
1001
DCO15
1040
1778838388.464
  0
DICTIONARY
  5
9690
102
{ACAD_REACTORS
330
820D
102
}
330
820D
100
AcDbDictionary
280
     1
281
     1
  0
DICTIONARY
  5
820E
102
{ACAD_REACTORS
330
820D
102
}
330
820D
100
AcDbDictionary
281
     1
  0
XRECORD
  5
C07B
102
{ACAD_REACTORS
330
C07A
102
}
330
C07A
100
AcDbXrecord
280
     1
290
     1
  0
XRECORD
  5
C07D
102
{ACAD_REACTORS
330
C07C
102
}
330
C07C
100
AcDbXrecord
280
     1
290
     1
  0
XRECORD
  5
C07F
102
{ACAD_REACTORS
330
C07E
102
}
330
C07E
100
AcDbXrecord
280
     1
290
     1
  0
XRECORD
  5
C081
102
{ACAD_REACTORS
330
C080
102
}
330
C080
100
AcDbXrecord
280
     1
290
     1
  0
SORTENTSTABLE
  5
5B8F
102
{ACAD_REACTORS
330
5B8E
102
}
330
5B8E
100
AcDbSortentsTable
330
1F
331
BF43
  5
BF7B
331
BD15
  5
BD1F
331
B7C4
  5
B7C4
331
BD0D
  5
BD0E
331
BDC4
  5
BDC5
331
BDC0
  5
BDC1
331
B3EF
  5
B3F2
331
BC7D
  5
BC83
331
B426
  5
B429
331
B3E7
  5
B3EA
331
B3E3
  5
B3E6
331
B422
  5
B425
331
BC69
  5
BC69
331
BDBC
  5
BDBD
331
BDB8
  5
BDB9
331
BDB4
  5
BDB5
331
B3DF
  5
B3E2
331
B41E
  5
B421
331
BCCC
  5
BCCD
331
B3DB
  5
B3DE
331
B41A
  5
B41D
331
BC65
  5
BC65
331
B416
  5
B419
331
BC61
  5
BC61
331
B3D7
  5
B3DA
331
B3D3
  5
B3D6
331
B412
  5
B415
331
BC5D
  5
BC5D
331
BCC4
  5
BCC6
331
BC59
  5
BC59
331
BCC0
  5
BCC1
331
B3CF
  5
B3D1
331
B40E
  5
B411
331
B3CB
  5
B3CD
331
B40A
  5
B40D
331
BC55
  5
BC55
331
B3C7
  5
B3C9
331
B402
  5
B405
331
B439
  5
B43C
331
BD20
  5
BD21
331
BDDC
  5
BDDD
331
B3FE
  5
B401
331
B3FA
  5
B400
331
B431
  5
B434
331
B3F6
  5
B3F9
331
B42D
  5
B430
331
B429
  5
B42C
331
BF42
  5
BF43
331
BD14
  5
BD15
331
BDC3
  5
BDC4
331
B3EE
  5
B3F1
331
B425
  5
B428
331
B3E6
  5
B3E9
331
B421
  5
B424
331
BC6C
  5
BC6C
331
BCF3
  5
BD0D
331
BC68
  5
BC68
331
BDBF
  5
BDC0
331
BDBB
  5
BDBC
331
BDB3
  5
BDB4
331
B3DE
  5
B3E1
331
BC64
  5
BC64
331
B3DA
  5
B3DD
331
B419
  5
B41C
331
B415
  5
B418
331
BC60
  5
BC60
331
B3D6
  5
B3D9
331
B3D2
  5
B3D5
331
B411
  5
B414
331
BC5C
  5
BC5C
331
BCC3
  5
BCC4
331
BC58
  5
BC58
331
BD97
  5
BD9C
331
BD2B
  5
BD3B
331
BCBF
  5
BCC0
331
B3CE
  5
B3D0
331
B40D
  5
B410
331
B3CA
  5
B3CC
331
B409
  5
B40C
331
BC54
  5
BC54
331
B405
  5
B409
331
BCAF
  5
BCBD
331
B3C6
  5
B3C8
331
B401
  5
B404
331
B438
  5
B43B
331
BD23
  5
BD26
331
BD1F
  5
BD20
331
BDDF
  5
BC7D
331
BDDB
  5
BDDC
331
BCA7
  5
BCAF
331
B3F9
  5
B3FC
331
B3F5
  5
B3F8
331
B430
  5
B433
331
B42C
  5
B42F
331
B428
  5
B42B
331
BDC2
  5
BDC3
331
B3ED
  5
B3F0
331
BEBE
  5
BF42
331
B3E9
  5
B3EF
331
B424
  5
B427
331
B3E5
  5
B3E8
331
B3E1
  5
B3E5
331
B420
  5
B423
331
BC6B
  5
BC6B
331
BCF2
  5
BCF3
331
BDBE
  5
BDBF
331
BDBA
  5
BDBB
331
B3DD
  5
B3E0
331
BC67
  5
BC67
331
BC63
  5
BC63
331
BCCA
  5
BCCC
331
B3D9
  5
B3DC
331
B418
  5
B41B
331
B414
  5
B417
331
BC5F
  5
BC5F
331
BCC6
  5
BCC7
331
B3D5
  5
B3D8
331
B3D1
  5
B3D4
331
B410
  5
B413
331
BC5B
  5
BC5B
331
BCC2
  5
BCC3
331
BD2A
  5
BD2B
331
BCBE
  5
BCBF
331
B3CD
  5
B3CF
331
B40C
  5
B40F
331
BC57
  5
BC57
331
BC53
  5
BC53
331
B3C9
  5
B3CB
331
B408
  5
B40B
331
B404
  5
B407
331
B3C5
  5
B3C7
331
B400
  5
B403
331
B43B
  5
B441
331
BD26
  5
BD2A
331
BD22
  5
BD23
331
BDDE
  5
BDDE
331
B437
  5
B43A
331
B3F8
  5
B3FB
331
B433
  5
B438
331
B3F4
  5
B3F7
331
B42F
  5
B432
331
9241
  5
9454
331
B3F0
  5
B3F4
331
B42B
  5
B42E
331
BC9A
  5
BC9B
331
B7C5
  5
B7C5
331
BD0E
  5
BD0F
331
BDC5
  5
BDC6
331
BDC1
  5
BDC2
331
B427
  5
B42A
331
BEBD
  5
BEBE
331
B3E8
  5
B3EB
331
B3E4
  5
B3E7
331
B423
  5
B426
331
B3E0
  5
B3E3
331
BC6A
  5
BC6A
331
BCF1
  5
BCF2
331
BDBD
  5
BDBE
331
BDB9
  5
BDBA
331
B41F
  5
B422
331
B3DC
  5
B3DF
331
B41B
  5
B420
331
BC66
  5
BC66
331
B417
  5
B41A
331
BC62
  5
BC62
331
B3D8
  5
B3DB
331
B413
  5
B416
331
BC5E
  5
BC5E
331
B3D4
  5
B3D7
331
B3D0
  5
B3D3
331
BC5A
  5
BC5A
331
BCC1
  5
BCC2
331
B40F
  5
B412
331
BCBD
  5
BCBE
331
B3CC
  5
B3CE
331
B40B
  5
B40E
331
BC56
  5
BC56
331
BC52
  5
BC52
331
B3C8
  5
B3CA
331
B407
  5
B40A
331
B403
  5
B406
331
B43E
  5
B48E
331
B3C4
  5
B3C6
331
B43A
  5
B43D
331
BD21
  5
BD22
331
BDDD
  5
BDDF
331
B3FF
  5
B402
331
B436
  5
B439
331
B432
  5
B435
331
BCA1
  5
BCA7
331
B3F7
  5
B3FA
331
B3F3
  5
B3F6
331
B42E
  5
B431
331
B42A
  5
B42D
331
BC99
  5
BC9A
  0
SORTENTSTABLE
  5
A1CA
102
{ACAD_REACTORS
330
A1C9
102
}
330
A1C9
100
AcDbSortentsTable
330
A1C4
  0
XRECORD
  5
C143
102
{ACAD_REACTORS
330
C142
102
}
330
C142
100
AcDbXrecord
280
     1
 40
0.18
  0
LAYOUT
  5
1E
102
{ACAD_REACTORS
330
1A
102
}
330
1A
100
AcDbPlotSettings
  1

  2
none_device
  4

  6

 40
0.0
 41
0.0
 42
0.0
 43
0.0
 44
0.0
 45
0.0
 46
0.0
 47
0.0
 48
0.0
 49
0.0
140
0.0
141
0.0
142
1.0
143
1.0
 70
   688
 72
     0
 73
     0
 74
     5
  7

 75
    16
147
1.0
 76
     0
 77
     2
 78
   300
148
0.0
149
0.0
100
AcDbLayout
  1
Layout1
 70
     1
 71
     1
 10
0.0
 20
0.0
 11
12.0
 21
9.0
 12
0.0
 22
0.0
 32
0.0
 14
1.000000000000000E+20
 24
1.000000000000000E+20
 34
1.000000000000000E+20
 15
-1.000000000000000E+20
 25
-1.000000000000000E+20
 35
-1.000000000000000E+20
146
0.0
 13
0.0
 23
0.0
 33
0.0
 16
1.0
 26
0.0
 36
0.0
 17
0.0
 27
1.0
 37
0.0
 76
     0
330
1B
  0
LAYOUT
  5
26
102
{ACAD_REACTORS
330
1A
102
}
330
1A
100
AcDbPlotSettings
  1

  2
none_device
  4

  6

 40
0.0
 41
0.0
 42
0.0
 43
0.0
 44
0.0
 45
0.0
 46
0.0
 47
0.0
 48
0.0
 49
0.0
140
0.0
141
0.0
142
1.0
143
1.0
 70
   688
 72
     0
 73
     0
 74
     5
  7

 75
    16
147
1.0
 76
     0
 77
     2
 78
   300
148
0.0
149
0.0
100
AcDbLayout
  1
Layout2
 70
     1
 71
     2
 10
0.0
 20
0.0
 11
0.0
 21
0.0
 12
0.0
 22
0.0
 32
0.0
 14
0.0
 24
0.0
 34
0.0
 15
0.0
 25
0.0
 35
0.0
146
0.0
 13
0.0
 23
0.0
 33
0.0
 16
1.0
 26
0.0
 36
0.0
 17
0.0
 27
1.0
 37
0.0
 76
     0
330
23
  0
LAYOUT
  5
22
102
{ACAD_XDICTIONARY
360
C0F0
102
}
102
{ACAD_REACTORS
330
1A
102
}
330
1A
100
AcDbPlotSettings
  1

  2
Adobe PDF
  4
Letter
  6

 40
3.174999952316283
 41
3.174999952316283
 42
3.175003051757812
 43
3.17498779296875
 44
215.8999938964844
 45
279.3999938964844
 46
0.0
 47
0.0
 48
152.4516541345841
 49
209.7523180892448
140
278.1121910828724
141
312.498022408885
142
1.0
143
12.45402530730141
 70
 11952
 72
     0
 73
     1
 74
     4
  7

 75
     0
147
0.0802953242285232
 76
     0
 77
     2
 78
   300
148
-3872.27201501844
149
-5327.708879466818
100
AcDbLayout
  1
Model
 70
     1
 71
     0
 10
0.0
 20
0.0
 11
12.0
 21
9.0
 12
0.0
 22
0.0
 32
0.0
 14
1.000000000000000E+20
 24
1.000000000000000E+20
 34
1.000000000000000E+20
 15
-1.000000000000000E+20
 25
-1.000000000000000E+20
 35
-1.000000000000000E+20
146
0.0
 13
0.0
 23
0.0
 33
0.0
 16
1.0
 26
0.0
 36
0.0
 17
0.0
 27
1.0
 37
0.0
 76
     0
330
1F
331
C038
1001
ACAD_PSEXT
1000
None
1000
None
1000
Not applicable
1000
The layout will not be plotted unless a new plotter configuration name is selected.
1070
     0
  0
MATERIAL
  5
C049
102
{ACAD_XDICTIONARY
360
C04A
102
}
102
{ACAD_REACTORS
330
1FDF
102
}
330
1FDF
100
AcDbMaterial
  1
ByBlock
 72
     0
 43
0.0208333333333333
 43
0.0
 43
0.0
 43
0.0
 43
0.0
 43
0.0208333333333333
 43
0.0
 43
0.0
 43
0.0
 43
0.0
 43
1.0
 43
0.0
 43
0.0
 43
0.0
 43
0.0
 43
1.0
 77
     0
 47
0.0208333333333333
 47
0.0
 47
0.0
 47
0.0
 47
0.0
 47
0.0208333333333333
 47
0.0
 47
0.0
 47
0.0
 47
0.0
 47
1.0
 47
0.0
 47
0.0
 47
0.0
 47
0.0
 47
1.0
171
     0
 49
0.0208333333333333
 49
0.0
 49
0.0
 49
0.0
 49
0.0
 49
0.0208333333333333
 49
0.0
 49
0.0
 49
0.0
 49
0.0
 49
1.0
 49
0.0
 49
0.0
 49
0.0
 49
0.0
 49
1.0
175
     0
142
0.0208333333333333
142
0.0
142
0.0
142
0.0
142
0.0
142
0.0208333333333333
142
0.0
142
0.0
142
0.0
142
0.0
142
1.0
142
0.0
142
0.0
142
0.0
142
0.0
142
1.0
179
     0
144
0.0208333333333333
144
0.0
144
0.0
144
0.0
144
0.0
144
0.0208333333333333
144
0.0
144
0.0
144
0.0
144
0.0
144
1.0
144
0.0
144
0.0
144
0.0
144
0.0
144
1.0
147
0.0208333333333333
147
0.0
147
0.0
147
0.0
147
0.0
147
0.0208333333333333
147
0.0
147
0.0
147
0.0
147
0.0
147
1.0
147
0.0
147
0.0
147
0.0
147
0.0
147
1.0
  0
MATERIAL
  5
C041
102
{ACAD_XDICTIONARY
360
C042
102
}
102
{ACAD_REACTORS
330
1FDF
102
}
330
1FDF
100
AcDbMaterial
  1
ByLayer
 72
     0
 43
0.0208333333333333
 43
0.0
 43
0.0
 43
0.0
 43
0.0
 43
0.0208333333333333
 43
0.0
 43
0.0
 43
0.0
 43
0.0
 43
1.0
 43
0.0
 43
0.0
 43
0.0
 43
0.0
 43
1.0
 77
     0
 47
0.0208333333333333
 47
0.0
 47
0.0
 47
0.0
 47
0.0
 47
0.0208333333333333
 47
0.0
 47
0.0
 47
0.0
 47
0.0
 47
1.0
 47
0.0
 47
0.0
 47
0.0
 47
0.0
 47
1.0
171
     0
 49
0.0208333333333333
 49
0.0
 49
0.0
 49
0.0
 49
0.0
 49
0.0208333333333333
 49
0.0
 49
0.0
 49
0.0
 49
0.0
 49
1.0
 49
0.0
 49
0.0
 49
0.0
 49
0.0
 49
1.0
175
     0
142
0.0208333333333333
142
0.0
142
0.0
142
0.0
142
0.0
142
0.0208333333333333
142
0.0
142
0.0
142
0.0
142
0.0
142
1.0
142
0.0
142
0.0
142
0.0
142
0.0
142
1.0
179
     0
144
0.0208333333333333
144
0.0
144
0.0
144
0.0
144
0.0
144
0.0208333333333333
144
0.0
144
0.0
144
0.0
144
0.0
144
1.0
144
0.0
144
0.0
144
0.0
144
0.0
144
1.0
147
0.0208333333333333
147
0.0
147
0.0
147
0.0
147
0.0
147
0.0208333333333333
147
0.0
147
0.0
147
0.0
147
0.0
147
1.0
147
0.0
147
0.0
147
0.0
147
0.0
147
1.0
  0
MATERIAL
  5
C051
102
{ACAD_XDICTIONARY
360
C052
102
}
102
{ACAD_REACTORS
330
1FDF
102
}
330
1FDF
100
AcDbMaterial
  1
Global
 72
     0
 43
0.0208333333333333
 43
0.0
 43
0.0
 43
0.0
 43
0.0
 43
0.0208333333333333
 43
0.0
 43
0.0
 43
0.0
 43
0.0
 43
1.0
 43
0.0
 43
0.0
 43
0.0
 43
0.0
 43
1.0
 77
     0
 47
0.0208333333333333
 47
0.0
 47
0.0
 47
0.0
 47
0.0
 47
0.0208333333333333
 47
0.0
 47
0.0
 47
0.0
 47
0.0
 47
1.0
 47
0.0
 47
0.0
 47
0.0
 47
0.0
 47
1.0
171
     0
 49
0.0208333333333333
 49
0.0
 49
0.0
 49
0.0
 49
0.0
 49
0.0208333333333333
 49
0.0
 49
0.0
 49
0.0
 49
0.0
 49
1.0
 49
0.0
 49
0.0
 49
0.0
 49
0.0
 49
1.0
175
     0
142
0.0208333333333333
142
0.0
142
0.0
142
0.0
142
0.0
142
0.0208333333333333
142
0.0
142
0.0
142
0.0
142
0.0
142
1.0
142
0.0
142
0.0
142
0.0
142
0.0
142
1.0
179
     0
144
0.0208333333333333
144
0.0
144
0.0
144
0.0
144
0.0
144
0.0208333333333333
144
0.0
144
0.0
144
0.0
144
0.0
144
1.0
144
0.0
144
0.0
144
0.0
144
0.0
144
1.0
147
0.0208333333333333
147
0.0
147
0.0
147
0.0
147
0.0
147
0.0208333333333333
147
0.0
147
0.0
147
0.0
147
0.0
147
1.0
147
0.0
147
0.0
147
0.0
147
0.0
147
1.0
  0
MLEADERSTYLE
  5
C076
102
{ACAD_XDICTIONARY
360
C13F
102
}
102
{ACAD_REACTORS
330
C075
102
}
330
C075
100
AcDbMLeaderStyle
170
     2
171
     1
172
     0
 90
        2
 40
0.0
 41
0.0
173
     1
 91
-1056964608
340
14
 92
       -2
290
     1
 42
0.09
291
     1
 43
0.36
  3
Standard
 44
0.18
300

342
11
174
     1
178
     6
175
     1
176
     0
 93
-1056964608
 45
0.18
292
     0
297
     0
 46
0.18
 94
-1056964608
 47
1.0
 49
1.0
140
1.0
293
     1
141
0.0
294
     1
177
     0
142
1.0
295
     0
296
     0
143
0.125
1001
ACAD_MLEADERVER
1070
     2
  0
MLINESTYLE
  5
18
102
{ACAD_REACTORS
330
17
102
}
330
17
100
AcDbMlineStyle
  2
STANDARD
 70
     0
  3

 62
   256
 51
90.0
 52
90.0
 71
     2
 49
0.5
 62
   256
  6
BYLAYER
 49
-0.5
 62
   256
  6
BYLAYER
  0
ACDBPLACEHOLDER
  5
F
102
{ACAD_REACTORS
330
E
102
}
330
E
  0
SCALE
  5
C064
102
{ACAD_REACTORS
330
C063
102
}
330
C063
100
AcDbScale
 70
     0
300
1:1
140
1.0
141
1.0
290
     1
  0
SCALE
  5
C065
102
{ACAD_REACTORS
330
C063
102
}
330
C063
100
AcDbScale
 70
     0
300
1/128" = 1'-0"
140
0.0078125
141
12.0
290
     0
  0
SCALE
  5
C066
102
{ACAD_REACTORS
330
C063
102
}
330
C063
100
AcDbScale
 70
     0
300
1/64" = 1'-0"
140
0.015625
141
12.0
290
     0
  0
SCALE
  5
C067
102
{ACAD_REACTORS
330
C063
102
}
330
C063
100
AcDbScale
 70
     0
300
1/32" = 1'-0"
140
0.03125
141
12.0
290
     0
  0
SCALE
  5
C068
102
{ACAD_REACTORS
330
C063
102
}
330
C063
100
AcDbScale
 70
     0
300
1/16" = 1'-0"
140
0.0625
141
12.0
290
     0
  0
SCALE
  5
C069
102
{ACAD_REACTORS
330
C063
102
}
330
C063
100
AcDbScale
 70
     0
300
3/32" = 1'-0"
140
0.09375
141
12.0
290
     0
  0
SCALE
  5
C06A
102
{ACAD_REACTORS
330
C063
102
}
330
C063
100
AcDbScale
 70
     0
300
1/8" = 1'-0"
140
0.125
141
12.0
290
     0
  0
SCALE
  5
C06B
102
{ACAD_REACTORS
330
C063
102
}
330
C063
100
AcDbScale
 70
     0
300
3/16" = 1'-0"
140
0.1875
141
12.0
290
     0
  0
SCALE
  5
C06C
102
{ACAD_REACTORS
330
C063
102
}
330
C063
100
AcDbScale
 70
     0
300
1/4" = 1'-0"
140
0.25
141
12.0
290
     0
  0
SCALE
  5
C06D
102
{ACAD_REACTORS
330
C063
102
}
330
C063
100
AcDbScale
 70
     0
300
3/8" = 1'-0"
140
0.375
141
12.0
290
     0
  0
SCALE
  5
C06E
102
{ACAD_REACTORS
330
C063
102
}
330
C063
100
AcDbScale
 70
     0
300
1/2" = 1'-0"
140
0.5
141
12.0
290
     0
  0
SCALE
  5
C06F
102
{ACAD_REACTORS
330
C063
102
}
330
C063
100
AcDbScale
 70
     0
300
3/4" = 1'-0"
140
0.75
141
12.0
290
     0
  0
SCALE
  5
C070
102
{ACAD_REACTORS
330
C063
102
}
330
C063
100
AcDbScale
 70
     0
300
1" = 1'-0"
140
1.0
141
12.0
290
     0
  0
SCALE
  5
C071
102
{ACAD_REACTORS
330
C063
102
}
330
C063
100
AcDbScale
 70
     0
300
1-1/2" = 1'-0"
140
1.5
141
12.0
290
     0
  0
SCALE
  5
C072
102
{ACAD_REACTORS
330
C063
102
}
330
C063
100
AcDbScale
 70
     0
300
3" = 1'-0"
140
3.0
141
12.0
290
     0
  0
SCALE
  5
C073
102
{ACAD_REACTORS
330
C063
102
}
330
C063
100
AcDbScale
 70
     0
300
6" = 1'-0"
140
6.0
141
12.0
290
     0
  0
SCALE
  5
C074
102
{ACAD_REACTORS
330
C063
102
}
330
C063
100
AcDbScale
 70
     0
300
1'-0" = 1'-0"
140
12.0
141
12.0
290
     0
  0
TABLESTYLE
  5
1FE1
102
{ACAD_XDICTIONARY
360
C0F2
102
}
102
{ACAD_REACTORS
330
1FDD
102
}
330
1FDD
100
AcDbTableStyle
  3
Standard
 70
     0
 71
     0
 40
0.06
 41
0.06
280
     0
281
     0
  7
Standard
140
0.18
170
     2
 62
     0
 63
     7
283
     0
274
    -2
284
     1
 64
     0
275
    -2
285
     1
 65
     0
276
    -2
286
     1
 66
     0
277
    -2
287
     1
 67
     0
278
    -2
288
     1
 68
     0
279
    -2
289
     1
 69
     0
  7
Standard
140
0.25
170
     5
 62
     0
 63
     7
283
     0
274
    -2
284
     1
 64
     0
275
    -2
285
     1
 65
     0
276
    -2
286
     1
 66
     0
277
    -2
287
     1
 67
     0
278
    -2
288
     1
 68
     0
279
    -2
289
     1
 69
     0
  7
Standard
140
0.18
170
     5
 62
     0
 63
     7
283
     0
274
    -2
284
     1
 64
     0
275
    -2
285
     1
 65
     0
276
    -2
286
     1
 66
     0
277
    -2
287
     1
 67
     0
278
    -2
288
     1
 68
     0
279
    -2
289
     1
 69
     0
  0
VISUALSTYLE
  5
2F
102
{ACAD_XDICTIONARY
360
C14C
102
}
102
{ACAD_REACTORS
330
2A
102
}
330
2A
100
AcDbVisualStyle
  2

 70
     4
 71
     0
 72
     2
 73
     0
 90
        0
 40
-0.6
 41
-30.0
 62
     5
 63
     7
421
 16777215
 74
     1
 91
        4
 64
     7
 65
   257
 75
     1
175
     1
 42
1.0
 92
        0
 66
   257
 43
1.0
 76
     1
 77
     6
 78
     2
 67
     7
 79
     5
170
     0
171
     0
290
     0
174
     0
 93
        1
 44
0.0
173
     0
291
     0
 45
0.0
1001
ACAD
1000
AcRTDxfName
1000
VISUALSTYLE
1000
AcRTDxfName
1000
VISUALSTYLE
1000
AcRTDxfName
1000
VISUALSTYLE
1000
AcRTDxfName
1000
VISUALSTYLE
1000
AcRTDxfName
1000
VISUALSTYLE
1000
AcRTDxfName
1000
VISUALSTYLE
1000
AcRTDxfName
1000
VISUALSTYLE
1000
AcRTDxfName
1000
VISUALSTYLE
1000
AcRTDxfName
1000
VISUALSTYLE
1000
AcRTDxfName
1000
VISUALSTYLE
1000
AcRTDxfName
1000
VISUALSTYLE
1000
AcRTDxfName
1000
VISUALSTYLE
1000
AcRTDxfName
1000
VISUALSTYLE
1000
AcRTDxfName
1000
VISUALSTYLE
1000
AcRTDxfName
1000
VISUALSTYLE
1000
AcDbSavedByObjectVersion
1070
     0
  0
VISUALSTYLE
  5
31
102
{ACAD_XDICTIONARY
360
C150
102
}
102
{ACAD_REACTORS
330
2A
102
}
330
2A
100
AcDbVisualStyle
  2

 70
     6
 71
     1
 72
     2
 73
     2
 90
        0
 40
-0.6
 41
-30.0
 62
     5
 63
     7
421
 16777215
 74
     2
 91
        2
 64
     7
 65
   257
 75
     2
175
     1
 42
40.0
 92
        0
 66
   257
 43
1.0
 76
     1
 77
     6
 78
     2
 67
     7
 79
     3
170
     0
171
     0
290
     0
174
     0
 93
        1
 44
0.0
173
     0
291
     0
 45
0.0
1001
ACAD
1000
AcRTDxfName
1000
VISUALSTYLE
1000
AcRTDxfName
1000
VISUALSTYLE
1000
AcRTDxfName
1000
VISUALSTYLE
1000
AcRTDxfName
1000
VISUALSTYLE
1000
AcRTDxfName
1000
VISUALSTYLE
1000
AcRTDxfName
1000
VISUALSTYLE
1000
AcRTDxfName
1000
VISUALSTYLE
1000
AcRTDxfName
1000
VISUALSTYLE
1000
AcRTDxfName
1000
VISUALSTYLE
1000
AcRTDxfName
1000
VISUALSTYLE
1000
AcRTDxfName
1000
VISUALSTYLE
1000
AcRTDxfName
1000
VISUALSTYLE
1000
AcRTDxfName
1000
VISUALSTYLE
1000
AcRTDxfName
1000
VISUALSTYLE
1000
AcRTDxfName
1000
VISUALSTYLE
1000
AcDbSavedByObjectVersion
1070
     0
  0
VISUALSTYLE
  5
30
102
{ACAD_XDICTIONARY
360
C14E
102
}
102
{ACAD_REACTORS
330
2A
102
}
330
2A
100
AcDbVisualStyle
  2

 70
     5
 71
     0
 72
     2
 73
     0
 90
        0
 40
-0.6
 41
-30.0
 62
     5
 63
     7
421
 16777215
 74
     1
 91
        4
 64
     7
 65
   257
 75
     1
175
     1
 42
1.0
 92
        0
 66
   257
 43
1.0
 76
     1
 77
     6
 78
     2
 67
     7
 79
     5
170
     0
171
     0
290
     0
174
     0
 93
        1
 44
0.0
173
     0
291
     0
 45
0.0
1001
ACAD
1000
AcRTDxfName
1000
VISUALSTYLE
1000
AcRTDxfName
1000
VISUALSTYLE
1000
AcRTDxfName
1000
VISUALSTYLE
1000
AcRTDxfName
1000
VISUALSTYLE
1000
AcRTDxfName
1000
VISUALSTYLE
1000
AcRTDxfName
1000
VISUALSTYLE
1000
AcRTDxfName
1000
VISUALSTYLE
1000
AcRTDxfName
1000
VISUALSTYLE
1000
AcRTDxfName
1000
VISUALSTYLE
1000
AcRTDxfName
1000
VISUALSTYLE
1000
AcRTDxfName
1000
VISUALSTYLE
1000
AcRTDxfName
1000
VISUALSTYLE
1000
AcRTDxfName
1000
VISUALSTYLE
1000
AcRTDxfName
1000
VISUALSTYLE
1000
AcRTDxfName
1000
VISUALSTYLE
1000
AcDbSavedByObjectVersion
1070
     0
  0
VISUALSTYLE
  5
32
102
{ACAD_XDICTIONARY
360
C152
102
}
102
{ACAD_REACTORS
330
2A
102
}
330
2A
100
AcDbVisualStyle
  2

 70
     7
 71
     1
 72
     0
 73
     1
 90
        0
 40
-0.6
 41
-30.0
 62
     5
 63
     7
421
 16777215
 74
     0
 91
        4
 64
     7
 65
   257
 75
     1
175
     1
 42
1.0
 92
        8
 66
     7
 43
1.0
 76
     1
 77
     6
 78
     2
 67
     7
 79
     5
170
     0
171
     0
290
     0
174
     0
 93
        1
 44
0.0
173
     0
291
     1
 45
0.0
1001
ACAD
1000
AcRTDxfName
1000
VISUALSTYLE
1000
AcRTDxfName
1000
VISUALSTYLE
1000
AcRTDxfName
1000
VISUALSTYLE
1000
AcRTDxfName
1000
VISUALSTYLE
1000
AcRTDxfName
1000
VISUALSTYLE
1000
AcRTDxfName
1000
VISUALSTYLE
1000
AcRTDxfName
1000
VISUALSTYLE
1000
AcRTDxfName
1000
VISUALSTYLE
1000
AcRTDxfName
1000
VISUALSTYLE
1000
AcRTDxfName
1000
VISUALSTYLE
1000
AcRTDxfName
1000
VISUALSTYLE
1000
AcRTDxfName
1000
VISUALSTYLE
1000
AcRTDxfName
1000
VISUALSTYLE
1000
AcRTDxfName
1000
VISUALSTYLE
1000
AcRTDxfName
1000
VISUALSTYLE
1000
AcDbSavedByObjectVersion
1070
     0
  0
VISUALSTYLE
  5
36
102
{ACAD_XDICTIONARY
360
C15A
102
}
102
{ACAD_REACTORS
330
2A
102
}
330
2A
100
AcDbVisualStyle
  2

 70
    12
 71
     2
 72
     2
 73
     0
 90
        0
 40
-0.6
 41
-30.0
 62
     5
 63
     7
421
 16777215
 74
     1
 91
        4
 64
     7
 65
   257
 75
     1
175
     1
 42
1.0
 92
        8
 66
     7
 43
1.0
 76
     1
 77
     6
 78
     2
 67
     7
 79
     5
170
     0
171
     0
290
     0
174
     0
 93
        1
 44
50.0
173
     0
291
     1
 45
0.0
1001
ACAD
1000
AcRTDxfName
1000
VISUALSTYLE
1000
AcRTDxfName
1000
VISUALSTYLE
1000
AcRTDxfName
1000
VISUALSTYLE
1000
AcRTDxfName
1000
VISUALSTYLE
1000
AcRTDxfName
1000
VISUALSTYLE
1000
AcRTDxfName
1000
VISUALSTYLE
1000
AcRTDxfName
1000
VISUALSTYLE
1000
AcRTDxfName
1000
VISUALSTYLE
1000
AcRTDxfName
1000
VISUALSTYLE
1000
AcRTDxfName
1000
VISUALSTYLE
1000
AcRTDxfName
1000
VISUALSTYLE
1000
AcRTDxfName
1000
VISUALSTYLE
1000
AcRTDxfName
1000
VISUALSTYLE
1000
AcRTDxfName
1000
VISUALSTYLE
1000
AcRTDxfName
1000
VISUALSTYLE
1000
AcDbSavedByObjectVersion
1070
     0
  0
VISUALSTYLE
  5
3A
102
{ACAD_XDICTIONARY
360
C162
102
}
102
{ACAD_REACTORS
330
2A
102
}
330
2A
100
AcDbVisualStyle
  2

 70
    16
 71
     2
 72
     2
 73
     3
 90
        0
 40
-0.6
 41
-30.0
 62
     5
 63
     8
421
  8421504
 74
     1
 91
        4
 64
     7
 65
   257
 75
     1
175
     1
 42
1.0
 92
        8
 66
     8
424
  8421504
 43
1.0
 76
     1
 77
     6
 78
     2
 67
     7
 79
     5
170
     0
171
     0
290
     0
174
     0
 93
        1
 44
0.0
173
     0
291
     1
 45
0.0
1001
ACAD
1000
AcRTDxfName
1000
VISUALSTYLE
1000
AcRTDxfName
1000
VISUALSTYLE
1000
AcRTDxfName
1000
VISUALSTYLE
1000
AcRTDxfName
1000
VISUALSTYLE
1000
AcRTDxfName
1000
VISUALSTYLE
1000
AcRTDxfName
1000
VISUALSTYLE
1000
AcRTDxfName
1000
VISUALSTYLE
1000
AcRTDxfName
1000
VISUALSTYLE
1000
AcRTDxfName
1000
VISUALSTYLE
1000
AcRTDxfName
1000
VISUALSTYLE
1000
AcRTDxfName
1000
VISUALSTYLE
1000
AcRTDxfName
1000
VISUALSTYLE
1000
AcRTDxfName
1000
VISUALSTYLE
1000
AcRTDxfName
1000
VISUALSTYLE
1000
AcRTDxfName
1000
VISUALSTYLE
1000
AcDbSavedByObjectVersion
1070
     0
  0
VISUALSTYLE
  5
34
102
{ACAD_XDICTIONARY
360
C156
102
}
102
{ACAD_REACTORS
330
2A
102
}
330
2A
100
AcDbVisualStyle
  2

 70
     9
 71
     3
 72
     2
 73
     0
 90
        0
 40
-0.6
 41
-30.0
 62
     5
 63
     7
421
 16777215
 74
     2
 91
        2
 64
     7
 65
   257
 75
     1
175
     1
 42
40.0
 92
        8
 66
     7
 43
1.0
 76
     1
 77
     6
 78
     2
 67
     7
 79
     3
170
     0
171
     0
290
     0
174
     0
 93
        1
 44
0.0
173
     0
291
     0
 45
0.0
1001
ACAD
1000
AcRTDxfName
1000
VISUALSTYLE
1000
AcRTDxfName
1000
VISUALSTYLE
1000
AcRTDxfName
1000
VISUALSTYLE
1000
AcRTDxfName
1000
VISUALSTYLE
1000
AcRTDxfName
1000
VISUALSTYLE
1000
AcRTDxfName
1000
VISUALSTYLE
1000
AcRTDxfName
1000
VISUALSTYLE
1000
AcRTDxfName
1000
VISUALSTYLE
1000
AcRTDxfName
1000
VISUALSTYLE
1000
AcRTDxfName
1000
VISUALSTYLE
1000
AcRTDxfName
1000
VISUALSTYLE
1000
AcRTDxfName
1000
VISUALSTYLE
1000
AcRTDxfName
1000
VISUALSTYLE
1000
AcRTDxfName
1000
VISUALSTYLE
1000
AcRTDxfName
1000
VISUALSTYLE
1000
AcDbSavedByObjectVersion
1070
     0
  0
VISUALSTYLE
  5
35
102
{ACAD_XDICTIONARY
360
C158
102
}
102
{ACAD_REACTORS
330
2A
102
}
330
2A
100
AcDbVisualStyle
  2

 70
    11
 71
     2
 72
     2
 73
     0
 90
        0
 40
-0.6
 41
-30.0
 62
     5
 63
     7
421
 16777215
 74
     1
 91
        4
 64
     7
 65
   257
 75
     1
175
     1
 42
1.0
 92
        8
 66
     7
 43
1.0
 76
     1
 77
     6
 78
     2
 67
     7
 79
     5
170
     0
171
     0
290
     0
174
     0
 93
        1
 44
-50.0
173
     0
291
     1
 45
0.0
1001
ACAD
1000
AcRTDxfName
1000
VISUALSTYLE
1000
AcRTDxfName
1000
VISUALSTYLE
1000
AcRTDxfName
1000
VISUALSTYLE
1000
AcRTDxfName
1000
VISUALSTYLE
1000
AcRTDxfName
1000
VISUALSTYLE
1000
AcRTDxfName
1000
VISUALSTYLE
1000
AcRTDxfName
1000
VISUALSTYLE
1000
AcRTDxfName
1000
VISUALSTYLE
1000
AcRTDxfName
1000
VISUALSTYLE
1000
AcRTDxfName
1000
VISUALSTYLE
1000
AcRTDxfName
1000
VISUALSTYLE
1000
AcRTDxfName
1000
VISUALSTYLE
1000
AcRTDxfName
1000
VISUALSTYLE
1000
AcRTDxfName
1000
VISUALSTYLE
1000
AcRTDxfName
1000
VISUALSTYLE
1000
AcDbSavedByObjectVersion
1070
     0
  0
VISUALSTYLE
  5
C062
102
{ACAD_XDICTIONARY
360
C177
102
}
102
{ACAD_REACTORS
330
2A
102
}
330
2A
100
AcDbVisualStyle
  2

 70
    22
 71
     2
 72
     2
 73
     0
 90
        0
 40
-0.6
 41
-30.0
 62
     5
 63
     7
421
 16777215
 74
     1
 91
        4
 64
     7
 65
   257
 75
     1
175
     1
 42
1.0
 92
        8
 66
     7
 43
1.0
 76
     1
 77
     6
 78
     2
 67
     7
 79
     5
170
     0
171
     0
290
     0
174
     0
 93
        1
 44
0.0
173
     0
291
     1
 45
0.0
1001
ACAD
1000
AcDbSavedByObjectVersion
1070
     0
  0
VISUALSTYLE
  5
39
102
{ACAD_XDICTIONARY
360
C160
102
}
102
{ACAD_REACTORS
330
2A
102
}
330
2A
100
AcDbVisualStyle
  2

 70
    15
 71
     2
 72
     2
 73
     0
 90
        0
 40
-0.6
 41
-30.0
 62
     5
 63
     7
421
 16777215
 74
     1
 91
        4
 64
     7
 65
   257
 75
     1
175
     1
 42
1.0
 92
        8
 66
     7
 43
1.0
 76
     1
 77
     6
 78
     2
 67
     7
 79
     5
170
     0
171
     0
290
     0
174
     0
 93
        1
 44
0.0
173
     0
291
     1
 45
0.0
1001
ACAD
1000
AcRTDxfName
1000
VISUALSTYLE
1000
AcRTDxfName
1000
VISUALSTYLE
1000
AcRTDxfName
1000
VISUALSTYLE
1000
AcRTDxfName
1000
VISUALSTYLE
1000
AcRTDxfName
1000
VISUALSTYLE
1000
AcRTDxfName
1000
VISUALSTYLE
1000
AcRTDxfName
1000
VISUALSTYLE
1000
AcRTDxfName
1000
VISUALSTYLE
1000
AcRTDxfName
1000
VISUALSTYLE
1000
AcRTDxfName
1000
VISUALSTYLE
1000
AcRTDxfName
1000
VISUALSTYLE
1000
AcRTDxfName
1000
VISUALSTYLE
1000
AcRTDxfName
1000
VISUALSTYLE
1000
AcRTDxfName
1000
VISUALSTYLE
1000
AcRTDxfName
1000
VISUALSTYLE
1000
AcDbSavedByObjectVersion
1070
     0
  0
VISUALSTYLE
  5
2B
102
{ACAD_XDICTIONARY
360
C144
102
}
102
{ACAD_REACTORS
330
2A
102
}
330
2A
100
AcDbVisualStyle
  2

 70
     0
 71
     2
 72
     1
 73
     1
 90
        2
 40
-0.6
 41
30.0
 62
     5
 63
     7
421
 16777215
 74
     0
 91
        4
 64
     7
 65
   257
 75
     1
175
     1
 42
1.0
 92
        8
 66
     7
 43
1.0
 76
     1
 77
     6
 78
     2
 67
     7
 79
     5
170
     0
171
     0
290
     0
174
     0
 93
       13
 44
0.0
173
     0
291
     1
 45
0.0
1001
ACAD
1000
AcRTDxfName
1000
VISUALSTYLE
1000
AcRTDxfName
1000
VISUALSTYLE
1000
AcRTDxfName
1000
VISUALSTYLE
1000
AcRTDxfName
1000
VISUALSTYLE
1000
AcRTDxfName
1000
VISUALSTYLE
1000
AcRTDxfName
1000
VISUALSTYLE
1000
AcRTDxfName
1000
VISUALSTYLE
1000
AcRTDxfName
1000
VISUALSTYLE
1000
AcRTDxfName
1000
VISUALSTYLE
1000
AcRTDxfName
1000
VISUALSTYLE
1000
AcRTDxfName
1000
VISUALSTYLE
1000
AcRTDxfName
1000
VISUALSTYLE
1000
AcRTDxfName
1000
VISUALSTYLE
1000
AcRTDxfName
1000
VISUALSTYLE
1000
AcRTDxfName
1000
VISUALSTYLE
1000
AcDbSavedByObjectVersion
1070
     0
  0
VISUALSTYLE
  5
2C
102
{ACAD_XDICTIONARY
360
C146
102
}
102
{ACAD_REACTORS
330
2A
102
}
330
2A
100
AcDbVisualStyle
  2

 70
     1
 71
     2
 72
     1
 73
     1
 90
        2
 40
-0.6
 41
30.0
 62
     5
 63
     7
421
 16777215
 74
     1
 91
        4
 64
     7
 65
   257
 75
     1
175
     1
 42
1.0
 92
        0
 66
   257
 43
1.0
 76
     1
 77
     6
 78
     2
 67
     7
 79
     5
170
     0
171
     0
290
     0
174
     0
 93
       13
 44
0.0
173
     0
291
     1
 45
0.0
1001
ACAD
1000
AcRTDxfName
1000
VISUALSTYLE
1000
AcRTDxfName
1000
VISUALSTYLE
1000
AcRTDxfName
1000
VISUALSTYLE
1000
AcRTDxfName
1000
VISUALSTYLE
1000
AcRTDxfName
1000
VISUALSTYLE
1000
AcRTDxfName
1000
VISUALSTYLE
1000
AcRTDxfName
1000
VISUALSTYLE
1000
AcRTDxfName
1000
VISUALSTYLE
1000
AcRTDxfName
1000
VISUALSTYLE
1000
AcRTDxfName
1000
VISUALSTYLE
1000
AcRTDxfName
1000
VISUALSTYLE
1000
AcRTDxfName
1000
VISUALSTYLE
1000
AcRTDxfName
1000
VISUALSTYLE
1000
AcRTDxfName
1000
VISUALSTYLE
1000
AcRTDxfName
1000
VISUALSTYLE
1000
AcDbSavedByObjectVersion
1070
     0
  0
VISUALSTYLE
  5
2D
102
{ACAD_XDICTIONARY
360
C148
102
}
102
{ACAD_REACTORS
330
2A
102
}
330
2A
100
AcDbVisualStyle
  2

 70
     2
 71
     2
 72
     2
 73
     1
 90
        2
 40
-0.6
 41
30.0
 62
     5
 63
     7
421
 16777215
 74
     0
 91
        4
 64
     7
 65
   257
 75
     1
175
     1
 42
1.0
 92
        0
 66
     7
 43
1.0
 76
     1
 77
     6
 78
     2
 67
     7
 79
     5
170
     0
171
     0
290
     0
174
     0
 93
       13
 44
0.0
173
     0
291
     1
 45
0.0
1001
ACAD
1000
AcRTDxfName
1000
VISUALSTYLE
1000
AcRTDxfName
1000
VISUALSTYLE
1000
AcRTDxfName
1000
VISUALSTYLE
1000
AcRTDxfName
1000
VISUALSTYLE
1000
AcRTDxfName
1000
VISUALSTYLE
1000
AcRTDxfName
1000
VISUALSTYLE
1000
AcRTDxfName
1000
VISUALSTYLE
1000
AcRTDxfName
1000
VISUALSTYLE
1000
AcRTDxfName
1000
VISUALSTYLE
1000
AcRTDxfName
1000
VISUALSTYLE
1000
AcRTDxfName
1000
VISUALSTYLE
1000
AcRTDxfName
1000
VISUALSTYLE
1000
AcRTDxfName
1000
VISUALSTYLE
1000
AcRTDxfName
1000
VISUALSTYLE
1000
AcRTDxfName
1000
VISUALSTYLE
1000
AcDbSavedByObjectVersion
1070
     0
  0
VISUALSTYLE
  5
2E
102
{ACAD_XDICTIONARY
360
C14A
102
}
102
{ACAD_REACTORS
330
2A
102
}
330
2A
100
AcDbVisualStyle
  2

 70
     3
 71
     2
 72
     2
 73
     1
 90
        2
 40
-0.6
 41
30.0
 62
     5
 63
     7
421
 16777215
 74
     1
 91
        4
 64
     7
 65
   257
 75
     1
175
     1
 42
1.0
 92
        0
 66
   257
 43
1.0
 76
     1
 77
     6
 78
     2
 67
     7
 79
     5
170
     0
171
     0
290
     0
174
     0
 93
       13
 44
0.0
173
     0
291
     1
 45
0.0
1001
ACAD
1000
AcRTDxfName
1000
VISUALSTYLE
1000
AcRTDxfName
1000
VISUALSTYLE
1000
AcRTDxfName
1000
VISUALSTYLE
1000
AcRTDxfName
1000
VISUALSTYLE
1000
AcRTDxfName
1000
VISUALSTYLE
1000
AcRTDxfName
1000
VISUALSTYLE
1000
AcRTDxfName
1000
VISUALSTYLE
1000
AcRTDxfName
1000
VISUALSTYLE
1000
AcRTDxfName
1000
VISUALSTYLE
1000
AcRTDxfName
1000
VISUALSTYLE
1000
AcRTDxfName
1000
VISUALSTYLE
1000
AcRTDxfName
1000
VISUALSTYLE
1000
AcRTDxfName
1000
VISUALSTYLE
1000
AcRTDxfName
1000
VISUALSTYLE
1000
AcRTDxfName
1000
VISUALSTYLE
1000
AcDbSavedByObjectVersion
1070
     0
  0
VISUALSTYLE
  5
C05A
102
{ACAD_XDICTIONARY
360
C167
102
}
102
{ACAD_REACTORS
330
2A
102
}
330
2A
100
AcDbVisualStyle
  2

 70
     6
 71
     1
 72
     2
 73
     2
 90
        0
 40
-0.6
 41
-30.0
 62
     5
 63
     7
421
 16777215
 74
     2
 91
        2
 64
     7
 65
   257
 75
     2
175
     1
 42
40.0
 92
        0
 66
   257
 43
1.0
 76
     1
 77
     6
 78
     2
 67
     7
 79
     3
170
     0
171
     0
290
     0
174
     0
 93
        1
 44
0.0
173
     0
291
     0
 45
0.0
1001
ACAD
1000
AcDbSavedByObjectVersion
1070
     0
  0
VISUALSTYLE
  5
C060
102
{ACAD_XDICTIONARY
360
C173
102
}
102
{ACAD_REACTORS
330
2A
102
}
330
2A
100
AcDbVisualStyle
  2

 70
    20
 71
     2
 72
     2
 73
     0
 90
        0
 40
-0.6
 41
-30.0
 62
     5
 63
     7
421
 16777215
 74
     1
 91
        4
 64
     7
 65
   257
 75
     1
175
     1
 42
1.0
 92
       10
 66
     7
 43
1.0
 76
     1
 77
     6
 78
     2
 67
     7
 79
     5
170
     0
171
     0
290
     0
174
     0
 93
        1
 44
0.0
173
     0
291
     1
 45
0.0
1001
ACAD
1000
AcDbSavedByObjectVersion
1070
     0
  0
VISUALSTYLE
  5
38
102
{ACAD_XDICTIONARY
360
C15E
102
}
102
{ACAD_REACTORS
330
2A
102
}
330
2A
100
AcDbVisualStyle
  2

 70
    14
 71
     2
 72
     2
 73
     0
 90
        0
 40
-0.6
 41
-30.0
 62
     5
 63
     7
421
 16777215
 74
     1
 91
        4
 64
     7
 65
   257
 75
     7
175
     7
 42
1.0
 92
        8
 66
     7
 43
1.0
 76
     1
 77
     6
 78
     2
 67
     7
 79
     5
170
     0
171
     0
290
     0
174
     0
 93
        1
 44
0.0
173
     0
291
     1
 45
0.0
1001
ACAD
1000
AcRTDxfName
1000
VISUALSTYLE
1000
AcRTDxfName
1000
VISUALSTYLE
1000
AcRTDxfName
1000
VISUALSTYLE
1000
AcRTDxfName
1000
VISUALSTYLE
1000
AcRTDxfName
1000
VISUALSTYLE
1000
AcRTDxfName
1000
VISUALSTYLE
1000
AcRTDxfName
1000
VISUALSTYLE
1000
AcRTDxfName
1000
VISUALSTYLE
1000
AcRTDxfName
1000
VISUALSTYLE
1000
AcRTDxfName
1000
VISUALSTYLE
1000
AcRTDxfName
1000
VISUALSTYLE
1000
AcRTDxfName
1000
VISUALSTYLE
1000
AcRTDxfName
1000
VISUALSTYLE
1000
AcRTDxfName
1000
VISUALSTYLE
1000
AcRTDxfName
1000
VISUALSTYLE
1000
AcDbSavedByObjectVersion
1070
     0
  0
VISUALSTYLE
  5
C061
102
{ACAD_XDICTIONARY
360
C175
102
}
102
{ACAD_REACTORS
330
2A
102
}
330
2A
100
AcDbVisualStyle
  2

 70
    21
 71
     2
 72
     2
 73
     0
 90
        0
 40
-0.6
 41
-30.0
 62
     5
 63
     7
421
 16777215
 74
     1
 91
        4
 64
     7
 65
   257
 75
     1
175
     1
 42
1.0
 92
        9
 66
     7
 43
1.0
 76
     1
 77
     6
 78
     2
 67
     7
 79
     5
170
     0
171
     0
290
     0
174
     0
 93
        1
 44
0.0
173
     0
291
     1
 45
0.0
1001
ACAD
1000
AcDbSavedByObjectVersion
1070
     0
  0
VISUALSTYLE
  5
33
102
{ACAD_XDICTIONARY
360
C154
102
}
102
{ACAD_REACTORS
330
2A
102
}
330
2A
100
AcDbVisualStyle
  2

 70
     8
 71
     2
 72
     2
 73
     0
 90
        0
 40
-0.6
 41
-30.0
 62
     5
 63
     7
421
 16777215
 74
     1
 91
        0
 64
     7
 65
   257
 75
     1
175
     1
 42
1.0
 92
        8
 66
     8
424
  7895160
 43
1.0
 76
     1
 77
     6
 78
     2
 67
     7
 79
     5
170
     0
171
     0
290
     0
174
     0
 93
       13
 44
0.0
173
     0
291
     0
 45
0.0
1001
ACAD
1000
AcRTDxfName
1000
VISUALSTYLE
1000
AcRTDxfName
1000
VISUALSTYLE
1000
AcRTDxfName
1000
VISUALSTYLE
1000
AcRTDxfName
1000
VISUALSTYLE
1000
AcRTDxfName
1000
VISUALSTYLE
1000
AcRTDxfName
1000
VISUALSTYLE
1000
AcRTDxfName
1000
VISUALSTYLE
1000
AcRTDxfName
1000
VISUALSTYLE
1000
AcRTDxfName
1000
VISUALSTYLE
1000
AcRTDxfName
1000
VISUALSTYLE
1000
AcRTDxfName
1000
VISUALSTYLE
1000
AcRTDxfName
1000
VISUALSTYLE
1000
AcRTDxfName
1000
VISUALSTYLE
1000
AcRTDxfName
1000
VISUALSTYLE
1000
AcRTDxfName
1000
VISUALSTYLE
1000
AcDbSavedByObjectVersion
1070
     0
  0
VISUALSTYLE
  5
C05F
102
{ACAD_XDICTIONARY
360
C171
102
}
102
{ACAD_REACTORS
330
2A
102
}
330
2A
100
AcDbVisualStyle
  2

 70
    27
 71
     2
 72
     2
 73
     1
 90
        2
 40
-0.6
 41
30.0
 62
     5
 63
     7
421
 16777215
 74
     0
 91
        4
 64
     7
 65
   257
 75
     1
175
     1
 42
1.0
 92
        8
 66
   257
 43
1.0
 76
     1
 77
     6
 78
     2
 67
     8
425
  7895160
 79
     3
170
     0
171
     0
290
     0
174
     0
 93
        5
 44
0.0
173
     0
291
     0
 45
0.0
1001
ACAD
1000
AcDbSavedByObjectVersion
1070
     0
  0
VISUALSTYLE
  5
C05E
102
{ACAD_XDICTIONARY
360
C16F
102
}
102
{ACAD_REACTORS
330
2A
102
}
330
2A
100
AcDbVisualStyle
  2

 70
    26
 71
     2
 72
     2
 73
     1
 90
        2
 40
-0.6
 41
30.0
 62
     5
 63
     7
421
 16777215
 74
     1
 91
       10
 64
     7
 65
   257
 75
     2
175
     1
 42
1.0
 92
        8
 66
   257
 43
1.0
 76
     1
 77
     6
 78
     2
 67
     7
 79
     3
170
     0
171
     0
290
     0
174
     0
 93
        5
 44
0.0
173
     0
291
     0
 45
0.0
1001
ACAD
1000
AcDbSavedByObjectVersion
1070
     0
  0
VISUALSTYLE
  5
C05B
102
{ACAD_XDICTIONARY
360
C169
102
}
102
{ACAD_REACTORS
330
2A
102
}
330
2A
100
AcDbVisualStyle
  2

 70
    23
 71
     2
 72
     2
 73
     3
 90
        0
 40
-0.6
 41
-30.0
 62
     5
 63
     7
421
 16777215
 74
     2
 91
        2
 64
     7
 65
     7
 75
     1
175
     1
 42
40.0
 92
        8
 66
     7
 43
1.0
 76
     1
 77
     6
 78
     2
 67
     7
 79
     3
170
     0
171
     0
290
     0
174
     0
 93
        1
 44
0.0
173
     0
291
     0
 45
0.0
1001
ACAD
1000
AcDbSavedByObjectVersion
1070
     0
  0
VISUALSTYLE
  5
C05C
102
{ACAD_XDICTIONARY
360
C16B
102
}
102
{ACAD_REACTORS
330
2A
102
}
330
2A
100
AcDbVisualStyle
  2

 70
    24
 71
     1
 72
     2
 73
     2
 90
        0
 40
-0.6
 41
-30.0
 62
     5
 63
     7
421
 16777215
 74
     2
 91
        2
 64
     7
 65
     7
 75
     1
175
     1
 42
40.0
 92
       11
 66
     7
 43
1.0
 76
     1
 77
     6
 78
     2
 67
     7
 79
     6
170
     0
171
     0
290
     0
174
     0
 93
        1
 44
0.0
173
     0
291
     0
 45
0.0
1001
ACAD
1000
AcDbSavedByObjectVersion
1070
     0
  0
VISUALSTYLE
  5
37
102
{ACAD_XDICTIONARY
360
C15C
102
}
102
{ACAD_REACTORS
330
2A
102
}
330
2A
100
AcDbVisualStyle
  2

 70
    13
 71
     2
 72
     2
 73
     0
 90
        0
 40
-0.6
 41
-30.0
 62
     5
 63
     7
421
 16777215
 74
     1
 91
        4
 64
     7
 65
   257
 75
     1
175
     1
 42
1.0
 92
       12
 66
     7
 43
1.0
 76
     1
 77
     6
 78
     2
 67
     7
 79
     5
170
     0
171
     0
290
     0
174
     0
 93
        1
 44
0.0
173
     0
291
     1
 45
0.0
1001
ACAD
1000
AcRTDxfName
1000
VISUALSTYLE
1000
AcRTDxfName
1000
VISUALSTYLE
1000
AcRTDxfName
1000
VISUALSTYLE
1000
AcRTDxfName
1000
VISUALSTYLE
1000
AcRTDxfName
1000
VISUALSTYLE
1000
AcRTDxfName
1000
VISUALSTYLE
1000
AcRTDxfName
1000
VISUALSTYLE
1000
AcRTDxfName
1000
VISUALSTYLE
1000
AcRTDxfName
1000
VISUALSTYLE
1000
AcRTDxfName
1000
VISUALSTYLE
1000
AcRTDxfName
1000
VISUALSTYLE
1000
AcRTDxfName
1000
VISUALSTYLE
1000
AcRTDxfName
1000
VISUALSTYLE
1000
AcRTDxfName
1000
VISUALSTYLE
1000
AcRTDxfName
1000
VISUALSTYLE
1000
AcDbSavedByObjectVersion
1070
     0
  0
VISUALSTYLE
  5
C059
102
{ACAD_XDICTIONARY
360
C165
102
}
102
{ACAD_REACTORS
330
2A
102
}
330
2A
100
AcDbVisualStyle
  2

 70
     5
 71
     0
 72
     2
 73
     0
 90
        0
 40
-0.6
 41
-30.0
 62
     5
 63
     7
421
 16777215
 74
     1
 91
        4
 64
     7
 65
   257
 75
     1
175
     1
 42
1.0
 92
        0
 66
   257
 43
1.0
 76
     1
 77
     6
 78
     2
 67
     7
 79
     3
170
     0
171
     0
290
     0
174
     0
 93
        1
 44
0.0
173
     0
291
     0
 45
0.0
1001
ACAD
1000
AcDbSavedByObjectVersion
1070
     0
  0
VISUALSTYLE
  5
C05D
102
{ACAD_XDICTIONARY
360
C16D
102
}
102
{ACAD_REACTORS
330
2A
102
}
330
2A
100
AcDbVisualStyle
  2

 70
    25
 71
     2
 72
     2
 73
     1
 90
        1
 40
0.5
 41
-30.0
 62
     5
 63
     7
421
 16777215
 74
     1
 91
        0
 64
     7
 65
   257
 75
     1
175
     1
 42
1.0
 92
        8
 66
     7
 43
1.0
 76
     1
 77
     6
 78
     2
 67
     7
 79
     3
170
     0
171
     0
290
     0
174
     0
 93
       13
 44
0.0
173
     0
291
     0
 45
0.0
1001
ACAD
1000
AcDbSavedByObjectVersion
1070
     0
  0
DICTIONARYVAR
  5
C087
102
{ACAD_REACTORS
330
1FEE
102
}
330
1FEE
100
DictionaryVariables
280
     0
  1
1:1
  0
DICTIONARYVAR
  5
C086
102
{ACAD_REACTORS
330
1FEE
102
}
330
1FEE
100
DictionaryVariables
280
     0
  1
STANDARD
  0
DICTIONARYVAR
  5
1FEF
102
{ACAD_REACTORS
330
1FEE
102
}
330
1FEE
100
DictionaryVariables
280
     0
  1
STANDARD
  0
DICTIONARYVAR
  5
1FF1
102
{ACAD_REACTORS
330
1FEE
102
}
330
1FEE
100
DictionaryVariables
280
     0
  1
2
  0
DICTIONARYVAR
  5
1FF0
102
{ACAD_REACTORS
330
1FEE
102
}
330
1FEE
100
DictionaryVariables
280
     0
  1
1
  0
DICTIONARYVAR
  5
1FF2
102
{ACAD_REACTORS
330
1FEE
102
}
330
1FEE
100
DictionaryVariables
280
     0
  1

  0
DICTIONARYVAR
  5
C13D
102
{ACAD_REACTORS
330
1FEE
102
}
330
1FEE
100
DictionaryVariables
280
     0
  1
2
  0
XRECORD
  5
C085
102
{ACAD_REACTORS
330
C083
102
}
330
C083
100
AcDbXrecord
280
     1
330
B5B4
330
B5B6
330
B5C0
330
B5C2
330
B5CB
330
B5CF
330
B5D8
330
B5DA
330
BA79
330
BA7D
330
BA86
330
BA88
330
BA91
330
BA93
330
BA9B
330
BA9D
330
BAA4
330
BAA6
330
BAB4
330
BAB6
330
BAC2
330
BAC4
330
BACD
330
BAD1
330
BADA
330
BADE
330
BAE7
330
BAEB
330
BAF2
330
BAF6
  0
DICTIONARY
  5
C0F0
330
22
100
AcDbDictionary
280
     1
281
     1
  3
ADSK_XREC_LAYOUTTHUMBNAIL
360
C0F1
  0
DICTIONARY
  5
C04A
330
C049
100
AcDbDictionary
280
     1
281
     1
  3
ACAD_XREC_ROUNDTRIP
360
C11B
  3
BUMPTILE
360
C04C
  3
DIFFUSETILE
360
C04B
  3
OPACITYTILE
360
C04F
  3
REFLECTIONTILE
360
C04E
  3
REFRACTIONTILE
360
C050
  3
SPECULARTILE
360
C04D
  0
DICTIONARY
  5
C042
330
C041
100
AcDbDictionary
280
     1
281
     1
  3
ACAD_XREC_ROUNDTRIP
360
C11A
  3
BUMPTILE
360
C044
  3
DIFFUSETILE
360
C043
  3
OPACITYTILE
360
C047
  3
REFLECTIONTILE
360
C046
  3
REFRACTIONTILE
360
C048
  3
SPECULARTILE
360
C045
  0
DICTIONARY
  5
C052
330
C051
100
AcDbDictionary
280
     1
281
     1
  3
ACAD_XREC_ROUNDTRIP
360
C11C
  3
BUMPTILE
360
C054
  3
DIFFUSETILE
360
C053
  3
OPACITYTILE
360
C057
  3
REFLECTIONTILE
360
C056
  3
REFRACTIONTILE
360
C058
  3
SPECULARTILE
360
C055
  0
DICTIONARY
  5
C13F
330
C076
100
AcDbDictionary
280
     1
281
     1
  3
ACAD_XREC_ROUNDTRIP
360
C140
  0
DICTIONARY
  5
C0F2
330
1FE1
100
AcDbDictionary
280
     1
281
     1
  3
ACAD_ROUNDTRIP_2008_TABLESTYLE_CELLSTYLEMAP
360
C13E
  3
ACAD_XREC_ROUNDTRIP
360
C164
  0
DICTIONARY
  5
C14C
330
2F
100
AcDbDictionary
280
     1
281
     1
  3
ACAD_XREC_ROUNDTRIP
360
C14D
  0
DICTIONARY
  5
C150
330
31
100
AcDbDictionary
280
     1
281
     1
  3
ACAD_XREC_ROUNDTRIP
360
C151
  0
DICTIONARY
  5
C14E
330
30
100
AcDbDictionary
280
     1
281
     1
  3
ACAD_XREC_ROUNDTRIP
360
C14F
  0
DICTIONARY
  5
C152
330
32
100
AcDbDictionary
280
     1
281
     1
  3
ACAD_XREC_ROUNDTRIP
360
C153
  0
DICTIONARY
  5
C15A
330
36
100
AcDbDictionary
280
     1
281
     1
  3
ACAD_XREC_ROUNDTRIP
360
C15B
  0
DICTIONARY
  5
C162
330
3A
100
AcDbDictionary
280
     1
281
     1
  3
ACAD_XREC_ROUNDTRIP
360
C163
  0
DICTIONARY
  5
C156
330
34
100
AcDbDictionary
280
     1
281
     1
  3
ACAD_XREC_ROUNDTRIP
360
C157
  0
DICTIONARY
  5
C158
330
35
100
AcDbDictionary
280
     1
281
     1
  3
ACAD_XREC_ROUNDTRIP
360
C159
  0
DICTIONARY
  5
C177
330
C062
100
AcDbDictionary
280
     1
281
     1
  3
ACAD_XREC_ROUNDTRIP
360
C178
  0
DICTIONARY
  5
C160
330
39
100
AcDbDictionary
280
     1
281
     1
  3
ACAD_XREC_ROUNDTRIP
360
C161
  0
DICTIONARY
  5
C144
330
2B
100
AcDbDictionary
280
     1
281
     1
  3
ACAD_XREC_ROUNDTRIP
360
C145
  0
DICTIONARY
  5
C146
330
2C
100
AcDbDictionary
280
     1
281
     1
  3
ACAD_XREC_ROUNDTRIP
360
C147
  0
DICTIONARY
  5
C148
330
2D
100
AcDbDictionary
280
     1
281
     1
  3
ACAD_XREC_ROUNDTRIP
360
C149
  0
DICTIONARY
  5
C14A
330
2E
100
AcDbDictionary
280
     1
281
     1
  3
ACAD_XREC_ROUNDTRIP
360
C14B
  0
DICTIONARY
  5
C167
330
C05A
100
AcDbDictionary
280
     1
281
     1
  3
ACAD_XREC_ROUNDTRIP
360
C168
  0
DICTIONARY
  5
C173
330
C060
100
AcDbDictionary
280
     1
281
     1
  3
ACAD_XREC_ROUNDTRIP
360
C174
  0
DICTIONARY
  5
C15E
330
38
100
AcDbDictionary
280
     1
281
     1
  3
ACAD_XREC_ROUNDTRIP
360
C15F
  0
DICTIONARY
  5
C175
330
C061
100
AcDbDictionary
280
     1
281
     1
  3
ACAD_XREC_ROUNDTRIP
360
C176
  0
DICTIONARY
  5
C154
330
33
100
AcDbDictionary
280
     1
281
     1
  3
ACAD_XREC_ROUNDTRIP
360
C155
  0
DICTIONARY
  5
C171
330
C05F
100
AcDbDictionary
280
     1
281
     1
  3
ACAD_XREC_ROUNDTRIP
360
C172
  0
DICTIONARY
  5
C16F
330
C05E
100
AcDbDictionary
280
     1
281
     1
  3
ACAD_XREC_ROUNDTRIP
360
C170
  0
DICTIONARY
  5
C169
330
C05B
100
AcDbDictionary
280
     1
281
     1
  3
ACAD_XREC_ROUNDTRIP
360
C16A
  0
DICTIONARY
  5
C16B
330
C05C
100
AcDbDictionary
280
     1
281
     1
  3
ACAD_XREC_ROUNDTRIP
360
C16C
  0
DICTIONARY
  5
C15C
330
37
100
AcDbDictionary
280
     1
281
     1
  3
ACAD_XREC_ROUNDTRIP
360
C15D
  0
DICTIONARY
  5
C165
330
C059
100
AcDbDictionary
280
     1
281
     1
  3
ACAD_XREC_ROUNDTRIP
360
C166
  0
DICTIONARY
  5
C16D
330
C05D
100
AcDbDictionary
280
     1
281
     1
  3
ACAD_XREC_ROUNDTRIP
360
C16E
  0
XRECORD
  5
C0F1
102
{ACAD_REACTORS
330
C0F0
102
}
330
C0F0
100
AcDbXrecord
280
     1
310
28000000000100006E0000000100080000000000006E0000000000000000000000010000000000003028210000000000C8C8C8000000000000000000000000000000000000000000000000000000000000000000330000006600000099000000CC000000FF00000000330000333300006633000099330000CC330000FF3300
310
0000660000336600006666000099660000CC660000FF66000000990000339900006699000099990000CC990000FF99000000CC000033CC000066CC000099CC0000CCCC0000FFCC000000FF000033FF000066FF000099FF0000CCFF0000FFFF000000003300330033006600330099003300CC003300FF003300003333003333
310
33006633330099333300CC333300FF33330000663300336633006666330099663300CC663300FF66330000993300339933006699330099993300CC993300FF99330000CC330033CC330066CC330099CC3300CCCC3300FFCC330000FF330033FF330066FF330099FF3300CCFF3300FFFF330000006600330066006600660099
310
006600CC006600FF00660000336600333366006633660099336600CC336600FF33660000666600336666006666660099666600CC666600FF66660000996600339966006699660099996600CC996600FF99660000CC660033CC660066CC660099CC6600CCCC6600FFCC660000FF660033FF660066FF660099FF6600CCFF6600
310
FFFF660000009900330099006600990099009900CC009900FF00990000339900333399006633990099339900CC339900FF33990000669900336699006666990099669900CC669900FF66990000999900339999006699990099999900CC999900FF99990000CC990033CC990066CC990099CC9900CCCC9900FFCC990000FF99
310
0033FF990066FF990099FF9900CCFF9900FFFF99000000CC003300CC006600CC009900CC00CC00CC00FF00CC000033CC003333CC006633CC009933CC00CC33CC00FF33CC000066CC003366CC006666CC009966CC00CC66CC00FF66CC000099CC003399CC006699CC009999CC00CC99CC00FF99CC0000CCCC0033CCCC0066CC
310
CC0099CCCC00CCCCCC00FFCCCC0000FFCC0033FFCC0066FFCC0099FFCC00CCFFCC00FFFFCC000000FF003300FF006600FF009900FF00CC00FF00FF00FF000033FF003333FF006633FF009933FF00CC33FF00FF33FF000066FF003366FF006666FF009966FF00CC66FF00FF66FF000099FF003399FF006699FF009999FF00CC
310
99FF00FF99FF0000CCFF0033CCFF0066CCFF0099CCFF00CCCCFF00FFCCFF0000FFFF0033FFFF0066FFFF0099FFFF00CCFFFF00FFFFFF00000000000D0D0D001A1A1A00282828003535350043434300505050005D5D5D006B6B6B00787878008686860093939300A1A1A100AEAEAE00BBBBBB00C9C9C900D6D6D600E4E4E400
310
F1F1F100FFFFFF000000000000000000000000000000000000000000000000000000000000000000000000000000000000000000000000000000000000000000000000000000000000000000000000000000000000000000000000000000000000000000000000000000000000000000000000000000000000000000000000
310
00000000000000000000000000000000000000000000000000000000000000000000000000000000000000000000000000000000000000000000000000000000000000000000000000000000000000000000000000000000000000000000000000000000000000000000000000000000000000000000000000000000000000
310
00000000000000000000000000000000000000000000000000000000000000000000000000000000000000000000000000000000000000000000000000000000000000000000000000000000000000000000000000000000000000000000000000000000000000000000000000000000000000000000000000000000000000
310
000000000000000000F5F5F5F5F5F5F5F5F5F5F50000000000000000000000000000000000000000000000000000000000000000000000000000000000000000000000000000000000000000000000000000000000000000000000000000000000000000000000000000000000000000000000000000000000000000000000
310
00000000000000000000000000000000000000000000000000000000000000000000000000000000000000000000000000000000000000000000000000000000000000000000000000000000000000000000000000000000000000000000000000000000000000000000000000000000000000000000000000000000000000
310
0000000000000000000000F500F5F5F5F5F5F5F5F5F5000000000000000000000000000000000000000000000000000000000000000000000000000000000000000000000000000000000000000000000000000000000000000000000000000000000000000000000000000000000000000000000000000000000000000000
310
00000000000000000000000000000000000000000000000000000000000000000000000000000000000000000000000000000000000000000000000000000000000000000000000000000000000000000000000000000000000000000000000000000000000000000000000000000000000000000000000000000000000000
310
00000000000000000000000000000000000000000000000000000000000000000000000000000000000000000000000000000000000000000000000000000000000000000000000000000000000000000000000000000000000000000000000000000000000000000000000000000000000000000000000000000000000000
310
00000000000000000000000000000000000000000000000000000000000000000000000000000000000000000000000000000000000000000000000000000000000000000000000000000000000000000000000000000000000000000000000000000000000000000000000000000000000000000000000000000000000000
310
000000000000000000000000000000F5F5F5F5F5F5F5F5F5F5F5F5F5F5F5F5F5F500000000000000000000000000000000000000000000000000000000000000000000000000000000000000000000000000000000000000000000000000000000000000000000000000000000000000000000000000000000000000000000
310
00000000000000000000000000000000000000000000000000000000000000000000000000000000000000000000000000000000000000000000000000000000000000000000000000000000000000000000000000000000000000000000000000000000000000000000000000000000000000000000000000000000000000
310
000000000000000000000000000000000000F5F5F5F5F5F500F5F5F5F500F5F5F5F5000000000000000000000000000000000000000000000000000000000000000000000000000000000000000000000000000000000000000000000000000000000000000000000000000000000000000000000000000000000000000000
310
00000000000000000000000000000000000000000000000000000000000000000000000000000000000000000000000000000000000000000000000000000000000000000000000000000000000000000000000000000000000000000000000000000000000000000000000000000000000000000000000000000000000000
310
00000000000000000000000000000000000000000000000000000000000000000000000000000000000000000000000000000000000000000000000000000000000000000000000000000000000000000000000000000000000000000000000000000000000000000000000000000000000000000000000000000000000000
310
00000000000000000000000000000000000000000000000000000000000000000000000000000000000000000000000000000000000000000000000000000000000000000000000000000000000000000000000000000000000000000000000000000000000000000000000000000000000000000000000000000000000000
310
00000000000000000000000000000000000000000000000000000000000000000000000000000000000000000000000000000000000000000000000000000000000000000000000000000000000000000000000000000000000000000000000000000000000000000000000000000000000000000000000000000000000000
310
00000000000000000000000000000000000000000000000000000000000000000000000000000000000000000000000000000000000000000000000000000000000000000000000000000000000000000000000000000000000000000000000000000000000000000000000000000000000000000000000000000000000000
310
00000000000000000000000000000000000000000000000000000000000000000000000000000000000000000000000000000000000000000000000000000000000000000000000000000000000000000000000000000000000000000000000000000000000000000000000000000000000000000000000000000000000000
310
00000000000000000000000000000000000000000000000000000000000000000000000000000000000000000000000000000000000000000000000000000000000000000000000000000000000000000000000000000000000000000000000000000000000000000000000000000000000000000000000000000000000000
310
00000000000000000000000000000000000000000000000000000000000000000000000000000000000000000000000000000000000000000000000000000000000000000000000000000000000000000000000000000000000000000000000000000000000000000000000000000000000000000000000000000000000000
310
00000000000000000000000000000000000000000000000000000000000000000000000000000000000000000000000000000000000000000000000000000000000000000000000000000000000000000000000000000000000000000000000000000000000000000000000000000000000000000000000000000000000000
310
00000000000000000000000000000000000000000000000000000000000000000000000000000000000000000000000000000000000000000000000000000000000000000000000000000000000000000000000000000000000000000000000000000000000000000000000000000000000000000000000000000000000000
310
00000000000000000000000000000000000000000000000000000000000000000000000000000000000000000000000000000000000000000000000000000000000000000000000000000000000000000000000000000000000000000000000000000000000000000000000000000000000000000000000000000000000000
310
00000000000000000000000000000000000000000000000000000000000000000000000000000000000000000000000000000000000000000000000000000000000000000000000000000000000000000000000000000000000000000000000000000000000000000000000000000000000000000000000000000000000000
310
00000000000000000000000000000000000000000000000000000000000000000000000000000000000000000000000000000000000000000000000000000000000000000000000000000000000000000000000000000000000000000000000000000000000000000000000000000000000000000000000000000000000000
310
00000000000000000000000000000000000000000000000000000000000000000000000000000000000000000000000000000000000000000000000000000000000000000000000000000000000000000000000000000000000000000000000000000000000000000000000000000000000000000000000000000000000000
310
00000000000000000000000000000000000000000000000000000000000000000000000000000000000000000000000000000000000000000000000000000000000000000000000000000000000000000000000000000000000000000000000000000000000000000000000000000000000000000000000000000000000000
310
00000000000000000000000000000000000000000000000000000000000000000000000000000000000000000000000000000000000000000000000000000000000000000000000000000000000000000000000000000000000000000000000000000000000000000000000000000000000000000000000000000000000000
310
00000000000000000000000000000000000000000000000000000000000000000000000000000000000000000000000000000000000000000000000000000000000000000000000000000000000000000000000000000000000000000000000000000000000000000000000000000000000000000000000000000000000000
310
0000000000000000000000000000000000000000000000000000000000000000000000000000000000000000F5F5F5F5F5F5F5F5F5F5F5F5F5F5F5F5F5000000000000000000000000000000000000000000000000000000000000000000000000F5F5F5F5F5F5F5F5F5F5F5F5F5F5F5F50000000000000000000000000000
310
00000000000000000000000000000000000000000000000000000000000000000000000000000000000000000000000000000000000000000000000000000000000000000000000000000000000000000000000000000000000000000000000000000000000000000000000000000000000000000000000000000000000000
310
00000000000000000000000000000000000000000000000000000000000000000000000000000000000000000000F500F50000000000000000000000F500F5000000000000000000000000000000000000000000000000000000000000000000000000F50000000000000000000000000000F5000000000000000000000000
310
00000000000000000000000000000000000000000000000000000000000000000000000000000000000000000000000000000000000000000000000000000000000000000000000000000000000000000000000000000000000000000000000000000000000000000000000000000000000000000000000000000000000000
310
000000000000000000000000000000000000000000000000000000000000000000000000000000000000000000000000F5F5F5F5F5F5F5F5F5F5F5F5F5F5F5F5F5000000000000000000000000000000000000000000000000000000000000000000000000F5F5F5F5F5F5F5F5F5F5F5F5F5F5F5F500000000000000000000
310
00000000000000000000000000000000000000000000000000000000000000000000000000000000000000000000000000000000000000000000000000000000000000000000000000000000000000000000000000000000000000000000000000000000000000000000000000000000000000000000000000000000000000
310
000000000000000000000000000000000000000000000000000000000000000000000000000000000000000000000000000000F5F5F5F5F5F5F5F5F5F5F5F5F5F5F50000000000000000000000000000000000000000000000000000000000000000000000000000F5F5F5F5F5F5F5F5F5F5F5F5F5F5000000000000000000
310
00000000000000000000000000000000000000000000000000000000000000000000000000000000000000000000000000000000000000000000000000000000000000000000000000000000000000000000000000000000000000000000000000000000000000000000000000000000000000000000000000000000000000
310
000000000000000000000000000000000000000000000000000000000000000000000000000000000000000000000000000000000000F500F500000000000000F500F500000000000000000000000000000000000000000000000000000000000000000000000000000000F500000000000000000000F50000000000000000
310
00000000000000000000000000000000000000000000000000000000000000000000000000000000000000000000000000000000000000000000000000000000000000000000000000000000000000000000000000000000000000000000000000000000000000000000000000000000000000000000000000000000000000
310
0000000000000000000000000000000000000000000000000000000000000000000000000000000000000000000000000000000000000000F500F500000000000000F500F500000000000000000000000000000000000000000000000000000000000000000000000000000000F500000000000000000000F5000000000000
310
00000000000000000000000000000000000000000000000000000000000000000000000000000000000000000000000000000000000000000000000000000000000000000000000000000000000000000000000000000000000000000000000000000000000000000000000000000000000000000000000000000000000000
310
00000000000000000000000000000000000000000000000000000000000000000000000000000000000000000000000000000000000000000000F500F500000000000000F500F500000000000000000000000000000000000000000000000000000000000000000000000000000000F500000000000000000000F500000000
310
00000000000000000000000000000000000000000000000000000000000000000000000000000000000000000000000000000000000000000000000000000000000000000000000000000000000000000000000000000000000000000000000000000000000000000000000000000000000000000000000000000000000000
310
000000000000000000000000000000000000000000000000000000000000000000000000000000000000000000000000000000000000000000000000F500F500000000000000F500F500000000000000000000000000000000000000000000000000000000000000000000000000000000F500000000000000000000F50000
310
00000000000000000000000000000000000000000000000000000000000000000000000000000000000000000000000000000000000000000000000000000000000000000000000000000000000000000000000000000000000000000000000000000000000000000000000000000000000000000000000000000000000000
310
0000000000000000000000000000000000000000000000000000000000000000000000000000000000000000000000000000000000000000000000000000F500F500000000000000F500F500000000000000000000000000000000000000000000000000000000000000000000000000000000F500000000000000000000F5
310
00000000000000000000000000000000000000000000000000000000000000000000000000000000000000000000000000000000000000000000000000000000000000000000000000000000000000000000000000000000000000000000000000000000000000000000000000000000000000000000000000000000000000
310
00000000000000000000000000000000000000000000000000000000000000000000000000000000000000000000000000000000000000000000000000000000F500F500000000000000F500F500000000000000000000000000000000000000000000000000000000000000000000000000000000F5000000000000000000
310
00F50000000000000000000000000000000000000000000000000000000000000000000000000000000000000000000000000000000000000000000000000000000000000000000000000000000000000000000000000000000000000000000000000000000000000000000000000000000000000000000000000000000000
310
000000000000000000000000000000000000000000000000000000000000000000000000000000000000000000000000000000000000000000000000000000000000F500F500000000000000F500F500000000000000000000000000000000000000000000000000000000000000000000000000000000F500000000000000
310
000000F5000000000000000000000000000000000000000000000000000000000000000000000000000000000000000000000000000000000000000000000000000000000000000000000000000000000000000000000000000000000000000000000000000000000000000000000000000000000000000000000000000000
310
0000000000000000000000000000000000000000000000000000000000000000000000000000000000000000000000000000000000000000000000000000000000000000F500F500000000000000F500F500000000000000000000000000000000000000000000000000000000000000000000000000000000F50000000000
310
0000000000F500000000000000000000000000000000000000000000000000000000000000000000000000000000000000000000000000000000000000000000000000000000000000000000000000000000000000000000000000000000000000000000000000000000000000000000000000000000000000000000000000
310
00000000000000000000000000000000000000000000000000000000000000000000000000000000000000000000000000000000000000000000000000000000000000000000F500F500000000000000F500F50000000000000000000000000000000000000000000000000000000000000000000000000000000000F50000
310
00000000000000F50000000000000000000000000000000000000000000000000000000000000000000000000000000000000000000000000000000000000000000000000000000000000000000000000000000000000000000000000000000000000000000000000000000000000000000000000000000000000000000000
310
000000000000000000000000000000000000000000000000000000000000000000000000000000000000000000000000000000000000000000000000000000000000000000000000F500F500000000000000F500F50000000000000000000000000000000000000000000000000000000000000000000000000000000000F5
310
000000000000000000F5000000000000000000000000000000000000000000000000000000000000000000000000000000000000000000000000000000000000000000000000000000000000000000000000000000000000000000000000000000000000000000000000000000000000000000000000000000000000000000
310
0000000000000000000000000000000000000000000000000000000000000000000000000000000000000000000000000000000000000000000000000000000000000000000000000000F500F500000000000000F500F500000000000000000000000000000000000000000000000000000000000000000000000000000000
310
00F5000000000000000000F500000000000000000000000000000000000000000000000000000000000000000000000000000000000000000000000000000000000000000000000000000000000000000000000000000000000000000000000000000000000000000000000000000000000000000000000000000000000000
310
00000000000000000000000000000000000000000000000000000000000000000000000000000000000000000000000000000000000000000000000000000000000000000000000000000000F500F500000000000000F500F50000000000000000000000000000000000000000000000000000000000000000000000000000
310
000000F5000000000000000000F50000000000000000000000000000000000000000000000000000000000000000000000000000000000000000000000000000000000000000000000000000000000000000000000000000000000000000000000000000000000000000000000000000000000000000000000000000000000
310
000000000000000000000000000000000000000000000000000000000000000000000000000000000000000000000000000000000000000000000000000000000000000000000000000000000000F500F500000000000000F500F5000000000000000000000000000000000000000000000000000000000000000000000000
310
0000000000F5000000000000000000F5000000000000000000000000000000000000000000000000000000000000000000000000000000000000000000000000000000000000000000000000000000000000000000000000000000000000000000000000000000000000000000000000000000000000000000000000000000
310
0000000000000000000000000000000000000000000000000000000000000000000000000000000000000000000000000000000000000000000000000000000000000000000000000000000000000000F500F500000000000000F500F500000000000000000000000000000000000000000000000000000000000000000000
310
00000000000000F5000000000000000000F500000000000000000000000000000000000000000000000000000000000000000000000000000000000000000000000000000000000000000000000000000000000000000000000000000000000000000000000000000000000000000000000000000000000000000000000000
310
00000000000000000000000000000000000000000000000000000000000000000000000000000000000000000000000000000000000000000000000000000000000000000000000000000000000000000000F500F500000000000000F500F50000000000000000000000000000000000000000000000000000000000000000
310
000000000000000000F5000000000000000000F50000000000000000000000000000000000000000000000000000000000000000000000000000000000000000000000000000000000000000000000000000000000000000000000000000000000000000000000000000000000000000000000000000000000000000000000
310
000000000000000000000000000000000000000000000000000000000000000000000000000000000000000000000000000000000000000000000000000000000000000000000000000000000000000000000000F500F5000000000000F500F500000000000000000000000000000000000000000000000000000000000000
310
0000000000000000000000F5000000000000000000F5000000000000000000000000000000000000000000000000000000000000000000000000000000000000000000000000000000000000000000000000000000000000000000000000000000000000000000000000000000000000000000000000000000000000000000
310
000000000000000000000000000000000000000000000000000000000000000000000000000000000000000000000000000000000000000000000000000000000000000000000000000000000000000000000000000000F5F5000000000000F500F50000000000000000000000000000000000000000000000000000000000
310
00000000000000000000000000F5000000000000000000F500000000000000000000000000000000000000000000000000000000000000000000000000000000000000000000000000000000000000000000000000000000000000000000000000000000000000000000000000000000000000000000000000000000000000
310
0000000000000000000000000000000000000000000000000000000000000000000000000000000000000000000000000000000000000000000000000000000000000000000000000000000000000000000000000000000000F5F5000000000000F500F5000000000000000000000000000000000000000000000000000000
310
000000000000000000000000000000F5000000000000000000F50000000000000000000000000000000000000000000000000000000000000000000000000000000000000000000000000000000000000000000000000000000000000000000000000000000000000000000000000000000000000000000000000000000000
310
00000000000000000000000000000000000000000000000000000000000000000000000000000000000000000000000000000000000000000000000000000000000000000000000000000000000000000000000000000000000000F5F5000000000000F500F500000000000000000000000000000000000000000000000000
310
0000000000000000000000000000000000F5000000000000000000F5000000000000000000000000000000000000000000000000000000000000000000000000000000000000000000000000000000000000000000000000000000000000000000000000000000000000000000000000000000000000000000000000000000
310
000000000000000000000000000000000000000000000000000000000000000000000000000000000000000000000000000000000000000000000000000000000000000000000000000000000000000000000000000000000000000000F5F5000000000000F500F50000000000000000000000000000000000000000000000
310
00000000000000000000000000000000000000F5000000000000000000F500000000000000000000000000000000000000000000000000000000000000000000000000000000000000000000000000000000000000000000000000000000000000000000000000000000000000000000000000000000000000000000000000
310
0000000000000000000000000000000000000000000000000000000000000000000000000000000000000000000000000000000000000000000000000000000000000000000000000000000000000000000000000000000000000000000000F5F5000000000000F500F5000000000000000000000000000000000000000000
310
000000000000000000000000000000000000000000F5000000000000000000F50000000000000000000000000000000000000000000000000000000000000000000000000000000000000000000000000000000000000000000000000000000000000000000000000000000000000000000000000000000000000000000000
310
00000000000000000000000000000000000000000000000000000000000000000000000000000000000000000000000000000000000000000000000000000000000000000000000000000000000000000000000000000000000000000000000000F5F5000000000000F500F500000000000000000000000000000000000000
310
0000000000000000000000000000000000000000000000F5000000000000000000F5000000000000000000000000000000000000000000000000000000000000000000000000000000000000000000000000000000000000000000000000000000000000000000000000000000000000000000000000000000000000000000
310
000000000000000000000000000000000000000000000000000000000000000000000000000000000000000000000000000000000000000000000000000000000000000000000000000000000000000000000000000000000000000000000000000000F5F5000000000000F500F50000000000000000000000000000000000
310
00000000000000000000000000000000000000000000000000F5000000000000000000F500000000000000000000000000000000000000000000000000000000000000000000000000000000000000000000000000000000000000000000000000000000000000000000000000000000000000000000000000000000000000
310
0000000000000000000000000000000000000000000000000000000000000000000000000000000000000000000000000000000000000000000000000000000000000000000000000000000000000000000000000000000000000000000000000000000000F5F5000000000000F500F5000000000000000000000000000000
310
00000000000000000000000000000000000000000000000000000000F50000000000000000F50000000000000000000000000000000000000000000000000000000000000000000000000000000000000000000000000000000000000000000000000000000000000000000000000000000000000000000000000000000000
310
00000000000000000000000000000000000000000000000000000000000000000000000000000000000000000000000000000000000000000000000000000000000000000000000000000000000000000000000000000000000000000000000000000000000000F5F5000000000000F500F500000000000000000000000000
310
000000000000000000000000000000000000000000000000000000000000F50000000000000000F5000000000000000000000000000000000000000000000000000000000000000000000000000000000000000000000000000000000000000000000000000000000000000000000000000000000000000000000000000000
310
000000000000000000000000000000000000000000000000000000000000000000000000000000000000000000000000000000000000000000000000000000000000000000000000000000000000000000000000000000000000000000000000000000000000000000F5F5000000000000F500F50000000000000000000000
310
0000000000000000000000000000000000000000000000000000000000000000F50000000000000000F500000000000000000000000000000000000000000000000000000000000000000000000000000000000000000000000000000000000000000000000000000000000000000000000000000000000000000000000000
310
0000000000000000000000000000000000000000000000000000000000000000000000000000000000000000000000000000000000000000000000000000000000000000000000000000000000000000000000000000000000000000000000000000000000000000000000F5F5000000000000F500F5000000000000000000
310
00000000000000000000000000000000000000000000000000000000000000000000F50000000000000000F50000000000000000000000000000000000000000000000000000000000000000000000000000000000000000000000000000000000000000000000000000000000000000000000000000000000000000000000
310
00000000000000000000000000000000000000000000000000000000000000000000000000000000000000000000000000000000000000000000000000000000000000000000000000000000000000000000000000000000000000000000000000000000000000000000000000F5F5000000000000F500F500000000000000
310
000000000000000000000000000000000000000000000000000000000000000000000000F50000000000000000F5000000000000000000000000000000000000000000000000000000000000000000000000000000000000000000000000000000000000000000000000000000000000000000000000000000000000000000
310
000000000000000000000000000000000000000000000000000000000000000000000000000000000000000000000000000000000000000000000000000000000000000000000000000000000000000000000000000000000000000000000000000000000000000000000000000000F5F5000000000000F500F50000000000
310
0000000000000000000000000000000000000000000000000000000000000000000000000000F50000000000000000F500000000000000000000000000000000000000000000000000000000000000000000000000000000000000000000000000000000000000000000000000000000000000000000000000000000000000
310
0000000000000000000000000000000000000000000000000000000000000000000000000000000000000000000000000000000000000000000000000000000000000000000000000000000000000000000000000000000000000000000000000000000000000000000000000000000000F5F5000000000000F500F5000000
310
00000000000000000000000000000000000000000000000000000000000000000000000000000000F50000000000000000F50000000000000000000000000000000000000000000000000000000000000000000000000000000000000000000000000000000000000000000000000000000000000000000000000000000000
310
00000000000000000000000000000000000000000000000000000000000000000000000000000000000000000000000000000000000000000000000000000000000000000000000000000000000000000000000000000000000000000000000000000000000000000000000000000000000000F5F5000000000000F500F500
310
000000000000000000000000000000000000000000000000000000000000000000000000000000000000F50000000000000000F5000000000000000000000000000000000000000000000000000000000000000000000000000000000000000000000000000000000000000000000000000000000000000000000000000000
310
000000000000000000000000000000000000000000000000000000000000000000000000000000000000000000000000000000000000000000000000000000000000000000000000000000000000000000000000000000000000000000000000000000000000000000000000000000000000000000F5F5F5F5F5F5F5F5F5F5
310
F500000000000000000000000000000000000000000000000000000000000000000000000000000000000000F5F5F5F5F5F5F5F5F5F500000000000000000000000000000000000000000000000000000000000000000000000000000000000000000000000000000000000000000000000000000000000000000000000000
310
00000000000000000000000000000000000000000000000000000000000000000000000000000000000000000000000000000000000000000000000000000000000000000000000000000000000000000000000000000000000000000000000000000000000000000000000000000000000000000000F50000000000000000
310
0000F500000000000000000000000000000000000000000000000000000000000000000000000000000000000000F50000000000000000F50000000000000000000000000000000000000000000000000000000000000000000000000000000000000000000000000000000000000000000000000000000000000000000000
310
000000000000000000000000000000000000000000000000000000000000000000000000000000000000000000000000000000000000000000000000000000000000000000000000000000000000000000000000000000000000000000000000000000000000000000000000000000000000000000000000F5000000000000
310
00000000F500000000000000000000000000000000000000000000000000000000000000000000000000000000000000F50000000000000000F5F50000000000000000000000000000000000000000000000000000000000000000000000000000000000000000000000000000000000000000000000000000000000000000
310
00000000000000000000000000000000000000000000000000000000000000000000000000000000000000000000000000000000000000000000000000000000000000000000000000000000000000000000000000000000000000000000000000000000000000000000000000000000000000000000000000F5F5F5F5F5F5
310
F5F5F5F5F5F5F5F5F50000000000000000000000000000000000000000000000000000000000000000000000000000000000F5F5F5F5F5F5F5F5F5F5F5000000000000000000000000000000000000000000000000000000000000000000000000000000000000000000000000000000000000000000000000000000000000
310
00000000000000000000000000000000000000000000000000000000000000000000000000000000000000000000000000000000000000000000000000000000000000000000000000000000000000000000000000000000000000000000000000000000000000000000000000000000000000000000F5F5F5F5F500000000
310
0000000000000000000000F5F5F5F5F50000000000000000000000000000000000000000000000000000000000000000000000F500000000000000000000F500000000000000000000000000000000000000000000000000000000000000000000000000000000000000000000000000000000000000000000000000000000
310
0000000000000000000000000000000000000000000000000000000000000000000000000000000000000000000000000000000000000000000000000000000000000000000000000000000000000000000000000000000000000000000000000000000000000000000000000000000000000000000000F500F5F500000000
310
000000000000000000000000000000F5F500F50000000000000000000000000000000000000000000000000000000000000000F5F50000000000000000000000F50000000000000000000000000000000000000000000000000000000000000000000000000000000000000000000000000000000000000000000000000000
310
000000000000000000000000000000000000000000000000000000000000000000000000000000000000000000000000000000000000000000000000000000000000000000000000000000000000000000000000000000000000000000000000000000000000000000000000000000000000000000000000F50000F5000000
310
00000000000000000000000000000000000000F5F500000000000000000000000000000000000000000000000000000000000000F500000000000000000000000000F5000000000000000000000000000000000000000000000000000000000000000000000000000000000000000000000000000000000000000000000000
310
0000000000000000000000000000000000000000000000000000000000000000000000000000000000000000000000000000000000000000000000000000000000000000000000000000000000000000000000000000000000000000000000000000000000000000000000000000000000000000000000000000F500F50000
310
000000000000000000000000000000000000000000F5F5000000000000000000000000000000000000000000000000000000000000F5000000000000000000000000000000F5000000000000000000000000000000000000000000000000000000000000000000000000000000000000000000000000000000000000000000
310
000000000000000000000000000000000000000000000000000000000000000000000000000000000000000000000000000000000000000000000000000000000000000000000000000000000000000000000000000000000000000000000000000000000000000000000000000000000000000000000000000000F50000F5
310
000000000000000000000000000000000000000000000000F5F50000000000000000000000000000000000000000000000000000000000F5000000000000000000000000000000F500000000F5F500000000000000000000000000000000000000000000000000000000000000000000000000000000000000000000000000
310
000000000000000000000000000000000000000000000000000000000000000000000000000000000000000000000000000000000000000000000000000000000000000000000000000000000000000000000000000000000000000000000000000000000000000000000000000000000000000000000000000000F5F5F5F5
310
F5F5F5F5F5F5F5F5F5F5F5F5F5F5F5F5F5F5F5F5F5F5F5F5F5F5F5F5F5F500000000000000000000000000000000000000000000F5F5F5F5F5F5F5F5F5F5F5F5F5F5F5F5F5F5F5F5F5F5F5F5F5F5F5F50000000000000000000000000000000000000000000000000000000000000000000000000000000000000000000000
310
0000000000000000000000000000000000000000000000000000000000000000000000000000000000000000000000000000000000000000000000000000000000000000000000000000000000000000000000000000000000000000000000000000000000000000000000000000000000000000000000000000000000F500
310
00000000000000000000000000000000000000000000000000000000000000F500000000000000000000000000000000000000000000F50000000000000000000000000000000000000000000000000000F5000000000000000000000000000000000000000000000000000000000000000000000000000000000000000000
310
00000000000000000000000000000000000000000000000000000000000000000000000000000000000000000000000000000000000000000000000000000000000000000000000000000000000000000000000000000000000000000000000000000000000000000000000000000000000000000000000000000000000000
310
F5F5F5F5F5F5F5F5F5F5F5F5F5F5F5F5F5F5F5F5F5F5F5F5F5F5F5F5F5F5F5F5F5F5F5000000000000000000000000000000000000000000F5F5F5F5F5F5F5F5F5F5F5F5F5F5F5F5F5F5F5F5F5F5F5F5F5F5F5F500000000000000000000000000000000000000000000000000000000000000000000000000000000000000
310
00000000000000000000000000000000000000000000000000000000000000000000000000000000000000000000000000000000000000000000000000000000000000000000000000000000000000000000000000000000000000000000000000000000000000000000000000000000000000000000000000000000000000
310
0000F5000000000000000000000000000000000000000000000000000000000000000000F5000000000000000000000000000000000000000000F50000000000000000000000000000000000000000000000000000F50000000000000000000000000000000000000000000000000000000000000000000000000000000000
310
00000000000000000000000000000000000000000000000000000000000000000000000000000000000000000000000000000000000000000000000000000000000000000000000000000000000000000000000000000000000000000000000000000000000000000000000000000000000000000000000000000000000000
310
00000000F5000000000000000000000000000000000000000000000000000000000000000000F5000000000000000000000000000000000000000000F50000000000000000000000000000000000000000000000000000F5000000000000000000000000000000000000000000000000000000000000000000000000000000
310
00000000000000000000000000000000000000000000000000000000000000000000000000000000000000000000000000000000000000000000000000000000000000000000000000000000000000000000000000000000000000000000000000000000000000000000000000000000000000000000000000000000000000
310
000000000000F5F5F5F5F5F5F5F5F5F5F5F5F5F5F5F5F5F5F5F5F5F5F5F5F5F5F5F5F5F5F5F5F5F5F5000000000000000000000000000000000000000000F5F5F5F5F5F5F5F5F5F5F5F5F5F5F5F5F5F5F5F5F5F5F5F5F5F5F5F500000000000000000000000000000000000000000000000000000000000000000000000000
310
00000000000000000000000000000000000000000000000000000000000000000000000000000000000000000000000000000000000000000000000000000000000000000000000000000000000000000000000000000000000000000000000000000000000000000000000000000000000000000000000000000000000000
310
00000000000000000000000000000000000000000000000000000000000000000000000000000000000000000000000000000000000000000000000000000000000000000000000000000000000000000000000000000000000000000000000000000000000000000000000000000000000000000000000000000000000000
310
00000000000000000000000000000000000000000000000000000000000000000000000000000000000000000000000000000000000000000000000000000000000000000000000000000000000000000000000000000000000000000000000000000000000000000000000000000000000000000000000000000000000000
310
00000000000000000000000000000000000000000000000000000000000000000000000000000000000000000000000000000000000000000000000000000000000000000000000000000000000000000000000000000000000000000000000000000000000000000000000000000000000000000000000000000000000000
310
00000000000000000000000000000000000000000000000000000000000000000000000000000000000000000000000000000000000000000000000000000000000000000000000000000000000000000000000000000000000000000000000000000000000000000000000000000000000000000000000000000000000000
310
00000000000000000000000000000000000000000000000000000000000000000000000000000000000000000000000000000000000000000000000000000000000000000000000000000000000000000000000000000000000000000000000000000000000000000000000000000000000000000000000000000000000000
310
00000000000000000000000000000000000000000000000000000000000000000000000000000000000000000000000000000000000000000000000000000000000000000000000000000000000000000000000000000000000000000000000000000000000000000000000000000000000000000000000000000000000000
310
00000000000000000000000000000000000000000000000000000000000000000000000000000000000000000000000000000000000000000000000000000000000000000000000000000000000000000000000000000000000000000000000000000000000000000000000000000000000000000000000000000000000000
310
00000000000000000000000000000000000000000000000000000000000000000000000000000000000000000000000000000000000000000000000000000000000000000000000000000000000000000000000000000000000000000000000000000000000000000000000000000000000000000000000000000000000000
310
00000000000000000000000000000000000000000000000000000000000000000000000000000000000000000000000000000000000000000000000000000000000000000000000000000000000000000000000000000000000000000000000000000000000000000000000000000000000000000000000000000000000000
310
00000000000000000000000000000000000000000000000000000000000000000000000000000000000000000000000000000000000000000000000000000000000000000000000000000000000000000000000000000000000000000000000000000000000000000000000000000000000000000000000000000000000000
310
00000000000000000000000000000000000000000000000000000000000000000000000000000000000000000000000000000000000000000000000000000000000000000000000000000000000000000000000000000000000000000000000000000000000000000000000000000000000000000000000000000000000000
310
00000000000000000000000000000000000000000000000000000000000000000000000000000000000000000000000000000000000000000000000000000000000000000000000000000000000000000000000000000000000000000000000000000000000000000000000000000000000000000000000000000000000000
310
00000000000000000000000000000000000000000000000000000000000000000000000000000000000000000000000000000000000000000000000000000000000000000000000000000000000000000000000000000000000000000000000000000000000000000000000000000000000000000000000000000000000000
310
00000000000000000000000000000000000000000000000000000000000000000000000000000000000000000000000000000000000000000000000000000000000000000000000000000000000000000000000000000000000000000000000000000000000000000000000000000000000000000000000000000000000000
310
00000000000000000000000000000000000000000000000000000000000000000000000000000000000000000000000000000000000000000000000000000000000000000000000000000000000000000000000000000000000000000000000000000000000000000000000000000000000000000000000000000000000000
310
00000000000000000000000000000000000000000000000000000000000000000000000000000000000000000000000000000000000000000000000000000000000000000000000000000000000000000000000000000000000000000000000000000000000000000000000000000000000000000000000000000000000000
310
00000000000000000000000000000000000000000000000000000000000000000000000000000000000000000000000000000000000000000000000000000000000000000000000000000000000000000000000000000000000000000000000000000000000000000000000000000000000000000000000000000000000000
310
00000000000000000000000000000000000000000000000000000000000000000000000000000000000000000000000000000000000000000000000000000000000000000000000000000000000000000000000000000000000000000000000000000000000000000000000000000000000000000000000000000000000000
310
00000000000000000000000000000000000000000000000000000000000000000000000000000000000000000000000000000000000000000000000000000000000000000000000000000000000000000000000000000000000000000000000000000000000000000000000000000000000000000000000000000000000000
310
00000000000000000000000000000000000000000000000000000000000000000000000000000000000000000000000000000000000000000000000000000000000000000000000000000000000000000000000000000000000000000000000000000000000000000000000000000000000000000000000000000000000000
310
00000000000000000000000000000000000000000000000000000000000000000000000000000000000000000000000000000000000000000000000000000000000000000000000000000000000000000000000000000000000000000000000000000000000000000000000000000000000000000000000000000000000000
310
00000000000000000000000000000000000000000000000000000000000000000000000000000000000000000000000000000000000000000000000000000000000000000000000000000000000000000000000000000000000000000000000000000000000000000000000000000000000000000000000000000000000000
310
00000000000000000000000000000000000000000000000000000000000000000000000000000000000000000000000000000000000000000000000000000000000000000000000000000000000000000000000000000000000000000000000000000000000000000000000000000000000000000000000000000000000000
310
00000000000000000000000000000000000000000000000000000000000000000000000000000000000000000000000000000000000000000000000000000000000000000000000000000000000000000000000000000000000000000000000000000000000000000000000000000000000000000000000000000000000000
310
00000000000000000000000000000000000000000000000000000000000000000000000000000000000000000000000000000000000000000000000000000000000000000000000000000000000000000000000000000000000000000000000000000000000000000000000000000000000000000000000000000000000000
310
00000000000000000000000000000000000000000000000000000000000000000000000000000000000000000000000000000000000000000000000000000000000000000000000000000000000000000000000000000000000000000000000000000000000000000000000000000000000000000000000000000000000000
310
00000000000000000000000000000000000000000000000000000000000000000000000000000000000000000000000000000000000000000000000000000000000000000000000000000000000000000000000000000000000000000000000000000000000000000000000000000000000000000000000000000000000000
310
00000000000000000000000000000000000000000000000000000000000000000000000000000000000000000000000000000000000000000000000000000000000000000000000000000000000000000000000000000000000000000000000000000000000000000000000000000000000000000000000000000000000000
310
00000000000000000000000000000000000000000000000000000000000000000000000000000000000000000000000000000000000000000000000000000000000000000000000000000000000000000000000000000000000000000000000000000000000000000000000000000000000000000000000000000000000000
310
00000000000000000000000000000000000000000000000000000000000000000000000000000000000000000000000000000000000000000000000000000000000000000000000000000000000000000000000000000000000000000000000000000000000000000000000000000000000000000000000000000000000000
310
00000000000000000000000000000000000000000000000000000000000000000000000000000000000000000000000000000000000000000000000000000000000000000000000000000000000000000000000000000000000000000000000000000000000000000000000000000000000000000000000000000000000000
310
00000000000000000000000000000000000000000000000000000000000000000000000000000000000000000000000000000000000000000000000000000000000000000000000000000000000000000000000000000000000000000000000000000000000000000000000000000000000000000000000000000000000000
310
00000000000000000000000000000000000000000000000000000000000000000000000000000000000000000000000000000000000000000000000000000000000000000000000000000000000000000000000000000000000000000000000000000000000000000000000000000000000000000000000000000000000000
310
00000000000000000000000000000000000000000000000000000000000000000000000000000000000000000000000000000000000000000000000000000000000000000000000000000000000000000000000000000000000000000000000000000000000000000000000000000000000000000000000000000000000000
310
00000000000000000000000000000000000000000000000000000000000000000000000000000000000000F5F5F5F5F5F5F5F5F5F5F5F5F5F5F5F5F5F5F5F5F5F5F5F5F5F5F5F5F5F5F5F5F5000000000000000000000000000000000000000000000000000000000000000000000000000000000000000000000000000000
310
00000000000000000000000000000000000000000000000000000000000000000000000000000000000000000000000000000000000000000000000000000000000000000000000000000000000000000000000000000000000000000000000000000000000000000000000000000000000000000000000000000000000000
310
0000000000000000000000000000000000000000000000000000000000000000000000000000000000000000F5000000000000000000000000000000000000000000000000000000000000000000F5000000000000000000000000000000000000000000000000000000000000000000000000000000000000000000000000
310
00000000000000000000000000000000000000000000000000000000000000000000000000000000000000000000000000000000000000000000000000000000000000000000000000000000000000000000000000000000000000000000000000000000000000000000000000000000000000000000000000000000000000
310
00000000000000000000000000000000000000000000000000000000000000000000000000000000000000000000F5F5F5F5F5F5F5F5F5F5F5F5F5F5F5F5F5F5F5F5F5F5F5F5F5F5F5F5F5F5F5F5F500F500000000000000000000000000000000000000000000000000000000000000000000000000000000000000000000
310
00000000000000000000000000000000000000000000000000000000000000000000000000000000000000000000000000000000000000000000000000000000000000000000000000000000000000000000000000000000000000000000000000000000000000000000000000000000000000000000000000000000000000
310
000000000000000000000000000000000000000000000000000000000000000000000000000000000000000000000000F5F5000000000000000000000000000000000000000000000000000000000000F500F50000000000000000000000000000000000000000000000000000000000000000000000000000000000000000
310
00000000000000000000000000000000000000000000000000000000000000000000000000000000000000000000000000000000000000000000000000000000000000000000000000000000000000000000000000000000000000000000000000000000000000000000000000000000000000000000000000000000000000
310
0000000000000000000000000000000000000000000000000000000000000000000000000000000000000000000000000000F5F5000000F5F5F5F5F5F5F5F5F5F5F5F5F5F5F5F5F5F5F5F5F5F5F5F5000000F500F5000000000000000000000000000000000000000000000000000000000000000000000000000000000000
310
00000000000000000000000000000000000000000000000000000000000000000000000000000000000000000000000000000000000000000000000000000000000000000000000000000000000000000000000000000000000000000000000000000000000000000000000000000000000000000000000000000000000000
310
00000000000000000000000000000000000000000000000000000000000000000000000000000000000000000000000000000000F5F50000F5000000000000000000000000000000000000000000000000F50000F500F500000000000000000000000000000000000000000000000000000000000000000000000000000000
310
00000000000000000000000000000000000000000000000000000000000000000000000000000000000000000000000000000000000000000000000000000000000000000000000000000000000000000000000000000000000000000000000000000000000000000000000000000000000000000000000000000000000000
310
000000000000000000000000000000000000000000000000000000000000000000000000000000000000000000000000000000000000F5F50000F500000000000000000000000000000000000000000000000000F500F500F50000000000000000000000000000000000000000000000000000000000000000000000000000
310
00000000000000000000000000000000000000000000000000000000000000000000000000000000000000000000000000000000000000000000000000000000000000000000000000000000000000000000000000000000000000000000000000000000000000000000000000000000000000000000000000000000000000
310
0000000000000000000000000000000000000000000000000000000000000000000000000000000000000000000000000000000000000000F5F500F50000000000000000000000000000000000000000000000000000F500F500F5000000000000000000000000000000000000000000000000000000000000000000000000
310
00000000000000000000000000000000000000000000000000000000000000000000000000000000000000000000000000000000000000000000000000000000000000000000000000000000000000000000000000000000000000000000000000000000000000000000000000000000000000000000000000000000000000
310
00000000000000000000000000000000000000000000000000000000000000000000000000000000000000000000000000000000000000000000F5F500F50000000000000000000000000000000000000000000000000000F500F500F500000000000000000000000000000000000000000000000000000000000000000000
310
00000000000000000000000000000000000000000000000000000000000000000000000000000000000000000000000000000000000000000000000000000000000000000000000000000000000000000000000000000000000000000000000000000000000000000000000000000000000000000000000000000000000000
310
000000000000000000000000000000000000000000000000000000000000000000000000000000000000000000000000000000000000000000000000F5F500F50000000000000000000000000000000000000000000000000000F500F500F50000000000000000000000000000000000000000000000000000000000000000
310
00000000000000000000000000000000000000000000000000000000000000000000000000000000000000000000000000000000000000000000000000000000000000000000000000000000000000000000000000000000000000000000000000000000000000000000000000000000000000000000000000000000000000
310
0000000000000000000000000000000000000000000000000000000000000000000000000000000000000000000000000000000000000000000000000000F5F500F50000000000000000000000000000000000000000000000000000F500F500F5000000000000000000000000000000000000000000000000000000000000
310
00000000000000000000000000000000000000000000000000000000000000000000000000000000000000000000000000000000000000000000000000000000000000000000000000000000000000000000000000000000000000000000000000000000000000000000000000000000000000000000000000000000000000
310
00000000000000000000000000000000000000000000000000000000000000000000000000000000000000000000000000000000000000000000000000000000F5F500F50000000000000000000000000000000000000000000000000000F500F500F500000000000000000000000000000000000000000000000000000000
310
00000000000000000000000000000000000000000000000000000000000000000000000000000000000000000000000000000000000000000000000000000000000000000000000000000000000000000000000000000000000000000000000000000000000000000000000000000000000000000000000000000000000000
310
000000000000000000000000000000000000000000000000000000000000000000000000000000000000000000000000000000000000000000000000000000000000F5F500F50000000000000000000000000000000000000000000000000000F500F500F50000000000000000000000000000000000000000000000000000
310
00000000000000000000000000000000000000000000000000000000000000000000000000000000000000000000000000000000000000000000000000000000000000000000000000000000000000000000000000000000000000000000000000000000000000000000000000000000000000000000000000000000000000
310
0000000000000000000000000000000000000000000000000000000000000000000000000000000000000000000000000000000000000000000000000000000000000000F5F500F50000000000000000000000000000000000000000000000000000F500F500F5000000000000000000000000000000000000000000000000
310
00000000000000000000000000000000000000000000000000000000000000000000000000000000000000000000000000000000000000000000000000000000000000000000000000000000000000000000000000000000000000000000000000000000000000000000000000000000000000000000000000000000000000
310
00000000000000000000000000000000000000000000000000000000000000000000000000000000000000000000000000000000000000000000000000000000000000000000F5F500F50000000000000000000000000000000000000000000000000000F500F500F500000000000000000000000000000000000000000000
310
00000000000000000000000000000000000000000000000000000000000000000000000000000000000000000000000000000000000000000000000000000000000000000000000000000000000000000000000000000000000000000000000000000000000000000000000000000000000000000000000000000000000000
310
000000000000000000000000000000000000000000000000000000000000000000000000000000000000000000000000000000000000000000000000000000000000000000000000F5F500F50000000000000000000000F5F5F5F50000000000000000000000F500F500F50000000000000000000000000000000000000000
310
00000000000000000000000000000000000000000000000000000000000000000000000000000000000000000000000000000000000000000000000000000000000000000000000000000000000000000000000000000000000000000000000000000000000000000000000000000000000000000000000000000000000000
310
0000000000000000000000000000000000000000000000000000000000000000000000000000000000000000000000000000000000000000000000000000000000000000000000000000F5F500F50000000000000000000000F5F5F5F5F500000000000000000000F500F500F5000000000000000000000000000000000000
310
00000000000000000000000000000000000000000000000000000000000000000000000000000000000000000000000000000000000000000000000000000000000000000000000000000000000000000000000000000000000000000000000000000000000000000000000000000000000000000000000000000000000000
310
00000000000000000000000000000000000000000000000000000000000000000000000000000000000000000000000000000000000000000000000000000000000000000000000000000000F5F500F50000000000000000000000F5F5F5F50000000000000000000000F500F500F500000000000000000000000000000000
310
00000000000000000000000000000000000000000000000000000000000000000000000000000000000000000000000000000000000000000000000000000000000000000000000000000000000000000000000000000000000000000000000000000000000000000000000000000000000000000000000000000000000000
310
000000000000000000000000000000000000000000000000000000000000000000000000000000000000000000000000000000000000000000000000000000000000000000000000000000000000F5F50000F50000000000000000000000F5F5F50000000000000000000000F500F500F50000000000000000000000000000
310
00000000000000000000000000000000000000000000000000000000000000000000000000000000000000000000000000000000000000000000000000000000000000000000000000000000000000000000000000000000000000000000000000000000000000000000000000000000000000000000000000000000000000
310
0000000000000000000000000000000000000000000000000000000000000000000000000000000000000000000000000000000000000000000000000000000000000000000000000000000000000000F5F50000F5000000000000000000000000000000000000000000000000F50000F500F5000000000000000000000000
310
00000000000000000000000000000000000000000000000000000000000000000000000000000000000000000000000000000000000000000000000000000000000000000000000000000000000000000000000000000000000000000000000000000000000000000000000000000000000000000000000000000000000000
310
00000000000000000000000000000000000000000000000000000000000000000000000000000000000000000000000000000000000000000000000000000000000000000000000000000000000000000000F5F5000000F5F5F5F5F5F5F5F5F5F5F5F5F5F5F5F5F5F5F5F5F5F5F5F5000000F500F500000000000000000000
310
00000000000000000000000000000000000000000000000000000000000000000000000000000000000000000000000000000000000000000000000000000000000000000000000000000000000000000000000000000000000000000000000000000000000000000000000000000000000000000000000000000000000000
310
000000000000000000000000000000000000000000000000000000000000000000000000000000000000000000000000000000000000000000000000000000000000000000000000000000000000000000000000F5F5000000000000000000000000000000000000000000000000000000000000F500F50000000000000000
310
00000000000000000000000000000000000000000000000000000000000000000000000000000000000000000000000000000000000000000000000000000000000000000000000000000000000000000000000000000000000000000000000000000000000000000000000000000000000000000000000000000000000000
310
0000000000000000000000000000000000000000000000000000000000000000000000000000000000000000000000000000000000000000000000000000000000000000000000000000000000000000000000000000F5F50000000000000000000000000000F5F50000000000000000000000000000F500F5000000000000
310
00000000000000000000000000000000000000000000000000000000000000000000000000000000000000000000000000000000000000000000000000000000000000000000000000000000000000000000000000000000000000000000000000000000000000000000000000000000000000000000000000000000000000
310
00000000000000000000000000000000000000000000000000000000000000000000000000000000000000000000000000000000000000000000000000000000000000000000000000000000000000000000000000000000F5F500000000000000000000000000F5F5F5F500000000000000000000000000F500F500000000
310
00000000000000000000000000000000000000000000000000000000000000000000000000000000000000000000000000000000000000000000000000000000000000000000000000000000000000000000000000000000000000000000000000000000000000000000000000000000000000000000000000000000000000
310
000000000000000000000000000000000000000000000000000000000000000000000000000000000000000000000000000000000000000000000000000000000000000000000000000000000000000000000000000000000000F5F50000000000000000000000000000F5F50000000000000000000000000000F500F50000
310
00000000000000000000000000000000000000000000000000000000000000000000000000000000000000000000000000000000000000000000000000000000000000000000000000000000000000000000000000000000000000000000000000000000000000000000000000000000000000000000000000000000000000
310
0000000000000000000000000000000000000000000000000000000000000000000000000000000000000000000000000000000000000000000000000000000000000000000000000000000000000000000000000000000000000000F5F5000000000000000000000000000000000000000000000000000000000000F500F5
310
00000000000000000000000000000000000000000000000000000000000000000000000000000000000000000000000000000000000000000000000000000000000000000000000000000000000000000000000000000000000000000000000000000000000000000000000000000000000000000000000000000000000000
310
00000000000000000000000000000000000000000000000000000000000000000000000000000000000000000000000000000000000000000000000000000000000000000000000000000000000000000000000000000000000000000000F5F5F5F5F5F5F5F5F5F5F5F5F5F5F5F5F5F5F5F5F5F5F5F5F5F5F5F5F5F5F5F5F5
310
00F50000000000000000000000000000000000000000000000000000000000000000000000000000000000000000000000000000000000000000000000000000000000000000000000000000000000000000000000000000000000000000000000000000000000000000000000000000000000000000000000000000000000
310
000000000000000000000000000000000000000000000000000000000000000000000000000000000000000000000000000000000000000000000000000000000000000000000000000000000000000000000000000000000000000000000000F5F5F5F5F5F5F5F5F5F5F5F5F5F5F5F5F5F5F5F5F5F5F5F5F5F5F5F5F5F5F5
310
F5F5F5F5000000000000000000000000000000000000000000000000000000000000000000000000000000000000000000000000000000000000000000000000000000000000000000000000000000000000000000000000000000000000000000000000000000000000000000000000000000000000000000000000000000
310
00000000000000000000000000000000000000000000000000000000000000000000000000000000000000000000000000000000000000000000000000000000000000000000000000000000000000000000000000000000000000000000000000000000000000000000000000000000000000000000000000000000000000
310
00000000000000000000000000000000000000000000000000000000000000000000000000000000000000000000000000000000000000000000000000000000000000000000000000000000000000000000000000000000000000000000000000000000000000000000000000000000000000000000000000000000000000
310
0000000000000000000000000000
  0
XRECORD
  5
C11B
102
{ACAD_REACTORS
330
C04A
102
}
330
C04A
100
AcDbXrecord
280
     1
102
MATERIAL
148
0.0
149
0.0
149
0.0
 93
        0
 94
      127
282
     0
 72
     0
 77
     0
171
     0
175
     0
179
     0
273
     0
  0
XRECORD
  5
C04C
102
{ACAD_REACTORS
330
C04A
102
}
330
C04A
100
AcDbXrecord
280
     1
270
     1
271
     1
  0
XRECORD
  5
C04B
102
{ACAD_REACTORS
330
C04A
102
}
330
C04A
100
AcDbXrecord
280
     1
270
     1
271
     1
  0
XRECORD
  5
C04F
102
{ACAD_REACTORS
330
C04A
102
}
330
C04A
100
AcDbXrecord
280
     1
270
     1
271
     1
  0
XRECORD
  5
C04E
102
{ACAD_REACTORS
330
C04A
102
}
330
C04A
100
AcDbXrecord
280
     1
270
     1
271
     1
  0
XRECORD
  5
C050
102
{ACAD_REACTORS
330
C04A
102
}
330
C04A
100
AcDbXrecord
280
     1
270
     1
271
     1
  0
XRECORD
  5
C04D
102
{ACAD_REACTORS
330
C04A
102
}
330
C04A
100
AcDbXrecord
280
     1
270
     1
271
     1
  0
XRECORD
  5
C11A
102
{ACAD_REACTORS
330
C042
102
}
330
C042
100
AcDbXrecord
280
     1
102
MATERIAL
148
0.0
149
0.0
149
0.0
 93
        0
 94
      127
282
     0
 72
     0
 77
     0
171
     0
175
     0
179
     0
273
     0
  0
XRECORD
  5
C044
102
{ACAD_REACTORS
330
C042
102
}
330
C042
100
AcDbXrecord
280
     1
270
     1
271
     1
  0
XRECORD
  5
C043
102
{ACAD_REACTORS
330
C042
102
}
330
C042
100
AcDbXrecord
280
     1
270
     1
271
     1
  0
XRECORD
  5
C047
102
{ACAD_REACTORS
330
C042
102
}
330
C042
100
AcDbXrecord
280
     1
270
     1
271
     1
  0
XRECORD
  5
C046
102
{ACAD_REACTORS
330
C042
102
}
330
C042
100
AcDbXrecord
280
     1
270
     1
271
     1
  0
XRECORD
  5
C048
102
{ACAD_REACTORS
330
C042
102
}
330
C042
100
AcDbXrecord
280
     1
270
     1
271
     1
  0
XRECORD
  5
C045
102
{ACAD_REACTORS
330
C042
102
}
330
C042
100
AcDbXrecord
280
     1
270
     1
271
     1
  0
XRECORD
  5
C11C
102
{ACAD_REACTORS
330
C052
102
}
330
C052
100
AcDbXrecord
280
     1
102
MATERIAL
148
0.0
149
0.0
149
0.0
 93
        0
 94
      127
282
     0
 72
     0
 77
     0
171
     0
175
     0
179
     0
273
     0
  0
XRECORD
  5
C054
102
{ACAD_REACTORS
330
C052
102
}
330
C052
100
AcDbXrecord
280
     1
270
     1
271
     1
  0
XRECORD
  5
C053
102
{ACAD_REACTORS
330
C052
102
}
330
C052
100
AcDbXrecord
280
     1
270
     1
271
     1
  0
XRECORD
  5
C057
102
{ACAD_REACTORS
330
C052
102
}
330
C052
100
AcDbXrecord
280
     1
270
     1
271
     1
  0
XRECORD
  5
C056
102
{ACAD_REACTORS
330
C052
102
}
330
C052
100
AcDbXrecord
280
     1
270
     1
271
     1
  0
XRECORD
  5
C058
102
{ACAD_REACTORS
330
C052
102
}
330
C052
100
AcDbXrecord
280
     1
270
     1
271
     1
  0
XRECORD
  5
C055
102
{ACAD_REACTORS
330
C052
102
}
330
C052
100
AcDbXrecord
280
     1
270
     1
271
     1
  0
XRECORD
  5
C140
102
{ACAD_REACTORS
330
C13F
102
}
330
C13F
100
AcDbXrecord
280
     1
102
ACAD_ROUNDTRIP_2012_MLEADER_STYLE
298
     1
  0
CELLSTYLEMAP
  5
C13E
102
{ACAD_REACTORS
330
C0F2
102
}
330
C0F2
100
AcDbCellStyleMap
 90
        3
300
CELLSTYLE
  1
TABLEFORMAT_BEGIN
 90
        5
170
     1
 91
        0
 92
    32768
 62
   257
 93
        1
300
CONTENTFORMAT
  1
CONTENTFORMAT_BEGIN
 90
        0
 91
        0
 92
        4
 93
        0
300

 40
0.0
140
1.0
 94
        5
 62
     0
340
11
144
0.25
309
CONTENTFORMAT_END
171
     1
301
MARGIN
  1
CELLMARGIN_BEGIN
 40
0.06
 40
0.06
 40
0.06
 40
0.06
 40
0.18
 40
0.18
309
CELLMARGIN_END
 94
        6
 95
        1
302
GRIDFORMAT
  1
GRIDFORMAT_BEGIN
 90
        0
 91
        1
 62
     0
 92
       -2
340
0
 93
        0
 40
0.045
309
GRIDFORMAT_END
 95
        2
302
GRIDFORMAT
  1
GRIDFORMAT_BEGIN
 90
        0
 91
        1
 62
     0
 92
       -2
340
0
 93
        0
 40
0.045
309
GRIDFORMAT_END
 95
        4
302
GRIDFORMAT
  1
GRIDFORMAT_BEGIN
 90
        0
 91
        1
 62
     0
 92
       -2
340
0
 93
        0
 40
0.045
309
GRIDFORMAT_END
 95
        8
302
GRIDFORMAT
  1
GRIDFORMAT_BEGIN
 90
        0
 91
        1
 62
     0
 92
       -2
340
0
 93
        0
 40
0.045
309
GRIDFORMAT_END
 95
       16
302
GRIDFORMAT
  1
GRIDFORMAT_BEGIN
 90
        0
 91
        1
 62
     0
 92
       -2
340
0
 93
        0
 40
0.045
309
GRIDFORMAT_END
 95
       32
302
GRIDFORMAT
  1
GRIDFORMAT_BEGIN
 90
        0
 91
        1
 62
     0
 92
       -2
340
0
 93
        0
 40
0.045
309
GRIDFORMAT_END
309
TABLEFORMAT_END
  1
CELLSTYLE_BEGIN
 90
        1
 91
        1
300
_TITLE
309
CELLSTYLE_END
300
CELLSTYLE
  1
TABLEFORMAT_BEGIN
 90
        5
170
     1
 91
        0
 92
        0
 62
   257
 93
        1
300
CONTENTFORMAT
  1
CONTENTFORMAT_BEGIN
 90
        0
 91
        0
 92
        4
 93
        0
300

 40
0.0
140
1.0
 94
        5
 62
     0
340
11
144
0.18
309
CONTENTFORMAT_END
171
     1
301
MARGIN
  1
CELLMARGIN_BEGIN
 40
0.06
 40
0.06
 40
0.06
 40
0.06
 40
0.18
 40
0.18
309
CELLMARGIN_END
 94
        6
 95
        1
302
GRIDFORMAT
  1
GRIDFORMAT_BEGIN
 90
        0
 91
        1
 62
     0
 92
       -2
340
0
 93
        0
 40
0.045
309
GRIDFORMAT_END
 95
        2
302
GRIDFORMAT
  1
GRIDFORMAT_BEGIN
 90
        0
 91
        1
 62
     0
 92
       -2
340
0
 93
        0
 40
0.045
309
GRIDFORMAT_END
 95
        4
302
GRIDFORMAT
  1
GRIDFORMAT_BEGIN
 90
        0
 91
        1
 62
     0
 92
       -2
340
0
 93
        0
 40
0.045
309
GRIDFORMAT_END
 95
        8
302
GRIDFORMAT
  1
GRIDFORMAT_BEGIN
 90
        0
 91
        1
 62
     0
 92
       -2
340
0
 93
        0
 40
0.045
309
GRIDFORMAT_END
 95
       16
302
GRIDFORMAT
  1
GRIDFORMAT_BEGIN
 90
        0
 91
        1
 62
     0
 92
       -2
340
0
 93
        0
 40
0.045
309
GRIDFORMAT_END
 95
       32
302
GRIDFORMAT
  1
GRIDFORMAT_BEGIN
 90
        0
 91
        1
 62
     0
 92
       -2
340
0
 93
        0
 40
0.045
309
GRIDFORMAT_END
309
TABLEFORMAT_END
  1
CELLSTYLE_BEGIN
 90
        2
 91
        1
300
_HEADER
309
CELLSTYLE_END
300
CELLSTYLE
  1
TABLEFORMAT_BEGIN
 90
        5
170
     1
 91
        0
 92
        0
 62
   257
 93
        1
300
CONTENTFORMAT
  1
CONTENTFORMAT_BEGIN
 90
        0
 91
        0
 92
        4
 93
        0
300

 40
0.0
140
1.0
 94
        2
 62
     0
340
11
144
0.18
309
CONTENTFORMAT_END
171
     1
301
MARGIN
  1
CELLMARGIN_BEGIN
 40
0.06
 40
0.06
 40
0.06
 40
0.06
 40
0.18
 40
0.18
309
CELLMARGIN_END
 94
        6
 95
        1
302
GRIDFORMAT
  1
GRIDFORMAT_BEGIN
 90
        0
 91
        1
 62
     0
 92
       -2
340
0
 93
        0
 40
0.045
309
GRIDFORMAT_END
 95
        2
302
GRIDFORMAT
  1
GRIDFORMAT_BEGIN
 90
        0
 91
        1
 62
     0
 92
       -2
340
0
 93
        0
 40
0.045
309
GRIDFORMAT_END
 95
        4
302
GRIDFORMAT
  1
GRIDFORMAT_BEGIN
 90
        0
 91
        1
 62
     0
 92
       -2
340
0
 93
        0
 40
0.045
309
GRIDFORMAT_END
 95
        8
302
GRIDFORMAT
  1
GRIDFORMAT_BEGIN
 90
        0
 91
        1
 62
     0
 92
       -2
340
0
 93
        0
 40
0.045
309
GRIDFORMAT_END
 95
       16
302
GRIDFORMAT
  1
GRIDFORMAT_BEGIN
 90
        0
 91
        1
 62
     0
 92
       -2
340
0
 93
        0
 40
0.045
309
GRIDFORMAT_END
 95
       32
302
GRIDFORMAT
  1
GRIDFORMAT_BEGIN
 90
        0
 91
        1
 62
     0
 92
       -2
340
0
 93
        0
 40
0.045
309
GRIDFORMAT_END
309
TABLEFORMAT_END
  1
CELLSTYLE_BEGIN
 90
        3
 91
        2
300
_DATA
309
CELLSTYLE_END
  0
XRECORD
  5
C164
102
{ACAD_REACTORS
330
C0F2
102
}
330
C0F2
100
AcDbXrecord
280
     1
102
ACAD_ROUNDTRIP_PRE2007_TABLESTYLE
 90
        4
 91
        0
  1

 92
        4
 93
        0
  2

 94
        4
 95
        0
  3

  0
XRECORD
  5
C14D
102
{ACAD_REACTORS
330
C14C
102
}
330
C14C
100
AcDbXrecord
280
     1
102
RTVSPropertyOp0
 70
     1
102
RTVSPropertyOp1
 70
     1
102
RTVSPropertyOp2
 70
     1
102
RTVSPropertyOp3
 70
     1
102
RTVSPropertyOp4
 70
     1
102
RTVSPropertyOp5
 70
     1
102
RTVSPropertyOp6
 70
     1
102
RTVSPropertyOp7
 70
     1
102
RTVSPropertyOp8
 70
     1
102
RTVSPropertyOp9
 70
     1
102
RTVSPropertyOp10
 70
     1
102
RTVSPropertyOp11
 70
     1
102
RTVSPropertyOp12
 70
     1
102
RTVSPropertyOp13
 70
     1
102
RTVSPropertyOp14
 70
     1
102
RTVSPropertyOp15
 70
     1
102
RTVSPropertyOp16
 70
     1
102
RTVSPropertyOp17
 70
     1
102
RTVSPropertyOp18
 70
     1
102
RTVSPropertyOp19
 70
     1
102
RTVSPropertyOp20
 70
     1
102
RTVSPropertyOp21
 70
     1
102
RTVSPropertyOp22
 70
     1
102
RTVSPropertyOp23
 70
     1
102
RTVSPropertyOp24
 70
     1
102
RTVSPropertyOp25
 70
     1
102
RTVSPropertyOp26
 70
     1
102
RTVSPropertyOp27
 70
     1
102
RTVSPropertyOp28
 70
     1
102
RTVSPropertyOp29
 70
     1
102
RTVSPropertyOp30
 70
     1
102
RTVSPropertyOp31
 70
     1
102
RTVSPropertyOp32
 70
     1
  0
XRECORD
  5
C151
102
{ACAD_REACTORS
330
C150
102
}
330
C150
100
AcDbXrecord
280
     1
102
RTVSPropertyOp0
 70
     1
102
RTVSPropertyOp1
 70
     1
102
RTVSPropertyOp2
 70
     1
102
RTVSPropertyOp3
 70
     1
102
RTVSPropertyOp4
 70
     1
102
RTVSPropertyOp5
 70
     1
102
RTVSPropertyOp6
 70
     1
102
RTVSPropertyOp7
 70
     1
102
RTVSPropertyOp8
 70
     1
102
RTVSPropertyOp9
 70
     1
102
RTVSPropertyOp10
 70
     1
102
RTVSPropertyOp11
 70
     1
102
RTVSPropertyOp12
 70
     1
102
RTVSPropertyOp13
 70
     1
102
RTVSPropertyOp14
 70
     1
102
RTVSPropertyOp15
 70
     1
102
RTVSPropertyOp16
 70
     1
102
RTVSPropertyOp17
 70
     1
102
RTVSPropertyOp18
 70
     1
102
RTVSPropertyOp19
 70
     1
102
RTVSPropertyOp20
 70
     1
102
RTVSPropertyOp21
 70
     1
102
RTVSPropertyOp22
 70
     1
102
RTVSPropertyOp23
 70
     1
102
RTVSPropertyOp24
 70
     1
102
RTVSPropertyOp25
 70
     1
102
RTVSPropertyOp26
 70
     1
102
RTVSPropertyOp27
 70
     1
102
RTVSPropertyOp28
 70
     1
102
RTVSPropertyOp29
 70
     1
102
RTVSPropertyOp30
 70
     1
102
RTVSPropertyOp31
 70
     1
102
RTVSPropertyOp32
 70
     1
  0
XRECORD
  5
C14F
102
{ACAD_REACTORS
330
C14E
102
}
330
C14E
100
AcDbXrecord
280
     1
102
RTVSPropertyOp0
 70
     1
102
RTVSPropertyOp1
 70
     1
102
RTVSPropertyOp2
 70
     1
102
RTVSPropertyOp3
 70
     1
102
RTVSPropertyOp4
 70
     1
102
RTVSPropertyOp5
 70
     1
102
RTVSPropertyOp6
 70
     1
102
RTVSPropertyOp7
 70
     1
102
RTVSPropertyOp8
 70
     1
102
RTVSPropertyOp9
 70
     1
102
RTVSPropertyOp10
 70
     1
102
RTVSPropertyOp11
 70
     1
102
RTVSPropertyOp12
 70
     1
102
RTVSPropertyOp13
 70
     1
102
RTVSPropertyOp14
 70
     1
102
RTVSPropertyOp15
 70
     1
102
RTVSPropertyOp16
 70
     1
102
RTVSPropertyOp17
 70
     1
102
RTVSPropertyOp18
 70
     1
102
RTVSPropertyOp19
 70
     1
102
RTVSPropertyOp20
 70
     1
102
RTVSPropertyOp21
 70
     1
102
RTVSPropertyOp22
 70
     1
102
RTVSPropertyOp23
 70
     1
102
RTVSPropertyOp24
 70
     1
102
RTVSPropertyOp25
 70
     1
102
RTVSPropertyOp26
 70
     1
102
RTVSPropertyOp27
 70
     1
102
RTVSPropertyOp28
 70
     1
102
RTVSPropertyOp29
 70
     1
102
RTVSPropertyOp30
 70
     1
102
RTVSPropertyOp31
 70
     1
102
RTVSPropertyOp32
 70
     1
  0
XRECORD
  5
C153
102
{ACAD_REACTORS
330
C152
102
}
330
C152
100
AcDbXrecord
280
     1
102
RTVSPropertyOp0
 70
     1
102
RTVSPropertyOp1
 70
     1
102
RTVSPropertyOp2
 70
     1
102
RTVSPropertyOp3
 70
     1
102
RTVSPropertyOp4
 70
     1
102
RTVSPropertyOp5
 70
     1
102
RTVSPropertyOp6
 70
     1
102
RTVSPropertyOp7
 70
     1
102
RTVSPropertyOp8
 70
     1
102
RTVSPropertyOp9
 70
     1
102
RTVSPropertyOp10
 70
     1
102
RTVSPropertyOp11
 70
     1
102
RTVSPropertyOp12
 70
     1
102
RTVSPropertyOp13
 70
     1
102
RTVSPropertyOp14
 70
     1
102
RTVSPropertyOp15
 70
     1
102
RTVSPropertyOp16
 70
     1
102
RTVSPropertyOp17
 70
     1
102
RTVSPropertyOp18
 70
     1
102
RTVSPropertyOp19
 70
     1
102
RTVSPropertyOp20
 70
     1
102
RTVSPropertyOp21
 70
     1
102
RTVSPropertyOp22
 70
     1
102
RTVSPropertyOp23
 70
     1
102
RTVSPropertyOp24
 70
     1
102
RTVSPropertyOp25
 70
     1
102
RTVSPropertyOp26
 70
     1
102
RTVSPropertyOp27
 70
     1
102
RTVSPropertyOp28
 70
     1
102
RTVSPropertyOp29
 70
     1
102
RTVSPropertyOp30
 70
     1
102
RTVSPropertyOp31
 70
     1
102
RTVSPropertyOp32
 70
     1
  0
XRECORD
  5
C15B
102
{ACAD_REACTORS
330
C15A
102
}
330
C15A
100
AcDbXrecord
280
     1
102
RTVSPropertyOp0
 70
     1
102
RTVSPropertyOp1
 70
     1
102
RTVSPropertyOp2
 70
     1
102
RTVSPropertyOp3
 70
     1
102
RTVSPropertyOp4
 70
     1
102
RTVSPropertyOp5
 70
     1
102
RTVSPropertyOp6
 70
     1
102
RTVSPropertyOp7
 70
     1
102
RTVSPropertyOp8
 70
     1
102
RTVSPropertyOp9
 70
     1
102
RTVSPropertyOp10
 70
     1
102
RTVSPropertyOp11
 70
     1
102
RTVSPropertyOp12
 70
     1
102
RTVSPropertyOp13
 70
     1
102
RTVSPropertyOp14
 70
     1
102
RTVSPropertyOp15
 70
     1
102
RTVSPropertyOp16
 70
     1
102
RTVSPropertyOp17
 70
     1
102
RTVSPropertyOp18
 70
     1
102
RTVSPropertyOp19
 70
     1
102
RTVSPropertyOp20
 70
     1
102
RTVSPropertyOp21
 70
     1
102
RTVSPropertyOp22
 70
     1
102
RTVSPropertyOp23
 70
     1
102
RTVSPropertyOp24
 70
     1
102
RTVSPropertyOp25
 70
     1
102
RTVSPropertyOp26
 70
     1
102
RTVSPropertyOp27
 70
     1
102
RTVSPropertyOp28
 70
     1
102
RTVSPropertyOp29
 70
     1
102
RTVSPropertyOp30
 70
     1
102
RTVSPropertyOp31
 70
     1
102
RTVSPropertyOp32
 70
     1
  0
XRECORD
  5
C163
102
{ACAD_REACTORS
330
C162
102
}
330
C162
100
AcDbXrecord
280
     1
102
RTVSPropertyOp0
 70
     1
102
RTVSPropertyOp1
 70
     1
102
RTVSPropertyOp2
 70
     1
102
RTVSPropertyOp3
 70
     1
102
RTVSPropertyOp4
 70
     1
102
RTVSPropertyOp5
 70
     1
102
RTVSPropertyOp6
 70
     1
102
RTVSPropertyOp7
 70
     1
102
RTVSPropertyOp8
 70
     1
102
RTVSPropertyOp9
 70
     1
102
RTVSPropertyOp10
 70
     1
102
RTVSPropertyOp11
 70
     1
102
RTVSPropertyOp12
 70
     1
102
RTVSPropertyOp13
 70
     1
102
RTVSPropertyOp14
 70
     1
102
RTVSPropertyOp15
 70
     1
102
RTVSPropertyOp16
 70
     1
102
RTVSPropertyOp17
 70
     1
102
RTVSPropertyOp18
 70
     1
102
RTVSPropertyOp19
 70
     1
102
RTVSPropertyOp20
 70
     1
102
RTVSPropertyOp21
 70
     1
102
RTVSPropertyOp22
 70
     1
102
RTVSPropertyOp23
 70
     1
102
RTVSPropertyOp24
 70
     1
102
RTVSPropertyOp25
 70
     1
102
RTVSPropertyOp26
 70
     1
102
RTVSPropertyOp27
 70
     1
102
RTVSPropertyOp28
 70
     1
102
RTVSPropertyOp29
 70
     1
102
RTVSPropertyOp30
 70
     1
102
RTVSPropertyOp31
 70
     1
102
RTVSPropertyOp32
 70
     1
  0
XRECORD
  5
C157
102
{ACAD_REACTORS
330
C156
102
}
330
C156
100
AcDbXrecord
280
     1
102
RTVSPropertyOp0
 70
     1
102
RTVSPropertyOp1
 70
     1
102
RTVSPropertyOp2
 70
     1
102
RTVSPropertyOp3
 70
     1
102
RTVSPropertyOp4
 70
     1
102
RTVSPropertyOp5
 70
     1
102
RTVSPropertyOp6
 70
     1
102
RTVSPropertyOp7
 70
     1
102
RTVSPropertyOp8
 70
     1
102
RTVSPropertyOp9
 70
     1
102
RTVSPropertyOp10
 70
     1
102
RTVSPropertyOp11
 70
     1
102
RTVSPropertyOp12
 70
     1
102
RTVSPropertyOp13
 70
     1
102
RTVSPropertyOp14
 70
     1
102
RTVSPropertyOp15
 70
     1
102
RTVSPropertyOp16
 70
     1
102
RTVSPropertyOp17
 70
     1
102
RTVSPropertyOp18
 70
     1
102
RTVSPropertyOp19
 70
     1
102
RTVSPropertyOp20
 70
     1
102
RTVSPropertyOp21
 70
     1
102
RTVSPropertyOp22
 70
     1
102
RTVSPropertyOp23
 70
     1
102
RTVSPropertyOp24
 70
     1
102
RTVSPropertyOp25
 70
     1
102
RTVSPropertyOp26
 70
     1
102
RTVSPropertyOp27
 70
     1
102
RTVSPropertyOp28
 70
     1
102
RTVSPropertyOp29
 70
     1
102
RTVSPropertyOp30
 70
     1
102
RTVSPropertyOp31
 70
     1
102
RTVSPropertyOp32
 70
     1
  0
XRECORD
  5
C159
102
{ACAD_REACTORS
330
C158
102
}
330
C158
100
AcDbXrecord
280
     1
102
RTVSPropertyOp0
 70
     1
102
RTVSPropertyOp1
 70
     1
102
RTVSPropertyOp2
 70
     1
102
RTVSPropertyOp3
 70
     1
102
RTVSPropertyOp4
 70
     1
102
RTVSPropertyOp5
 70
     1
102
RTVSPropertyOp6
 70
     1
102
RTVSPropertyOp7
 70
     1
102
RTVSPropertyOp8
 70
     1
102
RTVSPropertyOp9
 70
     1
102
RTVSPropertyOp10
 70
     1
102
RTVSPropertyOp11
 70
     1
102
RTVSPropertyOp12
 70
     1
102
RTVSPropertyOp13
 70
     1
102
RTVSPropertyOp14
 70
     1
102
RTVSPropertyOp15
 70
     1
102
RTVSPropertyOp16
 70
     1
102
RTVSPropertyOp17
 70
     1
102
RTVSPropertyOp18
 70
     1
102
RTVSPropertyOp19
 70
     1
102
RTVSPropertyOp20
 70
     1
102
RTVSPropertyOp21
 70
     1
102
RTVSPropertyOp22
 70
     1
102
RTVSPropertyOp23
 70
     1
102
RTVSPropertyOp24
 70
     1
102
RTVSPropertyOp25
 70
     1
102
RTVSPropertyOp26
 70
     1
102
RTVSPropertyOp27
 70
     1
102
RTVSPropertyOp28
 70
     1
102
RTVSPropertyOp29
 70
     1
102
RTVSPropertyOp30
 70
     1
102
RTVSPropertyOp31
 70
     1
102
RTVSPropertyOp32
 70
     1
  0
XRECORD
  5
C178
102
{ACAD_REACTORS
330
C177
102
}
330
C177
100
AcDbXrecord
280
     1
102
RTVSPropertyOp0
 70
     0
102
RTVSPropertyOp1
 70
     0
102
RTVSPropertyOp2
 70
     0
102
RTVSPropertyOp3
 70
     0
102
RTVSPropertyOp4
 70
     0
102
RTVSPropertyOp5
 70
     0
102
RTVSPropertyOp6
 70
     0
102
RTVSPropertyOp7
 70
     0
102
RTVSPropertyOp8
 70
     0
102
RTVSPropertyOp9
 70
     0
102
RTVSPropertyOp10
 70
     0
102
RTVSPropertyOp11
 70
     0
102
RTVSPropertyOp12
 70
     0
102
RTVSPropertyOp13
 70
     0
102
RTVSPropertyOp14
 70
     2
102
RTVSPropertyOp15
 70
     0
102
RTVSPropertyOp16
 70
     0
102
RTVSPropertyOp17
 70
     0
102
RTVSPropertyOp18
 70
     0
102
RTVSPropertyOp19
 70
     0
102
RTVSPropertyOp20
 70
     0
102
RTVSPropertyOp21
 70
     0
102
RTVSPropertyOp22
 70
     0
102
RTVSPropertyOp23
 70
     0
102
RTVSPropertyOp24
 70
     0
102
RTVSPropertyOp25
 70
     0
102
RTVSPropertyOp26
 70
     0
102
RTVSPropertyOp27
 70
     0
102
RTVSPropertyOp28
 70
     0
102
RTVSPropertyOp29
 70
     0
102
RTVSPropertyOp30
 70
     0
102
RTVSPropertyOp31
 70
     0
102
RTVSPropertyOp32
 70
     0
  0
XRECORD
  5
C161
102
{ACAD_REACTORS
330
C160
102
}
330
C160
100
AcDbXrecord
280
     1
102
RTVSPropertyOp0
 70
     1
102
RTVSPropertyOp1
 70
     1
102
RTVSPropertyOp2
 70
     1
102
RTVSPropertyOp3
 70
     1
102
RTVSPropertyOp4
 70
     1
102
RTVSPropertyOp5
 70
     1
102
RTVSPropertyOp6
 70
     1
102
RTVSPropertyOp7
 70
     1
102
RTVSPropertyOp8
 70
     1
102
RTVSPropertyOp9
 70
     1
102
RTVSPropertyOp10
 70
     1
102
RTVSPropertyOp11
 70
     1
102
RTVSPropertyOp12
 70
     1
102
RTVSPropertyOp13
 70
     1
102
RTVSPropertyOp14
 70
     1
102
RTVSPropertyOp15
 70
     1
102
RTVSPropertyOp16
 70
     1
102
RTVSPropertyOp17
 70
     1
102
RTVSPropertyOp18
 70
     1
102
RTVSPropertyOp19
 70
     1
102
RTVSPropertyOp20
 70
     1
102
RTVSPropertyOp21
 70
     1
102
RTVSPropertyOp22
 70
     1
102
RTVSPropertyOp23
 70
     1
102
RTVSPropertyOp24
 70
     1
102
RTVSPropertyOp25
 70
     1
102
RTVSPropertyOp26
 70
     1
102
RTVSPropertyOp27
 70
     1
102
RTVSPropertyOp28
 70
     1
102
RTVSPropertyOp29
 70
     1
102
RTVSPropertyOp30
 70
     1
102
RTVSPropertyOp31
 70
     1
102
RTVSPropertyOp32
 70
     1
  0
XRECORD
  5
C145
102
{ACAD_REACTORS
330
C144
102
}
330
C144
100
AcDbXrecord
280
     1
102
RTVSPropertyOp0
 70
     1
102
RTVSPropertyOp1
 70
     1
102
RTVSPropertyOp2
 70
     1
102
RTVSPropertyOp3
 70
     1
102
RTVSPropertyOp4
 70
     1
102
RTVSPropertyOp5
 70
     1
102
RTVSPropertyOp6
 70
     1
102
RTVSPropertyOp7
 70
     1
102
RTVSPropertyOp8
 70
     1
102
RTVSPropertyOp9
 70
     1
102
RTVSPropertyOp10
 70
     1
102
RTVSPropertyOp11
 70
     1
102
RTVSPropertyOp12
 70
     1
102
RTVSPropertyOp13
 70
     1
102
RTVSPropertyOp14
 70
     1
102
RTVSPropertyOp15
 70
     1
102
RTVSPropertyOp16
 70
     1
102
RTVSPropertyOp17
 70
     1
102
RTVSPropertyOp18
 70
     1
102
RTVSPropertyOp19
 70
     1
102
RTVSPropertyOp20
 70
     1
102
RTVSPropertyOp21
 70
     1
102
RTVSPropertyOp22
 70
     1
102
RTVSPropertyOp23
 70
     1
102
RTVSPropertyOp24
 70
     1
102
RTVSPropertyOp25
 70
     1
102
RTVSPropertyOp26
 70
     1
102
RTVSPropertyOp27
 70
     1
102
RTVSPropertyOp28
 70
     1
102
RTVSPropertyOp29
 70
     1
102
RTVSPropertyOp30
 70
     1
102
RTVSPropertyOp31
 70
     1
102
RTVSPropertyOp32
 70
     1
  0
XRECORD
  5
C147
102
{ACAD_REACTORS
330
C146
102
}
330
C146
100
AcDbXrecord
280
     1
102
RTVSPropertyOp0
 70
     1
102
RTVSPropertyOp1
 70
     1
102
RTVSPropertyOp2
 70
     1
102
RTVSPropertyOp3
 70
     1
102
RTVSPropertyOp4
 70
     1
102
RTVSPropertyOp5
 70
     1
102
RTVSPropertyOp6
 70
     1
102
RTVSPropertyOp7
 70
     1
102
RTVSPropertyOp8
 70
     1
102
RTVSPropertyOp9
 70
     1
102
RTVSPropertyOp10
 70
     1
102
RTVSPropertyOp11
 70
     1
102
RTVSPropertyOp12
 70
     1
102
RTVSPropertyOp13
 70
     1
102
RTVSPropertyOp14
 70
     1
102
RTVSPropertyOp15
 70
     1
102
RTVSPropertyOp16
 70
     1
102
RTVSPropertyOp17
 70
     1
102
RTVSPropertyOp18
 70
     1
102
RTVSPropertyOp19
 70
     1
102
RTVSPropertyOp20
 70
     1
102
RTVSPropertyOp21
 70
     1
102
RTVSPropertyOp22
 70
     1
102
RTVSPropertyOp23
 70
     1
102
RTVSPropertyOp24
 70
     1
102
RTVSPropertyOp25
 70
     1
102
RTVSPropertyOp26
 70
     1
102
RTVSPropertyOp27
 70
     1
102
RTVSPropertyOp28
 70
     1
102
RTVSPropertyOp29
 70
     1
102
RTVSPropertyOp30
 70
     1
102
RTVSPropertyOp31
 70
     1
102
RTVSPropertyOp32
 70
     1
  0
XRECORD
  5
C149
102
{ACAD_REACTORS
330
C148
102
}
330
C148
100
AcDbXrecord
280
     1
102
RTVSPropertyOp0
 70
     1
102
RTVSPropertyOp1
 70
     1
102
RTVSPropertyOp2
 70
     1
102
RTVSPropertyOp3
 70
     1
102
RTVSPropertyOp4
 70
     1
102
RTVSPropertyOp5
 70
     1
102
RTVSPropertyOp6
 70
     1
102
RTVSPropertyOp7
 70
     1
102
RTVSPropertyOp8
 70
     1
102
RTVSPropertyOp9
 70
     1
102
RTVSPropertyOp10
 70
     1
102
RTVSPropertyOp11
 70
     1
102
RTVSPropertyOp12
 70
     1
102
RTVSPropertyOp13
 70
     1
102
RTVSPropertyOp14
 70
     1
102
RTVSPropertyOp15
 70
     1
102
RTVSPropertyOp16
 70
     1
102
RTVSPropertyOp17
 70
     1
102
RTVSPropertyOp18
 70
     1
102
RTVSPropertyOp19
 70
     1
102
RTVSPropertyOp20
 70
     1
102
RTVSPropertyOp21
 70
     1
102
RTVSPropertyOp22
 70
     1
102
RTVSPropertyOp23
 70
     1
102
RTVSPropertyOp24
 70
     1
102
RTVSPropertyOp25
 70
     1
102
RTVSPropertyOp26
 70
     1
102
RTVSPropertyOp27
 70
     1
102
RTVSPropertyOp28
 70
     1
102
RTVSPropertyOp29
 70
     1
102
RTVSPropertyOp30
 70
     1
102
RTVSPropertyOp31
 70
     1
102
RTVSPropertyOp32
 70
     1
  0
XRECORD
  5
C14B
102
{ACAD_REACTORS
330
C14A
102
}
330
C14A
100
AcDbXrecord
280
     1
102
RTVSPropertyOp0
 70
     1
102
RTVSPropertyOp1
 70
     1
102
RTVSPropertyOp2
 70
     1
102
RTVSPropertyOp3
 70
     1
102
RTVSPropertyOp4
 70
     1
102
RTVSPropertyOp5
 70
     1
102
RTVSPropertyOp6
 70
     1
102
RTVSPropertyOp7
 70
     1
102
RTVSPropertyOp8
 70
     1
102
RTVSPropertyOp9
 70
     1
102
RTVSPropertyOp10
 70
     1
102
RTVSPropertyOp11
 70
     1
102
RTVSPropertyOp12
 70
     1
102
RTVSPropertyOp13
 70
     1
102
RTVSPropertyOp14
 70
     1
102
RTVSPropertyOp15
 70
     1
102
RTVSPropertyOp16
 70
     1
102
RTVSPropertyOp17
 70
     1
102
RTVSPropertyOp18
 70
     1
102
RTVSPropertyOp19
 70
     1
102
RTVSPropertyOp20
 70
     1
102
RTVSPropertyOp21
 70
     1
102
RTVSPropertyOp22
 70
     1
102
RTVSPropertyOp23
 70
     1
102
RTVSPropertyOp24
 70
     1
102
RTVSPropertyOp25
 70
     1
102
RTVSPropertyOp26
 70
     1
102
RTVSPropertyOp27
 70
     1
102
RTVSPropertyOp28
 70
     1
102
RTVSPropertyOp29
 70
     1
102
RTVSPropertyOp30
 70
     1
102
RTVSPropertyOp31
 70
     1
102
RTVSPropertyOp32
 70
     1
  0
XRECORD
  5
C168
102
{ACAD_REACTORS
330
C167
102
}
330
C167
100
AcDbXrecord
280
     1
102
RTVSPropertyOp0
 70
     1
102
RTVSPropertyOp1
 70
     1
102
RTVSPropertyOp2
 70
     1
102
RTVSPropertyOp3
 70
     1
102
RTVSPropertyOp4
 70
     1
102
RTVSPropertyOp5
 70
     1
102
RTVSPropertyOp6
 70
     1
102
RTVSPropertyOp7
 70
     1
102
RTVSPropertyOp8
 70
     1
102
RTVSPropertyOp9
 70
     1
102
RTVSPropertyOp10
 70
     1
102
RTVSPropertyOp11
 70
     1
102
RTVSPropertyOp12
 70
     1
102
RTVSPropertyOp13
 70
     1
102
RTVSPropertyOp14
 70
     1
102
RTVSPropertyOp15
 70
     1
102
RTVSPropertyOp16
 70
     1
102
RTVSPropertyOp17
 70
     1
102
RTVSPropertyOp18
 70
     1
102
RTVSPropertyOp19
 70
     1
102
RTVSPropertyOp20
 70
     1
102
RTVSPropertyOp21
 70
     1
102
RTVSPropertyOp22
 70
     1
102
RTVSPropertyOp23
 70
     1
102
RTVSPropertyOp24
 70
     1
102
RTVSPropertyOp25
 70
     1
102
RTVSPropertyOp26
 70
     1
102
RTVSPropertyOp27
 70
     1
102
RTVSPropertyOp28
 70
     1
102
RTVSPropertyOp29
 70
     1
102
RTVSPropertyOp30
 70
     1
102
RTVSPropertyOp31
 70
     1
102
RTVSPropertyOp32
 70
     1
  0
XRECORD
  5
C174
102
{ACAD_REACTORS
330
C173
102
}
330
C173
100
AcDbXrecord
280
     1
102
RTVSPropertyOp0
 70
     0
102
RTVSPropertyOp1
 70
     0
102
RTVSPropertyOp2
 70
     0
102
RTVSPropertyOp3
 70
     0
102
RTVSPropertyOp4
 70
     0
102
RTVSPropertyOp5
 70
     0
102
RTVSPropertyOp6
 70
     0
102
RTVSPropertyOp7
 70
     0
102
RTVSPropertyOp8
 70
     0
102
RTVSPropertyOp9
 70
     0
102
RTVSPropertyOp10
 70
     0
102
RTVSPropertyOp11
 70
     0
102
RTVSPropertyOp12
 70
     0
102
RTVSPropertyOp13
 70
     0
102
RTVSPropertyOp14
 70
     2
102
RTVSPropertyOp15
 70
     0
102
RTVSPropertyOp16
 70
     0
102
RTVSPropertyOp17
 70
     0
102
RTVSPropertyOp18
 70
     0
102
RTVSPropertyOp19
 70
     0
102
RTVSPropertyOp20
 70
     0
102
RTVSPropertyOp21
 70
     0
102
RTVSPropertyOp22
 70
     0
102
RTVSPropertyOp23
 70
     0
102
RTVSPropertyOp24
 70
     0
102
RTVSPropertyOp25
 70
     0
102
RTVSPropertyOp26
 70
     0
102
RTVSPropertyOp27
 70
     0
102
RTVSPropertyOp28
 70
     0
102
RTVSPropertyOp29
 70
     0
102
RTVSPropertyOp30
 70
     0
102
RTVSPropertyOp31
 70
     0
102
RTVSPropertyOp32
 70
     0
  0
XRECORD
  5
C15F
102
{ACAD_REACTORS
330
C15E
102
}
330
C15E
100
AcDbXrecord
280
     1
102
RTVSPropertyOp0
 70
     1
102
RTVSPropertyOp1
 70
     1
102
RTVSPropertyOp2
 70
     1
102
RTVSPropertyOp3
 70
     1
102
RTVSPropertyOp4
 70
     1
102
RTVSPropertyOp5
 70
     1
102
RTVSPropertyOp6
 70
     1
102
RTVSPropertyOp7
 70
     1
102
RTVSPropertyOp8
 70
     1
102
RTVSPropertyOp9
 70
     1
102
RTVSPropertyOp10
 70
     1
102
RTVSPropertyOp11
 70
     1
102
RTVSPropertyOp12
 70
     1
102
RTVSPropertyOp13
 70
     1
102
RTVSPropertyOp14
 70
     1
102
RTVSPropertyOp15
 70
     1
102
RTVSPropertyOp16
 70
     1
102
RTVSPropertyOp17
 70
     1
102
RTVSPropertyOp18
 70
     1
102
RTVSPropertyOp19
 70
     1
102
RTVSPropertyOp20
 70
     1
102
RTVSPropertyOp21
 70
     1
102
RTVSPropertyOp22
 70
     1
102
RTVSPropertyOp23
 70
     1
102
RTVSPropertyOp24
 70
     1
102
RTVSPropertyOp25
 70
     1
102
RTVSPropertyOp26
 70
     1
102
RTVSPropertyOp27
 70
     1
102
RTVSPropertyOp28
 70
     1
102
RTVSPropertyOp29
 70
     1
102
RTVSPropertyOp30
 70
     1
102
RTVSPropertyOp31
 70
     1
102
RTVSPropertyOp32
 70
     1
  0
XRECORD
  5
C176
102
{ACAD_REACTORS
330
C175
102
}
330
C175
100
AcDbXrecord
280
     1
102
RTVSPropertyOp0
 70
     0
102
RTVSPropertyOp1
 70
     0
102
RTVSPropertyOp2
 70
     0
102
RTVSPropertyOp3
 70
     0
102
RTVSPropertyOp4
 70
     0
102
RTVSPropertyOp5
 70
     0
102
RTVSPropertyOp6
 70
     0
102
RTVSPropertyOp7
 70
     0
102
RTVSPropertyOp8
 70
     0
102
RTVSPropertyOp9
 70
     0
102
RTVSPropertyOp10
 70
     0
102
RTVSPropertyOp11
 70
     0
102
RTVSPropertyOp12
 70
     0
102
RTVSPropertyOp13
 70
     0
102
RTVSPropertyOp14
 70
     2
102
RTVSPropertyOp15
 70
     0
102
RTVSPropertyOp16
 70
     0
102
RTVSPropertyOp17
 70
     0
102
RTVSPropertyOp18
 70
     0
102
RTVSPropertyOp19
 70
     0
102
RTVSPropertyOp20
 70
     0
102
RTVSPropertyOp21
 70
     0
102
RTVSPropertyOp22
 70
     0
102
RTVSPropertyOp23
 70
     0
102
RTVSPropertyOp24
 70
     0
102
RTVSPropertyOp25
 70
     0
102
RTVSPropertyOp26
 70
     0
102
RTVSPropertyOp27
 70
     0
102
RTVSPropertyOp28
 70
     0
102
RTVSPropertyOp29
 70
     0
102
RTVSPropertyOp30
 70
     0
102
RTVSPropertyOp31
 70
     0
102
RTVSPropertyOp32
 70
     0
  0
XRECORD
  5
C155
102
{ACAD_REACTORS
330
C154
102
}
330
C154
100
AcDbXrecord
280
     1
102
RTVSPropertyOp0
 70
     1
102
RTVSPropertyOp1
 70
     1
102
RTVSPropertyOp2
 70
     1
102
RTVSPropertyOp3
 70
     1
102
RTVSPropertyOp4
 70
     1
102
RTVSPropertyOp5
 70
     1
102
RTVSPropertyOp6
 70
     1
102
RTVSPropertyOp7
 70
     1
102
RTVSPropertyOp8
 70
     1
102
RTVSPropertyOp9
 70
     1
102
RTVSPropertyOp10
 70
     1
102
RTVSPropertyOp11
 70
     1
102
RTVSPropertyOp12
 70
     1
102
RTVSPropertyOp13
 70
     1
102
RTVSPropertyOp14
 70
     1
102
RTVSPropertyOp15
 70
     1
102
RTVSPropertyOp16
 70
     1
102
RTVSPropertyOp17
 70
     1
102
RTVSPropertyOp18
 70
     1
102
RTVSPropertyOp19
 70
     1
102
RTVSPropertyOp20
 70
     1
102
RTVSPropertyOp21
 70
     1
102
RTVSPropertyOp22
 70
     1
102
RTVSPropertyOp23
 70
     1
102
RTVSPropertyOp24
 70
     1
102
RTVSPropertyOp25
 70
     1
102
RTVSPropertyOp26
 70
     1
102
RTVSPropertyOp27
 70
     1
102
RTVSPropertyOp28
 70
     1
102
RTVSPropertyOp29
 70
     1
102
RTVSPropertyOp30
 70
     1
102
RTVSPropertyOp31
 70
     1
102
RTVSPropertyOp32
 70
     1
  0
XRECORD
  5
C172
102
{ACAD_REACTORS
330
C171
102
}
330
C171
100
AcDbXrecord
280
     1
102
RTVSPropertyOp0
 70
     1
102
RTVSPropertyOp1
 70
     1
102
RTVSPropertyOp2
 70
     1
102
RTVSPropertyOp3
 70
     1
102
RTVSPropertyOp4
 70
     1
102
RTVSPropertyOp5
 70
     1
102
RTVSPropertyOp6
 70
     1
102
RTVSPropertyOp7
 70
     1
102
RTVSPropertyOp8
 70
     1
102
RTVSPropertyOp9
 70
     1
102
RTVSPropertyOp10
 70
     1
102
RTVSPropertyOp11
 70
     1
102
RTVSPropertyOp12
 70
     1
102
RTVSPropertyOp13
 70
     1
102
RTVSPropertyOp14
 70
     1
102
RTVSPropertyOp15
 70
     1
102
RTVSPropertyOp16
 70
     1
102
RTVSPropertyOp17
 70
     1
102
RTVSPropertyOp18
 70
     1
102
RTVSPropertyOp19
 70
     1
102
RTVSPropertyOp20
 70
     1
102
RTVSPropertyOp21
 70
     1
102
RTVSPropertyOp22
 70
     1
102
RTVSPropertyOp23
 70
     1
102
RTVSPropertyOp24
 70
     1
102
RTVSPropertyOp25
 70
     1
102
RTVSPropertyOp26
 70
     1
102
RTVSPropertyOp27
 70
     1
102
RTVSPropertyOp28
 70
     1
102
RTVSPropertyOp29
 70
     1
102
RTVSPropertyOp30
 70
     1
102
RTVSPropertyOp31
 70
     1
102
RTVSPropertyOp32
 70
     1
  0
XRECORD
  5
C170
102
{ACAD_REACTORS
330
C16F
102
}
330
C16F
100
AcDbXrecord
280
     1
102
RTVSPropertyOp0
 70
     1
102
RTVSPropertyOp1
 70
     1
102
RTVSPropertyOp2
 70
     1
102
RTVSPropertyOp3
 70
     1
102
RTVSPropertyOp4
 70
     1
102
RTVSPropertyOp5
 70
     1
102
RTVSPropertyOp6
 70
     1
102
RTVSPropertyOp7
 70
     1
102
RTVSPropertyOp8
 70
     1
102
RTVSPropertyOp9
 70
     1
102
RTVSPropertyOp10
 70
     1
102
RTVSPropertyOp11
 70
     1
102
RTVSPropertyOp12
 70
     1
102
RTVSPropertyOp13
 70
     1
102
RTVSPropertyOp14
 70
     1
102
RTVSPropertyOp15
 70
     1
102
RTVSPropertyOp16
 70
     1
102
RTVSPropertyOp17
 70
     1
102
RTVSPropertyOp18
 70
     1
102
RTVSPropertyOp19
 70
     1
102
RTVSPropertyOp20
 70
     1
102
RTVSPropertyOp21
 70
     1
102
RTVSPropertyOp22
 70
     1
102
RTVSPropertyOp23
 70
     1
102
RTVSPropertyOp24
 70
     1
102
RTVSPropertyOp25
 70
     1
102
RTVSPropertyOp26
 70
     1
102
RTVSPropertyOp27
 70
     1
102
RTVSPropertyOp28
 70
     1
102
RTVSPropertyOp29
 70
     1
102
RTVSPropertyOp30
 70
     1
102
RTVSPropertyOp31
 70
     1
102
RTVSPropertyOp32
 70
     1
  0
XRECORD
  5
C16A
102
{ACAD_REACTORS
330
C169
102
}
330
C169
100
AcDbXrecord
280
     1
102
RTVSPropertyOp0
 70
     1
102
RTVSPropertyOp1
 70
     1
102
RTVSPropertyOp2
 70
     1
102
RTVSPropertyOp3
 70
     1
102
RTVSPropertyOp4
 70
     1
102
RTVSPropertyOp5
 70
     1
102
RTVSPropertyOp6
 70
     1
102
RTVSPropertyOp7
 70
     1
102
RTVSPropertyOp8
 70
     1
102
RTVSPropertyOp9
 70
     1
102
RTVSPropertyOp10
 70
     1
102
RTVSPropertyOp11
 70
     1
102
RTVSPropertyOp12
 70
     1
102
RTVSPropertyOp13
 70
     1
102
RTVSPropertyOp14
 70
     1
102
RTVSPropertyOp15
 70
     1
102
RTVSPropertyOp16
 70
     1
102
RTVSPropertyOp17
 70
     1
102
RTVSPropertyOp18
 70
     1
102
RTVSPropertyOp19
 70
     1
102
RTVSPropertyOp20
 70
     1
102
RTVSPropertyOp21
 70
     1
102
RTVSPropertyOp22
 70
     1
102
RTVSPropertyOp23
 70
     1
102
RTVSPropertyOp24
 70
     1
102
RTVSPropertyOp25
 70
     1
102
RTVSPropertyOp26
 70
     1
102
RTVSPropertyOp27
 70
     1
102
RTVSPropertyOp28
 70
     1
102
RTVSPropertyOp29
 70
     1
102
RTVSPropertyOp30
 70
     1
102
RTVSPropertyOp31
 70
     1
102
RTVSPropertyOp32
 70
     1
  0
XRECORD
  5
C16C
102
{ACAD_REACTORS
330
C16B
102
}
330
C16B
100
AcDbXrecord
280
     1
102
RTVSPropertyOp0
 70
     1
102
RTVSPropertyOp1
 70
     1
102
RTVSPropertyOp2
 70
     1
102
RTVSPropertyOp3
 70
     1
102
RTVSPropertyOp4
 70
     1
102
RTVSPropertyOp5
 70
     1
102
RTVSPropertyOp6
 70
     1
102
RTVSPropertyOp7
 70
     1
102
RTVSPropertyOp8
 70
     1
102
RTVSPropertyOp9
 70
     1
102
RTVSPropertyOp10
 70
     1
102
RTVSPropertyOp11
 70
     1
102
RTVSPropertyOp12
 70
     1
102
RTVSPropertyOp13
 70
     1
102
RTVSPropertyOp14
 70
     1
102
RTVSPropertyOp15
 70
     1
102
RTVSPropertyOp16
 70
     1
102
RTVSPropertyOp17
 70
     1
102
RTVSPropertyOp18
 70
     1
102
RTVSPropertyOp19
 70
     1
102
RTVSPropertyOp20
 70
     1
102
RTVSPropertyOp21
 70
     1
102
RTVSPropertyOp22
 70
     1
102
RTVSPropertyOp23
 70
     1
102
RTVSPropertyOp24
 70
     1
102
RTVSPropertyOp25
 70
     1
102
RTVSPropertyOp26
 70
     1
102
RTVSPropertyOp27
 70
     1
102
RTVSPropertyOp28
 70
     1
102
RTVSPropertyOp29
 70
     1
102
RTVSPropertyOp30
 70
     1
102
RTVSPropertyOp31
 70
     1
102
RTVSPropertyOp32
 70
     1
  0
XRECORD
  5
C15D
102
{ACAD_REACTORS
330
C15C
102
}
330
C15C
100
AcDbXrecord
280
     1
102
RTVSPropertyOp0
 70
     1
102
RTVSPropertyOp1
 70
     1
102
RTVSPropertyOp2
 70
     1
102
RTVSPropertyOp3
 70
     1
102
RTVSPropertyOp4
 70
     1
102
RTVSPropertyOp5
 70
     1
102
RTVSPropertyOp6
 70
     1
102
RTVSPropertyOp7
 70
     1
102
RTVSPropertyOp8
 70
     1
102
RTVSPropertyOp9
 70
     1
102
RTVSPropertyOp10
 70
     1
102
RTVSPropertyOp11
 70
     1
102
RTVSPropertyOp12
 70
     1
102
RTVSPropertyOp13
 70
     1
102
RTVSPropertyOp14
 70
     1
102
RTVSPropertyOp15
 70
     1
102
RTVSPropertyOp16
 70
     1
102
RTVSPropertyOp17
 70
     1
102
RTVSPropertyOp18
 70
     1
102
RTVSPropertyOp19
 70
     1
102
RTVSPropertyOp20
 70
     1
102
RTVSPropertyOp21
 70
     1
102
RTVSPropertyOp22
 70
     1
102
RTVSPropertyOp23
 70
     1
102
RTVSPropertyOp24
 70
     1
102
RTVSPropertyOp25
 70
     1
102
RTVSPropertyOp26
 70
     1
102
RTVSPropertyOp27
 70
     1
102
RTVSPropertyOp28
 70
     1
102
RTVSPropertyOp29
 70
     1
102
RTVSPropertyOp30
 70
     1
102
RTVSPropertyOp31
 70
     1
102
RTVSPropertyOp32
 70
     1
  0
XRECORD
  5
C166
102
{ACAD_REACTORS
330
C165
102
}
330
C165
100
AcDbXrecord
280
     1
102
RTVSPropertyOp0
 70
     1
102
RTVSPropertyOp1
 70
     1
102
RTVSPropertyOp2
 70
     1
102
RTVSPropertyOp3
 70
     1
102
RTVSPropertyOp4
 70
     1
102
RTVSPropertyOp5
 70
     1
102
RTVSPropertyOp6
 70
     1
102
RTVSPropertyOp7
 70
     1
102
RTVSPropertyOp8
 70
     1
102
RTVSPropertyOp9
 70
     1
102
RTVSPropertyOp10
 70
     1
102
RTVSPropertyOp11
 70
     1
102
RTVSPropertyOp12
 70
     1
102
RTVSPropertyOp13
 70
     1
102
RTVSPropertyOp14
 70
     1
102
RTVSPropertyOp15
 70
     1
102
RTVSPropertyOp16
 70
     1
102
RTVSPropertyOp17
 70
     1
102
RTVSPropertyOp18
 70
     1
102
RTVSPropertyOp19
 70
     1
102
RTVSPropertyOp20
 70
     1
102
RTVSPropertyOp21
 70
     1
102
RTVSPropertyOp22
 70
     1
102
RTVSPropertyOp23
 70
     1
102
RTVSPropertyOp24
 70
     1
102
RTVSPropertyOp25
 70
     1
102
RTVSPropertyOp26
 70
     1
102
RTVSPropertyOp27
 70
     1
102
RTVSPropertyOp28
 70
     1
102
RTVSPropertyOp29
 70
     1
102
RTVSPropertyOp30
 70
     1
102
RTVSPropertyOp31
 70
     1
102
RTVSPropertyOp32
 70
     1
  0
XRECORD
  5
C16E
102
{ACAD_REACTORS
330
C16D
102
}
330
C16D
100
AcDbXrecord
280
     1
102
RTVSPropertyOp0
 70
     1
102
RTVSPropertyOp1
 70
     1
102
RTVSPropertyOp2
 70
     1
102
RTVSPropertyOp3
 70
     1
102
RTVSPropertyOp4
 70
     1
102
RTVSPropertyOp5
 70
     1
102
RTVSPropertyOp6
 70
     1
102
RTVSPropertyOp7
 70
     1
102
RTVSPropertyOp8
 70
     1
102
RTVSPropertyOp9
 70
     1
102
RTVSPropertyOp10
 70
     1
102
RTVSPropertyOp11
 70
     1
102
RTVSPropertyOp12
 70
     1
102
RTVSPropertyOp13
 70
     1
102
RTVSPropertyOp14
 70
     1
102
RTVSPropertyOp15
 70
     1
102
RTVSPropertyOp16
 70
     1
102
RTVSPropertyOp17
 70
     1
102
RTVSPropertyOp18
 70
     1
102
RTVSPropertyOp19
 70
     1
102
RTVSPropertyOp20
 70
     1
102
RTVSPropertyOp21
 70
     1
102
RTVSPropertyOp22
 70
     1
102
RTVSPropertyOp23
 70
     1
102
RTVSPropertyOp24
 70
     1
102
RTVSPropertyOp25
 70
     1
102
RTVSPropertyOp26
 70
     1
102
RTVSPropertyOp27
 70
     1
102
RTVSPropertyOp28
 70
     1
102
RTVSPropertyOp29
 70
     1
102
RTVSPropertyOp30
 70
     1
102
RTVSPropertyOp31
 70
     1
102
RTVSPropertyOp32
 70
     1
  0
ENDSEC
  0
EOF
