  0
SECTION
  2
HEADER
  9
$ACADVER
  1
AC1024
  9
$ACADMAINTVER
 70
    63
  9
$DWGCODEPAGE
  3
ANSI_1252
  9
$LASTSAVEDBY
  1
jgayle
  9
$INSBASE
 10
0.0
 20
0.0
 30
0.0
  9
$EXTMIN
 10
2.652120026455634
 20
6.460780431099564
 30
-0.0015258207003583
  9
$EXTMAX
 10
51.10527230195092
 20
26.60651206412913
 30
0.0000000349246037
  9
$LIMMIN
 10
0.0
 20
0.0
  9
$LIMMAX
 10
46.81102362204724
 20
33.11023622047244
  9
$ORTHOMODE
 70
     0
  9
$REGENMODE
 70
     1
  9
$FILLMODE
 70
     1
  9
$QTEXTMODE
 70
     0
  9
$MIRRTEXT
 70
     1
  9
$LTSCALE
 40
1.0
  9
$ATTMODE
 70
     1
  9
$TEXTSIZE
 40
0.1377952755905512
  9
$TRACEWID
 40
0.05
  9
$TEXTSTYLE
  7
Standard
  9
$CLAYER
  8
0
  9
$CELTYPE
  6
ByLayer
  9
$CECOLOR
 62
   256
  9
$CELTSCALE
 40
1.0
  9
$DISPSILH
 70
     0
  9
$DIMSCALE
 40
1.0
  9
$DIMASZ
 40
0.13
  9
$DIMEXO
 40
0.0393700787401575
  9
$DIMDLI
 40
0.38
  9
$DIMRND
 40
0.0
  9
$DIMDLE
 40
0.0
  9
$DIMEXE
 40
0.0393700787401575
  9
$DIMTP
 40
0.0
  9
$DIMTM
 40
0.0
  9
$DIMTXT
 40
0.1377952755905512
  9
$DIMCEN
 40
0.09
  9
$DIMTSZ
 40
0.0
  9
$DIMTOL
 70
     0
  9
$DIMLIM
 70
     0
  9
$DIMTIH
 70
     1
  9
$DIMTOH
 70
     1
  9
$DIMSE1
 70
     0
  9
$DIMSE2
 70
     0
  9
$DIMTAD
 70
     1
  9
$DIMZIN
 70
     0
  9
$DIMBLK
  1

  9
$DIMASO
 70
     1
  9
$DIMSHO
 70
     1
  9
$DIMPOST
  1

  9
$DIMAPOST
  1
mm
  9
$DIMALT
 70
     1
  9
$DIMALTD
 70
     2
  9
$DIMALTF
 40
25.4
  9
$DIMLFAC
 40
2.0
  9
$DIMTOFL
 70
     0
  9
$DIMTVP
 40
0.0
  9
$DIMTIX
 70
     0
  9
$DIMSOXD
 70
     0
  9
$DIMSAH
 70
     0
  9
$DIMBLK1
  1

  9
$DIMBLK2
  1

  9
$DIMSTYLE
  2
Standard
  9
$DIMCLRD
 70
     0
  9
$DIMCLRE
 70
     0
  9
$DIMCLRT
 70
     0
  9
$DIMTFAC
 40
1.0
  9
$DIMGAP
 40
0.06
  9
$DIMJUST
 70
     0
  9
$DIMSD1
 70
     0
  9
$DIMSD2
 70
     0
  9
$DIMTOLJ
 70
     1
  9
$DIMTZIN
 70
     0
  9
$DIMALTZ
 70
     0
  9
$DIMALTTZ
 70
     0
  9
$DIMUPT
 70
     0
  9
$DIMDEC
 70
     2
  9
$DIMTDEC
 70
     2
  9
$DIMALTU
 70
     2
  9
$DIMALTTD
 70
     2
  9
$DIMTXSTY
  7
Standard
  9
$DIMAUNIT
 70
     0
  9
$DIMADEC
 70
     2
  9
$DIMALTRND
 40
0.0
  9
$DIMAZIN
 70
     0
  9
$DIMDSEP
 70
    46
  9
$DIMATFIT
 70
     3
  9
$DIMFRAC
 70
     0
  9
$DIMLDRBLK
  1

  9
$DIMLUNIT
 70
     2
  9
$DIMLWD
 70
    -2
  9
$DIMLWE
 70
    -2
  9
$DIMTMOVE
 70
     0
  9
$DIMFXL
 40
1.0
  9
$DIMFXLON
 70
     0
  9
$DIMJOGANG
 40
0.7853981633974483
  9
$DIMTFILL
 70
     0
  9
$DIMTFILLCLR
 70
     0
  9
$DIMARCSYM
 70
     0
  9
$DIMLTYPE
  6

  9
$DIMLTEX1
  6

  9
$DIMLTEX2
  6

  9
$DIMTXTDIRECTION
 70
     0
  9
$LUNITS
 70
     2
  9
$LUPREC
 70
     2
  9
$SKETCHINC
 40
0.1
  9
$FILLETRAD
 40
0.5
  9
$AUNITS
 70
     0
  9
$AUPREC
 70
     2
  9
$MENU
  1
.
  9
$ELEVATION
 40
0.0
  9
$PELEVATION
 40
0.0
  9
$THICKNESS
 40
0.0
  9
$LIMCHECK
 70
     0
  9
$CHAMFERA
 40
0.0
  9
$CHAMFERB
 40
0.0
  9
$CHAMFERC
 40
0.0
  9
$CHAMFERD
 40
0.0
  9
$SKPOLY
 70
     0
  9
$TDCREATE
 40
2457946.542289803
  9
$TDUCREATE
 40
2457946.708956470
  9
$TDUPDATE
 40
2457946.549915903
  9
$TDUUPDATE
 40
2457946.716582569
  9
$TDINDWG
 40
0.0073291319
  9
$TDUSRTIMER
 40
0.0073291319
  9
$USRTIMER
 70
     1
  9
$ANGBASE
 50
0.0
  9
$ANGDIR
 70
     0
  9
$PDMODE
 70
     0
  9
$PDSIZE
 40
-1.0
  9
$PLINEWID
 40
0.0
  9
$SPLFRAME
 70
     0
  9
$SPLINETYPE
 70
     6
  9
$SPLINESEGS
 70
     8
  9
$HANDSEED
  5
434
  9
$SURFTAB1
 70
     6
  9
$SURFTAB2
 70
     6
  9
$SURFTYPE
 70
     6
  9
$SURFU
 70
     6
  9
$SURFV
 70
     6
  9
$UCSBASE
  2

  9
$UCSNAME
  2

  9
$UCSORG
 10
0.0
 20
0.0
 30
0.0
  9
$UCSXDIR
 10
1.0
 20
0.0
 30
0.0
  9
$UCSYDIR
 10
0.0
 20
1.0
 30
0.0
  9
$UCSORTHOREF
  2

  9
$UCSORTHOVIEW
 70
     0
  9
$UCSORGTOP
 10
0.0
 20
0.0
 30
0.0
  9
$UCSORGBOTTOM
 10
0.0
 20
0.0
 30
0.0
  9
$UCSORGLEFT
 10
0.0
 20
0.0
 30
0.0
  9
$UCSORGRIGHT
 10
0.0
 20
0.0
 30
0.0
  9
$UCSORGFRONT
 10
0.0
 20
0.0
 30
0.0
  9
$UCSORGBACK
 10
0.0
 20
0.0
 30
0.0
  9
$PUCSBASE
  2

  9
$PUCSNAME
  2

  9
$PUCSORG
 10
0.0
 20
0.0
 30
0.0
  9
$PUCSXDIR
 10
1.0
 20
0.0
 30
0.0
  9
$PUCSYDIR
 10
0.0
 20
1.0
 30
0.0
  9
$PUCSORTHOREF
  2

  9
$PUCSORTHOVIEW
 70
     0
  9
$PUCSORGTOP
 10
0.0
 20
0.0
 30
0.0
  9
$PUCSORGBOTTOM
 10
0.0
 20
0.0
 30
0.0
  9
$PUCSORGLEFT
 10
0.0
 20
0.0
 30
0.0
  9
$PUCSORGRIGHT
 10
0.0
 20
0.0
 30
0.0
  9
$PUCSORGFRONT
 10
0.0
 20
0.0
 30
0.0
  9
$PUCSORGBACK
 10
0.0
 20
0.0
 30
0.0
  9
$USERI1
 70
     0
  9
$USERI2
 70
     0
  9
$USERI3
 70
     0
  9
$USERI4
 70
     0
  9
$USERI5
 70
     0
  9
$USERR1
 40
0.0
  9
$USERR2
 40
0.0
  9
$USERR3
 40
0.0
  9
$USERR4
 40
0.0
  9
$USERR5
 40
0.0
  9
$WORLDVIEW
 70
     1
  9
$SHADEDGE
 70
     3
  9
$SHADEDIF
 70
    70
  9
$TILEMODE
 70
     1
  9
$MAXACTVP
 70
    64
  9
$PINSBASE
 10
0.0
 20
0.0
 30
0.0
  9
$PLIMCHECK
 70
     0
  9
$PEXTMIN
 10
1.000000000000000E+20
 20
1.000000000000000E+20
 30
1.000000000000000E+20
  9
$PEXTMAX
 10
-1.000000000000000E+20
 20
-1.000000000000000E+20
 30
-1.000000000000000E+20
  9
$PLIMMIN
 10
0.0
 20
0.0
  9
$PLIMMAX
 10
12.0
 20
9.0
  9
$UNITMODE
 70
     0
  9
$VISRETAIN
 70
     1
  9
$PLINEGEN
 70
     0
  9
$PSLTSCALE
 70
     1
  9
$TREEDEPTH
 70
  3020
  9
$CMLSTYLE
  2
Standard
  9
$CMLJUST
 70
     0
  9
$CMLSCALE
 40
1.0
  9
$PROXYGRAPHICS
 70
     1
  9
$MEASUREMENT
 70
     0
  9
$CELWEIGHT
370
    -1
  9
$ENDCAPS
280
     0
  9
$JOINSTYLE
280
     0
  9
$LWDISPLAY
290
     1
  9
$INSUNITS
 70
     1
  9
$HYPERLINKBASE
  1

  9
$STYLESHEET
  1

  9
$XEDIT
290
     1
  9
$CEPSNTYPE
380
     0
  9
$PSTYLEMODE
290
     1
  9
$FINGERPRINTGUID
  2
{DF7005F8-A29D-406D-966C-F181B64CA40A}
  9
$VERSIONGUID
  2
{AB9D08D6-255A-4F55-A4D6-7DD410842C11}
  9
$EXTNAMES
290
     1
  9
$PSVPSCALE
 40
0.0
  9
$OLESTARTUP
290
     0
  9
$SORTENTS
280
   127
  9
$INDEXCTL
280
     0
  9
$HIDETEXT
280
     0
  9
$XCLIPFRAME
280
     2
  9
$HALOGAP
280
     0
  9
$OBSCOLOR
 70
   257
  9
$OBSLTYPE
280
     0
  9
$INTERSECTIONDISPLAY
280
     0
  9
$INTERSECTIONCOLOR
 70
   257
  9
$DIMASSOC
280
     1
  9
$PROJECTNAME
  1

  9
$CAMERADISPLAY
290
     0
  9
$LENSLENGTH
 40
50.0
  9
$CAMERAHEIGHT
 40
0.0
  9
$STEPSPERSEC
 40
2.0
  9
$STEPSIZE
 40
6.0
  9
$3DDWFPREC
 40
2.0
  9
$PSOLWIDTH
 40
0.25
  9
$PSOLHEIGHT
 40
4.0
  9
$LOFTANG1
 40
1.570796326794896
  9
$LOFTANG2
 40
1.570796326794896
  9
$LOFTMAG1
 40
0.0
  9
$LOFTMAG2
 40
0.0
  9
$LOFTPARAM
 70
     7
  9
$LOFTNORMALS
280
     1
  9
$LATITUDE
 40
37.795
  9
$LONGITUDE
 40
-122.394
  9
$NORTHDIRECTION
 40
0.0
  9
$TIMEZONE
 70
 -8000
  9
$LIGHTGLYPHDISPLAY
280
     1
  9
$TILEMODELIGHTSYNCH
280
     1
  9
$CMATERIAL
347
3C9
  9
$SOLIDHIST
280
     0
  9
$SHOWHIST
280
     1
  9
$DWFFRAME
280
     2
  9
$DGNFRAME
280
     0
  9
$REALWORLDSCALE
290
     1
  9
$INTERFERECOLOR
 62
     1
  9
$INTERFEREOBJVS
345
3EB
  9
$INTERFEREVPVS
346
3E8
  9
$CSHADOW
280
     0
  9
$SHADOWPLANELOCATION
 40
0.0
  0
ENDSEC
  0
SECTION
  2
CLASSES
  0
CLASS
  1
ACDBDICTIONARYWDFLT
  2
AcDbDictionaryWithDefault
  3
ObjectDBX Classes
 90
        0
 91
        1
280
     0
281
     0
  0
CLASS
  1
VISUALSTYLE
  2
AcDbVisualStyle
  3
ObjectDBX Classes
 90
     4095
 91
       24
280
     0
281
     0
  0
CLASS
  1
MATERIAL
  2
AcDbMaterial
  3
ObjectDBX Classes
 90
     1153
 91
        3
280
     0
281
     0
  0
CLASS
  1
SCALE
  2
AcDbScale
  3
ObjectDBX Classes
 90
     1153
 91
       33
280
     0
281
     0
  0
CLASS
  1
TABLESTYLE
  2
AcDbTableStyle
  3
ObjectDBX Classes
 90
     4095
 91
        1
280
     0
281
     0
  0
CLASS
  1
MLEADERSTYLE
  2
AcDbMLeaderStyle
  3
ACDB_MLEADERSTYLE_CLASS
 90
     4095
 91
        1
280
     0
281
     0
  0
CLASS
  1
SUN
  2
AcDbSun
  3
SCENEOE
 90
     1153
 91
        1
280
     0
281
     0
  0
CLASS
  1
DICTIONARYVAR
  2
AcDbDictionaryVar
  3
ObjectDBX Classes
 90
        0
 91
        7
280
     0
281
     0
  0
CLASS
  1
CELLSTYLEMAP
  2
AcDbCellStyleMap
  3
ObjectDBX Classes
 90
     1152
 91
        1
280
     0
281
     0
  0
ENDSEC
  0
SECTION
  2
TABLES
  0
TABLE
  2
VPORT
  5
8
330
0
100
AcDbSymbolTable
 70
     1
  0
VPORT
  5
29
330
8
100
AcDbSymbolTableRecord
100
AcDbViewportTableRecord
  2
*Active
 70
     0
 10
0.0
 20
0.0
 11
1.0
 21
1.0
 12
30.81132102791091
 22
16.99306934498573
 13
0.0
 23
0.0
 14
0.5
 24
0.5
 15
0.5
 25
0.5
 16
0.0
 26
0.0
 36
1.0
 17
0.0
 27
0.0
 37
0.0
 40
32.493013839385
 41
2.476323119777158
 42
50.0
 43
0.0
 44
0.0
 50
0.0
 51
0.0
 71
     0
 72
  2000
 73
     1
 74
     3
 75
     0
 76
     0
 77
     0
 78
     0
281
     0
 65
     1
110
0.0
120
0.0
130
0.0
111
1.0
121
0.0
131
0.0
112
0.0
122
1.0
132
0.0
 79
     0
146
0.0
348
3E7
 60
     3
 61
     5
292
     1
282
     1
141
0.0
142
0.0
 63
   250
421
  3355443
1001
ACAD_NAV_VCDISPLAY
1070
     3
  0
ENDTAB
  0
TABLE
  2
LTYPE
  5
5
330
0
100
AcDbSymbolTable
 70
     7
  0
LTYPE
  5
14
330
5
100
AcDbSymbolTableRecord
100
AcDbLinetypeTableRecord
  2
ByBlock
 70
     0
  3

 72
    65
 73
     0
 40
0.0
  0
LTYPE
  5
15
330
5
100
AcDbSymbolTableRecord
100
AcDbLinetypeTableRecord
  2
ByLayer
 70
     0
  3

 72
    65
 73
     0
 40
0.0
  0
LTYPE
  5
16
330
5
100
AcDbSymbolTableRecord
100
AcDbLinetypeTableRecord
  2
Continuous
 70
     0
  3
Solid line
 72
    65
 73
     0
 40
0.0
  0
ENDTAB
  0
TABLE
  2
LAYER
  5
2
330
0
100
AcDbSymbolTable
 70
     3
  0
LAYER
  5
10
102
{ACAD_XDICTIONARY
360
424
102
}
330
2
100
AcDbSymbolTableRecord
100
AcDbLayerTableRecord
  2
0
 70
     0
 62
     7
  6
Continuous
370
    -3
390
F
347
3D9
  0
LAYER
  5
40C
330
2
100
AcDbSymbolTableRecord
100
AcDbLayerTableRecord
  2
Defpoints
 70
     0
 62
     7
  6
Continuous
290
     0
370
    -3
390
F
347
3D9
  0
ENDTAB
  0
TABLE
  2
STYLE
  5
3
330
0
100
AcDbSymbolTable
 70
     4
  0
STYLE
  5
11
330
3
100
AcDbSymbolTableRecord
100
AcDbTextStyleTableRecord
  2
Standard
 70
     0
 40
0.0
 41
1.0
 50
0.0
 71
     0
 42
0.1377952755905512
  3
txt
  4

  0
STYLE
  5
E5
330
3
100
AcDbSymbolTableRecord
100
AcDbTextStyleTableRecord
  2
SLDTEXTSTYLE0
 70
     0
 40
0.0
 41
0.75
 50
0.0
 71
     0
 42
0.1377952755905512
  3
TXT
  4

  0
ENDTAB
  0
TABLE
  2
VIEW
  5
6
330
0
100
AcDbSymbolTable
 70
     0
  0
ENDTAB
  0
TABLE
  2
UCS
  5
7
330
0
100
AcDbSymbolTable
 70
     0
  0
ENDTAB
  0
TABLE
  2
APPID
  5
9
330
0
100
AcDbSymbolTable
 70
     5
  0
APPID
  5
12
330
9
100
AcDbSymbolTableRecord
100
AcDbRegAppTableRecord
  2
ACAD
 70
     0
  0
APPID
  5
402
330
9
100
AcDbSymbolTableRecord
100
AcDbRegAppTableRecord
  2
ACAD_EXEMPT_FROM_CAD_STANDARDS
 70
     0
  0
APPID
  5
419
330
9
100
AcDbSymbolTableRecord
100
AcDbRegAppTableRecord
  2
ACAD_DSTYLE_DIMJAG
 70
     0
  0
APPID
  5
41A
330
9
100
AcDbSymbolTableRecord
100
AcDbRegAppTableRecord
  2
ACAD_DSTYLE_DIMTALN
 70
     0
  0
APPID
  5
42E
330
9
100
AcDbSymbolTableRecord
100
AcDbRegAppTableRecord
  2
ACAD_NAV_VCDISPLAY
 70
     0
  0
ENDTAB
  0
TABLE
  2
DIMSTYLE
  5
A
330
0
100
AcDbSymbolTable
 70
     2
100
AcDbDimStyleTable
 71
     1
340
27
  0
DIMSTYLE
105
27
330
A
100
AcDbSymbolTableRecord
100
AcDbDimStyleTableRecord
  2
Standard
 70
     0
340
11
  0
ENDTAB
  0
TABLE
  2
BLOCK_RECORD
  5
1
330
0
100
AcDbSymbolTable
 70
     7
  0
BLOCK_RECORD
  5
1F
330
1
100
AcDbSymbolTableRecord
100
AcDbBlockTableRecord
  2
*Model_Space
340
22
 70
     0
280
     1
281
     0
  0
BLOCK_RECORD
  5
1B
330
1
100
AcDbSymbolTableRecord
100
AcDbBlockTableRecord
  2
*Paper_Space
340
1E
 70
     0
280
     1
281
     0
  0
BLOCK_RECORD
  5
23
330
1
100
AcDbSymbolTableRecord
100
AcDbBlockTableRecord
  2
*Paper_Space0
340
26
 70
     0
280
     1
281
     0
  0
BLOCK_RECORD
  5
29F
330
1
100
AcDbSymbolTableRecord
100
AcDbBlockTableRecord
  2
SW_CENTERMARKSYMBOL_0
340
0
102
{BLKREFS
331
2AA
102
}
 70
     0
280
     1
281
     0
  0
BLOCK_RECORD
  5
2AB
330
1
100
AcDbSymbolTableRecord
100
AcDbBlockTableRecord
  2
SW_CENTERMARKSYMBOL_1
340
0
102
{BLKREFS
331
2B6
102
}
 70
     0
280
     1
281
     0
  0
ENDTAB
  0
ENDSEC
  0
SECTION
  2
BLOCKS
  0
BLOCK
  5
20
330
1F
100
AcDbEntity
  8
0
100
AcDbBlockBegin
  2
*Model_Space
 70
     0
 10
0.0
 20
0.0
 30
0.0
  3
*Model_Space
  1

  0
ENDBLK
  5
21
330
1F
100
AcDbEntity
  8
0
100
AcDbBlockEnd
  0
BLOCK
  5
1C
330
1B
100
AcDbEntity
 67
     1
  8
0
100
AcDbBlockBegin
  2
*Paper_Space
 70
     0
 10
0.0
 20
0.0
 30
0.0
  3
*Paper_Space
  1

  0
ENDBLK
  5
1D
330
1B
100
AcDbEntity
 67
     1
  8
0
100
AcDbBlockEnd
  0
BLOCK
  5
24
330
23
100
AcDbEntity
 67
     1
  8
0
100
AcDbBlockBegin
  2
*Paper_Space0
 70
     0
 10
0.0
 20
0.0
 30
0.0
  3
*Paper_Space0
  1

  0
ENDBLK
  5
25
330
23
100
AcDbEntity
 67
     1
  8
0
100
AcDbBlockEnd
  0
BLOCK
  5
2A0
330
29F
100
AcDbEntity
  8
0
100
AcDbBlockBegin
  2
SW_CENTERMARKSYMBOL_0
 70
     0
 10
0.0
 20
0.0
 30
0.0
  3
SW_CENTERMARKSYMBOL_0
  1

  0
LINE
  5
2A2
330
29F
100
AcDbEntity
  8
0
  6
Continuous
 62
     0
370
     0
100
AcDbLine
 10
0.0
 20
0.0
 30
0.0
 11
0.0
 21
0.0492125984251958
 31
0.0
  0
LINE
  5
2A3
330
29F
100
AcDbEntity
  8
0
  6
Continuous
 62
     0
370
     0
100
AcDbLine
 10
0.0
 20
0.0
 30
0.0
 11
-0.0492125984251958
 21
0.0
 31
0.0
  0
LINE
  5
2A4
330
29F
100
AcDbEntity
  8
0
  6
Continuous
 62
     0
370
     0
100
AcDbLine
 10
0.0
 20
0.0
 30
0.0
 11
0.0
 21
-0.0492125984251958
 31
0.0
  0
LINE
  5
2A5
330
29F
100
AcDbEntity
  8
0
  6
Continuous
 62
     0
370
     0
100
AcDbLine
 10
0.0
 20
0.0
 30
0.0
 11
0.0492125984251958
 21
0.0
 31
0.0
  0
LINE
  5
2A6
330
29F
100
AcDbEntity
  8
0
  6
Continuous
 62
     0
370
     0
100
AcDbLine
 10
0.0
 20
0.0984251968503938
 30
0.0
 11
0.0
 21
0.4822834645669286
 31
0.0
  0
LINE
  5
2A7
330
29F
100
AcDbEntity
  8
0
  6
Continuous
 62
     0
370
     0
100
AcDbLine
 10
-0.0984251968503916
 20
0.0
 30
0.0
 11
-0.4822834645669286
 21
0.0
 31
0.0
  0
LINE
  5
2A8
330
29F
100
AcDbEntity
  8
0
  6
Continuous
 62
     0
370
     0
100
AcDbLine
 10
0.0
 20
-0.0984251968503938
 30
0.0
 11
0.0
 21
-0.4822834645669286
 31
0.0
  0
LINE
  5
2A9
330
29F
100
AcDbEntity
  8
0
  6
Continuous
 62
     0
370
     0
100
AcDbLine
 10
0.0984251968503916
 20
0.0
 30
0.0
 11
0.4822834645669286
 21
0.0
 31
0.0
  0
ENDBLK
  5
2A1
330
29F
100
AcDbEntity
  8
0
100
AcDbBlockEnd
  0
BLOCK
  5
2AC
330
2AB
100
AcDbEntity
  8
0
100
AcDbBlockBegin
  2
SW_CENTERMARKSYMBOL_1
 70
     0
 10
0.0
 20
0.0
 30
0.0
  3
SW_CENTERMARKSYMBOL_1
  1

  0
LINE
  5
2AE
330
2AB
100
AcDbEntity
  8
0
  6
Continuous
 62
     0
370
     0
100
AcDbLine
 10
0.0
 20
0.0
 30
0.0
 11
0.0
 21
0.0492125984251958
 31
0.0
  0
LINE
  5
2AF
330
2AB
100
AcDbEntity
  8
0
  6
Continuous
 62
     0
370
     0
100
AcDbLine
 10
0.0
 20
0.0
 30
0.0
 11
-0.0492125984251958
 21
0.0
 31
0.0
  0
LINE
  5
2B0
330
2AB
100
AcDbEntity
  8
0
  6
Continuous
 62
     0
370
     0
100
AcDbLine
 10
0.0
 20
0.0
 30
0.0
 11
0.0
 21
-0.0492125984251958
 31
0.0
  0
LINE
  5
2B1
330
2AB
100
AcDbEntity
  8
0
  6
Continuous
 62
     0
370
     0
100
AcDbLine
 10
0.0
 20
0.0
 30
0.0
 11
0.0492125984251958
 21
0.0
 31
0.0
  0
LINE
  5
2B2
330
2AB
100
AcDbEntity
  8
0
  6
Continuous
 62
     0
370
     0
100
AcDbLine
 10
0.0
 20
0.0984251968503938
 30
0.0
 11
0.0
 21
0.3937007874015752
 31
0.0
  0
LINE
  5
2B3
330
2AB
100
AcDbEntity
  8
0
  6
Continuous
 62
     0
370
     0
100
AcDbLine
 10
-0.098425196850396
 20
0.0
 30
0.0
 11
-0.3937007874015752
 21
0.0
 31
0.0
  0
LINE
  5
2B4
330
2AB
100
AcDbEntity
  8
0
  6
Continuous
 62
     0
370
     0
100
AcDbLine
 10
0.0
 20
-0.0984251968503938
 30
0.0
 11
0.0
 21
-0.3937007874015752
 31
0.0
  0
LINE
  5
2B5
330
2AB
100
AcDbEntity
  8
0
  6
Continuous
 62
     0
370
     0
100
AcDbLine
 10
0.098425196850396
 20
0.0
 30
0.0
 11
0.3937007874015752
 21
0.0
 31
0.0
  0
ENDBLK
  5
2AD
330
2AB
100
AcDbEntity
  8
0
100
AcDbBlockEnd
  0
ENDSEC
  0
SECTION
  2
ENTITIES
  0
LINE
  5
1AF
330
1F
100
AcDbEntity
  8
0
  6
Continuous
100
AcDbLine
 10
23.29016181682474
 20
24.27591235464273
 30
0.0
 11
23.29730173425144
 21
24.27618084910906
 31
0.0
  0
SPLINE
  5
1B0
330
1F
100
AcDbEntity
  8
0
  6
Continuous
100
AcDbSpline
210
0.0
220
0.0
230
1.0
 70
     8
 71
     3
 72
    15
 73
    11
 74
     0
 42
0.0000000001
 43
0.0000000001
 40
0.0
 40
0.0
 40
0.0
 40
0.0
 40
0.1191701589215907
 40
0.2527866701843326
 40
0.3861255746433812
 40
0.5188519189659822
 40
0.6503356125693485
 40
0.7816119585927211
 40
0.917672282844769
 40
1.0
 40
1.0
 40
1.0
 40
1.0
 10
26.86436134757166
 20
18.21064844682728
 30
0.0
 10
26.85602654733092
 20
18.21096677815747
 30
0.0
 10
26.83834656419943
 20
18.21164203039932
 30
0.0
 10
26.8124495901313
 20
18.2171939458959
 30
0.0
 10
26.78811151857989
 20
18.2259770913748
 30
0.0
 10
26.76763921751478
 20
18.23762280632068
 30
0.0
 10
26.75182067723485
 20
18.25116700941985
 30
0.0
 10
26.74144777713296
 20
18.26587771075076
 30
0.0
 10
26.73633555928662
 20
18.27867018096453
 30
0.0
 10
26.73667556859923
 20
18.28658323303011
 30
0.0
 10
26.73680374498809
 20
18.28956628790844
 30
0.0
  0
SPLINE
  5
1B1
330
1F
100
AcDbEntity
  8
0
  6
Continuous
100
AcDbSpline
210
0.0
220
0.0
230
1.0
 70
     8
 71
     3
 72
    15
 73
    11
 74
     0
 42
0.0000000001
 43
0.0000000001
 40
0.0
 40
0.0
 40
0.0
 40
0.0
 40
0.0781933010912469
 40
0.212229848479463
 40
0.355548366675562
 40
0.4937418861737803
 40
0.6265635182181473
 40
0.7601767727684586
 40
0.8947159623695837
 40
1.0
 40
1.0
 40
1.0
 40
1.0
 10
27.9755948540134
 20
18.28964322243172
 30
0.0
 10
27.97575341481838
 20
18.28680929954712
 30
0.0
 10
27.97618377566959
 20
18.27911755337441
 30
0.0
 10
27.97115265539824
 20
18.26611753280134
 30
0.0
 10
27.96038612584837
 20
18.25074969665052
 30
0.0
 10
27.94343025254059
 20
18.23663679161162
 30
0.0
 10
27.92218141255602
 20
18.2250170300092
 30
0.0
 10
27.89746475753586
 20
18.21650964516172
 30
0.0
 10
27.87223484330631
 20
18.21141322888428
 30
0.0
 10
27.85544773862336
 20
18.21096565089656
 30
0.0
 10
27.84807808480981
 20
18.21076916109761
 30
0.0
  0
SPLINE
  5
1B2
330
1F
100
AcDbEntity
  8
0
  6
Continuous
100
AcDbSpline
210
0.0
220
0.0
230
1.0
 70
     8
 71
     3
 72
     9
 73
     5
 74
     0
 42
0.0000000001
 43
0.0000000001
 40
0.0
 40
0.0
 40
0.0
 40
0.0
 40
0.5114177730767813
 40
0.9999999999999998
 40
0.9999999999999998
 40
0.9999999999999998
 40
0.9999999999999998
 10
27.35621722836924
 20
18.20730454048266
 30
0.0
 10
27.27236170003533
 20
18.20750248279434
 30
0.0
 10
27.10839491446698
 20
18.20788952900607
 30
0.0
 10
26.94445365365894
 20
18.21010659247876
 30
0.0
 10
26.86435486736875
 20
18.21118981028747
 30
0.0
  0
SPLINE
  5
1B3
330
1F
100
AcDbEntity
  8
0
  6
Continuous
100
AcDbSpline
210
0.0
220
0.0
230
1.0
 70
     8
 71
     3
 72
     9
 73
     5
 74
     0
 42
0.0000000001
 43
0.0000000001
 40
0.0
 40
0.0
 40
0.0
 40
0.0
 40
0.1114864283133021
 40
1.0
 40
1.0
 40
1.0
 40
1.0
 10
27.84808207938173
 20
18.21085373982941
 30
0.0
 10
27.82980527167363
 20
18.21059938672463
 30
0.0
 10
27.6658677594166
 20
18.20831791526091
 30
0.0
 10
27.50190155115876
 20
18.20762832911626
 30
0.0
 10
27.35621534982366
 20
18.20701562246789
 30
0.0
  0
SPLINE
  5
1B4
330
1F
100
AcDbEntity
  8
0
  6
Continuous
100
AcDbSpline
210
0.0
220
0.0
230
1.0
 70
     8
 71
     3
 72
    58
 73
    54
 74
     0
 42
0.0000000001
 43
0.0000000001
 40
0.0
 40
0.0
 40
0.0
 40
0.0
 40
0.0078124999999997
 40
0.0078124999999997
 40
0.0156249999999994
 40
0.0312499999999989
 40
0.0312499999999989
 40
0.0624999999999984
 40
0.0624999999999984
 40
0.1249999999999981
 40
0.1249999999999981
 40
0.1874999999999979
 40
0.1874999999999979
 40
0.2187499999999981
 40
0.2187499999999981
 40
0.2499999999999983
 40
0.2499999999999983
 40
0.3749999999999984
 40
0.3749999999999984
 40
0.4374999999999981
 40
0.4374999999999981
 40
0.4687499999999986
 40
0.4687499999999986
 40
0.4843749999999988
 40
0.4843749999999988
 40
0.4999999999999992
 40
0.4999999999999992
 40
0.5624999999999992
 40
0.5624999999999992
 40
0.6249999999999992
 40
0.6249999999999992
 40
0.6874999999999992
 40
0.6874999999999992
 40
0.7187499999999996
 40
0.7187499999999996
 40
0.75
 40
0.75
 40
0.8125
 40
0.8125
 40
0.8750000000000001
 40
0.8750000000000001
 40
0.9062500000000001
 40
0.9062500000000001
 40
0.9375000000000001
 40
0.9375000000000001
 40
0.96875
 40
0.96875
 40
0.984375
 40
0.984375
 40
0.9921875
 40
0.9960937499999998
 40
0.9960937499999998
 40
1.0
 40
1.0
 40
1.0
 40
1.0
 10
31.41513797765887
 20
24.27702215074523
 30
0.0
 10
31.42124510116644
 20
24.27682987860826
 30
0.0
 10
31.4274121453673
 20
24.27661959698618
 30
0.0
 10
31.43967971357481
 20
24.27616840621948
 30
0.0
 10
31.45807444943444
 20
24.27544273789511
 30
0.0
 10
31.47644923729833
 20
24.27456820570327
 30
0.0
 10
31.51317185116143
 20
24.27261377736309
 30
0.0
 10
31.53761768836566
 20
24.27103738985027
 30
0.0
 10
31.61084309536145
 20
24.26541969421458
 30
0.0
 10
31.65951137419126
 20
24.26049607207085
 30
0.0
 10
31.75650976289247
 20
24.24777621874387
 30
0.0
 10
31.80483957090284
 20
24.23997978203873
 30
0.0
 10
31.87702752481049
 20
24.22561225469549
 30
0.0
 10
31.90103882863606
 20
24.22037655054977
 30
0.0
 10
31.94894735925169
 20
24.2089178156252
 30
0.0
 10
31.97289869215101
 20
24.20267877652947
 30
0.0
 10
32.0914587232727
 20
24.16902358388729
 30
0.0
 10
32.18262883859641
 20
24.13418528248854
 30
0.0
 10
32.31300911545339
 20
24.06833594559696
 30
0.0
 10
32.35541097077568
 20
24.0441299972119
 30
0.0
 10
32.41732621788383
 20
24.0042382884694
 30
0.0
 10
32.43768261008029
 20
23.99034208990093
 30
0.0
 10
32.46777918608125
 20
23.96856926403076
 30
0.0
 10
32.47775408701991
 20
23.96114429833539
 30
0.0
 10
32.4974286634776
 20
23.94607690348978
 30
0.0
 10
32.50713870530796
 20
23.93842773933648
 30
0.0
 10
32.55505714669749
 20
23.89960866218299
 30
0.0
 10
32.59137996540844
 20
23.86672792430083
 30
0.0
 10
32.66009890552399
 20
23.79740549992188
 30
0.0
 10
32.69249670491946
 20
23.76096532517122
 30
0.0
 10
32.75334023493609
 20
23.68450228778955
 30
0.0
 10
32.7817888758649
 20
23.64448208020171
 30
0.0
 10
32.82137643590309
 20
23.58165547905962
 30
0.0
 10
32.83406091639842
 20
23.56022850516025
 30
0.0
 10
32.85805016814645
 20
23.51702228867059
 30
0.0
 10
32.86940077163951
 20
23.49517167737694
 30
0.0
 10
32.90155948205665
 20
23.42889235028093
 30
0.0
 10
32.92047952375535
 20
23.38373808356565
 30
0.0
 10
32.95333157814114
 20
23.29151288147294
 30
0.0
 10
32.96726396410288
 20
23.24444209481327
 30
0.0
 10
32.98432583223892
 20
23.17236175497439
 30
0.0
 10
32.98938191500922
 20
23.14803028881966
 30
0.0
 10
32.99812365499665
 20
23.09917288281839
 30
0.0
 10
33.00180906033143
 20
23.07467436233157
 30
0.0
 10
33.00782033592487
 20
23.0255388617929
 30
0.0
 10
33.01014558203336
 20
23.00090181769995
 30
0.0
 10
33.01261280825882
 20
22.96384231308604
 30
0.0
 10
33.01326505369853
 20
22.95147181621231
 30
0.0
 10
33.01398718060913
 20
22.93288997772718
 30
0.0
 10
33.01428417140097
 20
22.92359253393267
 30
0.0
 10
33.0144847535343
 20
22.91428527303149
 30
0.0
 10
33.01459700960452
 20
22.90807824668143
 30
0.0
 10
33.01464279511411
 20
22.90493857018817
 30
0.0
 10
33.01467704662677
 20
22.90186795308919
 30
0.0
  0
SPLINE
  5
1B5
330
1F
100
AcDbEntity
  8
0
  6
Continuous
100
AcDbSpline
210
0.0
220
0.0
230
1.0
 70
    24
 71
     3
 72
    14
 73
    10
 74
     0
 42
0.0000000001
 43
0.0000000001
 40
0.0
 40
0.0
 40
0.0
 40
0.0
 40
0.25
 40
0.25
 40
0.5
 40
0.5
 40
0.75
 40
0.75
 40
1.0
 40
1.0
 40
1.0
 40
1.0
 10
31.41881436214529
 20
24.39507735142865
 30
0.0
 10
31.41833464548064
 20
24.37957247040508
 30
0.0
 10
31.41785512009231
 20
24.36407377160649
 30
0.0
 10
31.41696920224891
 20
24.33544009725031
 30
0.0
 10
31.41656316303381
 20
24.32231653873076
 30
0.0
 10
31.41588652556734
 20
24.30044699742236
 30
0.0
 10
31.41561619711006
 20
24.2917097346246
 30
0.0
 10
31.41525253317063
 20
24.2799557837425
 30
0.0
 10
31.41515934269135
 20
24.27694378228352
 30
0.0
 10
31.41516186282022
 20
24.27702523515201
 30
0.0
  0
SPLINE
  5
1B6
330
1F
100
AcDbEntity
  8
0
  6
Continuous
100
AcDbSpline
210
0.0
220
0.0
230
1.0
 70
     8
 71
     3
 72
    44
 73
    40
 74
     0
 42
0.0000000001
 43
0.0000000001
 40
0.0
 40
0.0
 40
0.0
 40
0.0
 40
0.0625000000000035
 40
0.0625000000000035
 40
0.0937500000000053
 40
0.0937500000000053
 40
0.125000000000007
 40
0.125000000000007
 40
0.187500000000011
 40
0.187500000000011
 40
0.2500000000000148
 40
0.2500000000000148
 40
0.2812500000000164
 40
0.2812500000000164
 40
0.2968750000000169
 40
0.2968750000000169
 40
0.3125000000000173
 40
0.3125000000000173
 40
0.3750000000000173
 40
0.3750000000000173
 40
0.5000000000000173
 40
0.5000000000000173
 40
0.5156250000000171
 40
0.5156250000000171
 40
0.531250000000017
 40
0.531250000000017
 40
0.5625000000000165
 40
0.5625000000000165
 40
0.6250000000000144
 40
0.6250000000000144
 40
0.7500000000000094
 40
0.7500000000000094
 40
0.7812500000000084
 40
0.7812500000000084
 40
0.8125000000000072
 40
0.8125000000000072
 40
0.8750000000000051
 40
0.8750000000000051
 40
1.0
 40
1.0
 40
1.0
 40
1.0
 10
33.09674714162567
 20
22.9024372877578
 30
0.0
 10
33.09638213246377
 20
22.95505368061613
 30
0.0
 10
33.09309703507981
 20
23.00738373596687
 30
0.0
 10
33.08385696295309
 20
23.08545595186257
 30
0.0
 10
33.08005664432839
 20
23.11140939330578
 30
0.0
 10
33.0710075780696
 20
23.16317424639004
 30
0.0
 10
33.06575847528907
 20
23.18896076822445
 30
0.0
 10
33.04801027075842
 20
23.26536376214501
 30
0.0
 10
33.03347779673336
 20
23.31527538856707
 30
0.0
 10
32.99917137803115
 20
23.41311159047847
 30
0.0
 10
32.97939805351127
 20
23.46103640107057
 30
0.0
 10
32.94578950724969
 20
23.53142671097146
 30
0.0
 10
32.93392762805707
 20
23.55464030798279
 30
0.0
 10
32.91513014918002
 20
23.589079835057
 30
0.0
 10
32.90869679180999
 20
23.60049616608281
 30
0.0
 10
32.89549166562909
 20
23.62320053574974
 30
0.0
 10
32.88872022867241
 20
23.63448646942098
 30
0.0
 10
32.8542428753528
 20
23.69022428774363
 30
0.0
 10
32.82450804286973
 20
23.7329082536324
 30
0.0
 10
32.72913934563514
 20
23.85550217700063
 30
0.0
 10
32.65739209384384
 20
23.92999915136806
 30
0.0
 10
32.56750564477627
 20
24.00568814399245
 30
0.0
 10
32.55738969121146
 20
24.01398419188649
 30
0.0
 10
32.53689867308331
 20
24.03034686273385
 30
0.0
 10
32.52650849198904
 20
24.03842455763987
 30
0.0
 10
32.49513259478618
 20
24.0621722564425
 30
0.0
 10
32.47390286551426
 20
24.07739081266689
 30
0.0
 10
32.409309634035
 20
24.12127220464271
 30
0.0
 10
32.3650432865774
 20
24.14816311570346
 30
0.0
 10
32.22883705942584
 20
24.22214890576508
 30
0.0
 10
32.13349133532754
 20
24.26255947226501
 30
0.0
 10
32.00910305276383
 20
24.30285513120014
 30
0.0
 10
31.98393389215764
 20
24.31040858230561
 30
0.0
 10
31.93353181555766
 20
24.32440019810637
 30
0.0
 10
31.90824746673786
 20
24.33085671814533
 30
0.0
 10
31.83215951007508
 20
24.34870565131748
 30
0.0
 10
31.7811212488641
 20
24.35857910005945
 30
0.0
 10
31.62717467551283
 20
24.38281508306966
 30
0.0
 10
31.52344103195722
 20
24.39183506018052
 30
0.0
 10
31.41881424310554
 20
24.39507350552593
 30
0.0
  0
SPLINE
  5
1B7
330
1F
100
AcDbEntity
  8
0
  6
Continuous
100
AcDbSpline
210
0.0
220
0.0
230
1.0
 70
    24
 71
     3
 72
    10
 73
     6
 74
     0
 42
0.0000000001
 43
0.0000000001
 40
0.0
 40
0.0
 40
0.0
 40
0.0
 40
0.5
 40
0.5
 40
1.0
 40
1.0
 40
1.0
 40
1.0
 10
33.09674714162567
 20
22.9024372877578
 30
0.0
 10
33.081624500625
 20
22.90233237934015
 30
0.0
 10
33.06650730854921
 20
22.90222750872265
 30
0.0
 10
33.03846609263366
 20
22.90203298188104
 30
0.0
 10
33.02555217248405
 20
22.90194339574801
 30
0.0
 10
33.01467704662677
 20
22.90186795308919
 30
0.0
  0
SPLINE
  5
1B8
330
1F
100
AcDbEntity
  8
0
  6
Continuous
100
AcDbSpline
210
0.0
220
0.0
230
1.0
 70
     8
 71
     3
 72
    44
 73
    40
 74
     0
 42
0.0000000001
 43
0.0000000001
 40
0.0
 40
0.0
 40
0.0
 40
0.0
 40
0.0625000000000035
 40
0.0625000000000035
 40
0.0937500000000053
 40
0.0937500000000053
 40
0.125000000000007
 40
0.125000000000007
 40
0.187500000000011
 40
0.187500000000011
 40
0.2500000000000148
 40
0.2500000000000148
 40
0.2812500000000164
 40
0.2812500000000164
 40
0.2968750000000169
 40
0.2968750000000169
 40
0.3125000000000173
 40
0.3125000000000173
 40
0.3750000000000173
 40
0.3750000000000173
 40
0.5000000000000173
 40
0.5000000000000173
 40
0.5156250000000171
 40
0.5156250000000171
 40
0.531250000000017
 40
0.531250000000017
 40
0.5625000000000165
 40
0.5625000000000165
 40
0.6250000000000144
 40
0.6250000000000144
 40
0.7500000000000094
 40
0.7500000000000094
 40
0.7812500000000084
 40
0.7812500000000084
 40
0.8125000000000072
 40
0.8125000000000072
 40
0.8750000000000051
 40
0.8750000000000051
 40
1.0
 40
1.0
 40
1.0
 40
1.0
 10
21.61568413369174
 20
22.9024372877578
 30
0.0
 10
21.61604914285363
 20
22.95505368061613
 30
0.0
 10
21.61933424023759
 20
23.00738373596687
 30
0.0
 10
21.62857431236432
 20
23.08545595186257
 30
0.0
 10
21.63237463098901
 20
23.11140939330578
 30
0.0
 10
21.6414236972478
 20
23.16317424639004
 30
0.0
 10
21.64667280002833
 20
23.18896076822445
 30
0.0
 10
21.66442100455898
 20
23.26536376214501
 30
0.0
 10
21.67895347858403
 20
23.31527538856707
 30
0.0
 10
21.71325989728625
 20
23.41311159047847
 30
0.0
 10
21.73303322180613
 20
23.46103640107057
 30
0.0
 10
21.76664176806771
 20
23.53142671097146
 30
0.0
 10
21.77850364726033
 20
23.55464030798279
 30
0.0
 10
21.79730112613738
 20
23.589079835057
 30
0.0
 10
21.80373448350741
 20
23.60049616608281
 30
0.0
 10
21.8169396096883
 20
23.62320053574974
 30
0.0
 10
21.82371104664499
 20
23.63448646942098
 30
0.0
 10
21.8581883999646
 20
23.69022428774363
 30
0.0
 10
21.88792323244766
 20
23.7329082536324
 30
0.0
 10
21.98329192968226
 20
23.85550217700063
 30
0.0
 10
22.05503918147356
 20
23.92999915136806
 30
0.0
 10
22.14492563054113
 20
24.00568814399245
 30
0.0
 10
22.15504158410595
 20
24.01398419188649
 30
0.0
 10
22.17553260223409
 20
24.03034686273385
 30
0.0
 10
22.18592278332836
 20
24.03842455763987
 30
0.0
 10
22.21729868053122
 20
24.0621722564425
 30
0.0
 10
22.23852840980314
 20
24.07739081266689
 30
0.0
 10
22.3031216412824
 20
24.12127220464271
 30
0.0
 10
22.34738798873999
 20
24.14816311570346
 30
0.0
 10
22.48359421589156
 20
24.22214890576508
 30
0.0
 10
22.57893993998986
 20
24.26255947226501
 30
0.0
 10
22.70332822255357
 20
24.30285513120014
 30
0.0
 10
22.72849738315976
 20
24.31040858230561
 30
0.0
 10
22.77889945975974
 20
24.32440019810637
 30
0.0
 10
22.80418380857954
 20
24.33085671814533
 30
0.0
 10
22.88027176524232
 20
24.34870565131748
 30
0.0
 10
22.93131002645329
 20
24.35857910005945
 30
0.0
 10
23.08525659980457
 20
24.38281508306966
 30
0.0
 10
23.18899024336018
 20
24.39183506018052
 30
0.0
 10
23.29361703221186
 20
24.39507350552593
 30
0.0
  0
SPLINE
  5
1B9
330
1F
100
AcDbEntity
  8
0
  6
Continuous
100
AcDbSpline
210
0.0
220
0.0
230
1.0
 70
    24
 71
     3
 72
    14
 73
    10
 74
     0
 42
0.0000000001
 43
0.0000000001
 40
0.0
 40
0.0
 40
0.0
 40
0.0
 40
0.25
 40
0.25
 40
0.5
 40
0.5
 40
0.75
 40
0.75
 40
1.0
 40
1.0
 40
1.0
 40
1.0
 10
23.29361691317211
 20
24.39507735142865
 30
0.0
 10
23.29409662983675
 20
24.37957247040508
 30
0.0
 10
23.29457615522509
 20
24.36407377160649
 30
0.0
 10
23.29546207306848
 20
24.33544009725031
 30
0.0
 10
23.29586811228359
 20
24.32231653873076
 30
0.0
 10
23.29654474975006
 20
24.30044699742236
 30
0.0
 10
23.29681507820733
 20
24.2917097346246
 30
0.0
 10
23.29717874214676
 20
24.2799557837425
 30
0.0
 10
23.29727193262605
 20
24.27694378228352
 30
0.0
 10
23.29726941249717
 20
24.27702523515201
 30
0.0
  0
SPLINE
  5
1BA
330
1F
100
AcDbEntity
  8
0
  6
Continuous
100
AcDbSpline
210
0.0
220
0.0
230
1.0
 70
     8
 71
     3
 72
    58
 73
    54
 74
     0
 42
0.0000000001
 43
0.0000000001
 40
0.0
 40
0.0
 40
0.0
 40
0.0
 40
0.0078124999999997
 40
0.0078124999999997
 40
0.0156249999999994
 40
0.0312499999999989
 40
0.0312499999999989
 40
0.0624999999999984
 40
0.0624999999999984
 40
0.1249999999999981
 40
0.1249999999999981
 40
0.1874999999999979
 40
0.1874999999999979
 40
0.2187499999999981
 40
0.2187499999999981
 40
0.2499999999999983
 40
0.2499999999999983
 40
0.3749999999999984
 40
0.3749999999999984
 40
0.4374999999999981
 40
0.4374999999999981
 40
0.4687499999999986
 40
0.4687499999999986
 40
0.4843749999999988
 40
0.4843749999999988
 40
0.4999999999999992
 40
0.4999999999999992
 40
0.5624999999999992
 40
0.5624999999999992
 40
0.6249999999999992
 40
0.6249999999999992
 40
0.6874999999999992
 40
0.6874999999999992
 40
0.7187499999999996
 40
0.7187499999999996
 40
0.75
 40
0.75
 40
0.8125
 40
0.8125
 40
0.8750000000000001
 40
0.8750000000000001
 40
0.9062500000000001
 40
0.9062500000000001
 40
0.9375000000000001
 40
0.9375000000000001
 40
0.96875
 40
0.96875
 40
0.984375
 40
0.984375
 40
0.9921875
 40
0.9960937499999998
 40
0.9960937499999998
 40
1.0
 40
1.0
 40
1.0
 40
1.0
 10
23.29729329765854
 20
24.27702215074523
 30
0.0
 10
23.29118617412428
 20
24.27682987961878
 30
0.0
 10
23.2850191299501
 20
24.27661959698618
 30
0.0
 10
23.27275156174259
 20
24.27616840621948
 30
0.0
 10
23.25435682588296
 20
24.27544273789511
 30
0.0
 10
23.23598203801907
 20
24.27456820570327
 30
0.0
 10
23.19925942415598
 20
24.27261377736309
 30
0.0
 10
23.17481358695174
 20
24.27103738985027
 30
0.0
 10
23.10158817995595
 20
24.26541969421458
 30
0.0
 10
23.05291990112614
 20
24.26049607207085
 30
0.0
 10
22.95592151242493
 20
24.24777621874387
 30
0.0
 10
22.90759170441456
 20
24.23997978203873
 30
0.0
 10
22.83540375050691
 20
24.22561225469549
 30
0.0
 10
22.81139244668134
 20
24.22037655054977
 30
0.0
 10
22.76348391606571
 20
24.2089178156252
 30
0.0
 10
22.73953258316639
 20
24.20267877652947
 30
0.0
 10
22.62097255204469
 20
24.16902358388729
 30
0.0
 10
22.52980243672098
 20
24.13418528248854
 30
0.0
 10
22.39942215986401
 20
24.06833594559696
 30
0.0
 10
22.35702030454172
 20
24.0441299972119
 30
0.0
 10
22.29510505743357
 20
24.0042382884694
 30
0.0
 10
22.27474866523711
 20
23.99034208990093
 30
0.0
 10
22.24465208923614
 20
23.96856926403076
 30
0.0
 10
22.23467718829749
 20
23.96114429833539
 30
0.0
 10
22.2150026118398
 20
23.94607690348978
 30
0.0
 10
22.20529257000944
 20
23.93842773933648
 30
0.0
 10
22.15737412861991
 20
23.89960866218299
 30
0.0
 10
22.12105130990895
 20
23.86672792430083
 30
0.0
 10
22.05233236979341
 20
23.79740549992188
 30
0.0
 10
22.01993457039794
 20
23.76096532517122
 30
0.0
 10
21.95909104038131
 20
23.68450228778955
 30
0.0
 10
21.9306423994525
 20
23.64448208020171
 30
0.0
 10
21.89105483941431
 20
23.58165547905962
 30
0.0
 10
21.87837035891897
 20
23.56022850516025
 30
0.0
 10
21.85438110717095
 20
23.51702228867059
 30
0.0
 10
21.84303050367788
 20
23.49517167737694
 30
0.0
 10
21.81087179326075
 20
23.42889235028093
 30
0.0
 10
21.79195175156205
 20
23.38373808356565
 30
0.0
 10
21.75909969717626
 20
23.29151288147294
 30
0.0
 10
21.74516731121452
 20
23.24444209481327
 30
0.0
 10
21.72810544307848
 20
23.17236175497439
 30
0.0
 10
21.72304936030817
 20
23.14803028881966
 30
0.0
 10
21.71430762032075
 20
23.09917288281839
 30
0.0
 10
21.71062221498596
 20
23.07467436233157
 30
0.0
 10
21.70461093939252
 20
23.0255388617929
 30
0.0
 10
21.70228569328404
 20
23.00090181769995
 30
0.0
 10
21.69981846705859
 20
22.96384231308604
 30
0.0
 10
21.69916622161888
 20
22.95147181621231
 30
0.0
 10
21.69844409470827
 20
22.93288997772718
 30
0.0
 10
21.69814710391642
 20
22.92359253393267
 30
0.0
 10
21.6979465217831
 20
22.91428527303149
 30
0.0
 10
21.69783426571288
 20
22.90807824668143
 30
0.0
 10
21.69778847954152
 20
22.9049385701928
 30
0.0
 10
21.69775422869063
 20
22.90186795308919
 30
0.0
  0
SPLINE
  5
1BB
330
1F
100
AcDbEntity
  8
0
  6
Continuous
100
AcDbSpline
210
0.0
220
0.0
230
1.0
 70
    24
 71
     3
 72
    10
 73
     6
 74
     0
 42
0.0000000001
 43
0.0000000001
 40
0.0
 40
0.0
 40
0.0
 40
0.0
 40
0.5
 40
0.5
 40
1.0
 40
1.0
 40
1.0
 40
1.0
 10
21.61568413369174
 20
22.9024372877578
 30
0.0
 10
21.6308067746924
 20
22.90233237934015
 30
0.0
 10
21.64592396676818
 20
22.90222750872265
 30
0.0
 10
21.67396518268374
 20
22.90203298188104
 30
0.0
 10
21.68687910283335
 20
22.90194339574801
 30
0.0
 10
21.69775422869063
 20
22.90186795308919
 30
0.0
  0
SPLINE
  5
1BC
330
1F
100
AcDbEntity
  8
0
  6
Continuous
100
AcDbSpline
210
0.0
220
0.0
230
1.0
 70
     8
 71
     3
 72
    41
 73
    37
 74
     0
 42
0.0000000001
 43
0.0000000001
 40
0.0
 40
0.0
 40
0.0
 40
0.0
 40
0.0039062499999994
 40
0.0039062499999994
 40
0.0078124999999988
 40
0.0156249999999986
 40
0.0312499999999988
 40
0.0624999999999984
 40
0.0624999999999984
 40
0.1249999999999955
 40
0.1249999999999955
 40
0.2499999999999896
 40
0.2499999999999896
 40
0.2812499999999886
 40
0.2812499999999886
 40
0.3124999999999876
 40
0.3124999999999876
 40
0.3749999999999852
 40
0.3749999999999852
 40
0.49999999999998
 40
0.49999999999998
 40
0.5624999999999769
 40
0.5624999999999769
 40
0.5781249999999752
 40
0.5781249999999752
 40
0.585937499999975
 40
0.585937499999975
 40
0.5937499999999746
 40
0.5937499999999746
 40
0.6093749999999752
 40
0.6093749999999752
 40
0.6249999999999756
 40
0.6249999999999756
 40
0.7499999999999837
 40
0.7499999999999837
 40
1.0
 40
1.0
 40
1.0
 40
1.0
 10
32.52122073881528
 20
18.2050955174583
 30
0.0
 10
32.51965576182725
 20
18.203755279366
 30
0.0
 10
32.5180352797113
 20
18.20237407299021
 30
0.0
 10
32.51484218613818
 20
18.19966576104395
 30
0.0
 10
32.51004493320284
 20
18.19561642710831
 30
0.0
 10
32.49879819342636
 20
18.18625968102229
 30
0.0
 10
32.47609317272747
 20
18.16791116964154
 30
0.0
 10
32.4562723603323
 20
18.15280392192485
 30
0.0
 10
32.41615851718475
 20
18.12340423718655
 30
0.0
 10
32.38878675157021
 20
18.10489013650943
 30
0.0
 10
32.30481454395523
 20
18.05255236725193
 30
0.0
 10
32.24636626547454
 20
18.02191751128584
 30
0.0
 10
32.17018172892347
 20
17.98901747879154
 30
0.0
 10
32.15478785336836
 20
17.98270846443709
 30
0.0
 10
32.12368217772495
 20
17.97063937605885
 30
0.0
 10
32.10793469008748
 20
17.96486726610664
 30
0.0
 10
32.06050842534277
 20
17.94848972629428
 30
0.0
 10
32.02868007215137
 20
17.93882572082178
 30
0.0
 10
31.93258799201134
 20
17.91345648278059
 30
0.0
 10
31.86771894106055
 20
17.90136306888529
 30
0.0
 10
31.76926355987364
 20
17.89015628647012
 30
0.0
 10
31.73625292916927
 20
17.88757737913101
 30
0.0
 10
31.69475252002787
 20
17.88578967106214
 30
0.0
 10
31.68644049407741
 20
17.8855045154423
 30
0.0
 10
31.67395535742002
 20
17.88517980247062
 30
0.0
 10
31.66979078901839
 20
17.88508886104994
 30
0.0
 10
31.66145366076182
 20
17.88495796734568
 30
0.0
 10
31.65728351256636
 20
17.88489913418953
 30
0.0
 10
31.6447940480008
 20
17.88456245817762
 30
0.0
 10
31.63647471337951
 20
17.88428310472519
 30
0.0
 10
31.61983155143265
 20
17.88376139206889
 30
0.0
 10
31.61150992239698
 20
17.88350251060848
 30
0.0
 10
31.53661535740296
 20
17.88115503233772
 30
0.0
 10
31.47004216788274
 20
17.8790061804539
 30
0.0
 10
31.27031595273243
 20
17.87258224018735
 30
0.0
 10
31.13715574740127
 20
17.86834158503801
 30
0.0
 10
31.00398288236922
 20
17.86435368681239
 30
0.0
  0
SPLINE
  5
1BD
330
1F
100
AcDbEntity
  8
0
  6
Continuous
100
AcDbSpline
210
0.0
220
0.0
230
1.0
 70
    24
 71
     3
 72
     8
 73
     4
 74
     0
 42
0.0000000001
 43
0.0000000001
 40
0.0
 40
0.0
 40
0.0
 40
0.0
 40
1.0
 40
1.0
 40
1.0
 40
1.0
 10
32.55820565617487
 20
18.16236343817403
 30
0.0
 10
32.54535058099888
 20
18.1772160876834
 30
0.0
 10
32.53250862638913
 20
18.19205357779705
 30
0.0
 10
32.52122068877922
 20
18.20509556928354
 30
0.0
  0
SPLINE
  5
1BE
330
1F
100
AcDbEntity
  8
0
  6
Continuous
100
AcDbSpline
210
0.0
220
0.0
230
1.0
 70
     8
 71
     3
 72
    30
 73
    26
 74
     0
 42
0.0000000001
 43
0.0000000001
 40
0.0
 40
0.0
 40
0.0
 40
0.0
 40
0.249999999999992
 40
0.249999999999992
 40
0.374999999999988
 40
0.374999999999988
 40
0.3906249999999878
 40
0.3906249999999878
 40
0.4062499999999875
 40
0.4062499999999875
 40
0.437499999999988
 40
0.437499999999988
 40
0.4999999999999887
 40
0.4999999999999887
 40
0.6249999999999915
 40
0.6249999999999915
 40
0.687499999999993
 40
0.687499999999993
 40
0.7187499999999938
 40
0.7187499999999938
 40
0.7499999999999946
 40
0.7499999999999946
 40
0.8749999999999973
 40
0.8749999999999973
 40
1.0
 40
1.0
 40
1.0
 40
1.0
 10
31.00774629281389
 20
17.76732740531718
 30
0.0
 10
31.14478254410541
 20
17.77264270392919
 30
0.0
 10
31.28178544744599
 20
17.77878507586281
 30
0.0
 10
31.48721867401806
 20
17.78976271319056
 30
0.0
 10
31.5556846709982
 20
17.79371322240037
 30
0.0
 10
31.63269516635278
 20
17.79849859441474
 30
0.0
 10
31.64125191182054
 20
17.79903492866459
 30
0.0
 10
31.65836396697997
 20
17.80011379064592
 30
0.0
 10
31.66692111577294
 20
17.8006479919134
 30
0.0
 10
31.69253825677468
 20
17.80250389462482
 30
0.0
 10
31.70955858882684
 20
17.80401058464496
 30
0.0
 10
31.76044611192151
 20
17.80933979257805
 30
0.0
 10
31.7941402430557
 20
17.81396952127344
 30
0.0
 10
31.89452692335827
 20
17.83110375193048
 30
0.0
 10
31.96052637018214
 20
17.84684112100348
 30
0.0
 10
32.05808559775501
 20
17.87716356118199
 30
0.0
 10
32.09036474485154
 20
17.88839326085566
 30
0.0
 10
32.13840969607292
 20
17.90698119918273
 30
0.0
 10
32.15432191614533
 20
17.91345329340415
 30
0.0
 10
32.18579577283004
 20
17.92688644200968
 30
0.0
 10
32.20137982172467
 20
17.93385613342973
 30
0.0
 10
32.27854293393157
 20
17.96995814775766
 30
0.0
 10
32.33785998169478
 20
18.00283561014365
 30
0.0
 10
32.45169291243247
 20
18.07653965436298
 30
0.0
 10
32.50621140198548
 20
18.11736192057608
 30
0.0
 10
32.55820571650416
 20
18.16236337449397
 30
0.0
  0
LINE
  5
1BF
330
1F
100
AcDbEntity
  8
0
  6
Continuous
100
AcDbLine
 10
31.00398288237161
 20
17.86435368681246
 30
0.0
 11
31.00774629281389
 21
17.76732740531717
 31
0.0
  0
SPLINE
  5
1C0
330
1F
100
AcDbEntity
  8
0
  6
Continuous
100
AcDbSpline
210
0.0
220
0.0
230
1.0
 70
     8
 71
     3
 72
    30
 73
    26
 74
     0
 42
0.0000000001
 43
0.0000000001
 40
0.0
 40
0.0
 40
0.0
 40
0.0
 40
0.249999999999992
 40
0.249999999999992
 40
0.374999999999988
 40
0.374999999999988
 40
0.3906249999999878
 40
0.3906249999999878
 40
0.4062499999999875
 40
0.4062499999999875
 40
0.437499999999988
 40
0.437499999999988
 40
0.4999999999999887
 40
0.4999999999999887
 40
0.6249999999999915
 40
0.6249999999999915
 40
0.687499999999993
 40
0.687499999999993
 40
0.7187499999999938
 40
0.7187499999999938
 40
0.7499999999999946
 40
0.7499999999999946
 40
0.8749999999999973
 40
0.8749999999999973
 40
1.0
 40
1.0
 40
1.0
 40
1.0
 10
23.7046849825035
 20
17.76732740531718
 30
0.0
 10
23.56764873121199
 20
17.77264270392919
 30
0.0
 10
23.4306458278714
 20
17.77878507586281
 30
0.0
 10
23.22521260129933
 20
17.78976271319056
 30
0.0
 10
23.1567466043192
 20
17.79371322240037
 30
0.0
 10
23.07973610896461
 20
17.79849859441474
 30
0.0
 10
23.07117936349685
 20
17.79903492866459
 30
0.0
 10
23.05406730833742
 20
17.80011379064592
 30
0.0
 10
23.04551015954445
 20
17.8006479919134
 30
0.0
 10
23.01989301854272
 20
17.80250389462482
 30
0.0
 10
23.00287268649055
 20
17.80401058464496
 30
0.0
 10
22.95198516339588
 20
17.80933979257805
 30
0.0
 10
22.91829103226169
 20
17.81396952127344
 30
0.0
 10
22.81790435195913
 20
17.83110375193048
 30
0.0
 10
22.75190490513525
 20
17.84684112100348
 30
0.0
 10
22.65434567756239
 20
17.87716356118199
 30
0.0
 10
22.62206653046586
 20
17.88839326085566
 30
0.0
 10
22.57402157924448
 20
17.90698119918273
 30
0.0
 10
22.55810935917207
 20
17.91345329340415
 30
0.0
 10
22.52663550248736
 20
17.92688644200968
 30
0.0
 10
22.51105145359272
 20
17.93385613342973
 30
0.0
 10
22.43388834138583
 20
17.96995814775766
 30
0.0
 10
22.37457129362262
 20
18.00283561014365
 30
0.0
 10
22.26073836288493
 20
18.07653965436298
 30
0.0
 10
22.20621987333192
 20
18.11736192057608
 30
0.0
 10
22.15422555881323
 20
18.16236337449397
 30
0.0
  0
SPLINE
  5
1C1
330
1F
100
AcDbEntity
  8
0
  6
Continuous
100
AcDbSpline
210
0.0
220
0.0
230
1.0
 70
    24
 71
     3
 72
     8
 73
     4
 74
     0
 42
0.0000000001
 43
0.0000000001
 40
0.0
 40
0.0
 40
0.0
 40
0.0
 40
1.0
 40
1.0
 40
1.0
 40
1.0
 10
22.15422561914253
 20
18.16236343817403
 30
0.0
 10
22.16708069431851
 20
18.1772160876834
 30
0.0
 10
22.17992264892828
 20
18.19205357779705
 30
0.0
 10
22.19121058653817
 20
18.20509556928354
 30
0.0
  0
SPLINE
  5
1C2
330
1F
100
AcDbEntity
  8
0
  6
Continuous
100
AcDbSpline
210
0.0
220
0.0
230
1.0
 70
     8
 71
     3
 72
    41
 73
    37
 74
     0
 42
0.0000000001
 43
0.0000000001
 40
0.0
 40
0.0
 40
0.0
 40
0.0
 40
0.0039062499999994
 40
0.0039062499999994
 40
0.0078124999999988
 40
0.0156249999999986
 40
0.0312499999999988
 40
0.0624999999999984
 40
0.0624999999999984
 40
0.1249999999999955
 40
0.1249999999999955
 40
0.2499999999999896
 40
0.2499999999999896
 40
0.2812499999999886
 40
0.2812499999999886
 40
0.3124999999999876
 40
0.3124999999999876
 40
0.3749999999999852
 40
0.3749999999999852
 40
0.49999999999998
 40
0.49999999999998
 40
0.5624999999999769
 40
0.5624999999999769
 40
0.5781249999999752
 40
0.5781249999999752
 40
0.585937499999975
 40
0.585937499999975
 40
0.5937499999999746
 40
0.5937499999999746
 40
0.6093749999999752
 40
0.6093749999999752
 40
0.6249999999999756
 40
0.6249999999999756
 40
0.7499999999999837
 40
0.7499999999999837
 40
1.0
 40
1.0
 40
1.0
 40
1.0
 10
22.19121053650212
 20
18.2050955174583
 30
0.0
 10
22.19277551335855
 20
18.20375527921409
 30
0.0
 10
22.1943959956061
 20
18.20237407299021
 30
0.0
 10
22.19758908917922
 20
18.19966576104395
 30
0.0
 10
22.20238634211455
 20
18.19561642710831
 30
0.0
 10
22.21363308189104
 20
18.18625968102229
 30
0.0
 10
22.23633810258993
 20
18.16791116964154
 30
0.0
 10
22.2561589149851
 20
18.15280392192485
 30
0.0
 10
22.29627275813265
 20
18.12340423718655
 30
0.0
 10
22.32364452374718
 20
18.10489013650943
 30
0.0
 10
22.40761673136216
 20
18.05255236725193
 30
0.0
 10
22.46606500984286
 20
18.02191751128584
 30
0.0
 10
22.54224954639393
 20
17.98901747879154
 30
0.0
 10
22.55764342194903
 20
17.98270846443709
 30
0.0
 10
22.58874909759244
 20
17.97063937605885
 30
0.0
 10
22.60449658522992
 20
17.96486726610664
 30
0.0
 10
22.65192284997463
 20
17.94848972629428
 30
0.0
 10
22.68375120316602
 20
17.93882572082178
 30
0.0
 10
22.77984328330606
 20
17.91345648278059
 30
0.0
 10
22.84471233425685
 20
17.90136306888529
 30
0.0
 10
22.94316771544375
 20
17.89015628647012
 30
0.0
 10
22.97617834614812
 20
17.88757737913101
 30
0.0
 10
23.01767875528953
 20
17.88578967106214
 30
0.0
 10
23.02599078123999
 20
17.8855045154423
 30
0.0
 10
23.03847591789737
 20
17.88517980247062
 30
0.0
 10
23.04264048629901
 20
17.88508886104994
 30
0.0
 10
23.05097761455559
 20
17.88495796734568
 30
0.0
 10
23.05514776275103
 20
17.88489913418953
 30
0.0
 10
23.06763722731659
 20
17.88456245817762
 30
0.0
 10
23.07595656193789
 20
17.88428310472519
 30
0.0
 10
23.09259972388475
 20
17.88376139206889
 30
0.0
 10
23.10092135292042
 20
17.88350251060848
 30
0.0
 10
23.17581591791443
 20
17.88115503233772
 30
0.0
 10
23.24238910743466
 20
17.8790061804539
 30
0.0
 10
23.44211532258498
 20
17.87258224018735
 30
0.0
 10
23.57527552791612
 20
17.86834158503801
 30
0.0
 10
23.70844839294817
 20
17.86435368681239
 30
0.0
  0
LINE
  5
1C3
330
1F
100
AcDbEntity
  8
0
  6
Continuous
100
AcDbLine
 10
23.70468498250351
 20
17.76732740531717
 30
0.0
 11
23.70844839294578
 21
17.86435368681246
 31
0.0
  0
SPLINE
  5
1C4
330
1F
100
AcDbEntity
  8
0
  6
Continuous
100
AcDbSpline
210
0.0
220
0.0
230
1.0
 70
     8
 71
     3
 72
    10
 73
     6
 74
     0
 42
0.0000000001
 43
0.0000000001
 40
0.0
 40
0.0
 40
0.0
 40
0.0
 40
0.5
 40
0.5
 40
1.0
 40
1.0
 40
1.0
 40
1.0
 10
27.35621563765869
 20
24.34080109648489
 30
0.0
 10
26.67959934051425
 20
24.34080110930321
 30
0.0
 10
26.00300768989651
 20
24.33540899016257
 30
0.0
 10
24.64996109490364
 20
24.31400136114168
 30
0.0
 10
23.97355973226285
 20
24.2979435332697
 30
0.0
 10
23.29726941249717
 20
24.27702523515201
 30
0.0
  0
SPLINE
  5
1C5
330
1F
100
AcDbEntity
  8
0
  6
Continuous
100
AcDbSpline
210
0.0
220
0.0
230
1.0
 70
     8
 71
     3
 72
    10
 73
     6
 74
     0
 42
0.0000000001
 43
0.0000000001
 40
0.0
 40
0.0
 40
0.0
 40
0.0
 40
0.5
 40
0.5
 40
1.0
 40
1.0
 40
1.0
 40
1.0
 10
23.29361691317211
 20
24.39507735142865
 30
0.0
 10
23.97051625185818
 20
24.41602042687414
 30
0.0
 10
24.64752652272319
 20
24.43208356534599
 30
0.0
 10
26.00179052361865
 20
24.45350000683627
 30
0.0
 10
26.67899077223828
 20
24.45889337259738
 30
0.0
 10
27.3562156376587
 20
24.45889336005
 30
0.0
  0
LINE
  5
1C6
330
1F
100
AcDbEntity
  8
0
  6
Continuous
100
AcDbLine
 10
27.3562156376587
 20
24.34080109648489
 30
0.0
 11
27.3562156376587
 21
24.45889336005
 31
0.0
  0
SPLINE
  5
1C7
330
1F
100
AcDbEntity
  8
0
  6
Continuous
100
AcDbSpline
210
0.0
220
0.0
230
1.0
 70
     8
 71
     3
 72
    10
 73
     6
 74
     0
 42
0.0000000001
 43
0.0000000001
 40
0.0
 40
0.0
 40
0.0
 40
0.0
 40
0.5
 40
0.5
 40
1.0
 40
1.0
 40
1.0
 40
1.0
 10
31.41881436214529
 20
24.39507735142865
 30
0.0
 10
30.74191502345922
 20
24.41602042687414
 30
0.0
 10
30.06490475259421
 20
24.43208356534599
 30
0.0
 10
28.71064075169875
 20
24.45350000683627
 30
0.0
 10
28.03344050307913
 20
24.45889337259738
 30
0.0
 10
27.3562156376587
 20
24.45889336005
 30
0.0
  0
SPLINE
  5
1C8
330
1F
100
AcDbEntity
  8
0
  6
Continuous
100
AcDbSpline
210
0.0
220
0.0
230
1.0
 70
     8
 71
     3
 72
    10
 73
     6
 74
     0
 42
0.0000000001
 43
0.0000000001
 40
0.0
 40
0.0
 40
0.0
 40
0.0
 40
0.5
 40
0.5
 40
1.0
 40
1.0
 40
1.0
 40
1.0
 10
27.35621563765871
 20
24.34080109648489
 30
0.0
 10
28.03283193480315
 20
24.34080110930321
 30
0.0
 10
28.70942358542088
 20
24.33540899016257
 30
0.0
 10
30.06247018041375
 20
24.31400136114168
 30
0.0
 10
30.73887154305455
 20
24.2979435332697
 30
0.0
 10
31.41516186282022
 20
24.27702523515201
 30
0.0
  0
SPLINE
  5
1C9
330
1F
100
AcDbEntity
  8
0
  6
Continuous
100
AcDbSpline
210
0.0
220
0.0
230
1.0
 70
     8
 71
     3
 72
     8
 73
     4
 74
     0
 42
0.0000000001
 43
0.0000000001
 40
0.0
 40
0.0
 40
0.0
 40
0.0
 40
1.0
 40
1.0
 40
1.0
 40
1.0
 10
28.02550733492454
 20
17.81329011403718
 30
0.0
 10
27.80241276317917
 20
17.81202017787526
 30
0.0
 10
27.57931458026206
 20
17.81137767643402
 30
0.0
 10
27.3562156376587
 20
17.81137768738933
 30
0.0
  0
SPLINE
  5
1CA
330
1F
100
AcDbEntity
  8
0
  6
Continuous
100
AcDbSpline
210
0.0
220
0.0
230
1.0
 70
    24
 71
     3
 72
    10
 73
     6
 74
     0
 42
0.0000000001
 43
0.0000000001
 40
0.0
 40
0.0
 40
0.0
 40
0.0
 40
0.5
 40
0.5
 40
1.0
 40
1.0
 40
1.0
 40
1.0
 10
28.02623512540927
 20
17.71567420081234
 30
0.0
 10
28.02609238803948
 20
17.73482453344322
 30
0.0
 10
28.02594978236734
 20
17.75395719688395
 30
0.0
 10
28.0256974208561
 20
17.78781523203551
 30
0.0
 10
28.02558789786013
 20
17.80250936439019
 30
0.0
 10
28.0255075460261
 20
17.81328975323605
 30
0.0
  0
SPLINE
  5
1CB
330
1F
100
AcDbEntity
  8
0
  6
Continuous
100
AcDbSpline
210
0.0
220
0.0
230
1.0
 70
     8
 71
     3
 72
     8
 73
     4
 74
     0
 42
0.0000000001
 43
0.0000000001
 40
0.0
 40
0.0
 40
0.0
 40
0.0
 40
1.0
 40
1.0
 40
1.0
 40
1.0
 10
27.3562156376587
 20
17.71315845136945
 30
0.0
 10
27.57955854639851
 20
17.71315845065743
 30
0.0
 10
27.80289825631846
 20
17.71401017973077
 30
0.0
 10
28.02623491318709
 20
17.71567482570525
 30
0.0
  0
LINE
  5
1CC
330
1F
100
AcDbEntity
  8
0
  6
Continuous
100
AcDbLine
 10
27.3562156376587
 20
17.71315845136945
 30
0.0
 11
27.3562156376587
 21
17.81137768738933
 31
0.0
  0
SPLINE
  5
1CD
330
1F
100
AcDbEntity
  8
0
  6
Continuous
100
AcDbSpline
210
0.0
220
0.0
230
1.0
 70
     8
 71
     3
 72
    18
 73
    14
 74
     0
 42
0.0000000001
 43
0.0000000001
 40
0.0
 40
0.0
 40
0.0
 40
0.0
 40
0.5000000000000007
 40
0.5000000000000007
 40
0.7500000000000007
 40
0.7500000000000007
 40
0.8750000000000007
 40
0.8750000000000007
 40
0.9375000000000007
 40
0.9687500000000007
 40
0.9843750000000003
 40
0.9843750000000003
 40
1.0
 40
1.0
 40
1.0
 40
1.0
 10
28.70936722280585
 20
17.8187369359281
 30
0.0
 10
28.59539417766587
 20
17.81754194137297
 30
0.0
 10
28.48141942509603
 20
17.81649617075127
 30
0.0
 10
28.31045462033999
 20
17.81514236427664
 30
0.0
 10
28.25346590552749
 20
17.81472689840522
 30
0.0
 10
28.16798213322318
 20
17.81415343268509
 30
0.0
 10
28.13948742567593
 20
17.81397055526329
 30
0.0
 10
28.09674518258733
 20
17.81370741028297
 30
0.0
 10
28.07537401563201
 20
17.81357863212524
 30
0.0
 10
28.05044090600837
 20
17.81343283622296
 30
0.0
 10
28.03975526987815
 20
17.81337123614338
 30
0.0
 10
28.03263150849606
 20
17.81333035675786
 30
0.0
 10
28.02903256372379
 20
17.81330980008042
 30
0.0
 10
28.02550775358246
 20
17.81328975441703
 30
0.0
  0
LINE
  5
1CE
330
1F
100
AcDbEntity
  8
0
  6
Continuous
100
AcDbLine
 10
28.71021796871509
 20
17.72060478473287
 30
0.0
 11
28.70936722280705
 21
17.818736935928
 31
0.0
  0
SPLINE
  5
1CF
330
1F
100
AcDbEntity
  8
0
  6
Continuous
100
AcDbSpline
210
0.0
220
0.0
230
1.0
 70
     8
 71
     3
 72
    10
 73
     6
 74
     0
 42
0.0000000001
 43
0.0000000001
 40
0.0
 40
0.0
 40
0.0
 40
0.0
 40
0.5
 40
0.5
 40
1.0
 40
1.0
 40
1.0
 40
1.0
 10
28.02623491785626
 20
17.71567419926534
 30
0.0
 10
28.14023172021819
 20
17.7165238766083
 30
0.0
 10
28.25423089899444
 20
17.71719561288367
 30
0.0
 10
28.48222631885678
 20
17.71875905369341
 30
0.0
 10
28.59622301722216
 20
17.7196165180868
 30
0.0
 10
28.71021796871509
 20
17.72060478473288
 30
0.0
  0
SPLINE
  5
1D0
330
1F
100
AcDbEntity
  8
0
  6
Continuous
100
AcDbSpline
210
0.0
220
0.0
230
1.0
 70
     8
 71
     3
 72
     8
 73
     4
 74
     0
 42
0.0000000001
 43
0.0000000001
 40
0.0
 40
0.0
 40
0.0
 40
0.0
 40
1.0
 40
1.0
 40
1.0
 40
1.0
 10
27.3562156376587
 20
17.71315845136945
 30
0.0
 10
27.13287272891888
 20
17.71315845065743
 30
0.0
 10
26.90953301899894
 20
17.71401017973077
 30
0.0
 10
26.68619636213031
 20
17.71567482570525
 30
0.0
  0
SPLINE
  5
1D1
330
1F
100
AcDbEntity
  8
0
  6
Continuous
100
AcDbSpline
210
0.0
220
0.0
230
1.0
 70
    24
 71
     3
 72
    10
 73
     6
 74
     0
 42
0.0000000001
 43
0.0000000001
 40
0.0
 40
0.0
 40
0.0
 40
0.0
 40
0.5
 40
0.5
 40
1.0
 40
1.0
 40
1.0
 40
1.0
 10
26.68619614990813
 20
17.71567420081234
 30
0.0
 10
26.68633888727792
 20
17.73482453344322
 30
0.0
 10
26.68648149295005
 20
17.75395719688395
 30
0.0
 10
26.6867338544613
 20
17.78781523203551
 30
0.0
 10
26.68684337745727
 20
17.80250936439019
 30
0.0
 10
26.68692372929129
 20
17.81328975323605
 30
0.0
  0
SPLINE
  5
1D2
330
1F
100
AcDbEntity
  8
0
  6
Continuous
100
AcDbSpline
210
0.0
220
0.0
230
1.0
 70
     8
 71
     3
 72
     8
 73
     4
 74
     0
 42
0.0000000001
 43
0.0000000001
 40
0.0
 40
0.0
 40
0.0
 40
0.0
 40
1.0
 40
1.0
 40
1.0
 40
1.0
 10
26.68692394039287
 20
17.81329011403718
 30
0.0
 10
26.91001851213823
 20
17.81202017787526
 30
0.0
 10
27.13311669505535
 20
17.81137767643402
 30
0.0
 10
27.3562156376587
 20
17.81137768738933
 30
0.0
  0
SPLINE
  5
1D3
330
1F
100
AcDbEntity
  8
0
  6
Continuous
100
AcDbSpline
210
0.0
220
0.0
230
1.0
 70
     8
 71
     3
 72
    10
 73
     6
 74
     0
 42
0.0000000001
 43
0.0000000001
 40
0.0
 40
0.0
 40
0.0
 40
0.0
 40
0.5
 40
0.5
 40
1.0
 40
1.0
 40
1.0
 40
1.0
 10
26.68619635746113
 20
17.71567419926534
 30
0.0
 10
26.5721995550992
 20
17.7165238766083
 30
0.0
 10
26.45820037632296
 20
17.71719561288367
 30
0.0
 10
26.23020495646062
 20
17.71875905369341
 30
0.0
 10
26.11620825809524
 20
17.7196165180868
 30
0.0
 10
26.00221330660231
 20
17.72060478473288
 30
0.0
  0
LINE
  5
1D4
330
1F
100
AcDbEntity
  8
0
  6
Continuous
100
AcDbLine
 10
26.00306405251035
 20
17.818736935928
 30
0.0
 11
26.00221330660231
 21
17.72060478473287
 31
0.0
  0
SPLINE
  5
1D5
330
1F
100
AcDbEntity
  8
0
  6
Continuous
100
AcDbSpline
210
0.0
220
0.0
230
1.0
 70
     8
 71
     3
 72
    18
 73
    14
 74
     0
 42
0.0000000001
 43
0.0000000001
 40
0.0
 40
0.0
 40
0.0
 40
0.0
 40
0.5000000000000007
 40
0.5000000000000007
 40
0.7500000000000007
 40
0.7500000000000007
 40
0.8750000000000007
 40
0.8750000000000007
 40
0.9375000000000007
 40
0.9687500000000007
 40
0.9843750000000003
 40
0.9843750000000003
 40
1.0
 40
1.0
 40
1.0
 40
1.0
 10
26.00306405251155
 20
17.8187369359281
 30
0.0
 10
26.11703709765153
 20
17.81754194137297
 30
0.0
 10
26.23101185022136
 20
17.81649617075127
 30
0.0
 10
26.40197665497741
 20
17.81514236427664
 30
0.0
 10
26.45896536978991
 20
17.81472689840522
 30
0.0
 10
26.54444914209422
 20
17.81415343268509
 30
0.0
 10
26.57294384964147
 20
17.81397055526329
 30
0.0
 10
26.61568609273007
 20
17.81370741028297
 30
0.0
 10
26.63705725968539
 20
17.81357863212524
 30
0.0
 10
26.66199036930902
 20
17.81343283622296
 30
0.0
 10
26.67267600543925
 20
17.81337123614338
 30
0.0
 10
26.67979976682134
 20
17.81333035675786
 30
0.0
 10
26.68339871159367
 20
17.81330980010529
 30
0.0
 10
26.68692352173493
 20
17.81328975441703
 30
0.0
  0
SPLINE
  5
1D6
330
1F
100
AcDbEntity
  8
0
  6
Continuous
100
AcDbSpline
210
0.0
220
0.0
230
1.0
 70
     8
 71
     3
 72
    38
 73
    34
 74
     0
 42
0.0000000001
 43
0.0000000001
 40
0.0
 40
0.0
 40
0.0
 40
0.0
 40
0.0312499999999997
 40
0.0312499999999997
 40
0.0624999999999993
 40
0.0624999999999993
 40
0.093749999999999
 40
0.093749999999999
 40
0.1093749999999986
 40
0.1093749999999986
 40
0.1249999999999983
 40
0.1249999999999983
 40
0.140624999999998
 40
0.140624999999998
 40
0.1562499999999976
 40
0.1562499999999976
 40
0.1874999999999971
 40
0.1874999999999971
 40
0.2499999999999964
 40
0.2499999999999964
 40
0.2578124999999964
 40
0.2578124999999964
 40
0.2656249999999964
 40
0.2656249999999964
 40
0.2812499999999963
 40
0.2812499999999963
 40
0.3124999999999965
 40
0.3124999999999965
 40
0.3749999999999971
 40
0.3749999999999971
 40
0.4999999999999977
 40
0.4999999999999977
 40
1.0
 40
1.0
 40
1.0
 40
1.0
 10
22.15422561616172
 20
18.16236344075394
 30
0.0
 10
22.11628752646467
 20
18.19519913094388
 30
0.0
 10
22.08039768972557
 20
18.22972046136802
 30
0.0
 10
22.0125765831082
 20
18.30202088368784
 30
0.0
 10
21.98064428591109
 20
18.33979913013622
 30
0.0
 10
21.92072179205393
 20
18.41859983329847
 30
0.0
 10
21.892731816199
 20
18.45962247172722
 30
0.0
 10
21.85378331233943
 20
18.5236553292233
 30
0.0
 10
21.84129075495274
 20
18.54545409175192
 30
0.0
 10
21.81752145830202
 20
18.58956646369265
 30
0.0
 10
21.8062237908098
 20
18.61191018761675
 30
0.0
 10
21.78479928089976
 20
18.65717117488405
 30
0.0
 10
21.77466861365086
 20
18.68009920150923
 30
0.0
 10
21.75560137665884
 20
18.72648866491876
 30
0.0
 10
21.7467449339528
 20
18.74975222625574
 30
0.0
 10
21.72212051334221
 20
18.81974059493052
 30
0.0
 10
21.70829465861351
 20
18.86666280392662
 30
0.0
 10
21.67411163378362
 20
19.00817086389059
 30
0.0
 10
21.66100374589825
 20
19.10349354779911
 30
0.0
 10
21.65671757410759
 20
19.21179476507286
 30
0.0
 10
21.65641964436718
 20
19.22384635763778
 30
0.0
 10
21.65574029624698
 20
19.24794105679923
 30
0.0
 10
21.65540224268132
 20
19.25998857109057
 30
0.0
 10
21.65439576789308
 20
19.29613189517718
 30
0.0
 10
21.65373371623551
 20
19.32022835238904
 30
0.0
 10
21.65177287414071
 20
19.39252029688098
 30
0.0
 10
21.65050036011051
 20
19.44071845495269
 30
0.0
 10
21.64679020471103
 20
19.58532384418663
 30
0.0
 10
21.64447095929057
 20
19.68174310937271
 30
0.0
 10
21.63785063918515
 20
19.9710352006489
 30
0.0
 10
21.63390142238807
 20
20.16394181907282
 30
0.0
 10
21.61661555321353
 20
21.12842322480933
 30
0.0
 10
21.61069592618472
 20
21.90007445547306
 30
0.0
 10
21.61432035447337
 20
22.67180545786301
 30
0.0
  0
LINE
  5
1D7
330
1F
100
AcDbEntity
  8
0
  6
Continuous
100
AcDbLine
 10
21.61432035447337
 20
22.67180545786301
 30
0.0
 11
21.69642201837787
 21
22.67141986802922
 31
0.0
  0
SPLINE
  5
1D8
330
1F
100
AcDbEntity
  8
0
  6
Continuous
100
AcDbSpline
210
0.0
220
0.0
230
1.0
 70
     8
 71
     3
 72
    30
 73
    26
 74
     0
 42
0.0000000001
 43
0.0000000001
 40
0.0
 40
0.0
 40
0.0
 40
0.0
 40
0.500000000000001
 40
0.500000000000001
 40
0.7500000000000017
 40
0.7500000000000017
 40
0.8125000000000015
 40
0.8125000000000015
 40
0.8437500000000019
 40
0.8437500000000019
 40
0.8593750000000019
 40
0.8593750000000019
 40
0.8671875000000021
 40
0.8671875000000021
 40
0.8750000000000021
 40
0.8750000000000021
 40
0.8828125000000021
 40
0.8828125000000021
 40
0.8906250000000021
 40
0.8906250000000021
 40
0.9062500000000017
 40
0.9062500000000017
 40
0.937500000000001
 40
0.937500000000001
 40
1.0
 40
1.0
 40
1.0
 40
1.0
 10
21.69642201837785
 20
22.67141986802922
 30
0.0
 10
21.6932057732019
 20
22.01212597988681
 30
0.0
 10
21.69496909056469
 20
21.35286295894331
 30
0.0
 10
21.70499850092538
 20
20.36400849778047
 30
0.0
 10
21.70957011839826
 20
20.03436410772142
 30
0.0
 10
21.71685639351788
 20
19.62242417157695
 30
0.0
 10
21.71838029127125
 20
19.54004217781793
 30
0.0
 10
21.72076922951924
 20
19.41647854390929
 30
0.0
 10
21.72158272124218
 20
19.37529221623898
 30
0.0
 10
21.72282893180081
 20
19.31351505671547
 30
0.0
 10
21.72324862939451
 20
19.29292305494275
 30
0.0
 10
21.72388407275189
 20
19.26203558822538
 30
0.0
 10
21.72409706981516
 20
19.25173987290051
 30
0.0
 10
21.72452709807965
 20
19.23114878733298
 30
0.0
 10
21.72479073801125
 20
19.22085708345245
 30
0.0
 10
21.72487185331686
 20
19.20023778924562
 30
0.0
 10
21.72507767695663
 20
19.18994241937303
 30
0.0
 10
21.7256798254953
 20
19.16936860291547
 30
0.0
 10
21.72609980342498
 20
19.15909212523876
 30
0.0
 10
21.72771482057299
 20
19.12829384948275
 30
0.0
 10
21.72926446756843
 20
19.10780316797963
 30
0.0
 10
21.73532791271437
 20
19.04645531015433
 30
0.0
 10
21.74125208702976
 20
19.00572196282065
 30
0.0
 10
21.76478265175052
 20
18.88402784164261
 30
0.0
 10
21.78807587822058
 20
18.80356673649567
 30
0.0
 10
21.81989348280416
 20
18.72385536538322
 30
0.0
  0
SPLINE
  5
1D9
330
1F
100
AcDbEntity
  8
0
  6
Continuous
100
AcDbSpline
210
0.0
220
0.0
230
1.0
 70
     8
 71
     3
 72
    16
 73
    12
 74
     0
 42
0.0000000001
 43
0.0000000001
 40
0.0
 40
0.0
 40
0.0
 40
0.0
 40
0.2499999999999994
 40
0.2499999999999994
 40
0.3750000000000002
 40
0.3750000000000002
 40
0.500000000000001
 40
0.500000000000001
 40
0.7500000000000005
 40
0.7500000000000005
 40
1.0
 40
1.0
 40
1.0
 40
1.0
 10
21.81989348280416
 20
18.72385536538322
 30
0.0
 10
21.83995124217424
 20
18.67360546374045
 30
0.0
 10
21.86297570096644
 20
18.62477520032603
 30
0.0
 10
21.90194764759263
 20
18.55365229249075
 30
0.0
 10
21.915650835554
 20
18.53036101011183
 30
0.0
 10
21.94426693615928
 20
18.48491288977331
 30
0.0
 10
21.95920546230209
 20
18.46270693017667
 30
0.0
 10
22.00588010652607
 20
18.39761676048353
 30
0.0
 10
22.03947098808113
 20
18.35625672410698
 30
0.0
 10
22.11158606686698
 20
18.27759066197669
 30
0.0
 10
22.15011230408471
 20
18.24028631268544
 30
0.0
 10
22.19121058653818
 20
18.20509556928354
 30
0.0
  0
SPLINE
  5
1DA
330
1F
100
AcDbEntity
  8
0
  6
Continuous
100
AcDbSpline
210
0.0
220
0.0
230
1.0
 70
     8
 71
     3
 72
    16
 73
    12
 74
     0
 42
0.0000000001
 43
0.0000000001
 40
0.0
 40
0.0
 40
0.0
 40
0.0
 40
0.2499999999999994
 40
0.2499999999999994
 40
0.3750000000000002
 40
0.3750000000000002
 40
0.500000000000001
 40
0.500000000000001
 40
0.7500000000000005
 40
0.7500000000000005
 40
1.0
 40
1.0
 40
1.0
 40
1.0
 10
32.89253779251323
 20
18.72385536538322
 30
0.0
 10
32.87248003314316
 20
18.67360546374045
 30
0.0
 10
32.84945557435096
 20
18.62477520032603
 30
0.0
 10
32.81048362772477
 20
18.55365229249075
 30
0.0
 10
32.7967804397634
 20
18.53036101011183
 30
0.0
 10
32.76816433915812
 20
18.48491288977331
 30
0.0
 10
32.75322581301531
 20
18.46270693017667
 30
0.0
 10
32.70655116879133
 20
18.39761676048353
 30
0.0
 10
32.67296028723627
 20
18.35625672410698
 30
0.0
 10
32.60084520845042
 20
18.27759066197669
 30
0.0
 10
32.56231897123268
 20
18.24028631268544
 30
0.0
 10
32.52122068877922
 20
18.20509556928354
 30
0.0
  0
SPLINE
  5
1DB
330
1F
100
AcDbEntity
  8
0
  6
Continuous
100
AcDbSpline
210
0.0
220
0.0
230
1.0
 70
     8
 71
     3
 72
    30
 73
    26
 74
     0
 42
0.0000000001
 43
0.0000000001
 40
0.0
 40
0.0
 40
0.0
 40
0.0
 40
0.4999999999999993
 40
0.4999999999999993
 40
0.7499999999999992
 40
0.7499999999999992
 40
0.8124999999999989
 40
0.8124999999999989
 40
0.8437499999999991
 40
0.8437499999999991
 40
0.8593749999999992
 40
0.8593749999999992
 40
0.8671874999999992
 40
0.8671874999999992
 40
0.8749999999999991
 40
0.8749999999999991
 40
0.8828124999999991
 40
0.8828124999999991
 40
0.8906249999999991
 40
0.8906249999999991
 40
0.9062499999999992
 40
0.9062499999999992
 40
0.9374999999999994
 40
0.9374999999999994
 40
1.0
 40
1.0
 40
1.0
 40
1.0
 10
33.01600925693955
 20
22.67141986802922
 30
0.0
 10
33.01922550211549
 20
22.01212597988681
 30
0.0
 10
33.01746218475271
 20
21.35286295894331
 30
0.0
 10
33.00743277439202
 20
20.36400849778048
 30
0.0
 10
33.00286115691914
 20
20.03436410772142
 30
0.0
 10
32.99557488179952
 20
19.62242417157695
 30
0.0
 10
32.99405098404614
 20
19.54004217781793
 30
0.0
 10
32.99166204579814
 20
19.41647854390929
 30
0.0
 10
32.99084855407522
 20
19.37529221623898
 30
0.0
 10
32.98960234351657
 20
19.31351505671547
 30
0.0
 10
32.98918264592289
 20
19.29292305494275
 30
0.0
 10
32.98854720256551
 20
19.26203558822538
 30
0.0
 10
32.98833420550224
 20
19.25173987290051
 30
0.0
 10
32.98790417723773
 20
19.23114878733299
 30
0.0
 10
32.98764053730615
 20
19.22085708345245
 30
0.0
 10
32.98755942200054
 20
19.20023778924562
 30
0.0
 10
32.98735359836077
 20
19.18994241937303
 30
0.0
 10
32.9867514498221
 20
19.16936860291547
 30
0.0
 10
32.98633147189242
 20
19.15909212523876
 30
0.0
 10
32.98471645474439
 20
19.12829384948276
 30
0.0
 10
32.98316680774897
 20
19.10780316797963
 30
0.0
 10
32.97710336260302
 20
19.04645531015433
 30
0.0
 10
32.97117918828763
 20
19.00572196282065
 30
0.0
 10
32.94764862356687
 20
18.88402784164261
 30
0.0
 10
32.92435539709681
 20
18.80356673649567
 30
0.0
 10
32.89253779251323
 20
18.72385536538322
 30
0.0
  0
LINE
  5
1DC
330
1F
100
AcDbEntity
  8
0
  6
Continuous
100
AcDbLine
 10
33.01600925693953
 20
22.67141986802922
 30
0.0
 11
33.09811092084403
 21
22.67180545786301
 31
0.0
  0
SPLINE
  5
1DD
330
1F
100
AcDbEntity
  8
0
  6
Continuous
100
AcDbSpline
210
0.0
220
0.0
230
1.0
 70
     8
 71
     3
 72
    38
 73
    34
 74
     0
 42
0.0000000001
 43
0.0000000001
 40
0.0
 40
0.0
 40
0.0
 40
0.0
 40
0.0312499999999997
 40
0.0312499999999997
 40
0.0624999999999993
 40
0.0624999999999993
 40
0.093749999999999
 40
0.093749999999999
 40
0.1093749999999986
 40
0.1093749999999986
 40
0.1249999999999983
 40
0.1249999999999983
 40
0.140624999999998
 40
0.140624999999998
 40
0.1562499999999976
 40
0.1562499999999976
 40
0.1874999999999971
 40
0.1874999999999971
 40
0.2499999999999964
 40
0.2499999999999964
 40
0.2578124999999964
 40
0.2578124999999964
 40
0.2656249999999964
 40
0.2656249999999964
 40
0.2812499999999963
 40
0.2812499999999963
 40
0.3124999999999965
 40
0.3124999999999965
 40
0.3749999999999971
 40
0.3749999999999971
 40
0.4999999999999977
 40
0.4999999999999977
 40
1.0
 40
1.0
 40
1.0
 40
1.0
 10
32.55820565915568
 20
18.16236344075394
 30
0.0
 10
32.59614374885273
 20
18.19519913094388
 30
0.0
 10
32.63203358559182
 20
18.22972046136802
 30
0.0
 10
32.6998546922092
 20
18.30202088368784
 30
0.0
 10
32.73178698940631
 20
18.33979913013622
 30
0.0
 10
32.79170948326347
 20
18.41859983329847
 30
0.0
 10
32.8196994591184
 20
18.45962247172722
 30
0.0
 10
32.85864796297797
 20
18.5236553292233
 30
0.0
 10
32.87114052036466
 20
18.54545409175192
 30
0.0
 10
32.89490981701538
 20
18.58956646369265
 30
0.0
 10
32.9062074845076
 20
18.61191018761675
 30
0.0
 10
32.92763199441763
 20
18.65717117488405
 30
0.0
 10
32.93776266166653
 20
18.68009920150923
 30
0.0
 10
32.95682989865855
 20
18.72648866491876
 30
0.0
 10
32.96568634136459
 20
18.74975222625574
 30
0.0
 10
32.99031076197519
 20
18.81974059493052
 30
0.0
 10
33.00413661670388
 20
18.86666280392662
 30
0.0
 10
33.03831964153378
 20
19.00817086389059
 30
0.0
 10
33.05142752941914
 20
19.10349354779911
 30
0.0
 10
33.05571370120981
 20
19.21179476507286
 30
0.0
 10
33.05601163095022
 20
19.22384635763778
 30
0.0
 10
33.05669097907042
 20
19.24794105679923
 30
0.0
 10
33.05702903263608
 20
19.25998857109057
 30
0.0
 10
33.05803550742432
 20
19.29613189517718
 30
0.0
 10
33.05869755908189
 20
19.32022835238904
 30
0.0
 10
33.06065840117669
 20
19.39252029688098
 30
0.0
 10
33.06193091520688
 20
19.44071845495269
 30
0.0
 10
33.06564107060637
 20
19.58532384418663
 30
0.0
 10
33.06796031602682
 20
19.68174310937271
 30
0.0
 10
33.07458063613225
 20
19.9710352006489
 30
0.0
 10
33.07852985292933
 20
20.16394181907282
 30
0.0
 10
33.09581572210387
 20
21.12842322480933
 30
0.0
 10
33.10173534913268
 20
21.90007445547306
 30
0.0
 10
33.09811092084403
 20
22.67180545786301
 30
0.0
  0
SPLINE
  5
1DE
330
1F
100
AcDbEntity
  8
0
  6
Continuous
100
AcDbSpline
210
0.0
220
0.0
230
1.0
 70
     8
 71
     3
 72
     8
 73
     4
 74
     0
 42
0.0000000001
 43
0.0000000001
 40
0.0000000062901342
 40
0.0000000062901342
 40
0.0000000062901342
 40
0.0000000062901342
 40
0.0018593748149927
 40
0.0018593748149927
 40
0.0018593748149927
 40
0.0018593748149927
 10
21.49678846638659
 20
22.76865218453596
 30
0.0
 10
21.49685730961105
 20
22.78085257114429
 30
0.0
 10
21.49692798206306
 20
22.79305294755985
 30
0.0
 10
21.49700048527842
 20
22.8052533129409
 30
0.0
  0
LINE
  5
1DF
330
1F
100
AcDbEntity
  8
0
  6
Continuous
100
AcDbLine
 10
21.49700051980889
 20
22.80525331263764
 30
0.0
 11
21.49700048527786
 21
22.80525331284272
 31
0.0
  0
LWPOLYLINE
  5
1E0
330
1F
100
AcDbEntity
  8
0
  6
Continuous
100
AcDbPolyline
 90
       10
 70
   128
 43
0.0
 10
21.49700051980889
 20
22.80525331263764
 10
21.50189297888575
 20
22.80522128648875
 10
21.51416301433373
 20
22.80514563665813
 10
21.53301055407973
 20
22.8050312959202
 10
21.557206637518
 20
22.80488571990386
 10
21.58517355032823
 20
22.80471840094561
 10
21.61508769990512
 20
22.8045402491383
 10
21.64499852336988
 20
22.80436288093455
 10
21.67295567472405
 20
22.80419786169188
 10
21.69713619786158
 20
22.80405595154933
  0
LINE
  5
1E1
330
1F
100
AcDbEntity
  8
0
  6
Continuous
100
AcDbLine
 10
21.69713619786158
 20
22.80405595154933
 30
0.0
 11
21.69713669195458
 21
22.80405594866047
 31
0.0
  0
LINE
  5
1E2
330
1F
100
AcDbEntity
  8
0
  6
Continuous
100
AcDbLine
 10
21.69713669195458
 20
22.80405594866046
 30
0.0
 11
21.69692964371568
 21
22.76751669722424
 31
0.0
  0
SPLINE
  5
1E3
330
1F
100
AcDbEntity
  8
0
  6
Continuous
100
AcDbSpline
210
0.0
220
0.0
230
1.0
 70
     8
 71
     3
 72
    22
 73
    18
 74
     0
 42
0.0000000001
 43
0.0000000001
 40
0.0
 40
0.0
 40
0.0
 40
0.0
 40
0.125
 40
0.125
 40
0.25
 40
0.25
 40
0.375
 40
0.375
 40
0.5
 40
0.5
 40
0.625
 40
0.625
 40
0.75
 40
0.75
 40
0.875
 40
0.875
 40
1.0
 40
1.0
 40
1.0
 40
1.0
 10
21.49678846568791
 20
22.7686520607164
 30
0.0
 10
21.4971842580643
 20
22.76864898203418
 30
0.0
 10
21.49922370010072
 20
22.76863663309137
 30
0.0
 10
21.50642272537032
 20
22.7685944068369
 30
0.0
 10
21.5115814856366
 20
22.7685645343524
 30
0.0
 10
21.52459467564493
 20
22.76848971909761
 30
0.0
 10
21.53244761776546
 20
22.76844478487992
 30
0.0
 10
21.55020254810243
 20
22.76834354619261
 30
0.0
 10
21.5601025066385
 20
22.76828725329622
 30
0.0
 10
21.58113598336932
 20
22.76816793431435
 30
0.0
 10
21.59226709709196
 20
22.76810492186898
 30
0.0
 10
21.61484573940375
 20
22.76797735573789
 30
0.0
 10
21.62629068688295
 20
22.76791281663509
 30
0.0
 10
21.64855377598607
 20
22.7677875161524
 30
0.0
 10
21.65936937257296
 20
22.76772676909643
 30
0.0
 10
21.67948219459767
 20
22.76761406034638
 30
0.0
 10
21.68877712080933
 20
22.76756211153677
 30
0.0
 10
21.69692964371574
 20
22.76751669722425
 30
0.0
  0
SPLINE
  5
1E4
330
1F
100
AcDbEntity
  8
0
  6
Continuous
100
AcDbSpline
210
0.0
220
0.0
230
1.0
 70
     8
 71
     3
 72
     8
 73
     4
 74
     0
 42
0.0000000001
 43
0.0000000001
 40
0.0
 40
0.0
 40
0.0
 40
0.0
 40
0.0048907794993203
 40
0.0048907794993203
 40
0.0048907794993203
 40
0.0048907794993203
 10
21.49628345794035
 20
22.67237832214772
 30
0.0
 10
21.49643904159326
 20
22.70446967365737
 30
0.0
 10
21.4966073727952
 20
22.73656096661247
 30
0.0
 10
21.49678845430806
 20
22.7686521846299
 30
0.0
  0
SPLINE
  5
1E5
330
1F
100
AcDbEntity
  8
0
  6
Continuous
100
AcDbSpline
210
0.0
220
0.0
230
1.0
 70
     8
 71
     3
 72
    11
 73
     7
 74
     0
 42
0.0000000001
 43
0.0000000001
 40
-0.00000006
 40
-0.00000006
 40
-0.00000006
 40
-0.00000006
 40
0.0
 40
0.0
 40
0.0
 40
0.0048817391039588
 40
0.0048817391039588
 40
0.0048817391039588
 40
0.0048817391039588
 10
21.69692950914448
 20
22.76751693532062
 30
0.0
 10
21.69692950696717
 20
22.76751654162586
 30
0.0
 10
21.69692950478784
 20
22.76751614793111
 30
0.0
 10
21.69692950260952
 20
22.76751575423635
 30
0.0
 10
21.69675226927098
 20
22.73548383625534
 30
0.0
 10
21.69658307549489
 20
22.70345187030651
 30
0.0
 10
21.69642201837787
 20
22.67141986802922
 30
0.0
  0
LWPOLYLINE
  5
1E6
330
1F
100
AcDbEntity
  8
0
  6
Continuous
100
AcDbPolyline
 90
       10
 70
   128
 43
0.0
 10
21.49628345794035
 20
22.67237832214772
 10
21.50117583607396
 20
22.67235896735992
 10
21.51344601361584
 20
22.67230351994971
 10
21.53229389074772
 20
22.67221559546891
 10
21.55649045647802
 20
22.67210092719733
 10
21.58445792859641
 20
22.67196699229354
 10
21.6143726359064
 20
22.67182252423283
 10
21.64428393410799
 20
22.6716769433246
 10
21.67224140119847
 20
22.6715397424436
 10
21.69642201837787
 20
22.67141986802922
  0
LINE
  5
1E7
330
1F
100
AcDbEntity
  8
0
  6
Continuous
100
AcDbLine
 10
33.01550163160172
 20
22.76751669722424
 30
0.0
 11
33.01529458336281
 21
22.80405594866046
 31
0.0
  0
LINE
  5
1E8
330
1F
100
AcDbEntity
  8
0
  6
Continuous
100
AcDbLine
 10
33.01529458336281
 20
22.80405594866047
 30
0.0
 11
33.01529507745582
 21
22.80405595154933
 31
0.0
  0
LWPOLYLINE
  5
1E9
330
1F
100
AcDbEntity
  8
0
  6
Continuous
100
AcDbPolyline
 90
       10
 70
   128
 43
0.0
 10
33.21543075550851
 20
22.80525331263764
 10
33.21053829643164
 20
22.80522128648875
 10
33.19826826098367
 20
22.80514563665813
 10
33.17942072123767
 20
22.8050312959202
 10
33.1552246377994
 20
22.80488571990386
 10
33.12725772498917
 20
22.80471840094561
 10
33.09734357541227
 20
22.8045402491383
 10
33.06743275194751
 20
22.80436288093455
 10
33.03947560059334
 20
22.80419786169188
 10
33.01529507745582
 20
22.80405595154933
  0
LINE
  5
1EA
330
1F
100
AcDbEntity
  8
0
  6
Continuous
100
AcDbLine
 10
33.21543075550851
 20
22.80525331263764
 30
0.0
 11
33.21543079003954
 21
22.80525331284272
 31
0.0
  0
SPLINE
  5
1EB
330
1F
100
AcDbEntity
  8
0
  6
Continuous
100
AcDbSpline
210
0.0
220
0.0
230
1.0
 70
     8
 71
     3
 72
     8
 73
     4
 74
     0
 42
0.0000000001
 43
0.0000000001
 40
0.0000000062901342
 40
0.0000000062901342
 40
0.0000000062901342
 40
0.0000000062901342
 40
0.0018593748149927
 40
0.0018593748149927
 40
0.0018593748149927
 40
0.0018593748149927
 10
33.21564280893081
 20
22.76865218453596
 30
0.0
 10
33.21557396570635
 20
22.78085257114429
 30
0.0
 10
33.21550329325435
 20
22.79305294755985
 30
0.0
 10
33.21543079003897
 20
22.8052533129409
 30
0.0
  0
SPLINE
  5
1EC
330
1F
100
AcDbEntity
  8
0
  6
Continuous
100
AcDbSpline
210
0.0
220
0.0
230
1.0
 70
     8
 71
     3
 72
    22
 73
    18
 74
     0
 42
0.0000000001
 43
0.0000000001
 40
0.0
 40
0.0
 40
0.0
 40
0.0
 40
0.125
 40
0.125
 40
0.25
 40
0.25
 40
0.375
 40
0.375
 40
0.5
 40
0.5
 40
0.625
 40
0.625
 40
0.75
 40
0.75
 40
0.875
 40
0.875
 40
1.0
 40
1.0
 40
1.0
 40
1.0
 10
33.01550176753219
 20
22.76751668964265
 30
0.0
 10
33.02365428641478
 20
22.76756210307988
 30
0.0
 10
33.03294920250146
 20
22.76761405111714
 30
0.0
 10
33.05306199576956
 20
22.76772675860768
 30
0.0
 10
33.06387757374561
 20
22.76778750517673
 30
0.0
 10
33.08614062202206
 20
22.76791280502989
 30
0.0
 10
33.09758554730947
 20
22.76797734399027
 30
0.0
 10
33.12016414702841
 20
22.76810491021274
 30
0.0
 10
33.1312952403745
 20
22.76816792289203
 30
0.0
 10
33.15232868329408
 20
22.76828724271845
 30
0.0
 10
33.1622286284176
 20
22.76834353622545
 30
0.0
 10
33.17998354306738
 20
22.76844477647805
 30
0.0
 10
33.1878364829305
 20
22.7684897116503
 30
0.0
 10
33.20084968220264
 20
22.76856452909368
 30
0.0
 10
33.20600845400039
 20
22.76859440281201
 30
0.0
 10
33.21320751677754
 20
22.76863663172132
 30
0.0
 10
33.21524698479199
 20
22.76864898208488
 30
0.0
 10
33.21564280962047
 20
22.76865206222483
 30
0.0
  0
SPLINE
  5
1ED
330
1F
100
AcDbEntity
  8
0
  6
Continuous
100
AcDbSpline
210
0.0
220
0.0
230
1.0
 70
     8
 71
     3
 72
    11
 73
     7
 74
     0
 42
0.0000000001
 43
0.0000000001
 40
-0.00000006
 40
-0.00000006
 40
-0.00000006
 40
-0.00000006
 40
0.0
 40
0.0
 40
0.0
 40
0.0048817391039588
 40
0.0048817391039588
 40
0.0048817391039588
 40
0.0048817391039588
 10
33.01550176617292
 20
22.76751693532062
 30
0.0
 10
33.01550176835124
 20
22.76751654162586
 30
0.0
 10
33.01550177052956
 20
22.76751614793111
 30
0.0
 10
33.01550177270789
 20
22.76751575423635
 30
0.0
 10
33.01567900604642
 20
22.73548383625534
 30
0.0
 10
33.01584819982251
 20
22.70345187030651
 30
0.0
 10
33.01600925693953
 20
22.67141986802922
 30
0.0
  0
SPLINE
  5
1EE
330
1F
100
AcDbEntity
  8
0
  6
Continuous
100
AcDbSpline
210
0.0
220
0.0
230
1.0
 70
     8
 71
     3
 72
     8
 73
     4
 74
     0
 42
0.0000000001
 43
0.0000000001
 40
0.0
 40
0.0
 40
0.0
 40
0.0
 40
0.0048907794993203
 40
0.0048907794993203
 40
0.0048907794993203
 40
0.0048907794993203
 10
33.21614781737704
 20
22.67237832214772
 30
0.0
 10
33.21599223372413
 20
22.70446967365737
 30
0.0
 10
33.2158239025222
 20
22.73656096661247
 30
0.0
 10
33.21564282100935
 20
22.7686521846299
 30
0.0
  0
LWPOLYLINE
  5
1EF
330
1F
100
AcDbEntity
  8
0
  6
Continuous
100
AcDbPolyline
 90
       10
 70
   128
 43
0.0
 10
33.21614781737704
 20
22.67237832214772
 10
33.21125543924344
 20
22.67235896735992
 10
33.19898526170157
 20
22.67230351994971
 10
33.18013738456969
 20
22.67221559546891
 10
33.15594081883938
 20
22.67210092719733
 10
33.12797334672099
 20
22.67196699229354
 10
33.098058639411
 20
22.67182252423283
 10
33.06814734120941
 20
22.6716769433246
 10
33.04018987411893
 20
22.6715397424436
 10
33.01600925693953
 20
22.67141986802922
  0
SPLINE
  5
1F0
330
1F
100
AcDbEntity
  8
0
  6
Continuous
100
AcDbSpline
210
0.0
220
0.0
230
1.0
 70
     8
 71
     3
 72
     8
 73
     4
 74
     0
 42
0.0000000001
 43
0.0000000001
 40
0.0
 40
0.0
 40
0.0
 40
0.0
 40
0.0049689870286612
 40
0.0049689870286612
 40
0.0049689870286612
 40
0.0049689870286612
 10
33.01467929965262
 20
22.90186871791177
 30
0.0
 10
33.01489712106912
 20
22.86926454439528
 30
0.0
 10
33.01510220820186
 20
22.8366602828269
 30
0.0
 10
33.01529458336339
 20
22.8040559485624
 30
0.0
  0
SPLINE
  5
1F1
330
1F
100
AcDbEntity
  8
0
  6
Continuous
100
AcDbSpline
210
0.0
220
0.0
230
1.0
 70
     8
 71
     3
 72
     8
 73
     4
 74
     0
 42
0.0000000001
 43
0.0000000001
 40
0.0018575819080054
 40
0.0018575819080054
 40
0.0018575819080054
 40
0.0018575819080054
 40
0.0068302499293318
 40
0.0068302499293318
 40
0.0068302499293318
 40
0.0068302499293318
 10
33.09739458520954
 20
22.80455226651211
 30
0.0
 10
33.09719733685688
 20
22.83718072601021
 30
0.0
 10
33.09698566217885
 20
22.86980910159022
 30
0.0
 10
33.09675932774587
 20
22.90243737228997
 30
0.0
  0
LINE
  5
1F2
330
1F
100
AcDbEntity
  8
0
  6
Continuous
100
AcDbLine
 10
33.01529507745582
 20
22.80405595154933
 30
0.0
 11
33.09739458520952
 21
22.80455226651209
 31
0.0
  0
LINE
  5
1F3
330
1F
100
AcDbEntity
  8
0
  6
Continuous
100
AcDbLine
 10
21.61503669010787
 20
22.80455226651209
 30
0.0
 11
21.69713619786158
 21
22.80405595154933
 31
0.0
  0
SPLINE
  5
1F4
330
1F
100
AcDbEntity
  8
0
  6
Continuous
100
AcDbSpline
210
0.0
220
0.0
230
1.0
 70
     8
 71
     3
 72
     8
 73
     4
 74
     0
 42
0.0000000001
 43
0.0000000001
 40
0.0018575819080054
 40
0.0018575819080054
 40
0.0018575819080054
 40
0.0018575819080054
 40
0.0068302499293318
 40
0.0068302499293318
 40
0.0068302499293318
 40
0.0068302499293318
 10
21.61503669010786
 20
22.80455226651211
 30
0.0
 10
21.61523393846052
 20
22.83718072601021
 30
0.0
 10
21.61544561313855
 20
22.86980910159022
 30
0.0
 10
21.61567194757154
 20
22.90243737228997
 30
0.0
  0
SPLINE
  5
1F5
330
1F
100
AcDbEntity
  8
0
  6
Continuous
100
AcDbSpline
210
0.0
220
0.0
230
1.0
 70
     8
 71
     3
 72
     8
 73
     4
 74
     0
 42
0.0000000001
 43
0.0000000001
 40
0.0
 40
0.0
 40
0.0
 40
0.0
 40
0.0049689870286612
 40
0.0049689870286612
 40
0.0049689870286612
 40
0.0049689870286612
 10
21.69775197566478
 20
22.90186871791177
 30
0.0
 10
21.69753415424827
 20
22.86926454439528
 30
0.0
 10
21.69732906711553
 20
22.8366602828269
 30
0.0
 10
21.69713669195401
 20
22.8040559485624
 30
0.0
  0
ARC
  5
1F6
330
1F
100
AcDbEntity
  8
0
  6
Continuous
100
AcDbCircle
 10
27.35621563765852
 20
140.8144795766075
 30
0.0
 40
123.1013214128517
100
AcDbArc
 50
270.0000000000001
 51
270.63021405829
  0
ARC
  5
1F7
330
1F
100
AcDbEntity
  8
0
  6
Continuous
100
AcDbCircle
 10
27.35621563765893
 20
140.8144795766075
 30
0.0
 40
123.1013214128517
100
AcDbArc
 50
269.3697859417107
 51
270.0000000000007
  0
CIRCLE
  5
1F8
330
1F
100
AcDbEntity
  8
0
  6
Continuous
100
AcDbCircle
 10
27.3562156376587
 20
25.22814661821914
 30
0.0
 40
0.3444881889763778
  0
ARC
  5
1F9
330
1F
100
AcDbEntity
  8
0
  6
Continuous
100
AcDbCircle
 10
31.6526708326001
 20
24.95542523410065
 30
0.0
 40
1.412626249738899
100
AcDbArc
 50
1.364313407000401
 51
87.97664094636767
  0
ARC
  5
1FA
330
1F
100
AcDbEntity
  8
0
  6
Continuous
100
AcDbCircle
 10
-89.14230798438854
 20
22.07854031900657
 30
0.0
 40
122.2418585332034
100
AcDbArc
 50
0.3402898607598061
 51
1.364313407001215
  0
ARC
  5
1FB
330
1F
100
AcDbEntity
  8
0
  6
Continuous
100
AcDbCircle
 10
143.8547392597059
 20
22.07854031900652
 30
0.0
 40
122.2418585332034
100
AcDbArc
 50
178.6356865929996
 51
179.659710139241
  0
ARC
  5
1FC
330
1F
100
AcDbEntity
  8
0
  6
Continuous
100
AcDbCircle
 10
23.0597604427173
 20
24.95542523410065
 30
0.0
 40
1.412626249738898
100
AcDbArc
 50
92.02335905363314
 51
178.6356865930004
  0
ARC
  5
1FD
330
1F
100
AcDbEntity
  8
0
  6
Continuous
100
AcDbCircle
 10
27.35621563765845
 20
-96.657398938585
 30
0.0
 40
123.1013214128422
100
AcDbArc
 50
87.97664094636777
 51
92.02335905363273
  0
ARC
  5
1FE
330
1F
100
AcDbEntity
  8
0
  6
Continuous
100
AcDbCircle
 10
23.0597604427173
 20
19.20165540391245
 30
0.0
 40
1.412626249738879
100
AcDbArc
 50
181.364313407002
 51
267.9766409463708
  0
ARC
  5
1FF
330
1F
100
AcDbEntity
  8
0
  6
Continuous
100
AcDbCircle
 10
143.8547392597059
 20
22.07854031900652
 30
0.0
 40
122.2418585332034
100
AcDbArc
 50
179.7219305855178
 51
181.364313407002
  0
ARC
  5
200
330
1F
100
AcDbEntity
  8
0
  6
Continuous
100
AcDbCircle
 10
27.35621563765893
 20
140.8144795766075
 30
0.0
 40
123.1013214128517
100
AcDbArc
 50
267.9766409463688
 51
268.3001970559919
  0
ARC
  5
201
330
1F
100
AcDbEntity
  8
0
  6
Continuous
100
AcDbCircle
 10
-89.14230798438854
 20
22.07854031900657
 30
0.0
 40
122.2418585332034
100
AcDbArc
 50
358.6356865929987
 51
0.2780694144829783
  0
ARC
  5
202
330
1F
100
AcDbEntity
  8
0
  6
Continuous
100
AcDbCircle
 10
31.6526708326001
 20
19.20165540391245
 30
0.0
 40
1.412626249738879
100
AcDbArc
 50
272.02335905363
 51
358.6356865929983
  0
ARC
  5
203
330
1F
100
AcDbEntity
  8
0
  6
Continuous
100
AcDbCircle
 10
27.35621563765852
 20
140.8144795766075
 30
0.0
 40
123.1013214128517
100
AcDbArc
 50
271.6998029440089
 51
272.023359053632
  0
LINE
  5
204
330
1F
100
AcDbEntity
  8
0
  6
Continuous
100
AcDbLine
 10
28.71151628222082
 20
17.60257363842532
 30
0.0
 11
28.71021796871509
 21
17.72060478473287
 31
0.0
  0
ARC
  5
205
330
1F
100
AcDbEntity
  8
0
  6
Continuous
100
AcDbCircle
 10
27.35621563765852
 20
140.8144795766075
 30
0.0
 40
123.2193596995075
100
AcDbArc
 50
269.3697859417377
 51
270.6302140582632
  0
LINE
  5
206
330
1F
100
AcDbEntity
  8
0
  6
Continuous
100
AcDbLine
 10
26.00091499309657
 20
17.60257363842532
 30
0.0
 11
26.00221330660231
 21
17.72060478473287
 31
0.0
  0
ARC
  5
207
330
1F
100
AcDbEntity
  8
0
  6
Continuous
100
AcDbCircle
 10
23.0597604427173
 20
19.20165540391245
 30
0.0
 40
1.530664536394704
100
AcDbArc
 50
181.364313407002
 51
267.9766409463704
  0
LINE
  5
208
330
1F
100
AcDbEntity
  8
0
  6
Continuous
100
AcDbLine
 10
21.52952982918544
 20
19.16521103005024
 30
0.0
 11
21.6475346535704
 21
19.16802146391517
 31
0.0
  0
LINE
  5
209
330
1F
100
AcDbEntity
  8
0
  6
Continuous
100
AcDbLine
 10
23.00571736508971
 20
17.67194521281841
 30
0.0
 11
23.00988493553843
 21
17.7899099044562
 31
0.0
  0
ARC
  5
20A
330
1F
100
AcDbEntity
  8
0
  6
Continuous
100
AcDbCircle
 10
43.23236962049283
 20
17.53935372497957
 30
0.0
 40
17.23157059972979
100
AcDbArc
 50
179.0709970298579
 51
179.7897903544649
  0
LINE
  5
20B
330
1F
100
AcDbEntity
  8
0
  6
Continuous
100
AcDbLine
 10
31.70671391022774
 20
26.48513542519463
 30
0.0
 11
31.70254633977903
 21
26.36717073355686
 31
0.0
  0
LINE
  5
20C
330
1F
100
AcDbEntity
  8
0
  6
Continuous
100
AcDbLine
 10
23.00988493553838
 20
26.36717073355686
 30
0.0
 11
23.00571736508965
 21
26.48513542519463
 31
0.0
  0
ARC
  5
20D
330
1F
100
AcDbEntity
  8
0
  6
Continuous
100
AcDbCircle
 10
27.35621563765845
 20
-96.657398938585
 30
0.0
 40
123.219359699498
100
AcDbArc
 50
87.97664094636777
 51
92.02335905363273
  0
LINE
  5
20E
330
1F
100
AcDbEntity
  8
0
  6
Continuous
100
AcDbLine
 10
21.61503669010787
 20
22.80455226651209
 30
0.0
 11
21.49700051980889
 21
22.80525331263764
 31
0.0
  0
ARC
  5
20F
330
1F
100
AcDbEntity
  8
0
  6
Continuous
100
AcDbCircle
 10
143.8547392597059
 20
22.07854031900652
 30
0.0
 40
122.3598968198592
100
AcDbArc
 50
178.6356865929996
 51
179.659710139241
  0
LINE
  5
210
330
1F
100
AcDbEntity
  8
0
  6
Continuous
100
AcDbLine
 10
21.64753465357038
 20
24.98905917409791
 30
0.0
 11
21.52952982918544
 21
24.99186960796285
 31
0.0
  0
ARC
  5
211
330
1F
100
AcDbEntity
  8
0
  6
Continuous
100
AcDbCircle
 10
35.56041989499816
 20
17.91067564425817
 30
0.0
 40
4.556672467247866
100
AcDbArc
 50
180.5824641543335
 51
183.2878354876603
  0
LINE
  5
212
330
1F
100
AcDbEntity
  8
0
  6
Continuous
100
AcDbLine
 10
31.01124763964963
 20
17.64934105997596
 30
0.0
 11
31.00774629281389
 21
17.76732740531717
 31
0.0
  0
ARC
  5
213
330
1F
100
AcDbEntity
  8
0
  6
Continuous
100
AcDbCircle
 10
-89.14230798438854
 20
22.07854031900657
 30
0.0
 40
122.3598968198592
100
AcDbArc
 50
0.3402898607598061
 51
1.364313407001215
  0
LINE
  5
214
330
1F
100
AcDbEntity
  8
0
  6
Continuous
100
AcDbLine
 10
33.09739458520952
 20
22.80455226651209
 30
0.0
 11
33.21543075550851
 21
22.80525331263764
 31
0.0
  0
LINE
  5
215
330
1F
100
AcDbEntity
  8
0
  6
Continuous
100
AcDbLine
 10
33.18290144613196
 20
24.99186960796285
 30
0.0
 11
33.06489662174702
 21
24.98905917409791
 31
0.0
  0
LINE
  5
216
330
1F
100
AcDbEntity
  8
0
  6
Continuous
100
AcDbLine
 10
33.21614781737704
 20
22.67237832214772
 30
0.0
 11
33.09811092084403
 21
22.67180545786301
 31
0.0
  0
LINE
  5
217
330
1F
100
AcDbEntity
  8
0
  6
Continuous
100
AcDbLine
 10
33.064896621747
 20
19.16802146391517
 30
0.0
 11
33.18290144613196
 21
19.16521103005024
 31
0.0
  0
ARC
  5
218
330
1F
100
AcDbEntity
  8
0
  6
Continuous
100
AcDbCircle
 10
31.6526708326001
 20
19.20165540391245
 30
0.0
 40
1.530664536394704
100
AcDbArc
 50
272.0233590536303
 51
358.6356865929987
  0
LINE
  5
219
330
1F
100
AcDbEntity
  8
0
  6
Continuous
100
AcDbLine
 10
31.70254633977897
 20
17.7899099044562
 30
0.0
 11
31.70671391022768
 21
17.67194521281841
 31
0.0
  0
ARC
  5
21A
330
1F
100
AcDbEntity
  8
0
  6
Continuous
100
AcDbCircle
 10
27.35621563765893
 20
140.8144795766075
 30
0.0
 40
123.2193596995075
100
AcDbArc
 50
267.9766409463688
 51
268.3001970559919
  0
LINE
  5
21B
330
1F
100
AcDbEntity
  8
0
  6
Continuous
100
AcDbLine
 10
23.70118363566776
 20
17.64934105997596
 30
0.0
 11
23.70468498250351
 21
17.76732740531717
 31
0.0
  0
ARC
  5
21C
330
1F
100
AcDbEntity
  8
0
  6
Continuous
100
AcDbCircle
 10
11.48006165497299
 20
17.53935372498119
 30
0.0
 40
17.23157059958135
100
AcDbArc
 50
0.2102096455321603
 51
0.9290029701457717
  0
ARC
  5
21D
330
1F
100
AcDbEntity
  8
0
  6
Continuous
100
AcDbCircle
 10
31.6526708326001
 20
24.95542523410065
 30
0.0
 40
1.530664536394669
100
AcDbArc
 50
1.364313407000401
 51
87.97664094636747
  0
ARC
  5
21E
330
1F
100
AcDbEntity
  8
0
  6
Continuous
100
AcDbCircle
 10
19.15201138030522
 20
17.91067564425861
 30
0.0
 40
4.556672467261881
100
AcDbArc
 50
356.712164512345
 51
359.4175358456636
  0
ARC
  5
21F
330
1F
100
AcDbEntity
  8
0
  6
Continuous
100
AcDbCircle
 10
143.8547392597059
 20
22.07854031900652
 30
0.0
 40
122.3598968198592
100
AcDbArc
 50
179.7219305855394
 51
181.364313407002
  0
LINE
  5
220
330
1F
100
AcDbEntity
  8
0
  6
Continuous
100
AcDbLine
 10
21.49628345794035
 20
22.67237832214772
 30
0.0
 11
21.61432035447337
 21
22.67180545786301
 31
0.0
  0
ARC
  5
221
330
1F
100
AcDbEntity
  8
0
  6
Continuous
100
AcDbCircle
 10
23.0597604427173
 20
24.95542523410065
 30
0.0
 40
1.530664536394668
100
AcDbArc
 50
92.02335905363336
 51
178.6356865930004
  0
ARC
  5
222
330
1F
100
AcDbEntity
  8
0
  6
Continuous
100
AcDbCircle
 10
-89.14230798438854
 20
22.07854031900657
 30
0.0
 40
122.3598968198592
100
AcDbArc
 50
358.6356865929987
 51
0.2780694144614011
  0
ARC
  5
223
330
1F
100
AcDbEntity
  8
0
  6
Continuous
100
AcDbCircle
 10
27.35621563765852
 20
140.8144795766075
 30
0.0
 40
123.2193596995075
100
AcDbArc
 50
271.6998029440089
 51
272.023359053632
  0
SPLINE
  5
224
330
1F
100
AcDbEntity
  8
0
  6
Continuous
100
AcDbSpline
210
0.0
220
0.0
230
1.0
 70
     8
 71
     3
 72
    16
 73
    12
 74
     0
 42
0.0000000001
 43
0.0000000001
 40
0.0
 40
0.0
 40
0.0
 40
0.0
 40
0.2499999999999998
 40
0.2499999999999998
 40
0.4999999999999996
 40
0.4999999999999996
 40
0.6249999999999997
 40
0.6249999999999997
 40
0.7499999999999999
 40
0.7499999999999999
 40
1.0
 40
1.0
 40
1.0
 40
1.0
 10
28.71151628222082
 20
17.60257363842532
 30
0.0
 10
28.90319517878411
 20
17.60465994259542
 30
0.0
 10
29.09486549732642
 20
17.60718840263028
 30
0.0
 10
29.47818930956752
 20
17.61314237256588
 30
0.0
 10
29.66984279011634
 20
17.6165673707798
 30
0.0
 10
29.95731082438802
 20
17.62239443821114
 30
0.0
 10
30.05313149235824
 20
17.62445253869492
 30
0.0
 10
30.24476870982783
 20
17.628796421475
 30
0.0
 10
30.34058527783955
 20
17.63108292306784
 30
0.0
 10
30.62802906488477
 20
17.63829411251882
 30
0.0
 10
30.81965303253579
 20
17.64357162596362
 30
0.0
 10
31.01124763965168
 20
17.64934105997607
 30
0.0
  0
SPLINE
  5
225
330
1F
100
AcDbEntity
  8
0
  6
Continuous
100
AcDbSpline
210
0.0
220
0.0
230
1.0
 70
     8
 71
     3
 72
    16
 73
    12
 74
     0
 42
0.0000000001
 43
0.0000000001
 40
0.0
 40
0.0
 40
0.0
 40
0.0
 40
0.2499999999999998
 40
0.2499999999999998
 40
0.375
 40
0.375
 40
0.5000000000000004
 40
0.5000000000000004
 40
0.7500000000000001
 40
0.7500000000000001
 40
1.0
 40
1.0
 40
1.0
 40
1.0
 10
31.00398288237161
 20
17.86435368681246
 30
0.0
 10
30.81280731963949
 20
17.8601665992355
 30
0.0
 10
30.62159011736646
 20
17.85552319511521
 30
0.0
 10
30.33477439772796
 20
17.84882826530649
 30
0.0
 10
30.23916912836403
 20
17.84663105885294
 30
0.0
 10
30.04795648882769
 20
17.84237948741077
 30
0.0
 10
29.95234884373267
 20
17.84033496500592
 30
0.0
 10
29.66552377599949
 20
17.83438172109357
 30
0.0
 10
29.47430339238139
 20
17.83067964536532
 30
0.0
 10
29.09184764687081
 20
17.8240706596895
 30
0.0
 10
28.90061247826061
 20
17.8211567250475
 30
0.0
 10
28.70936722280705
 20
17.81873693592799
 30
0.0
  0
SPLINE
  5
226
330
1F
100
AcDbEntity
  8
0
  6
Continuous
100
AcDbSpline
210
0.0
220
0.0
230
1.0
 70
     8
 71
     3
 72
    16
 73
    12
 74
     0
 42
0.0000000001
 43
0.0000000001
 40
0.0
 40
0.0
 40
0.0
 40
0.0
 40
0.2499999999999998
 40
0.2499999999999998
 40
0.375
 40
0.375
 40
0.5000000000000004
 40
0.5000000000000004
 40
0.7500000000000001
 40
0.7500000000000001
 40
1.0
 40
1.0
 40
1.0
 40
1.0
 10
23.70844839294578
 20
17.86435368681246
 30
0.0
 10
23.89962395567791
 20
17.8601665992355
 30
0.0
 10
24.09084115795094
 20
17.85552319511521
 30
0.0
 10
24.37765687758944
 20
17.84882826530649
 30
0.0
 10
24.47326214695337
 20
17.84663105885294
 30
0.0
 10
24.6644747864897
 20
17.84237948741077
 30
0.0
 10
24.76008243158472
 20
17.84033496500592
 30
0.0
 10
25.0469074993179
 20
17.83438172109357
 30
0.0
 10
25.23812788293601
 20
17.83067964536532
 30
0.0
 10
25.62058362844659
 20
17.8240706596895
 30
0.0
 10
25.81181879705679
 20
17.8211567250475
 30
0.0
 10
26.00306405251035
 20
17.81873693592799
 30
0.0
  0
SPLINE
  5
227
330
1F
100
AcDbEntity
  8
0
  6
Continuous
100
AcDbSpline
210
0.0
220
0.0
230
1.0
 70
     8
 71
     3
 72
    16
 73
    12
 74
     0
 42
0.0000000001
 43
0.0000000001
 40
0.0
 40
0.0
 40
0.0
 40
0.0
 40
0.2499999999999998
 40
0.2499999999999998
 40
0.4999999999999996
 40
0.4999999999999996
 40
0.6249999999999997
 40
0.6249999999999997
 40
0.7499999999999999
 40
0.7499999999999999
 40
1.0
 40
1.0
 40
1.0
 40
1.0
 10
26.00091499309657
 20
17.60257363842532
 30
0.0
 10
25.80923609653329
 20
17.60465994259542
 30
0.0
 10
25.61756577799098
 20
17.60718840263028
 30
0.0
 10
25.23424196574988
 20
17.61314237256588
 30
0.0
 10
25.04258848520106
 20
17.6165673707798
 30
0.0
 10
24.75512045092937
 20
17.62239443821114
 30
0.0
 10
24.65929978295916
 20
17.62445253869492
 30
0.0
 10
24.46766256548957
 20
17.628796421475
 30
0.0
 10
24.37184599747785
 20
17.63108292306784
 30
0.0
 10
24.08440221043263
 20
17.63829411251882
 30
0.0
 10
23.89277824278161
 20
17.64357162596362
 30
0.0
 10
23.70118363566572
 20
17.64934105997607
 30
0.0
  0
SPLINE
  5
22A
330
1F
100
AcDbEntity
  8
0
  6
Continuous
100
AcDbSpline
210
0.0
220
0.0
230
1.0
 70
     8
 71
     3
 72
    20
 73
    16
 74
     0
 42
0.0000000001
 43
0.0000000001
 40
0.070257112253769
 40
0.070257112253769
 40
0.070257112253769
 40
0.070257112253769
 40
0.090975114828228
 40
0.122225114828228
 40
0.153475114828228
 40
0.215975114828228
 40
0.278475114828228
 40
0.340975114828228
 40
0.403475114828228
 40
0.465975114828228
 40
0.5284751148282281
 40
0.5909751148282281
 40
0.6534751148282281
 40
0.7159751148282281
 40
0.7707180025744589
 40
0.7707180025744589
 40
0.7707180025744589
 40
0.7707180025744589
 10
26.30007818165948
 20
24.25402009586364
 30
0.0
 10
26.26888899334797
 20
24.25463437121717
 30
0.0
 10
26.19083991311761
 20
24.25621753158894
 30
0.0
 10
26.06662028200847
 20
24.25889651178346
 30
0.0
 10
25.88142295555547
 20
24.2631069275487
 30
0.0
 10
25.6525463736369
 20
24.26858149136591
 30
0.0
 10
25.38179214893109
 20
24.27504636049603
 30
0.0
 10
25.11436627584088
 20
24.28097251808138
 30
0.0
 10
24.84950208517036
 20
24.28594492030088
 30
0.0
 10
24.58632020012846
 20
24.289578270035
 30
0.0
 10
24.32390849267445
 20
24.29152502497935
 30
0.0
 10
24.06135835564933
 20
24.29146851864038
 30
0.0
 10
23.79778177025588
 20
24.28910974066909
 30
0.0
 10
23.54333463902809
 20
24.28437330694805
 30
0.0
 10
23.37586418778029
 20
24.27962403670211
 30
0.0
 10
23.29728226214896
 20
24.27702178530525
 30
0.0
  0
LINE
  5
22D
330
1F
100
AcDbEntity
  8
0
  6
Continuous
100
AcDbLine
 10
31.3534201091781
 20
24.27850933993709
 30
0.0
 11
31.34029485163088
 21
24.27882563483942
 31
0.0
  0
SPLINE
  5
248
330
1F
100
AcDbEntity
  8
0
  6
Continuous
100
AcDbSpline
210
0.0
220
0.0
230
1.0
 70
     8
 71
     3
 72
     8
 73
     4
 74
     0
 42
0.0000000001
 43
0.0000000001
 40
0.0
 40
0.0
 40
0.0
 40
0.0
 40
1.0
 40
1.0
 40
1.0
 40
1.0
 10
27.3562156376587
 20
18.20277377010443
 30
0.0
 10
27.19227488715274
 20
18.20277377064542
 30
0.0
 10
27.02833756399039
 20
18.20385210773704
 30
0.0
 10
26.86442004184629
 20
18.20590095393153
 30
0.0
  0
SPLINE
  5
24C
330
1F
100
AcDbEntity
  8
0
  6
Continuous
100
AcDbSpline
210
0.0
220
0.0
230
1.0
 70
     8
 71
     3
 72
     8
 73
     4
 74
     0
 42
0.0000000001
 43
0.0000000001
 40
0.0
 40
0.0
 40
0.0
 40
0.0
 40
1.0
 40
1.0
 40
1.0
 40
1.0
 10
26.86450409139824
 20
18.39916965315768
 30
0.0
 10
27.02838552734084
 20
18.39658405928111
 30
0.0
 10
27.19229771008866
 20
18.39522435088027
 30
0.0
 10
27.3562156376587
 20
18.39522434155028
 30
0.0
  0
SPLINE
  5
24D
330
1F
100
AcDbEntity
  8
0
  6
Continuous
100
AcDbSpline
210
0.0
220
0.0
230
1.0
 70
     8
 71
     3
 72
    47
 73
    43
 74
     0
 42
0.0000000001
 43
0.0000000001
 40
0.0
 40
0.0
 40
0.0
 40
0.0
 40
0.0625000000000005
 40
0.0625000000000005
 40
0.0937500000000007
 40
0.0937500000000007
 40
0.125000000000001
 40
0.125000000000001
 40
0.1875000000000014
 40
0.1875000000000014
 40
0.2500000000000019
 40
0.2500000000000019
 40
0.3125000000000024
 40
0.3125000000000024
 40
0.3437500000000035
 40
0.3437500000000035
 40
0.3750000000000046
 40
0.4062500000000057
 40
0.4062500000000057
 40
0.4375000000000068
 40
0.4375000000000068
 40
0.5000000000000072
 40
0.5000000000000072
 40
0.5625000000000077
 40
0.5625000000000077
 40
0.6250000000000082
 40
0.6250000000000082
 40
0.6562500000000076
 40
0.6562500000000076
 40
0.687500000000007
 40
0.687500000000007
 40
0.7500000000000061
 40
0.7500000000000061
 40
0.8125000000000049
 40
0.8125000000000049
 40
0.8437500000000044
 40
0.8437500000000044
 40
0.8750000000000039
 40
0.8750000000000039
 40
0.9375000000000019
 40
0.9375000000000019
 40
1.0
 40
1.0
 40
1.0
 40
1.0
 10
26.86442004184629
 20
18.20590095393152
 30
0.0
 10
26.85468637841153
 20
18.2060226174305
 30
0.0
 10
26.84511383515561
 20
18.20675422020218
 30
0.0
 10
26.83098709172868
 20
18.20873251421438
 30
0.0
 10
26.82631714255749
 20
18.20953986516904
 30
0.0
 10
26.81705699695431
 20
18.21145795591469
 30
0.0
 10
26.8124538576334
 20
18.2125740269582
 30
0.0
 10
26.79906143835525
 20
18.21631131081426
 30
0.0
 10
26.79059009348958
 20
18.21933352960019
 30
0.0
 10
26.77455431072011
 20
18.22643850337197
 30
0.0
 10
26.76695896187065
 20
18.2305591612006
 30
0.0
 10
26.75334234698422
 20
18.23954336272754
 30
0.0
 10
26.74723112570217
 20
18.24443768019719
 30
0.0
 10
26.73913603975529
 20
18.25240254048681
 30
0.0
 10
26.73662215183254
 20
18.25516175195543
 30
0.0
 10
26.73206655882711
 20
18.26076837666298
 30
0.0
 10
26.72795130749309
 20
18.26649276141183
 30
0.0
 10
26.72470357761301
 20
18.2724501166953
 30
0.0
 10
26.72189561734635
 20
18.2785258923588
 30
0.0
 10
26.72070691239134
 20
18.28163975548754
 30
0.0
 10
26.7178658986577
 20
18.29103616315931
 30
0.0
 10
26.71693178397738
 20
18.29733229133202
 30
0.0
 10
26.71693138902418
 20
18.30998555521611
 30
0.0
 10
26.71789567545456
 20
18.31640982673426
 30
0.0
 10
26.72167439004134
 20
18.3288383912329
 30
0.0
 10
26.72446738698953
 20
18.33487451068744
 30
0.0
 10
26.73001879168591
 20
18.34365601566425
 30
0.0
 10
26.7321115987418
 20
18.34655261062479
 30
0.0
 10
26.73668685294912
 20
18.35214660596167
 30
0.0
 10
26.73916944984362
 20
18.35484947912141
 30
0.0
 10
26.74718781955668
 20
18.36268138457856
 30
0.0
 10
26.75328861339623
 20
18.36753641929029
 30
0.0
 10
26.76705801040082
 20
18.37647927982233
 30
0.0
 10
26.7745240620267
 20
18.38043234992361
 30
0.0
 10
26.78650165760398
 20
18.38557958307483
 30
0.0
 10
26.79062800240126
 20
18.38716598718139
 30
0.0
 10
26.79915381927433
 20
18.39007418670359
 30
0.0
 10
26.80357266028107
 20
18.39139958755261
 30
0.0
 10
26.81696888504639
 20
18.39489098849482
 30
0.0
 10
26.82615501151101
 20
18.39660642558483
 30
0.0
 10
26.845031304792
 20
18.39882653000224
 30
0.0
 10
26.85477116375869
 20
18.39932321172252
 30
0.0
 10
26.86450409139824
 20
18.39916965315768
 30
0.0
  0
SPLINE
  5
24E
330
1F
100
AcDbEntity
  8
0
  6
Continuous
100
AcDbSpline
210
0.0
220
0.0
230
1.0
 70
     8
 71
     3
 72
     8
 73
     4
 74
     0
 42
0.0000000001
 43
0.0000000001
 40
0.0
 40
0.0
 40
0.0
 40
0.0
 40
1.0
 40
1.0
 40
1.0
 40
1.0
 10
27.84792718391916
 20
18.39916965315768
 30
0.0
 10
27.68404574797656
 20
18.39658405928111
 30
0.0
 10
27.52013356522874
 20
18.39522435088027
 30
0.0
 10
27.3562156376587
 20
18.39522434155028
 30
0.0
  0
SPLINE
  5
250
330
1F
100
AcDbEntity
  8
0
  6
Continuous
100
AcDbSpline
210
0.0
220
0.0
230
1.0
 70
     8
 71
     3
 72
     8
 73
     4
 74
     0
 42
0.0000000001
 43
0.0000000001
 40
0.0
 40
0.0
 40
0.0
 40
0.0
 40
1.0
 40
1.0
 40
1.0
 40
1.0
 10
27.3562156376587
 20
18.20277377010443
 30
0.0
 10
27.52015638816466
 20
18.20277377064542
 30
0.0
 10
27.68409371132702
 20
18.20385210773704
 30
0.0
 10
27.84801123347111
 20
18.20590095393153
 30
0.0
  0
SPLINE
  5
251
330
1F
100
AcDbEntity
  8
0
  6
Continuous
100
AcDbSpline
210
0.0
220
0.0
230
1.0
 70
     8
 71
     3
 72
    47
 73
    43
 74
     0
 42
0.0000000001
 43
0.0000000001
 40
0.0
 40
0.0
 40
0.0
 40
0.0
 40
0.0625000000000005
 40
0.0625000000000005
 40
0.0937500000000007
 40
0.0937500000000007
 40
0.125000000000001
 40
0.125000000000001
 40
0.1875000000000014
 40
0.1875000000000014
 40
0.2500000000000019
 40
0.2500000000000019
 40
0.3125000000000024
 40
0.3125000000000024
 40
0.3437500000000035
 40
0.3437500000000035
 40
0.3750000000000046
 40
0.4062500000000057
 40
0.4062500000000057
 40
0.4375000000000068
 40
0.4375000000000068
 40
0.5000000000000072
 40
0.5000000000000072
 40
0.5625000000000077
 40
0.5625000000000077
 40
0.6250000000000082
 40
0.6250000000000082
 40
0.6562500000000076
 40
0.6562500000000076
 40
0.687500000000007
 40
0.687500000000007
 40
0.7500000000000061
 40
0.7500000000000061
 40
0.8125000000000049
 40
0.8125000000000049
 40
0.8437500000000044
 40
0.8437500000000044
 40
0.8750000000000039
 40
0.8750000000000039
 40
0.9375000000000019
 40
0.9375000000000019
 40
1.0
 40
1.0
 40
1.0
 40
1.0
 10
27.84801123347111
 20
18.20590095393152
 30
0.0
 10
27.85774489690587
 20
18.2060226174305
 30
0.0
 10
27.86731744016178
 20
18.20675422020218
 30
0.0
 10
27.88144418358872
 20
18.20873251421438
 30
0.0
 10
27.88611413275991
 20
18.20953986516904
 30
0.0
 10
27.89537427836308
 20
18.21145795591469
 30
0.0
 10
27.89997741768401
 20
18.2125740269582
 30
0.0
 10
27.91336983696215
 20
18.21631131081426
 30
0.0
 10
27.92184118182782
 20
18.21933352960019
 30
0.0
 10
27.93787696459729
 20
18.22643850337197
 30
0.0
 10
27.94547231344675
 20
18.2305591612006
 30
0.0
 10
27.95908892833318
 20
18.23954336272754
 30
0.0
 10
27.96520014961522
 20
18.24443768019719
 30
0.0
 10
27.97329523556211
 20
18.25240254048681
 30
0.0
 10
27.97580912348486
 20
18.25516175195543
 30
0.0
 10
27.98036471649029
 20
18.26076837666298
 30
0.0
 10
27.98447996782431
 20
18.26649276141183
 30
0.0
 10
27.98772769770439
 20
18.2724501166953
 30
0.0
 10
27.99053565797104
 20
18.2785258923588
 30
0.0
 10
27.99172436292604
 20
18.28163975548754
 30
0.0
 10
27.9945653766597
 20
18.29103616315931
 30
0.0
 10
27.99549949134001
 20
18.29733229133202
 30
0.0
 10
27.99549988629323
 20
18.30998555521611
 30
0.0
 10
27.99453559986283
 20
18.31640982673426
 30
0.0
 10
27.99075688527607
 20
18.3288383912329
 30
0.0
 10
27.98796388832786
 20
18.33487451068744
 30
0.0
 10
27.98241248363148
 20
18.34365601566425
 30
0.0
 10
27.98031967657559
 20
18.34655261062479
 30
0.0
 10
27.97574442236828
 20
18.35214660596167
 30
0.0
 10
27.97326182547378
 20
18.35484947912141
 30
0.0
 10
27.96524345576071
 20
18.36268138457856
 30
0.0
 10
27.95914266192117
 20
18.36753641929029
 30
0.0
 10
27.94537326491658
 20
18.37647927982233
 30
0.0
 10
27.93790721329069
 20
18.38043234992361
 30
0.0
 10
27.92592961771342
 20
18.38557958307483
 30
0.0
 10
27.92180327291614
 20
18.38716598718139
 30
0.0
 10
27.91327745604306
 20
18.39007418670359
 30
0.0
 10
27.90885861503632
 20
18.39139958755261
 30
0.0
 10
27.895462390271
 20
18.39489098849482
 30
0.0
 10
27.88627626380639
 20
18.39660642558483
 30
0.0
 10
27.86739997052541
 20
18.39882653000224
 30
0.0
 10
27.85766011155871
 20
18.39932321172252
 30
0.0
 10
27.84792718391916
 20
18.39916965315768
 30
0.0
  0
SPLINE
  5
252
330
1F
100
AcDbEntity
  8
0
  6
Continuous
100
AcDbSpline
210
0.0
220
0.0
230
1.0
 70
     8
 71
     3
 72
    32
 73
    28
 74
     0
 42
0.0000000001
 43
0.0000000001
 40
0.770718002574459
 40
0.770718002574459
 40
0.770718002574459
 40
0.770718002574459
 40
0.786343002574459
 40
0.8019680025744589
 40
0.8078273775744589
 40
0.8092922213244589
 40
0.8097805025744589
 40
0.8102687838244589
 40
0.8106349947619589
 40
0.8117336275744589
 40
0.8175930025744589
 40
0.8254055025744589
 40
0.8332180025744589
 40
0.8488430025744589
 40
0.8644680025744589
 40
0.8957180025744589
 40
0.9113430025744589
 40
0.9269680025744589
 40
0.9425930025744589
 40
0.9582180025744589
 40
0.9660305025744589
 40
0.9689601900744589
 40
0.9699367525744589
 40
0.9709133150744589
 40
0.9738430025744589
 40
0.9894680025744589
 40
1.0
 40
1.0
 40
1.0
 40
1.0
 10
27.3562156376587
 20
24.24274985227656
 30
0.0
 10
27.38046610472431
 20
24.24274985227656
 30
0.0
 10
27.42896670575162
 20
24.24278914619367
 30
0.0
 10
27.48654196216204
 20
24.24292755173708
 30
0.0
 10
27.52213171666258
 20
24.24305147958542
 30
0.0
 10
27.53424518058654
 20
24.2430980875017
 30
0.0
 10
27.53803044786506
 20
24.24311302017623
 30
0.0
 10
27.54011229191312
 20
24.24312133420911
 30
0.0
 10
27.54314036048462
 20
24.24313355590106
 30
0.0
 10
27.55449517504084
 20
24.24318021331698
 30
0.0
 10
27.57738969669196
 20
24.24328220900584
 30
0.0
 10
27.61067662483133
 20
24.24345300425863
 30
0.0
 10
27.6590665021034
 20
24.24373840063346
 30
0.0
 10
27.71949506774168
 20
24.24416383576615
 30
0.0
 10
27.8160277054462
 20
24.24498695618356
 30
0.0
 10
27.91228924024639
 20
24.24601754229105
 30
0.0
 10
28.00820431753697
 20
24.24724024854425
 30
0.0
 10
28.07995159028538
 20
24.24824846086134
 30
0.0
 10
28.15149402134956
 20
24.24934297835992
 30
0.0
 10
28.21093172731048
 20
24.2503222154659
 30
0.0
 10
28.25095534749467
 20
24.25101476894436
 30
0.0
 10
28.26872352480873
 20
24.25132872828229
 30
0.0
 10
28.27612386560531
 20
24.25146046217105
 30
0.0
 10
28.28352266965691
 20
24.25159265222532
 30
0.0
 10
28.31310556361395
 20
24.25212504109864
 30
0.0
 10
28.35707377489451
 20
24.25294312506378
 30
0.0
 10
28.39649806855012
 20
24.25370782896346
 30
0.0
 10
28.41235309365792
 20
24.25402009586364
 30
0.0
  0
SPLINE
  5
253
330
1F
100
AcDbEntity
  8
0
  6
Continuous
100
AcDbSpline
210
0.0
220
0.0
230
1.0
 70
    24
 71
     3
 72
    10
 73
     6
 74
     0
 42
0.0000000001
 43
0.0000000001
 40
0.0515378722471714
 40
0.0515378722471714
 40
0.0515378722471714
 40
0.0515378722471714
 40
0.25
 40
0.5
 40
0.6738358847799258
 40
0.6738358847799258
 40
0.6738358847799258
 40
0.6738358847799258
 10
27.35621563765871
 20
24.34080109648564
 30
0.0
 10
27.35621563765871
 20
24.33820229035438
 30
0.0
 10
27.35621563765871
 20
24.32668036226946
 30
0.0
 10
27.3562156376587
 20
24.29300815159145
 30
0.0
 10
27.3562156376587
 20
24.25871628457867
 30
0.0
 10
27.3562156376587
 20
24.24274840281328
 30
0.0
  0
SPLINE
  5
254
330
1F
100
AcDbEntity
  8
0
  6
Continuous
100
AcDbSpline
210
0.0
220
0.0
230
1.0
 70
     8
 71
     3
 72
    32
 73
    28
 74
     0
 42
0.0000000001
 43
0.0000000001
 40
0.770718002574459
 40
0.770718002574459
 40
0.770718002574459
 40
0.770718002574459
 40
0.786343002574459
 40
0.8019680025744589
 40
0.8078273775744589
 40
0.8092922213244589
 40
0.8097805025744589
 40
0.8102687838244589
 40
0.8106349947619589
 40
0.8117336275744589
 40
0.8175930025744589
 40
0.8254055025744589
 40
0.8332180025744589
 40
0.8488430025744589
 40
0.8644680025744589
 40
0.8957180025744589
 40
0.9113430025744589
 40
0.9269680025744589
 40
0.9425930025744589
 40
0.9582180025744589
 40
0.9660305025744589
 40
0.9689601900744589
 40
0.9699367525744589
 40
0.9709133150744589
 40
0.9738430025744589
 40
0.9894680025744589
 40
1.0
 40
1.0
 40
1.0
 40
1.0
 10
27.3562156376587
 20
24.24274985227656
 30
0.0
 10
27.33196517059308
 20
24.24274985227656
 30
0.0
 10
27.28346456956579
 20
24.24278914619367
 30
0.0
 10
27.22588931315535
 20
24.24292755173708
 30
0.0
 10
27.19029955865482
 20
24.24305147958542
 30
0.0
 10
27.17818609473086
 20
24.2430980875017
 30
0.0
 10
27.17440082745233
 20
24.24311302017623
 30
0.0
 10
27.17231898340428
 20
24.24312133420911
 30
0.0
 10
27.16929091483278
 20
24.24313355590106
 30
0.0
 10
27.15793610027655
 20
24.24318021331698
 30
0.0
 10
27.13504157862544
 20
24.24328220900584
 30
0.0
 10
27.10175465048607
 20
24.24345300425863
 30
0.0
 10
27.053364773214
 20
24.24373840063346
 30
0.0
 10
26.99293620757572
 20
24.24416383576615
 30
0.0
 10
26.8964035698712
 20
24.24498695618356
 30
0.0
 10
26.80014203507101
 20
24.24601754229105
 30
0.0
 10
26.70422695778043
 20
24.24724024854425
 30
0.0
 10
26.63247968503202
 20
24.24824846086134
 30
0.0
 10
26.56093725396785
 20
24.24934297835992
 30
0.0
 10
26.50149954800692
 20
24.2503222154659
 30
0.0
 10
26.46147592782272
 20
24.25101476894436
 30
0.0
 10
26.44370775050866
 20
24.25132872828229
 30
0.0
 10
26.43630740971208
 20
24.25146046217105
 30
0.0
 10
26.42890860566049
 20
24.25159265222532
 30
0.0
 10
26.39932571170345
 20
24.25212504109864
 30
0.0
 10
26.35535750042289
 20
24.25294312506378
 30
0.0
 10
26.31593320676728
 20
24.25370782896346
 30
0.0
 10
26.30007818165948
 20
24.25402009586364
 30
0.0
  0
LINE
  5
255
330
1F
100
AcDbEntity
  8
0
  6
Continuous
100
AcDbLine
 10
31.70827230950032
 20
17.62783411933898
 30
0.0
 11
31.70671391022768
 21
17.67194521281841
 31
0.0
  0
ARC
  5
256
330
1F
100
AcDbEntity
  8
0
  6
Continuous
100
AcDbCircle
 10
27.35621563765852
 20
140.8144795766075
 30
0.0
 40
123.2634983127191
100
AcDbArc
 50
267.976640946369
 51
272.023359053632
  0
LINE
  5
257
330
1F
100
AcDbEntity
  8
0
  6
Continuous
100
AcDbLine
 10
23.00571736508971
 20
17.67194521281841
 30
0.0
 11
23.00415896581707
 21
17.62783411933898
 31
0.0
  0
LINE
  5
258
330
1F
100
AcDbEntity
  8
0
  6
Continuous
100
AcDbLine
 10
21.52952982918544
 20
19.16521103005024
 30
0.0
 11
21.48540372867855
 21
19.16416011126077
 31
0.0
  0
ARC
  5
259
330
1F
100
AcDbEntity
  8
0
  6
Continuous
100
AcDbCircle
 10
143.8547392597059
 20
22.07854031900652
 30
0.0
 40
122.4040354330708
100
AcDbArc
 50
178.6356865929996
 51
181.364313407002
  0
LINE
  5
25A
330
1F
100
AcDbEntity
  8
0
  6
Continuous
100
AcDbLine
 10
21.52952982918544
 20
24.99186960796285
 30
0.0
 11
21.48540372867855
 21
24.9929205267523
 31
0.0
  0
LINE
  5
25B
330
1F
100
AcDbEntity
  8
0
  6
Continuous
100
AcDbLine
 10
33.22702754663885
 20
24.9929205267523
 30
0.0
 11
33.18290144613196
 21
24.99186960796285
 31
0.0
  0
ARC
  5
25C
330
1F
100
AcDbEntity
  8
0
  6
Continuous
100
AcDbCircle
 10
-89.14230798438854
 20
22.07854031900657
 30
0.0
 40
122.4040354330708
100
AcDbArc
 50
358.6356865929987
 51
1.364313407001215
  0
LINE
  5
25D
330
1F
100
AcDbEntity
  8
0
  6
Continuous
100
AcDbLine
 10
33.22702754663885
 20
19.16416011126077
 30
0.0
 11
33.18290144613196
 21
19.16521103005024
 31
0.0
  0
LINE
  5
25E
330
1F
100
AcDbEntity
  8
0
  6
Continuous
100
AcDbLine
 10
31.70827230950038
 20
26.52924651867407
 30
0.0
 11
31.70671391022774
 21
26.48513542519463
 31
0.0
  0
ARC
  5
25F
330
1F
100
AcDbEntity
  8
0
  6
Continuous
100
AcDbCircle
 10
31.6526708326001
 20
24.95542523410065
 30
0.0
 40
1.574803149606303
100
AcDbArc
 50
1.364313407000401
 51
87.97664094636747
  0
ARC
  5
260
330
1F
100
AcDbEntity
  8
0
  6
Continuous
100
AcDbCircle
 10
23.0597604427173
 20
19.20165540391245
 30
0.0
 40
1.574803149606319
100
AcDbArc
 50
181.3643134070024
 51
267.9766409463705
  0
ARC
  5
261
330
1F
100
AcDbEntity
  8
0
  6
Continuous
100
AcDbCircle
 10
23.0597604427173
 20
24.95542523410065
 30
0.0
 40
1.574803149606301
100
AcDbArc
 50
92.02335905363336
 51
178.6356865930004
  0
LINE
  5
262
330
1F
100
AcDbEntity
  8
0
  6
Continuous
100
AcDbLine
 10
23.00571736508965
 20
26.48513542519463
 30
0.0
 11
23.00415896581701
 21
26.52924651867407
 31
0.0
  0
ARC
  5
263
330
1F
100
AcDbEntity
  8
0
  6
Continuous
100
AcDbCircle
 10
31.6526708326001
 20
19.20165540391245
 30
0.0
 40
1.574803149606319
100
AcDbArc
 50
272.0233590536303
 51
358.6356865929983
  0
ARC
  5
264
330
1F
100
AcDbEntity
  8
0
  6
Continuous
100
AcDbCircle
 10
27.35621563765845
 20
-96.657398938585
 30
0.0
 40
123.2634983127096
100
AcDbArc
 50
87.97664094636777
 51
92.02335905363273
  0
ARC
  5
265
330
1F
100
AcDbEntity
  8
0
  6
Continuous
100
AcDbCircle
 10
25.67978710338281
 20
18.4033561756922
 30
0.0
 40
1.18472438510536
100
AcDbArc
 50
358.4709798778103
 51
359.7975304853108
  0
LINE
  5
266
330
1F
100
AcDbEntity
  8
0
  6
Continuous
100
AcDbLine
 10
26.86434575616269
 20
18.21044600416928
 30
0.0
 11
26.86433660443483
 21
18.2104520364668
 31
0.0
  0
ARC
  5
267
330
1F
100
AcDbEntity
  8
0
  6
Continuous
100
AcDbCircle
 10
29.03264417197409
 20
18.40335617569287
 30
0.0
 40
1.18472438514487
100
AcDbArc
 50
180.2024695147155
 51
181.529020122172
  0
LINE
  5
268
330
1F
100
AcDbEntity
  8
0
  6
Continuous
100
AcDbLine
 10
27.84809670961343
 20
18.21044861759858
 30
0.0
 11
27.84808853291962
 21
18.21045202487528
 31
0.0
  0
LINE
  5
269
330
1F
100
AcDbEntity
  8
0
  6
Continuous
100
AcDbLine
 10
27.84834162191067
 20
18.26706062026699
 30
0.0
 11
27.84834162191067
 21
18.37174385736344
 31
0.0
  0
SPLINE
  5
26A
330
1F
100
AcDbEntity
  8
0
  6
Continuous
100
AcDbSpline
210
0.0
220
0.0
230
1.0
 70
     8
 71
     3
 72
    10
 73
     6
 74
     0
 42
0.0000000001
 43
0.0000000001
 40
0.0
 40
0.0
 40
0.0
 40
0.0
 40
0.2156242835171792
 40
0.6078137761026343
 40
1.0
 40
1.0
 40
1.0
 40
1.0
 10
27.94397509081409
 20
18.23814573271608
 30
0.0
 10
27.93901563700137
 20
18.24216047527022
 30
0.0
 10
27.92503565153707
 20
18.25347745586308
 30
0.0
 10
27.89119610722436
 20
18.26473318178007
 30
0.0
 10
27.86262641066289
 20
18.26628480959336
 30
0.0
 10
27.84834162191067
 20
18.26706062026699
 30
0.0
  0
LINE
  5
26B
330
1F
100
AcDbEntity
  8
0
  6
Continuous
100
AcDbLine
 10
26.86408965340673
 20
18.37174385736344
 30
0.0
 11
26.86408965340673
 21
18.26706062026699
 31
0.0
  0
SPLINE
  5
26C
330
1F
100
AcDbEntity
  8
0
  6
Continuous
100
AcDbSpline
210
0.0
220
0.0
230
1.0
 70
     8
 71
     3
 72
    10
 73
     6
 74
     0
 42
0.0000000001
 43
0.0000000001
 40
0.0
 40
0.0
 40
0.0
 40
0.0
 40
0.3913260373551865
 40
0.782655336229211
 40
1.0
 40
1.0
 40
1.0
 40
1.0
 10
26.86408965340673
 20
18.26706062026699
 30
0.0
 10
26.84980396902514
 20
18.26628541802989
 30
0.0
 10
26.82123248119748
 20
18.26473500709472
 30
0.0
 10
26.78732999665325
 20
18.25344676552431
 30
0.0
 10
26.77330432894415
 20
18.24208554524365
 30
0.0
 10
26.76829605814651
 20
18.23802869255491
 30
0.0
  0
SPLINE
  5
272
330
1F
100
AcDbEntity
  8
0
  6
Continuous
100
AcDbSpline
210
0.0
220
0.0
230
1.0
 70
     8
 71
     3
 72
     8
 73
     4
 74
     0
 42
0.0000000001
 43
0.0000000001
 40
0.0
 40
0.0
 40
0.0
 40
0.0
 40
1.0
 40
1.0
 40
1.0
 40
1.0
 10
27.3562156376587
 20
18.36775488587832
 30
0.0
 10
27.19215482173793
 20
18.36775489554049
 30
0.0
 10
27.02811345960041
 20
18.36912924452956
 30
0.0
 10
26.86408965340673
 20
18.37174385736344
 30
0.0
  0
SPLINE
  5
273
330
1F
100
AcDbEntity
  8
0
  6
Continuous
100
AcDbSpline
210
0.0
220
0.0
230
1.0
 70
     8
 71
     3
 72
     8
 73
     4
 74
     0
 42
0.0000000001
 43
0.0000000001
 40
0.0
 40
0.0
 40
0.0
 40
0.0
 40
1.0
 40
1.0
 40
1.0
 40
1.0
 10
27.3562156376587
 20
18.36775488587832
 30
0.0
 10
27.52027645357948
 20
18.36775489554049
 30
0.0
 10
27.68431781571699
 20
18.36912924452956
 30
0.0
 10
27.84834162191067
 20
18.37174385736344
 30
0.0
  0
SPLINE
  5
274
330
1F
100
AcDbEntity
  8
0
  6
Continuous
100
AcDbSpline
210
0.0
220
0.0
230
1.0
 70
     8
 71
     3
 72
     8
 73
     4
 74
     0
 42
0.0000000001
 43
0.0000000001
 40
0.0
 40
0.0
 40
0.0
 40
0.0
 40
1.0
 40
1.0
 40
1.0
 40
1.0
 10
27.35621564846602
 20
18.2631470693673
 30
0.0
 10
27.52028026427387
 20
18.26314707788896
 30
0.0
 10
27.68432149230203
 20
18.264495595365
 30
0.0
 10
27.84834162191067
 20
18.26706062026699
 30
0.0
  0
SPLINE
  5
275
330
1F
100
AcDbEntity
  8
0
  6
Continuous
100
AcDbSpline
210
0.0
220
0.0
230
1.0
 70
     8
 71
     3
 72
     8
 73
     4
 74
     0
 42
0.0000000001
 43
0.0000000001
 40
0.0
 40
0.0
 40
0.0
 40
0.0
 40
1.0
 40
1.0
 40
1.0
 40
1.0
 10
27.35621562685138
 20
18.2631470693673
 30
0.0
 10
27.19215101104353
 20
18.26314707788896
 30
0.0
 10
27.02810978301537
 20
18.264495595365
 30
0.0
 10
26.86408965340673
 20
18.26706062026699
 30
0.0
  0
LINE
  5
276
330
1F
100
AcDbEntity
  8
0
  6
Continuous
100
AcDbLine
 10
27.3562156376587
 20
18.36775488587832
 30
0.0
 11
27.3562156376587
 21
18.39522434155028
 31
0.0
  0
SPLINE
  5
290
330
1F
100
AcDbEntity
  8
0
  6
Continuous
100
AcDbSpline
210
0.0
220
0.0
230
1.0
 70
     8
 71
     3
 72
    22
 73
    18
 74
     0
 42
0.0000000001
 43
0.0000000001
 40
0.0
 40
0.0
 40
0.0
 40
0.0
 40
0.125
 40
0.125
 40
0.25
 40
0.25
 40
0.375
 40
0.375
 40
0.5
 40
0.5
 40
0.625
 40
0.625
 40
0.75
 40
0.75
 40
0.875
 40
0.875
 40
1.0
 40
1.0
 40
1.0
 40
1.0
 10
26.68692429907602
 20
22.7675166969593
 30
0.0
 10
26.68692429907602
 20
22.72371168128424
 30
0.0
 10
26.69123860986147
 20
22.67990774877453
 30
0.0
 10
26.70833047908941
 20
22.59398111961067
 30
0.0
 10
26.72110761490175
 20
22.55186054766177
 30
0.0
 10
26.75463452240842
 20
22.47091943285474
 30
0.0
 10
26.77538346508389
 20
22.43210089142517
 30
0.0
 10
26.82405699061592
 20
22.35925581262468
 30
0.0
 10
26.85198036992365
 20
22.32523107649189
 30
0.0
 10
26.91393001719128
 20
22.26328142922426
 30
0.0
 10
26.94795475332407
 20
22.23535804991653
 30
0.0
 10
27.02079983212456
 20
22.18668452438449
 30
0.0
 10
27.05961837355413
 20
22.16593558170902
 30
0.0
 10
27.14055948836117
 20
22.13240867420235
 30
0.0
 10
27.18268006031007
 20
22.11963153839
 30
0.0
 10
27.26860668947392
 20
22.10253966916207
 30
0.0
 10
27.31241062198364
 20
22.09822535837663
 30
0.0
 10
27.3562156376587
 20
22.09822535837663
 30
0.0
  0
SPLINE
  5
293
330
1F
100
AcDbEntity
  8
0
  6
Continuous
100
AcDbSpline
210
0.0
220
0.0
230
1.0
 70
     8
 71
     3
 72
    22
 73
    18
 74
     0
 42
0.0000000001
 43
0.0000000001
 40
0.0
 40
0.0
 40
0.0
 40
0.0
 40
0.125
 40
0.125
 40
0.25
 40
0.25
 40
0.375
 40
0.375
 40
0.5000000000000001
 40
0.5000000000000001
 40
0.6250000000000001
 40
0.6250000000000001
 40
0.75
 40
0.75
 40
0.875
 40
0.875
 40
1.0
 40
1.0
 40
1.0
 40
1.0
 10
28.02550697624138
 20
22.7675166969593
 30
0.0
 10
28.02550697624138
 20
22.72371168128424
 30
0.0
 10
28.02119266545594
 20
22.67990774877453
 30
0.0
 10
28.004100796228
 20
22.59398111961067
 30
0.0
 10
27.99132366041565
 20
22.55186054766177
 30
0.0
 10
27.95779675290898
 20
22.47091943285474
 30
0.0
 10
27.9370478102335
 20
22.43210089142517
 30
0.0
 10
27.88837428470147
 20
22.35925581262467
 30
0.0
 10
27.86045090539374
 20
22.32523107649189
 30
0.0
 10
27.79850125812612
 20
22.26328142922425
 30
0.0
 10
27.76447652199332
 20
22.23535804991653
 30
0.0
 10
27.69163144319283
 20
22.18668452438449
 30
0.0
 10
27.65281290176326
 20
22.16593558170902
 30
0.0
 10
27.57187178695623
 20
22.13240867420235
 30
0.0
 10
27.52975121500733
 20
22.11963153839
 30
0.0
 10
27.44382458584347
 20
22.10253966916207
 30
0.0
 10
27.40002065333376
 20
22.09822535837663
 30
0.0
 10
27.3562156376587
 20
22.09822535837663
 30
0.0
  0
SPLINE
  5
295
330
1F
100
AcDbEntity
  8
0
  6
Continuous
100
AcDbSpline
210
0.0
220
0.0
230
1.0
 70
     8
 71
     3
 72
    38
 73
    34
 74
     0
 42
0.0000000001
 43
0.0000000001
 40
0.0
 40
0.0
 40
0.0
 40
0.0
 40
0.0106148611531637
 40
0.0212170292446664
 40
0.0318081766450015
 40
0.0423930511785931
 40
0.0529719750447602
 40
0.0635504093937233
 40
0.0741301002827655
 40
0.0847143063697017
 40
0.0953058576112989
 40
0.1059077120026255
 40
0.1165227716266759
 40
0.1782610394385194
 40
0.2399996630636961
 40
0.2719129320034414
 40
0.3038272280335839
 40
0.3686422676212388
 40
0.4341467984594772
 40
0.5000015914988091
 40
0.5658564237063699
 40
0.6313609687456432
 40
0.6961759688110958
 40
0.7280893067170754
 40
0.7600035271867885
 40
0.8217415649970561
 40
0.8834804218760321
 40
0.902930432297181
 40
0.9223442841570223
 40
0.9417400365755883
 40
0.9611358124033426
 40
0.9805497654792009
 40
1.0
 40
1.0
 40
1.0
 40
1.0
 10
27.35621563765862
 20
23.43680803379867
 30
0.0
 10
27.35249678602609
 20
23.43679022665344
 30
0.0
 10
27.34506352969748
 20
23.43675463365643
 30
0.0
 10
27.33392276601298
 20
23.43646782416412
 30
0.0
 10
27.32279869442683
 20
23.43600815608501
 30
0.0
 10
27.31169188092251
 20
23.43536214383488
 30
0.0
 10
27.30060198832889
 20
23.43452995387135
 30
0.0
 10
27.28952917786884
 20
23.43351451822385
 30
0.0
 10
27.27847307993743
 20
23.43231365480326
 30
0.0
 10
27.26743393764051
 20
23.43092834204844
 30
0.0
 10
27.2564117600956
 20
23.42935820519414
 30
0.0
 10
27.24540639000828
 20
23.42760331506584
 30
0.0
 10
27.21678610147364
 20
23.42255166590908
 30
0.0
 10
27.17097639679053
 20
23.41177144173924
 30
0.0
 10
27.11936865896173
 20
23.39416413473727
 30
0.0
 10
27.07886882125294
 20
23.37694777903901
 30
0.0
 10
27.03831478672492
 20
23.35724991767222
 30
0.0
 10
26.98912778251916
 20
23.3285578619074
 30
0.0
 10
26.93351879403606
 20
23.28796856386491
 30
0.0
 10
26.88210965681899
 20
23.24162270598762
 30
0.0
 10
26.8357626622773
 20
23.19021441689556
 30
0.0
 10
26.79517529030186
 20
23.13460399622144
 30
0.0
 10
26.76648299314964
 20
23.08541763988987
 30
0.0
 10
26.74678463896027
 20
23.04486382370681
 30
0.0
 10
26.72956836105473
 20
23.00436427023201
 30
0.0
 10
26.71196075252311
 20
22.95275558849292
 30
0.0
 10
26.70047094472503
 20
22.90392958337035
 30
0.0
 10
26.69458308593708
 20
22.86917630286708
 30
0.0
 10
26.6917885755305
 20
22.84895440125103
 30
0.0
 10
26.68961231816535
 20
22.82867581161734
 30
0.0
 10
26.68806914224123
 20
22.80834008142128
 30
0.0
 10
26.68710297298094
 20
22.78794736779354
 30
0.0
 10
26.68698392041382
 20
22.77433115764754
 30
0.0
 10
26.68692433855984
 20
22.76751669690613
 30
0.0
  0
SPLINE
  5
296
330
1F
100
AcDbEntity
  8
0
  6
Continuous
100
AcDbSpline
210
0.0
220
0.0
230
1.0
 70
     8
 71
     3
 72
    38
 73
    34
 74
     0
 42
0.0000000001
 43
0.0000000001
 40
0.0
 40
0.0
 40
0.0
 40
0.0
 40
0.0106148611531637
 40
0.0212170292446664
 40
0.0318081766450015
 40
0.0423930511785931
 40
0.0529719750447602
 40
0.0635504093937233
 40
0.0741301002827655
 40
0.0847143063697017
 40
0.0953058576112989
 40
0.1059077120026255
 40
0.1165227716266759
 40
0.1782610394385194
 40
0.2399996630636961
 40
0.2719129320034414
 40
0.3038272280335839
 40
0.3686422676212388
 40
0.4341467984594772
 40
0.5000015914988091
 40
0.5658564237063699
 40
0.6313609687456432
 40
0.6961759688110958
 40
0.7280893067170754
 40
0.7600035271867885
 40
0.8217415649970561
 40
0.8834804218760321
 40
0.902930432297181
 40
0.9223442841570223
 40
0.9417400365755883
 40
0.9611358124033426
 40
0.9805497654792009
 40
1.0
 40
1.0
 40
1.0
 40
1.0
 10
27.35621563765878
 20
23.43680803379867
 30
0.0
 10
27.35993448929131
 20
23.43679022665344
 30
0.0
 10
27.36736774561992
 20
23.43675463365643
 30
0.0
 10
27.37850850930442
 20
23.43646782416412
 30
0.0
 10
27.38963258089057
 20
23.43600815608501
 30
0.0
 10
27.40073939439489
 20
23.43536214383488
 30
0.0
 10
27.41182928698851
 20
23.43452995387135
 30
0.0
 10
27.42290209744857
 20
23.43351451822385
 30
0.0
 10
27.43395819537997
 20
23.43231365480326
 30
0.0
 10
27.44499733767688
 20
23.43092834204844
 30
0.0
 10
27.45601951522181
 20
23.42935820519414
 30
0.0
 10
27.46702488530913
 20
23.42760331506584
 30
0.0
 10
27.49564517384376
 20
23.42255166590908
 30
0.0
 10
27.54145487852687
 20
23.41177144173924
 30
0.0
 10
27.59306261635566
 20
23.39416413473727
 30
0.0
 10
27.63356245406445
 20
23.37694777903901
 30
0.0
 10
27.67411648859248
 20
23.35724991767222
 30
0.0
 10
27.72330349279824
 20
23.3285578619074
 30
0.0
 10
27.77891248128135
 20
23.28796856386491
 30
0.0
 10
27.83032161849841
 20
23.24162270598762
 30
0.0
 10
27.8766686130401
 20
23.19021441689556
 30
0.0
 10
27.91725598501554
 20
23.13460399622144
 30
0.0
 10
27.94594828216776
 20
23.08541763988987
 30
0.0
 10
27.96564663635713
 20
23.04486382370681
 30
0.0
 10
27.98286291426266
 20
23.00436427023201
 30
0.0
 10
28.00047052279429
 20
22.95275558849292
 30
0.0
 10
28.01196033059236
 20
22.90392958337035
 30
0.0
 10
28.01784818938033
 20
22.86917630286708
 30
0.0
 10
28.0206426997869
 20
22.84895440125103
 30
0.0
 10
28.02281895715205
 20
22.82867581161734
 30
0.0
 10
28.02436213307617
 20
22.80834008142128
 30
0.0
 10
28.02532830233646
 20
22.78794736779354
 30
0.0
 10
28.02544735490358
 20
22.77433115764754
 30
0.0
 10
28.02550693675756
 20
22.76751669690613
 30
0.0
  0
CIRCLE
  5
297
330
1F
100
AcDbEntity
  8
0
  6
Continuous
100
AcDbCircle
 10
27.3562156376587
 20
22.7675166969593
 30
0.0
 40
0.4330708661417333
  0
LINE
  5
298
330
1F
100
AcDbEntity
  8
0
  6
Continuous
100
AcDbLine
 10
31.41514901316844
 20
24.27702178530525
 30
0.0
 11
31.3534201091781
 21
24.27850933993709
 31
0.0
  0
SPLINE
  5
299
330
1F
100
AcDbEntity
  8
0
  6
Continuous
100
AcDbSpline
210
0.0
220
0.0
230
1.0
 70
     8
 71
     3
 72
    16
 73
    12
 74
     0
 42
0.0000000001
 43
0.0000000001
 40
0.0
 40
0.0
 40
0.0
 40
0.0
 40
0.131638226142085
 40
0.2889580191899838
 40
0.4462803729359503
 40
0.6035987643915864
 40
0.6951178883726279
 40
0.7866351473415369
 40
0.8781500440277714
 40
0.9696621081261531
 40
1.0
 40
1.0
 40
1.0
 40
1.0
 10
31.34029485163088
 20
24.27882563483942
 30
0.0
 10
31.21200250378424
 20
24.28234175183549
 30
0.0
 10
30.9303889953267
 20
24.29005995218048
 30
0.0
 10
30.50339862855581
 20
24.29231156629664
 30
0.0
 10
30.05257125153887
 20
24.28927596246005
 30
0.0
 10
29.66216148768213
 20
24.28238747757791
 30
0.0
 10
29.33063935977573
 20
24.27504787547497
 30
0.0
 10
29.05989429604413
 20
24.26857975462514
 30
0.0
 10
28.78521629104506
 20
24.26201795080334
 30
0.0
 10
28.56858071347022
 20
24.25715405583576
 30
0.0
 10
28.44349629401625
 20
24.25464483522435
 30
0.0
 10
28.41235309365792
 20
24.25402009586364
 30
0.0
  0
SPLINE
  5
29A
330
1F
100
AcDbEntity
  8
0
  6
Continuous
100
AcDbSpline
210
0.0
220
0.0
230
1.0
 70
     8
 71
     3
 72
    13
 73
     9
 74
     0
 42
0.0000000001
 43
0.0000000001
 40
0.0
 40
0.0
 40
0.0
 40
0.0
 40
0.0678279914384399
 40
0.283895147980556
 40
0.4999752983536184
 40
0.7160808448910162
 40
0.9321975588959608
 40
1.0
 40
1.0
 40
1.0
 40
1.0
 10
26.86408965340673
 20
18.37174385736344
 30
0.0
 10
26.85959582803324
 20
18.37172833233524
 30
0.0
 10
26.84078684972874
 20
18.37166335208027
 30
0.0
 10
26.80826014439278
 20
18.36592112406662
 30
0.0
 10
26.77221204942988
 20
18.34980338291518
 30
0.0
 10
26.74751424405716
 20
18.32650741348358
 30
0.0
 10
26.73565356572467
 20
18.30514456301659
 30
0.0
 10
26.73731096075945
 20
18.29273845094154
 30
0.0
 10
26.73770676156123
 20
18.28977576009043
 30
0.0
  0
ARC
  5
29B
330
1F
100
AcDbEntity
  8
0
  6
Continuous
100
AcDbCircle
 10
26.81065992989047
 20
18.20729541450169
 30
0.0
 40
0.0537781940732873
100
AcDbArc
 50
358.5141624288127
 51
3.358590120337401
  0
SPLINE
  5
29C
330
1F
100
AcDbEntity
  8
0
  6
Continuous
100
AcDbSpline
210
0.0
220
0.0
230
1.0
 70
     8
 71
     3
 72
    13
 73
     9
 74
     0
 42
0.0000000001
 43
0.0000000001
 40
0.0
 40
0.0
 40
0.0
 40
0.0
 40
0.0671236205313058
 40
0.2833977094083234
 40
0.4996606226857127
 40
0.7158981213054345
 40
0.9321226166321817
 40
1.0
 40
1.0
 40
1.0
 40
1.0
 10
27.97473212077379
 20
18.28987097899592
 30
0.0
 10
27.97512242692164
 20
18.29280183287221
 30
0.0
 10
27.97677030984863
 20
18.30517597581289
 30
0.0
 10
27.96491330173765
 20
18.32650729079593
 30
0.0
 10
27.94022022729623
 20
18.34980341585786
 30
0.0
 10
27.90417085428308
 20
18.36592111496612
 30
0.0
 10
27.87164444352019
 20
18.37166335267015
 30
0.0
 10
27.85283545074216
 20
18.371728332449
 30
0.0
 10
27.84834162191067
 20
18.37174385736344
 30
0.0
  0
ARC
  5
29D
330
1F
100
AcDbEntity
  8
0
  6
Continuous
100
AcDbCircle
 10
27.89866751220161
 20
18.20731675444093
 30
0.0
 40
0.0506760600866342
100
AcDbArc
 50
176.4529096643662
 51
181.6009522108108
  0
LINE
  5
29E
330
1F
100
AcDbEntity
  8
0
  6
Continuous
100
AcDbLine
 10
27.3562156376587
 20
18.20277377010443
 30
0.0
 11
27.3562156376587
 21
18.20727494221451
 31
0.0
  0
INSERT
  5
2AA
330
1F
100
AcDbEntity
  8
0
  6
Continuous
100
AcDbBlockReference
  2
SW_CENTERMARKSYMBOL_0
 10
27.3562156376587
 20
22.7675166969593
 30
0.0
 50
270.0
  0
INSERT
  5
2B6
330
1F
100
AcDbEntity
  8
0
  6
Continuous
100
AcDbBlockReference
  2
SW_CENTERMARKSYMBOL_1
 10
27.3562156376587
 20
25.22814661821914
 30
0.0
 50
270.0
  0
LINE
  5
2B7
330
1F
100
AcDbEntity
  8
0
  6
Continuous
100
AcDbLine
 10
47.30093524947483
 20
9.749805799524983
 30
0.0
 11
47.26437225126334
 21
9.749802262735018
 31
0.0
  0
LINE
  5
2B8
330
1F
100
AcDbEntity
  8
0
  6
Continuous
100
AcDbLine
 10
47.26438173491579
 20
9.750821021359406
 30
0.0
 11
47.16823272556812
 21
9.751309164217369
 31
0.0
  0
LINE
  5
2B9
330
1F
100
AcDbEntity
  8
0
  6
Continuous
100
AcDbLine
 10
47.16821851565039
 20
9.749801524146976
 30
0.0
 11
47.1682011957646
 21
9.749801525416899
 31
0.0
  0
LINE
  5
2BA
330
1F
100
AcDbEntity
  8
0
  6
Continuous
100
AcDbLine
 10
47.30094800446004
 20
9.749801525416899
 30
0.0
 11
47.30093629022168
 21
9.749801524835977
 31
0.0
  0
LINE
  5
2BB
330
1F
100
AcDbEntity
  8
0
  6
Continuous
100
AcDbLine
 10
51.10249511207261
 20
8.371848769511384
 30
0.0
 11
51.05835649886097
 21
9.635813276996262
 31
0.0
  0
LINE
  5
2BC
330
1F
100
AcDbEntity
  8
0
  6
Continuous
100
AcDbLine
 10
42.09151561504799
 20
9.635813276995143
 30
0.0
 11
42.0473770018364
 21
8.371848769511386
 31
0.0
  0
ARC
  5
2BD
330
1F
100
AcDbEntity
  8
0
  6
Continuous
100
AcDbCircle
 10
50.94031821220529
 20
9.631691289196425
 30
0.0
 40
0.1181102362204781
100
AcDbArc
 50
2.000000000162622
 51
90.0
  0
ARC
  5
2BE
330
1F
100
AcDbEntity
  8
0
  6
Continuous
100
AcDbCircle
 10
42.26372314326498
 20
9.631691289196426
 30
0.0
 40
0.1181102362204722
100
AcDbArc
 50
89.99999994563685
 51
112.5697992043529
  0
ARC
  5
2BF
330
1F
100
AcDbEntity
  8
0
  6
Continuous
100
AcDbCircle
 10
42.21700052268082
 20
9.631691289196426
 30
0.0
 40
0.1181102362204739
100
AcDbArc
 50
78.59210421668906
 51
90.00000314511323
  0
ARC
  5
2C0
330
1F
100
AcDbEntity
  8
0
  6
Continuous
100
AcDbCircle
 10
42.20955390170391
 20
9.631691289196426
 30
0.0
 40
0.1181102362204722
100
AcDbArc
 50
90.00000000005863
 51
178.0000000003846
  0
LINE
  5
2C1
330
1F
100
AcDbEntity
  8
0
  6
Continuous
100
AcDbLine
 10
46.50742917094396
 20
7.175621231743104
 30
0.0
 11
46.61430613569466
 21
7.0810644808291
 31
0.0
  0
LINE
  5
2C2
330
1F
100
AcDbEntity
  8
0
  6
Continuous
100
AcDbLine
 10
47.91351873411985
 20
7.0810644808291
 30
0.0
 11
48.03337980959502
 21
7.187108602538819
 31
0.0
  0
SPLINE
  5
2C3
330
1F
100
AcDbEntity
  8
0
  6
Continuous
100
AcDbSpline
210
0.0
220
0.0
230
1.0
 70
     8
 71
     3
 72
    13
 73
     9
 74
     0
 42
0.0000000001
 43
0.0000000001
 40
0.0
 40
0.0
 40
0.0
 40
0.0
 40
0.1153778512455171
 40
0.2212376456813426
 40
0.325241750534028
 40
0.4354937471648588
 40
0.6984087663513808
 40
1.0
 40
1.0
 40
1.0
 40
1.0
 10
43.30290042556026
 20
8.247650383753256
 30
0.0
 10
43.30696980338705
 20
8.244299725505088
 30
0.0
 10
43.31477285709335
 20
8.237874820427503
 30
0.0
 10
43.33092605384365
 20
8.224735805420348
 30
0.0
 10
43.34955623072874
 20
8.209726085065492
 30
0.0
 10
43.3792941639045
 20
8.186030549678918
 30
0.0
 10
43.42115374854791
 20
8.153250043233006
 30
0.0
 10
43.45254635317308
 20
8.129677295913099
 30
0.0
 10
43.46931806173929
 20
8.117083398309675
 30
0.0
  0
LINE
  5
2C4
330
1F
100
AcDbEntity
  8
0
  6
Continuous
100
AcDbLine
 10
47.91351873411985
 20
6.462399950617884
 30
0.0
 11
47.91351873411985
 21
7.0810644808291
 31
0.0
  0
LINE
  5
2C5
330
1F
100
AcDbEntity
  8
0
  6
Continuous
100
AcDbLine
 10
46.61430613569466
 20
7.0810644808291
 30
0.0
 11
46.61430613569466
 21
6.462399950617884
 31
0.0
  0
LINE
  5
2C6
330
1F
100
AcDbEntity
  8
0
  6
Continuous
100
AcDbLine
 10
43.30290042108097
 20
8.247650387449526
 30
0.0
 11
43.31179840815756
 21
8.240344236193969
 31
0.0
  0
LINE
  5
2C7
330
1F
100
AcDbEntity
  8
0
  6
Continuous
100
AcDbLine
 10
43.36048400873445
 20
8.201047101746649
 30
0.0
 11
43.36977072006153
 21
8.193646637370695
 31
0.0
  0
LINE
  5
2C8
330
1F
100
AcDbEntity
  8
0
  6
Continuous
100
AcDbLine
 10
43.43867921638638
 20
8.140282220279642
 30
0.0
 11
43.46931805544983
 21
8.117083402997851
 31
0.0
  0
SPLINE
  5
2C9
330
1F
100
AcDbEntity
  8
0
  6
Continuous
100
AcDbSpline
210
0.0
220
0.0
230
1.0
 70
     8
 71
     3
 72
     9
 73
     5
 74
     0
 42
0.0000000001
 43
0.0000000001
 40
0.0
 40
0.0
 40
0.0
 40
0.0
 40
0.5864181625171606
 40
1.0
 40
1.0
 40
1.0
 40
1.0
 10
48.94759669153242
 20
8.165020386582323
 30
0.0
 10
48.94880800451655
 20
8.172755354762193
 30
0.0
 10
48.9508736175237
 20
8.185945546803086
 30
0.0
 10
48.95318992121087
 20
8.206740461460563
 30
0.0
 10
48.95414790234596
 20
8.215340860474901
 30
0.0
  0
SPLINE
  5
2CA
330
1F
100
AcDbEntity
  8
0
  6
Continuous
100
AcDbSpline
210
0.0
220
0.0
230
1.0
 70
     8
 71
     3
 72
     8
 73
     4
 74
     0
 42
0.0000000001
 43
0.0000000001
 40
0.0000000062901342
 40
0.0000000062901342
 40
0.0000000062901342
 40
0.0000000062901342
 40
0.0018593748149927
 40
0.0018593748149927
 40
0.0018593748149927
 40
0.0018593748149927
 10
47.26504792248391
 20
9.63581012214904
 30
0.0
 10
47.27724830909225
 20
9.635811031205443
 30
0.0
 10
47.2894486855078
 20
9.635812068114127
 30
0.0
 10
47.30164905088885
 20
9.63581327699592
 30
0.0
  0
LINE
  5
2CB
330
1F
100
AcDbEntity
  8
0
  6
Continuous
100
AcDbLine
 10
49.48826534591081
 20
9.635813276996262
 30
0.0
 11
47.30164905079068
 21
9.635813276996264
 31
0.0
  0
LINE
  5
2CC
330
1F
100
AcDbEntity
  8
0
  6
Continuous
100
AcDbLine
 10
49.48931626470025
 20
8.371848769511384
 30
0.0
 11
49.48826534591081
 21
9.635813276996262
 31
0.0
  0
LINE
  5
2CD
330
1F
100
AcDbEntity
  8
0
  6
Continuous
100
AcDbLine
 10
43.66055584920873
 20
8.371848769511386
 30
0.0
 11
43.66160676799819
 21
9.635813276996264
 31
0.0
  0
LINE
  5
2CE
330
1F
100
AcDbEntity
  8
0
  6
Continuous
100
AcDbLine
 10
47.16877406009568
 20
9.635813276995927
 30
0.0
 11
43.66160676799819
 21
9.635813276996264
 31
0.0
  0
SPLINE
  5
2CF
330
1F
100
AcDbEntity
  8
0
  6
Continuous
100
AcDbSpline
210
0.0
220
0.0
230
1.0
 70
     8
 71
     3
 72
     8
 73
     4
 74
     0
 42
0.0000000001
 43
0.0000000001
 40
0.0
 40
0.0
 40
0.0
 40
0.0
 40
0.0048907794993203
 40
0.0048907794993203
 40
0.0048907794993203
 40
0.0048907794993203
 10
47.16877406009568
 20
9.635813276995927
 30
0.0
 10
47.20086541160532
 20
9.635808575605269
 30
0.0
 10
47.23295670456043
 20
9.635807381510968
 30
0.0
 10
47.26504792257786
 20
9.635809776254969
 30
0.0
  0
LINE
  5
2D0
330
1F
100
AcDbEntity
  8
0
  6
Continuous
100
AcDbLine
 10
43.66055584920873
 20
8.371848769511386
 30
0.0
 11
49.48931626470025
 21
8.371848769511384
 31
0.0
  0
LINE
  5
2D1
330
1F
100
AcDbEntity
  8
0
  6
Continuous
100
AcDbLine
 10
43.66160676799819
 20
9.635813276996264
 30
0.0
 11
42.16834095076637
 21
9.635813276995936
 31
0.0
  0
LINE
  5
2D2
330
1F
100
AcDbEntity
  8
0
  6
Continuous
100
AcDbLine
 10
42.12422985728693
 20
8.371848769511386
 30
0.0
 11
42.16834095076637
 21
9.635813276995936
 31
0.0
  0
LINE
  5
2D3
330
1F
100
AcDbEntity
  8
0
  6
Continuous
100
AcDbLine
 10
42.12422985728693
 20
8.371848769511386
 30
0.0
 11
43.66055584920873
 21
8.371848769511386
 31
0.0
  0
LINE
  5
2D4
330
1F
100
AcDbEntity
  8
0
  6
Continuous
100
AcDbLine
 10
50.98153116314258
 20
9.635813276995934
 30
0.0
 11
49.48826534591081
 21
9.635813276996262
 31
0.0
  0
LINE
  5
2D5
330
1F
100
AcDbEntity
  8
0
  6
Continuous
100
AcDbLine
 10
51.02564225662202
 20
8.371848769511384
 30
0.0
 11
50.98153116314258
 21
9.635813276995934
 31
0.0
  0
LINE
  5
2D6
330
1F
100
AcDbEntity
  8
0
  6
Continuous
100
AcDbLine
 10
49.48931626470025
 20
8.371848769511384
 30
0.0
 11
51.02564225662202
 21
8.371848769511384
 31
0.0
  0
ARC
  5
2D7
330
1F
100
AcDbEntity
  8
0
  6
Continuous
100
AcDbCircle
 10
41.36858872220806
 20
9.663659177734999
 30
0.0
 40
5.80025217969309
100
AcDbArc
 50
359.7249328704473
 51
0.850958589801478
  0
ARC
  5
2D8
330
1F
100
AcDbEntity
  8
0
  6
Continuous
100
AcDbCircle
 10
44.84593783798546
 20
9.663641808058258
 30
0.0
 40
1.184657971938845
100
AcDbArc
 50
175.829217570537
 51
181.3460459435434
  0
LINE
  5
2D9
330
1F
100
AcDbEntity
  8
0
  6
Continuous
100
AcDbLine
 10
43.66441720186312
 20
9.749801525416899
 30
0.0
 11
47.16820119581096
 21
9.749801525416899
 31
0.0
  0
LINE
  5
2DA
330
1F
100
AcDbEntity
  8
0
  6
Continuous
100
AcDbLine
 10
47.30164905058559
 20
9.635814265734728
 30
0.0
 11
47.30164905079068
 21
9.635813276996264
 31
0.0
  0
ARC
  5
2DB
330
1F
100
AcDbEntity
  8
0
  6
Continuous
100
AcDbCircle
 10
42.56187046490076
 20
9.663659395209336
 30
0.0
 40
4.739860376904787
100
AcDbArc
 50
359.6634040986663
 51
1.041349711907252
  0
LINE
  5
2DC
330
1F
100
AcDbEntity
  8
0
  6
Continuous
100
AcDbLine
 10
47.30094800446005
 20
9.749801525416899
 30
0.0
 11
49.48545491204587
 21
9.749801525416897
 31
0.0
  0
ARC
  5
2DD
330
1F
100
AcDbEntity
  8
0
  6
Continuous
100
AcDbCircle
 10
48.30393427592577
 20
9.663641808058272
 30
0.0
 40
1.184657971936612
100
AcDbArc
 50
358.653954056454
 51
4.170782429470965
  0
ARC
  5
2DE
330
1F
100
AcDbEntity
  8
0
  6
Continuous
100
AcDbCircle
 10
42.28634075225771
 20
9.631731140661242
 30
0.0
 40
0.1180703899758595
100
AcDbArc
 50
90.01703768792797
 51
178.0186750898733
  0
LINE
  5
2DF
330
1F
100
AcDbEntity
  8
0
  6
Continuous
100
AcDbLine
 10
42.28630564240416
 20
9.749801525416899
 30
0.0
 11
43.66441720186312
 21
9.749801525416899
 31
0.0
  0
ARC
  5
2E0
330
1F
100
AcDbEntity
  8
0
  6
Continuous
100
AcDbCircle
 10
50.86353136165121
 20
9.631731140661209
 30
0.0
 40
0.118070389975889
100
AcDbArc
 50
1.981324910142516
 51
89.98296231205044
  0
LINE
  5
2E1
330
1F
100
AcDbEntity
  8
0
  6
Continuous
100
AcDbLine
 10
49.48545491204587
 20
9.749801525416897
 30
0.0
 11
50.86356647150481
 21
9.749801525416897
 31
0.0
  0
SPLINE
  5
2E2
330
1F
100
AcDbEntity
  8
0
  6
Continuous
100
AcDbSpline
210
0.0
220
0.0
230
1.0
 70
     8
 71
     3
 72
    21
 73
    17
 74
     0
 42
0.0000000001
 43
0.0000000001
 40
0.0
 40
0.0
 40
0.0
 40
0.0
 40
0.033947342076049
 40
0.1002758329337446
 40
0.1678732026547656
 40
0.2359071564337457
 40
0.3024846321353688
 40
0.3694790844514002
 40
0.4377820431103273
 40
0.5065355094299268
 40
0.5829605824014871
 40
0.6600185936992319
 40
0.7390929221676305
 40
0.818869012379478
 40
0.9089139707271232
 40
1.0
 40
1.0
 40
1.0
 40
1.0
 10
48.94674782327625
 20
8.165158815004573
 30
0.0
 10
48.94434314395931
 20
8.149271083145388
 30
0.0
 10
48.93724004820281
 20
8.102340883366018
 30
0.0
 10
48.91742975544717
 20
8.025249686412406
 30
0.0
 10
48.88772463830331
 20
7.934361251144116
 30
0.0
 10
48.85041112332954
 20
7.846120186726105
 30
0.0
 10
48.80643516637396
 20
7.761360127267098
 30
0.0
 10
48.75581457895478
 20
7.680230374311678
 30
0.0
 10
48.69826320491681
 20
7.602571291090585
 30
0.0
 10
48.6316718436491
 20
7.526465854851622
 30
0.0
 10
48.55579029505496
 20
7.4534481923574
 30
0.0
 10
48.4697843835231
 20
7.384566567685206
 30
0.0
 10
48.37647148946458
 20
7.322970692414482
 30
0.0
 10
48.27231588275608
 20
7.267727980502629
 30
0.0
 10
48.15801972588906
 20
7.220105746851544
 30
0.0
 10
48.07508533996079
 20
7.198149715570952
 30
0.0
 10
48.03337980959502
 20
7.187108602538819
 30
0.0
  0
SPLINE
  5
2E3
330
1F
100
AcDbEntity
  8
0
  6
Continuous
100
AcDbSpline
210
0.0
220
0.0
230
1.0
 70
     8
 71
     3
 72
    14
 73
    10
 74
     0
 42
0.0000000001
 43
0.0000000001
 40
0.0
 40
0.0
 40
0.0
 40
0.0
 40
0.5000000000000001
 40
0.5000000000000001
 40
0.7500000000000002
 40
0.7500000000000002
 40
0.8750000000000001
 40
0.8750000000000001
 40
1.0
 40
1.0
 40
1.0
 40
1.0
 10
47.95903280630961
 20
7.182036291119635
 30
0.0
 10
47.98221021035621
 20
7.182421499235559
 30
0.0
 10
48.00035948152211
 20
7.183460907408104
 30
0.0
 10
48.01906925232201
 20
7.184781796894251
 30
0.0
 10
48.02394584547737
 20
7.185247333397542
 30
0.0
 10
48.02934656338321
 20
7.186147319360641
 30
0.0
 10
48.03080596587923
 20
7.186460240355268
 30
0.0
 10
48.0328224154147
 20
7.18694170869341
 30
0.0
 10
48.03337981473634
 20
7.187108607087479
 30
0.0
 10
48.03337980959502
 20
7.187108602538819
 30
0.0
  0
SPLINE
  5
2E4
330
1F
100
AcDbEntity
  8
0
  6
Continuous
100
AcDbSpline
210
0.0
220
0.0
230
1.0
 70
     8
 71
     3
 72
    14
 73
    10
 74
     0
 42
0.0000000001
 43
0.0000000001
 40
0.0
 40
0.0
 40
0.0
 40
0.0
 40
0.25
 40
0.25
 40
0.5000000000000001
 40
0.5000000000000001
 40
0.7500000000000002
 40
0.7500000000000002
 40
1.0
 40
1.0
 40
1.0
 40
1.0
 10
47.92010919794612
 20
7.27375516632842
 30
0.0
 10
47.92432514760382
 20
7.262113596906548
 30
0.0
 10
47.92834168090871
 20
7.251463381835968
 30
0.0
 10
47.93581659254075
 20
7.23228400386975
 30
0.0
 10
47.9392560909543
 20
7.223747871194156
 30
0.0
 10
47.94560154821826
 20
7.208581242474506
 30
0.0
 10
47.94849901097532
 20
7.201952733607608
 30
0.0
 10
47.9539225535325
 20
7.190547643705379
 30
0.0
 10
47.95648838845124
 20
7.185765465453963
 30
0.0
 10
47.95903308275319
 20
7.18203629854986
 30
0.0
  0
SPLINE
  5
2E5
330
1F
100
AcDbEntity
  8
0
  6
Continuous
100
AcDbSpline
210
0.0
220
0.0
230
1.0
 70
     8
 71
     3
 72
    34
 73
    30
 74
     0
 42
0.0000000001
 43
0.0000000001
 40
0.0
 40
0.0
 40
0.0
 40
0.0
 40
0.0122918928363257
 40
0.0246300750653572
 40
0.0370145994121856
 40
0.049445519445345
 40
0.0619228815776651
 40
0.0744467311785802
 40
0.0870171237736556
 40
0.09963411582468
 40
0.1122977646662161
 40
0.1250081259077908
 40
0.1866451446939931
 40
0.2500106808012138
 40
0.3114569240774709
 40
0.375024203927121
 40
0.4361426043025662
 40
0.5000383383852015
 40
0.5606064029719323
 40
0.6250478665338971
 40
0.6843298344599957
 40
0.750046325563871
 40
0.8047219446247982
 40
0.8750305096626098
 40
0.9103187009985825
 40
0.9404656564981436
 40
0.9654650019205398
 40
0.9853112635920235
 40
0.9999999999999998
 40
0.9999999999999998
 40
0.9999999999999998
 40
0.9999999999999998
 10
47.9201099602795
 20
7.273755110469815
 30
0.0
 10
47.91935606300252
 20
7.275842384822132
 30
0.0
 10
47.91784542938645
 20
7.280024793883464
 30
0.0
 10
47.91550508972463
 20
7.286542133947774
 30
0.0
 10
47.91310478635767
 20
7.293255180191287
 30
0.0
 10
47.91063925223472
 20
7.300182754952176
 30
0.0
 10
47.90810965410996
 20
7.307322499489936
 30
0.0
 10
47.90551548492831
 20
7.314677765695465
 30
0.0
 10
47.90285670568631
 20
7.322250375964562
 30
0.0
 10
47.90013311070673
 20
7.330042567963525
 30
0.0
 10
47.89734461336344
 20
7.338056496468258
 30
0.0
 10
47.89083240170869
 20
7.35685416250584
 30
0.0
 10
47.87995843380143
 20
7.388663836455046
 30
0.0
 10
47.86404846975933
 20
7.436414238537109
 30
0.0
 10
47.8468573862202
 20
7.489370637052916
 30
0.0
 10
47.82886679918523
 20
7.546342096962826
 30
0.0
 10
47.80970776423583
 20
7.608736634066856
 30
0.0
 10
47.7900409396682
 20
7.674723710034893
 30
0.0
 10
47.76927785649862
 20
7.746498670443939
 30
0.0
 10
47.7484036121245
 20
7.821001199502218
 30
0.0
 10
47.72638700361127
 20
7.90209473536264
 30
0.0
 10
47.70508511955981
 20
7.98328705462794
 30
0.0
 10
47.68209430355681
 20
8.073776249850842
 30
0.0
 10
47.6625507220553
 20
8.153558999877267
 30
0.0
 10
47.64588276843894
 20
8.223755629237533
 30
0.0
 10
47.63474716310615
 20
8.271594121367227
 30
0.0
 10
47.6254861725274
 20
8.312019115885203
 30
0.0
 10
47.61811782830179
 20
8.344563800176041
 30
0.0
 10
47.61384324887788
 20
8.363703981913044
 30
0.0
 10
47.61202514626012
 20
8.37184485638736
 30
0.0
  0
SPLINE
  5
2E6
330
1F
100
AcDbEntity
  8
0
  6
Continuous
100
AcDbSpline
210
0.0
220
0.0
230
1.0
 70
     8
 71
     3
 72
    32
 73
    28
 74
     0
 42
0.0000000001
 43
0.0000000001
 40
0.0
 40
0.0
 40
0.0
 40
0.0
 40
0.0247303862615418
 40
0.0494817618214818
 40
0.0742552084970548
 40
0.0990518046812266
 40
0.1238726246363352
 40
0.1487187377904046
 40
0.1735912080367996
 40
0.1984910930378072
 40
0.2234194435328018
 40
0.2483773026515649
 40
0.2733657052333564
 40
0.2983856771523265
 40
0.3234382346498053
 40
0.348524383674031
 40
0.3736451192278221
 40
0.3988014247247204
 40
0.423994271354082
 40
0.4492246174555813
 40
0.474493407903592
 40
0.4998015735018477
 40
0.6240796012538081
 40
0.7497403666326514
 40
0.8737878474128555
 40
0.9997358532460797
 40
0.9999999999999998
 40
0.9999999999999998
 40
0.9999999999999998
 40
0.9999999999999998
 10
48.95405223143807
 20
8.209959841125712
 30
0.0
 10
48.95405402593858
 20
8.209980157036572
 30
0.0
 10
48.95405761646269
 20
8.210020806100914
 30
0.0
 10
48.95408662837626
 20
8.210349355272793
 30
0.0
 10
48.95413290811809
 20
8.210873808844048
 30
0.0
 10
48.95419812724715
 20
8.211613452099493
 30
0.0
 10
48.95428179005941
 20
8.21256312719454
 30
0.0
 10
48.95438397008739
 20
8.213724201813478
 30
0.0
 10
48.95450457582872
 20
8.21509625951198
 30
0.0
 10
48.95464354776699
 20
8.216679329377774
 30
0.0
 10
48.95480080548938
 20
8.218473287557859
 30
0.0
 10
48.95497626186858
 20
8.220478017736871
 30
0.0
 10
48.95516981924747
 20
8.222693367933867
 30
0.0
 10
48.95538137045372
 20
8.225119161954992
 30
0.0
 10
48.95561079852335
 20
8.227755196212118
 30
0.0
 10
48.95585797675464
 20
8.230601240331099
 30
0.0
 10
48.95612276873809
 20
8.23365703725711
 30
0.0
 10
48.95640502815436
 20
8.236922301567588
 30
0.0
 10
48.95670459953031
 20
8.240396725471116
 30
0.0
 10
48.95702131539157
 20
8.244079955791706
 30
0.0
 10
48.9573550069023
 20
8.247971679547106
 30
0.0
 10
48.95816210399548
 20
8.257413045975191
 30
0.0
 10
48.9596047283522
 20
8.274430896896625
 30
0.0
 10
48.96191512844985
 20
8.30222203061638
 30
0.0
 10
48.9645419313148
 20
8.334576580034076
 30
0.0
 10
48.96646147751585
 20
8.358899537090318
 30
0.0
 10
48.9674636095696
 20
8.371821894336392
 30
0.0
 10
48.96746570691066
 20
8.3718489392655
 30
0.0
  0
SPLINE
  5
2E7
330
1F
100
AcDbEntity
  8
0
  6
Continuous
100
AcDbSpline
210
0.0
220
0.0
230
1.0
 70
     8
 71
     3
 72
    10
 73
     6
 74
     0
 42
0.0000000001
 43
0.0000000001
 40
0.0
 40
0.0
 40
0.0
 40
0.0
 40
0.5
 40
0.5
 40
1.0
 40
1.0
 40
1.0
 40
1.0
 10
44.67944981994286
 20
7.96712705932145
 30
0.0
 10
44.57613325283017
 20
8.029279117853088
 30
0.0
 10
44.4734382280516
 20
8.094682331268561
 30
0.0
 10
44.27187249605757
 20
8.230274316746655
 30
0.0
 10
44.17299909282134
 20
8.300459620822946
 30
0.0
 10
44.07723672973232
 20
8.371851301647312
 30
0.0
  0
SPLINE
  5
2E8
330
1F
100
AcDbEntity
  8
0
  6
Continuous
100
AcDbSpline
210
0.0
220
0.0
230
1.0
 70
     8
 71
     3
 72
     8
 73
     4
 74
     0
 42
0.0000000001
 43
0.0000000001
 40
0.0
 40
0.0
 40
0.0
 40
0.0
 40
1.0
 40
1.0
 40
1.0
 40
1.0
 10
47.26474572220103
 20
8.371849277911396
 30
0.0
 10
47.26470525397997
 20
8.225159649108325
 30
0.0
 10
47.2646535616609
 20
8.090419300678741
 30
0.0
 10
47.26459364514548
 20
7.968273347265654
 30
0.0
  0
SPLINE
  5
2E9
330
1F
100
AcDbEntity
  8
0
  6
Continuous
100
AcDbSpline
210
0.0
220
0.0
230
1.0
 70
     8
 71
     3
 72
    30
 73
    26
 74
     0
 42
0.0000000001
 43
0.0000000001
 40
0.0
 40
0.0
 40
0.0
 40
0.0
 40
0.1249999999999994
 40
0.1249999999999994
 40
0.2499999999999989
 40
0.2499999999999989
 40
0.3124999999999985
 40
0.3124999999999985
 40
0.3281249999999982
 40
0.3281249999999982
 40
0.335937499999998
 40
0.335937499999998
 40
0.3437499999999978
 40
0.3437499999999978
 40
0.3515624999999976
 40
0.3515624999999976
 40
0.3593749999999974
 40
0.3593749999999974
 40
0.3749999999999973
 40
0.3749999999999973
 40
0.4999999999999978
 40
0.4999999999999978
 40
0.749999999999999
 40
0.749999999999999
 40
1.0
 40
1.0
 40
1.0
 40
1.0
 10
44.67944985191798
 20
7.967127216401976
 30
0.0
 10
44.76956481450251
 20
7.968184520590041
 30
0.0
 10
44.86555464634776
 20
7.969025293706554
 30
0.0
 10
45.06674362279211
 20
7.970405991761147
 30
0.0
 10
45.17193164241369
 20
7.970945327548953
 30
0.0
 10
45.33450389549642
 20
7.971651884658516
 30
0.0
 10
45.3894862473027
 20
7.971870198579162
 30
0.0
 10
45.45898215606874
 20
7.972137312726761
 30
0.0
 10
45.47292770966884
 20
7.972190722855239
 30
0.0
 10
45.49387843026877
 20
7.972269306136867
 30
0.0
 10
45.5008671146191
 20
7.972295599562009
 30
0.0
 10
45.51489077032512
 20
7.972350565191025
 30
0.0
 10
45.52195576650468
 20
7.972380466801821
 30
0.0
 10
45.53562961289021
 20
7.972391947154504
 30
0.0
 10
45.54236845295655
 20
7.972386604814817
 30
0.0
 10
45.55595487349975
 20
7.972382862294161
 30
0.0
 10
45.56276143197746
 20
7.972381368376955
 30
0.0
 10
45.58316967042212
 20
7.972374735549824
 30
0.0
 10
45.59677498947773
 20
7.972368240040088
 30
0.0
 10
45.71925224744515
 20
7.972291930392525
 30
0.0
 10
45.82852338633904
 20
7.972100366915508
 30
0.0
 10
46.15730513283071
 20
7.971312165437957
 30
0.0
 10
46.37781682268403
 20
7.970499227452258
 30
0.0
 10
46.82038099427418
 20
7.969059125198963
 30
0.0
 10
47.04243203438805
 20
7.968428976328507
 30
0.0
 10
47.26459358763499
 20
7.968273789008375
 30
0.0
  0
LINE
  5
2EA
330
1F
100
AcDbEntity
  8
0
  6
Continuous
100
AcDbLine
 10
51.02564225662202
 20
8.371848769511384
 30
0.0
 11
51.10249511207261
 21
8.371848769511384
 31
0.0
  0
SPLINE
  5
2EB
330
1F
100
AcDbEntity
  8
0
  6
Continuous
100
AcDbSpline
210
0.0
220
0.0
230
1.0
 70
     8
 71
     3
 72
    16
 73
    12
 74
     0
 42
0.0000000001
 43
0.0000000001
 40
0.0
 40
0.0
 40
0.0
 40
0.0
 40
0.2499999999999998
 40
0.2499999999999998
 40
0.4999999999999996
 40
0.4999999999999996
 40
0.6249999999999997
 40
0.6249999999999997
 40
0.7499999999999999
 40
0.7499999999999999
 40
1.0
 40
1.0
 40
1.0
 40
1.0
 10
42.09896937637328
 20
9.635813276996127
 30
0.0
 10
42.10105568054337
 20
9.635179980965988
 30
0.0
 10
42.10358414057824
 20
9.634400995197177
 30
0.0
 10
42.10953811051385
 20
9.632918354109294
 30
0.0
 10
42.11296310872777
 20
9.632200067048771
 30
0.0
 10
42.1187901761591
 20
9.631659536853641
 30
0.0
 10
42.12084827664289
 20
9.631592181676612
 30
0.0
 10
42.12519215942296
 20
9.631573994204927
 30
0.0
 10
42.1274786610158
 20
9.631643747582836
 30
0.0
 10
42.13468985046677
 20
9.632318093237332
 30
0.0
 10
42.13996736391158
 20
9.633417524527827
 30
0.0
 10
42.14573679792403
 20
9.635813276995927
 30
0.0
  0
LINE
  5
2EC
330
1F
100
AcDbEntity
  8
0
  6
Continuous
100
AcDbLine
 10
42.16834095076637
 20
9.635813276995936
 30
0.0
 11
42.14573679792392
 21
9.635813276995143
 31
0.0
  0
LINE
  5
2ED
330
1F
100
AcDbEntity
  8
0
  6
Continuous
100
AcDbLine
 10
42.12422985728693
 20
8.371848769511386
 30
0.0
 11
42.0473770018364
 21
8.371848769511386
 31
0.0
  0
LINE
  5
2EE
330
1F
100
AcDbEntity
  8
0
  6
Continuous
100
AcDbLine
 10
50.86356647150481
 20
9.749801525416897
 30
0.0
 11
50.94031821220529
 21
9.749801525416897
 31
0.0
  0
ARC
  5
2EF
330
1F
100
AcDbEntity
  8
0
  6
Continuous
100
AcDbCircle
 10
42.26374792054767
 20
9.631719417831302
 30
0.0
 40
0.1180821101851199
100
AcDbArc
 50
90.01202242850636
 51
178.0131802633912
  0
LINE
  5
2F0
330
1F
100
AcDbEntity
  8
0
  6
Continuous
100
AcDbLine
 10
42.26372314326513
 20
9.749801525416899
 30
0.0
 11
42.28630564240416
 21
9.749801525416899
 31
0.0
  0
SPLINE
  5
2F1
330
1F
100
AcDbEntity
  8
0
  6
Continuous
100
AcDbSpline
210
0.0
220
0.0
230
1.0
 70
     8
 71
     3
 72
    14
 73
    10
 74
     0
 42
0.0000000001
 43
0.0000000001
 40
0.0
 40
0.0
 40
0.0
 40
0.0
 40
0.5000000000000002
 40
0.5000000000000002
 40
0.7500000000000001
 40
0.7500000000000001
 40
0.875
 40
0.875
 40
1.0
 40
1.0
 40
1.0
 40
1.0
 10
47.92011497248679
 20
7.273751567522861
 30
0.0
 10
47.80578405775197
 20
7.263257381432877
 30
0.0
 10
47.69321118197493
 20
7.255710979294233
 30
0.0
 10
47.52863149906887
 20
7.248379996951893
 30
0.0
 10
47.47447594221275
 20
7.246600610591848
 30
0.0
 10
47.39453043862416
 20
7.244846837163413
 30
0.0
 10
47.36809599071747
 20
7.244413281038029
 30
0.0
 10
47.31563063548527
 20
7.24384268846304
 30
0.0
 10
47.28957213820246
 20
7.243715099240588
 30
0.0
 10
47.26400047986859
 20
7.24370410149711
 30
0.0
  0
SPLINE
  5
2F2
330
1F
100
AcDbEntity
  8
0
  6
Continuous
100
AcDbSpline
210
0.0
220
0.0
230
1.0
 70
     8
 71
     3
 72
    18
 73
    14
 74
     0
 42
0.0000000001
 43
0.0000000001
 40
0.0
 40
0.0
 40
0.0
 40
0.0
 40
0.0312500000000002
 40
0.0312500000000002
 40
0.0625000000000004
 40
0.0625000000000004
 40
0.1250000000000004
 40
0.1250000000000004
 40
0.2500000000000005
 40
0.2500000000000005
 40
0.5000000000000004
 40
0.5000000000000004
 40
1.0
 40
1.0
 40
1.0
 40
1.0
 10
47.26400048210012
 20
7.243705442531478
 30
0.0
 10
47.26397433233254
 20
7.247863582334343
 30
0.0
 10
47.26400905744289
 20
7.252130009616045
 30
0.0
 10
47.2640249643605
 20
7.260879085735393
 30
0.0
 10
47.26402713842193
 20
7.265361742158139
 30
0.0
 10
47.2640431254443
 20
7.279133654897011
 30
0.0
 10
47.26405649692671
 20
7.288746849677046
 30
0.0
 10
47.26409518946685
 20
7.318878814314334
 30
0.0
 10
47.26411983411133
 20
7.340689715000088
 30
0.0
 10
47.2641972879349
 20
7.41124513460633
 30
0.0
 10
47.26425029564418
 20
7.465113141249455
 30
0.0
 10
47.26440675297022
 20
7.646848300675779
 30
0.0
 10
47.26450843561653
 20
7.794853592050088
 30
0.0
 10
47.26459358737399
 20
7.968273257478227
 30
0.0
  0
SPLINE
  5
2F3
330
1F
100
AcDbEntity
  8
0
  6
Continuous
100
AcDbSpline
210
0.0
220
0.0
230
1.0
 70
     8
 71
     3
 72
    32
 73
    28
 74
     0
 42
0.0000000001
 43
0.0000000001
 40
0.0
 40
0.0
 40
0.0
 40
0.0
 40
0.2499999999999985
 40
0.2499999999999985
 40
0.3749999999999978
 40
0.3749999999999978
 40
0.4062499999999977
 40
0.4062499999999977
 40
0.4218749999999977
 40
0.4218749999999977
 40
0.4296874999999977
 40
0.4296874999999977
 40
0.4374999999999976
 40
0.4374999999999976
 40
0.4531249999999976
 40
0.4531249999999976
 40
0.4687499999999976
 40
0.4687499999999976
 40
0.4999999999999978
 40
0.4999999999999978
 40
0.6249999999999984
 40
0.6249999999999984
 40
0.749999999999999
 40
0.749999999999999
 40
0.8749999999999996
 40
0.8749999999999996
 40
1.0
 40
1.0
 40
1.0
 40
1.0
 10
43.77768130218064
 20
7.929469447646598
 30
0.0
 10
43.79531171630515
 20
7.931813634049822
 30
0.0
 10
43.82064357896938
 20
7.934920883812072
 30
0.0
 10
43.86887812860002
 20
7.940138416661259
 30
0.0
 10
43.88666034322811
 20
7.94197076882995
 30
0.0
 10
43.91086831590739
 20
7.944310405511611
 30
0.0
 10
43.91580960403773
 20
7.94478054169539
 30
0.0
 10
43.92336885532086
 20
7.94548811601474
 30
0.0
 10
43.92591370947495
 20
7.945724208263989
 30
0.0
 10
43.92976897732551
 20
7.946078577831771
 30
0.0
 10
43.93105883895751
 20
7.946197180865743
 30
0.0
 10
43.93364864934818
 20
7.946434470721525
 30
0.0
 10
43.93489324393811
 20
7.946565280177155
 30
0.0
 10
43.9391787540346
 20
7.946838389309688
 30
0.0
 10
43.94219551904941
 20
7.947015897667323
 30
0.0
 10
43.94844525519833
 20
7.947383684975775
 30
0.0
 10
43.95169437593202
 20
7.947570426438399
 30
0.0
 10
43.96181080217663
 20
7.948138707596728
 30
0.0
 10
43.96904735502602
 20
7.94852825478569
 30
0.0
 10
44.00765734346848
 20
7.950517128771069
 30
0.0
 10
44.04631004379359
 20
7.952240832466458
 30
0.0
 10
44.1379980147433
 20
7.955706198844911
 30
0.0
 10
44.19102467952957
 20
7.957448701346024
 30
0.0
 10
44.31007718315396
 20
7.960739600378458
 30
0.0
 10
44.37609773517016
 20
7.962290231069896
 30
0.0
 10
44.51955174515843
 20
7.965005024500943
 30
0.0
 10
44.59700195277394
 20
7.966159611573129
 30
0.0
 10
44.67944982184419
 20
7.967127058177661
 30
0.0
  0
SPLINE
  5
2F4
330
1F
100
AcDbEntity
  8
0
  6
Continuous
100
AcDbSpline
210
0.0
220
0.0
230
1.0
 70
     8
 71
     3
 72
    16
 73
    12
 74
     0
 42
0.0000000001
 43
0.0000000001
 40
0.0
 40
0.0
 40
0.0
 40
0.0
 40
0.125
 40
0.125
 40
0.25
 40
0.25
 40
0.5
 40
0.5
 40
0.75
 40
0.75
 40
1.0
 40
1.0
 40
1.0
 40
1.0
 10
43.17670542609312
 20
8.371848134288077
 30
0.0
 10
43.2122873593668
 20
8.340233340218922
 30
0.0
 10
43.24610227250268
 20
8.311298715389856
 30
0.0
 10
43.3103910739038
 20
8.257857844837838
 30
0.0
 10
43.34086751063384
 20
8.233352423881711
 30
0.0
 10
43.42775106607357
 20
8.165279024999849
 30
0.0
 10
43.47957793947817
 20
8.127119747248878
 30
0.0
 10
43.574478052211
 20
8.059887743513646
 30
0.0
 10
43.61762568503206
 20
8.030792984553837
 30
0.0
 10
43.69955279488335
 20
7.977442430537291
 30
0.0
 10
43.73846000451957
 20
7.953117461047124
 30
0.0
 10
43.77768130218064
 20
7.929469447646598
 30
0.0
  0
LINE
  5
2F5
330
1F
100
AcDbEntity
  8
0
  6
Continuous
100
AcDbLine
 10
42.21839141388012
 20
9.740755775675864
 30
0.0
 11
42.23045527721221
 21
9.745018706012329
 31
0.0
  0
SPLINE
  5
2F6
330
1F
100
AcDbEntity
  8
0
  6
Continuous
100
AcDbSpline
210
0.0
220
0.0
230
1.0
 70
     8
 71
     3
 72
    13
 73
     9
 74
     0
 42
0.0000000001
 43
0.0000000001
 40
0.0
 40
0.0
 40
0.0
 40
0.0
 40
0.1606608518545155
 40
0.5445380481053316
 40
0.7375099650493324
 40
0.8327700100067021
 40
0.9307706300751748
 40
1.0
 40
1.0
 40
1.0
 40
1.0
 10
46.65642645282642
 20
7.198165922408536
 30
0.0
 10
46.67190973575157
 20
7.197009010283249
 30
0.0
 10
46.72438821177735
 20
7.193087814402232
 30
0.0
 10
46.79549853264639
 20
7.18825218406762
 30
0.0
 10
46.86033644043432
 20
7.184392049531759
 30
0.0
 10
46.89760658925488
 20
7.182370191493621
 30
0.0
 10
46.92294043743987
 20
7.181069584214741
 30
0.0
 10
46.93908300854549
 20
7.18029358684493
 30
0.0
 10
46.94576566173857
 20
7.179972341780112
 30
0.0
  0
SPLINE
  5
2F7
330
1F
100
AcDbEntity
  8
0
  6
Continuous
100
AcDbSpline
210
0.0
220
0.0
230
1.0
 70
     8
 71
     3
 72
    20
 73
    16
 74
     0
 42
0.0000000001
 43
0.0000000001
 40
0.0
 40
0.0
 40
0.0
 40
0.0
 40
0.25
 40
0.25
 40
0.5
 40
0.5
 40
0.625
 40
0.625
 40
0.75
 40
0.75
 40
0.8749999999999998
 40
0.8749999999999998
 40
0.9374999999999998
 40
0.9374999999999998
 40
1.0
 40
1.0
 40
1.0
 40
1.0
 10
44.67944990073468
 20
7.96712721407953
 30
0.0
 10
44.83868187688631
 20
7.871337815555451
 30
0.0
 10
44.99987538637487
 20
7.783263910530495
 30
0.0
 10
45.32530255122256
 20
7.622902984579296
 30
0.0
 10
45.48954862888097
 20
7.550609617748571
 30
0.0
 10
45.73733876671685
 20
7.454214570847867
 30
0.0
 10
45.82011679462131
 20
7.424087051459954
 30
0.0
 10
45.98620057208421
 20
7.367884214203193
 30
0.0
 10
46.06952760562744
 20
7.341809603009812
 30
0.0
 10
46.23664294235818
 20
7.293743498668796
 30
0.0
 10
46.32044240460319
 20
7.271753041318431
 30
0.0
 10
46.44634483218799
 20
7.241845237596031
 30
0.0
 10
46.48828147799457
 20
7.23238759762415
 30
0.0
 10
46.57230096684683
 20
7.214503782666858
 30
0.0
 10
46.6143547704901
 20
7.206076791127626
 30
0.0
 10
46.6564264609862
 20
7.198165922485202
 30
0.0
  0
SPLINE
  5
2F8
330
1F
100
AcDbEntity
  8
0
  6
Continuous
100
AcDbSpline
210
0.0
220
0.0
230
1.0
 70
     8
 71
     3
 72
    12
 73
     8
 74
     0
 42
0.0000000001
 43
0.0000000001
 40
0.0
 40
0.0
 40
0.0
 40
0.0
 40
0.5
 40
0.5
 40
0.75
 40
0.75
 40
1.0
 40
1.0
 40
1.0
 40
1.0
 10
47.26416159899163
 20
7.179813134441802
 30
0.0
 10
47.26439209979491
 20
7.18844357664927
 30
0.0
 10
47.26448413502732
 20
7.198086105442666
 30
0.0
 10
47.26443946837348
 20
7.214061138821447
 30
0.0
 10
47.26439269064691
 20
7.219638038844367
 30
0.0
 10
47.26421134644406
 20
7.231294709427022
 30
0.0
 10
47.26404029606082
 20
7.237374525278267
 30
0.0
 10
47.26400048210012
 20
7.243705442531478
 30
0.0
  0
SPLINE
  5
2F9
330
1F
100
AcDbEntity
  8
0
  6
Continuous
100
AcDbSpline
210
0.0
220
0.0
230
1.0
 70
     8
 71
     3
 72
    14
 73
    10
 74
     0
 42
0.0000000001
 43
0.0000000001
 40
0.0
 40
0.0
 40
0.0
 40
0.0
 40
0.4999999999999997
 40
0.4999999999999997
 40
0.6249999999999997
 40
0.6249999999999997
 40
0.7499999999999997
 40
0.7499999999999997
 40
1.0
 40
1.0
 40
1.0
 40
1.0
 10
47.2641638232745
 20
7.179813141354502
 30
0.0
 10
47.20909007290094
 20
7.179742363615506
 30
0.0
 10
47.15485100302115
 20
7.179790671637919
 30
0.0
 10
47.08810115045838
 20
7.17986894266432
 30
0.0
 10
47.07480405504804
 20
7.179885342091662
 30
0.0
 10
47.0483178235998
 20
7.179916339549773
 30
0.0
 10
47.03512034739336
 20
7.179930968136092
 30
0.0
 10
46.99606570884962
 20
7.179967032876071
 30
0.0
 10
46.97062040465644
 20
7.179980566030948
 30
0.0
 10
46.94576566173859
 20
7.179972341780112
 30
0.0
  0
SPLINE
  5
2FA
330
1F
100
AcDbEntity
  8
0
  6
Continuous
100
AcDbSpline
210
0.0
220
0.0
230
1.0
 70
     8
 71
     3
 72
    61
 73
    57
 74
     0
 42
0.0000000001
 43
0.0000000001
 40
0.0
 40
0.0
 40
0.0
 40
0.0
 40
0.0095576482589241
 40
0.0190458180123369
 40
0.02846444943957
 40
0.0378134830613777
 40
0.0470928598077767
 40
0.0563025210804682
 40
0.065442408810128
 40
0.0745124655088839
 40
0.083512634318243
 40
0.092442858988992
 40
0.101303083889644
 40
0.1100932542396595
 40
0.1188133160403328
 40
0.1274632161005697
 40
0.1360428591748173
 40
0.1445518924586463
 40
0.1529902109452183
 40
0.193317699806728
 40
0.2322101634158828
 40
0.269662714296716
 40
0.3056688982974056
 40
0.3447452308385611
 40
0.3821968353728507
 40
0.4211753252419073
 40
0.4583967686048202
 40
0.4973091927230313
 40
0.5343020777633454
 40
0.5475093999139475
 40
0.5604598635862272
 40
0.5729325343986106
 40
0.5851789249189281
 40
0.5972109564161174
 40
0.6090289575034309
 40
0.6472224762899824
 40
0.6832455563392131
 40
0.7214638632517837
 40
0.7573297033218108
 40
0.7621043862743049
 40
0.7668284213535262
 40
0.7715250666145749
 40
0.7761832284349691
 40
0.780800806927899
 40
0.7853775796893836
 40
0.7899132714837672
 40
0.794407665297457
 40
0.8131914497239613
 40
0.8314372010624568
 40
0.8684263818307309
 40
0.905248749191575
 40
0.9419902032657079
 40
0.9605581194508166
 40
0.9786897304112516
 40
0.9893953114809093
 40
1.0
 40
1.0
 40
1.0
 40
1.0
 10
43.77768132299218
 20
7.92946948401706
 30
0.0
 10
43.78587740031922
 20
7.924549319838302
 30
0.0
 10
43.80220997429107
 20
7.914744758192927
 30
0.0
 10
43.82674213457452
 20
7.900297586133447
 30
0.0
 10
43.85118148140725
 20
7.886105346586532
 30
0.0
 10
43.87553354101185
 20
7.87217976586718
 30
0.0
 10
43.89979270539541
 20
7.858513993463397
 30
0.0
 10
43.92395639715977
 20
7.845106098750367
 30
0.0
 10
43.94802131488595
 20
7.831952845247295
 30
0.0
 10
43.97198442689045
 20
7.819051340832526
 30
0.0
 10
43.99584270681995
 20
7.806398601212171
 30
0.0
 10
44.01959320254104
 20
7.793991666151491
 30
0.0
 10
44.04323301681699
 20
7.781827569241755
 30
0.0
 10
44.0667593117804
 20
7.769903346363022
 30
0.0
 10
44.09016930618821
 20
7.758216035587228
 30
0.0
 10
44.11346023885677
 20
7.746762690551468
 30
0.0
 10
44.13662912558099
 20
7.735540517023727
 30
0.0
 10
44.15967300587489
 20
7.724546659077837
 30
0.0
 10
44.21151982865827
 20
7.700183148400148
 30
0.0
 10
44.29149889056637
 20
7.664231111530989
 30
0.0
 10
44.39920833953897
 20
7.619292160358593
 30
0.0
 10
44.50402006529986
 20
7.57873263796562
 30
0.0
 10
44.60998142493896
 20
7.540734347651952
 30
0.0
 10
44.71686869754949
 20
7.505418803492894
 30
0.0
 10
44.82746053028814
 20
7.47196084422049
 30
0.0
 10
44.93706389121443
 20
7.441759280687589
 30
0.0
 10
45.0487857248602
 20
7.413878353212844
 30
0.0
 10
45.1591977450928
 20
7.389078614510115
 30
0.0
 10
45.2465919182366
 20
7.371520756077909
 30
0.0
 10
45.30869022525422
 20
7.359959359054032
 30
0.0
 10
45.34672929503358
 20
7.353174207638037
 30
0.0
 10
45.38385978254503
 20
7.346773116738557
 30
0.0
 10
45.42010186362079
 20
7.340627236818409
 30
0.0
 10
45.45572015032329
 20
7.334720590738632
 30
0.0
 10
45.51697483222696
 20
7.324769472228556
 30
0.0
 10
45.60201135554474
 20
7.31156272048741
 30
0.0
 10
45.71330725761876
 20
7.295409637996025
 30
0.0
 10
45.82244620000706
 20
7.280640173927013
 30
0.0
 10
45.90070285283146
 20
7.27076366251258
 30
0.0
 10
45.94574669793163
 20
7.265295328853026
 30
0.0
 10
45.95984289765577
 20
7.263594193177976
 30
0.0
 10
45.97382741877511
 20
7.261940268848071
 30
0.0
 10
45.98770797219652
 20
7.260314484843915
 30
0.0
 10
46.001471576426
 20
7.258720685423744
 30
0.0
 10
46.0151154342806
 20
7.257157751582029
 30
0.0
 10
46.02863876836994
 20
7.255625291596828
 30
0.0
 10
46.05628561694699
 20
7.252525630095195
 30
0.0
 10
46.09757435960196
 20
7.248023969337596
 30
0.0
 10
46.17120792036408
 20
7.240318700052123
 30
0.0
 10
46.26284744607363
 20
7.231328569328345
 30
0.0
 10
46.37297468083306
 20
7.221345961216915
 30
0.0
 10
46.46479156467629
 20
7.213483509454006
 30
0.0
 10
46.53800204426126
 20
7.207462739018932
 30
0.0
 10
46.58526619096423
 20
7.203673164895436
 30
0.0
 10
46.62459641642501
 20
7.200589950106053
 30
0.0
 10
46.64584998205532
 20
7.198971377286683
 30
0.0
 10
46.65642645282642
 20
7.198165922408536
 30
0.0
  0
ARC
  5
2FB
330
1F
100
AcDbEntity
  8
0
  6
Continuous
100
AcDbCircle
 10
42.21700392815569
 20
9.631695156760718
 30
0.0
 40
0.1181063687052787
100
AcDbArc
 50
90.0016520644796
 51
178.0018118572483
  0
LINE
  5
2FC
330
1F
100
AcDbEntity
  8
0
  6
Continuous
100
AcDbLine
 10
42.20955390170378
 20
9.749801525416899
 30
0.0
 11
42.21700052268083
 21
9.749801525416899
 31
0.0
  0
SPLINE
  5
2FD
330
1F
100
AcDbEntity
  8
0
  6
Continuous
100
AcDbSpline
210
0.0
220
0.0
230
1.0
 70
     8
 71
     3
 72
    30
 73
    26
 74
     0
 42
0.0000000001
 43
0.0000000001
 40
0.0
 40
0.0
 40
0.0
 40
0.0
 40
0.0624999999999999
 40
0.0624999999999999
 40
0.1249999999999997
 40
0.1249999999999997
 40
0.2499999999999995
 40
0.2499999999999995
 40
0.3124999999999993
 40
0.3124999999999993
 40
0.3749999999999992
 40
0.3749999999999992
 40
0.4999999999999992
 40
0.4999999999999992
 40
0.6249999999999991
 40
0.6249999999999991
 40
0.6874999999999992
 40
0.6874999999999992
 40
0.7499999999999992
 40
0.7499999999999992
 40
0.8749999999999996
 40
0.8749999999999996
 40
0.9374999999999998
 40
0.9374999999999998
 40
1.0
 40
1.0
 40
1.0
 40
1.0
 10
47.26475271132435
 20
7.179813868571498
 30
0.0
 10
47.2828435058412
 20
7.179837348799004
 30
0.0
 10
47.30096700606241
 20
7.179862515160312
 30
0.0
 10
47.33728106274816
 20
7.179909679380999
 30
0.0
 10
47.3555214638458
 20
7.179930463194262
 30
0.0
 10
47.40956274364704
 20
7.179985222668896
 30
0.0
 10
47.44490546064347
 20
7.180012098667631
 30
0.0
 10
47.49691925621154
 20
7.180057098599274
 30
0.0
 10
47.51408978403571
 20
7.180072740683838
 30
0.0
 10
47.54809243801958
 20
7.180107320123813
 30
0.0
 10
47.56496409202272
 20
7.180126318862271
 30
0.0
 10
47.61479485815224
 20
7.180189295539047
 30
0.0
 10
47.64651699585335
 20
7.180236210914111
 30
0.0
 10
47.7071039282696
 20
7.180357831476824
 30
0.0
 10
47.73596899051881
 20
7.180433683270301
 30
0.0
 10
47.77709301311526
 20
7.180578827383097
 30
0.0
 10
47.79043957794803
 20
7.180632579995785
 30
0.0
 10
47.81637361817466
 20
7.18074987859449
 30
0.0
 10
47.8288139664483
 20
7.180812635449987
 30
0.0
 10
47.86459666743975
 20
7.181019333360397
 30
0.0
 10
47.88640590041555
 20
7.181179158708282
 30
0.0
 10
47.91606176229108
 20
7.18146187694627
 30
0.0
 10
47.92543725401929
 20
7.181565224599392
 30
0.0
 10
47.94314455993206
 20
7.181789145344875
 30
0.0
 10
47.95139367744758
 20
7.181908009596064
 30
0.0
 10
47.95903167430402
 20
7.182035183633717
 30
0.0
  0
SPLINE
  5
2FE
330
1F
100
AcDbEntity
  8
0
  6
Continuous
100
AcDbSpline
210
0.0
220
0.0
230
1.0
 70
    24
 71
     3
 72
     8
 73
     4
 74
     0
 42
0.0000000001
 43
0.0000000001
 40
0.0
 40
0.0
 40
0.0
 40
0.0
 40
1.0
 40
1.0
 40
1.0
 40
1.0
 10
47.26416382336857
 20
7.179813104519613
 30
0.0
 10
47.26436011549165
 20
7.179813359108244
 30
0.0
 10
47.26455641147677
 20
7.179813613791916
 30
0.0
 10
47.26475271132435
 20
7.179813868571498
 30
0.0
  0
SPLINE
  5
2FF
330
1F
100
AcDbEntity
  8
0
  6
Continuous
100
AcDbSpline
210
0.0
220
0.0
230
1.0
 70
     8
 71
     3
 72
     8
 73
     4
 74
     0
 42
0.0000000001
 43
0.0000000001
 40
0.0
 40
0.0
 40
0.0
 40
0.0
 40
1.0
 40
1.0
 40
1.0
 40
1.0
 10
48.95405223143807
 20
8.209959841125712
 30
0.0
 10
48.96070095117451
 20
8.263884740812819
 30
0.0
 10
48.96702477703465
 20
8.317847714093113
 30
0.0
 10
48.97302363610307
 20
8.371848769511386
 30
0.0
  0
SPLINE
  5
300
330
1F
100
AcDbEntity
  8
0
  6
Continuous
100
AcDbSpline
210
0.0
220
0.0
230
1.0
 70
     8
 71
     3
 72
    28
 73
    24
 74
     0
 42
0.0000000001
 43
0.0000000001
 40
0.0
 40
0.0
 40
0.0
 40
0.0
 40
0.0625
 40
0.0625
 40
0.1249999999999999
 40
0.1249999999999999
 40
0.2499999999999998
 40
0.2499999999999998
 40
0.3124999999999997
 40
0.3124999999999997
 40
0.3749999999999996
 40
0.3749999999999996
 40
0.4999999999999999
 40
0.4999999999999999
 40
0.625
 40
0.625
 40
0.75
 40
0.75
 40
0.8750000000000001
 40
0.8750000000000001
 40
0.9375
 40
0.9375
 40
1.0
 40
1.0
 40
1.0
 40
1.0
 10
46.50742917094395
 20
7.175621231743104
 30
0.0
 10
46.50742917061845
 20
7.175621232031083
 30
0.0
 10
46.50804486502123
 20
7.175651912012147
 30
0.0
 10
46.51051786922758
 20
7.175763596101321
 30
0.0
 10
46.51236827236961
 20
7.175844291145303
 30
0.0
 10
46.51974244654302
 20
7.176141907705146
 30
0.0
 10
46.52708035078872
 20
7.17641417893393
 30
0.0
 10
46.54180451262286
 20
7.17686102809019
 30
0.0
 10
46.54733423961533
 20
7.17701647090946
 30
0.0
 10
46.55967948599004
 20
7.177328757372603
 30
0.0
 10
46.56647341792658
 20
7.17748490969306
 30
0.0
 10
46.58847880855397
 20
7.177932413117694
 30
0.0
 10
46.60538614342911
 20
7.178202633448577
 30
0.0
 10
46.64354386644229
 20
7.178736963506214
 30
0.0
 10
46.66480529131317
 20
7.178988985966704
 30
0.0
 10
46.7119378391781
 20
7.179408648623763
 30
0.0
 10
46.7375899553558
 20
7.179565216802833
 30
0.0
 10
46.79187027285116
 20
7.179769899679779
 30
0.0
 10
46.82057135453793
 20
7.179827592488448
 30
0.0
 10
46.86592870937867
 20
7.179893035310749
 30
0.0
 10
46.88143366342951
 20
7.179911202143326
 30
0.0
 10
46.91322725226942
 20
7.179947796824135
 30
0.0
 10
46.92940671119832
 20
7.179966928724216
 30
0.0
 10
46.94576566173859
 20
7.179972341780112
 30
0.0
  0
LINE
  5
301
330
1F
100
AcDbEntity
  8
0
  6
Continuous
100
AcDbLine
 10
47.91351873411985
 20
7.0810644808291
 30
0.0
 11
46.61430613569466
 21
7.0810644808291
 31
0.0
  0
SPLINE
  5
302
330
1F
100
AcDbEntity
  8
0
  6
Continuous
100
AcDbSpline
210
0.0
220
0.0
230
1.0
 70
     8
 71
     3
 72
    28
 73
    24
 74
     0
 42
0.0000000001
 43
0.0000000001
 40
0.0
 40
0.0
 40
0.0
 40
0.0
 40
0.1249999999999999
 40
0.1249999999999999
 40
0.2499999999999998
 40
0.2499999999999998
 40
0.3124999999999998
 40
0.3124999999999998
 40
0.3749999999999996
 40
0.3749999999999996
 40
0.4999999999999992
 40
0.4999999999999992
 40
0.562499999999999
 40
0.562499999999999
 40
0.5937499999999991
 40
0.5937499999999991
 40
0.6249999999999992
 40
0.6249999999999992
 40
0.6874999999999992
 40
0.6874999999999992
 40
0.7499999999999993
 40
0.7499999999999993
 40
1.0
 40
1.0
 40
1.0
 40
1.0
 10
43.74851113067578
 20
7.925036048668191
 30
0.0
 10
43.85076796751199
 20
7.860445823403102
 30
0.0
 10
43.9552280731815
 20
7.800418021779201
 30
0.0
 10
44.1684767711565
 20
7.689325641475576
 30
0.0
 10
44.27726670091483
 20
7.638263832329176
 30
0.0
 10
44.44370556918594
 20
7.568409291459614
 30
0.0
 10
44.49972862789808
 20
7.546249765667495
 30
0.0
 10
44.61287199724714
 20
7.504202850849553
 30
0.0
 10
44.67004855128376
 20
7.484299831830666
 30
0.0
 10
44.84223706342461
 20
7.428351741301797
 30
0.0
 10
44.95819213450054
 20
7.395946930273975
 30
0.0
 10
45.13385243745832
 20
7.354611568178578
 30
0.0
 10
45.19269416927747
 20
7.342046555075697
 30
0.0
 10
45.28139031603766
 20
7.325023838410217
 30
0.0
 10
45.31102756070806
 20
7.319652067625268
 30
0.0
 10
45.370336647866
 20
7.309054147877914
 30
0.0
 10
45.40002278344023
 20
7.303888158356352
 30
0.0
 10
45.48917544886478
 20
7.288786923605826
 30
0.0
 10
45.54875863618965
 20
7.279244890931497
 30
0.0
 10
45.66804610971425
 20
7.261239595144406
 30
0.0
 10
45.72774819986848
 20
7.252776573291008
 30
0.0
 10
46.02655018628465
 20
7.213157455130508
 30
0.0
 10
46.26652290769265
 20
7.190072854955818
 30
0.0
 10
46.50742917094396
 20
7.175621231743106
 30
0.0
  0
SPLINE
  5
303
330
1F
100
AcDbEntity
  8
0
  6
Continuous
100
AcDbSpline
210
0.0
220
0.0
230
1.0
 70
     8
 71
     3
 72
    17
 73
    13
 74
     0
 42
0.0000000001
 43
0.0000000001
 40
0.0
 40
0.0
 40
0.0
 40
0.0
 40
0.0078125
 40
0.0078125
 40
0.015625
 40
0.03125
 40
0.0625
 40
0.125
 40
0.2500000000000001
 40
0.5000000000000001
 40
0.5000000000000001
 40
1.0
 40
1.0
 40
1.0
 40
1.0
 10
43.74851113066272
 20
7.925036048676494
 30
0.0
 10
43.74850880095199
 20
7.92503752114718
 30
0.0
 10
43.7485071038769
 20
7.92503908455324
 30
0.0
 10
43.74850497397511
 20
7.925042392545714
 30
0.0
 10
43.74850367551894
 20
7.925047626343205
 30
0.0
 10
43.74851391032505
 20
7.92506173476131
 30
0.0
 10
43.74858735616504
 20
7.925097485207901
 30
0.0
 10
43.74894549713419
 20
7.925198713418732
 30
0.0
 10
43.75050152580928
 20
7.925516869168262
 30
0.0
 10
43.75325683004154
 20
7.925977125494517
 30
0.0
 10
43.76061451881231
 20
7.927120614348931
 30
0.0
 10
43.76798273108929
 20
7.92817995906226
 30
0.0
 10
43.77768126890659
 20
7.929469509966441
 30
0.0
  0
SPLINE
  5
304
330
1F
100
AcDbEntity
  8
0
  6
Continuous
100
AcDbSpline
210
0.0
220
0.0
230
1.0
 70
     8
 71
     3
 72
    12
 73
     8
 74
     0
 42
0.0000000001
 43
0.0000000001
 40
0.0
 40
0.0
 40
0.0
 40
0.0
 40
0.2499999999999996
 40
0.2499999999999996
 40
0.4999999999999992
 40
0.4999999999999992
 40
1.0
 40
1.0
 40
1.0
 40
1.0
 10
43.74851108829187
 20
7.925035981561665
 30
0.0
 10
43.69630781365045
 20
7.958010023914294
 30
0.0
 10
43.64483731668539
 20
7.992076772547278
 30
0.0
 10
43.54335869696423
 20
8.062390938703636
 30
0.0
 10
43.49335726724127
 20
8.098635515089226
 30
0.0
 10
43.34581767892504
 20
8.210446001318912
 30
0.0
 10
43.25058614523022
 20
8.289214641661928
 30
0.0
 10
43.15891982624278
 20
8.371848769511382
 30
0.0
  0
LINE
  5
305
330
1F
100
AcDbEntity
  8
0
  6
Continuous
100
AcDbLine
 10
46.61430613569466
 20
6.462399950617884
 30
0.0
 11
47.91351873411985
 21
6.462399950617884
 31
0.0
  0
LWPOLYLINE
  5
306
330
1F
100
AcDbEntity
  8
0
  6
Continuous
100
AcDbPolyline
 90
        8
 70
   128
 43
0.0
 10
47.30164905058559
 20
9.635814265734728
 10
47.30161702443671
 20
9.66557463205412
 10
47.30154137460608
 20
9.693125622819714
 10
47.30142703386815
 20
9.716670765772679
 10
47.30128145785181
 20
9.734674791401111
 10
47.30111413889357
 20
9.745963740740556
 10
47.30093598708626
 20
9.749801513790394
 10
47.30093508072352
 20
9.749801349347469
  0
SPLINE
  5
307
330
1F
100
AcDbEntity
  8
0
  6
Continuous
100
AcDbSpline
210
0.0
220
0.0
230
1.0
 70
     8
 71
     3
 72
    13
 73
     9
 74
     0
 42
0.0000000001
 43
0.0000000001
 40
0.0
 40
0.0
 40
0.0
 40
0.0
 40
0.1873911625531045
 40
0.3747823251061992
 40
0.56217348765932
 40
0.7495646502124928
 40
0.9369558127657382
 40
0.9999999999999998
 40
0.9999999999999998
 40
0.9999999999999998
 40
0.9999999999999998
 10
47.26504780017279
 20
9.635810122139803
 30
0.0
 10
47.26503936680044
 20
9.647113355925574
 30
0.0
 10
47.26502250005575
 20
9.669719823497114
 30
0.0
 10
47.26492973089199
 20
9.700359675115079
 30
0.0
 10
47.26479572629599
 20
9.725543015789419
 30
0.0
 10
47.2646267297223
 20
9.742316314818571
 30
0.0
 10
47.26447918380526
 20
9.750225327451257
 30
0.0
 10
47.26439404808572
 20
9.749011901737517
 30
0.0
 10
47.26437261615828
 20
9.748706435923859
 30
0.0
  0
LWPOLYLINE
  5
308
330
1F
100
AcDbEntity
  8
0
  6
Continuous
100
AcDbPolyline
 90
        8
 70
   128
 43
0.0
 10
47.16877406009568
 20
9.635813276995927
 10
47.16875470530788
 20
9.665574020542297
 10
47.16869925789767
 20
9.693125377378551
 10
47.16861133341686
 20
9.716670809881481
 10
47.16849666514528
 20
9.734674994197623
 10
47.16836273024149
 20
9.745963933899453
 10
47.16821826218079
 20
9.749801512612707
 10
47.16821656241157
 20
9.749800837351024
  0
LINE
  5
309
330
1F
100
AcDbEntity
  8
0
  6
Continuous
100
AcDbLine
 10
48.95405368090134
 20
8.209959662412815
 30
0.0
 11
48.94674782327625
 21
8.165158815004573
 31
0.0
  0
LINE
  5
30A
330
1F
100
AcDbEntity
  8
0
  6
Continuous
100
AcDbLine
 10
51.05835649886097
 20
9.635813276996262
 30
0.0
 11
50.98153116314258
 21
9.635813276995934
 31
0.0
  0
LINE
  5
30B
330
1F
100
AcDbEntity
  8
0
  6
Continuous
100
AcDbLine
 10
42.09896937637328
 20
9.635813276996127
 30
0.0
 11
42.091515615048
 21
9.635813276996127
 31
0.0
  0
ARC
  5
30C
330
1F
100
AcDbEntity
  8
0
  6
Continuous
100
AcDbCircle
 10
42.21700615367976
 20
9.631691628552166
 30
0.0
 40
0.1181087159476134
100
AcDbArc
 50
78.53821208782491
 51
178.0001389712034
  0
ARC
  5
30D
330
1F
100
AcDbEntity
  8
0
  6
Continuous
100
AcDbCircle
 10
42.26370778211399
 20
9.631760334373192
 30
0.0
 40
0.1180405839305804
100
AcDbArc
 50
112.5757770090717
 51
178.0323533640809
  0
LWPOLYLINE
  5
30E
330
1F
100
AcDbEntity
  8
0
  6
Continuous
100
AcDbPolyline
 90
        3
 70
   128
 43
0.0
 10
42.23806989409179
 20
9.747906934116643
 10
42.23144248582402
 20
9.748915185756901
 10
42.21700052268083
 20
9.749801525416899
  0
LINE
  5
30F
330
1F
100
AcDbEntity
  8
0
  6
Continuous
100
AcDbLine
 10
6.49145957584623
 20
9.749809712186861
 30
0.0
 11
6.454896638952343
 21
9.749811222942534
 31
0.0
  0
LINE
  5
310
330
1F
100
AcDbEntity
  8
0
  6
Continuous
100
AcDbLine
 10
6.587602482578569
 20
9.751150508419046
 30
0.0
 11
6.491452120889983
 21
9.750700136310344
 31
0.0
  0
LINE
  5
311
330
1F
100
AcDbEntity
  8
0
  6
Continuous
100
AcDbLine
 10
6.58762982396025
 20
9.749801525416893
 30
0.0
 11
6.587612504120821
 21
9.749801524146969
 31
0.0
  0
LINE
  5
312
330
1F
100
AcDbEntity
  8
0
  6
Continuous
100
AcDbLine
 10
6.454894729549531
 20
9.749801524835968
 30
0.0
 11
6.454883015311162
 21
9.749801525416893
 31
0.0
  0
LINE
  5
313
330
1F
100
AcDbEntity
  8
0
  6
Continuous
100
AcDbLine
 10
2.697474520910242
 20
9.635813276996261
 30
0.0
 11
2.653335907698613
 21
8.371848769511382
 31
0.0
  0
LINE
  5
314
330
1F
100
AcDbEntity
  8
0
  6
Continuous
100
AcDbLine
 10
11.70845401793482
 20
8.371848769511382
 30
0.0
 11
11.66431540472323
 21
9.635813276995138
 31
0.0
  0
ARC
  5
315
330
1F
100
AcDbEntity
  8
0
  6
Continuous
100
AcDbCircle
 10
2.815512807565932
 20
9.631691289196419
 30
0.0
 40
0.1181102362204728
100
AcDbArc
 50
90.0
 51
177.9999999998383
  0
ARC
  5
316
330
1F
100
AcDbEntity
  8
0
  6
Continuous
100
AcDbCircle
 10
11.49210787650623
 20
9.631691289196419
 30
0.0
 40
0.1181102362204722
100
AcDbArc
 50
67.43020079564971
 51
90.00000007105063
  0
ARC
  5
317
330
1F
100
AcDbEntity
  8
0
  6
Continuous
100
AcDbCircle
 10
11.53883049709039
 20
9.631691289196419
 30
0.0
 40
0.1181102362204722
100
AcDbArc
 50
90.00000007023231
 51
101.4108413074636
  0
ARC
  5
318
330
1F
100
AcDbEntity
  8
0
  6
Continuous
100
AcDbCircle
 10
11.5462771180673
 20
9.631691289196419
 30
0.0
 40
0.1181102362204724
100
AcDbArc
 50
1.999999999616258
 51
89.99999999994138
  0
LINE
  5
319
330
1F
100
AcDbEntity
  8
0
  6
Continuous
100
AcDbLine
 10
5.722451210176197
 20
7.187108602538815
 30
0.0
 11
5.842312285651354
 21
7.081064480829093
 31
0.0
  0
LINE
  5
31A
330
1F
100
AcDbEntity
  8
0
  6
Continuous
100
AcDbLine
 10
7.141524884076554
 20
7.081064480829093
 30
0.0
 11
7.248401848827265
 21
7.175621231743102
 31
0.0
  0
SPLINE
  5
31B
330
1F
100
AcDbEntity
  8
0
  6
Continuous
100
AcDbSpline
210
0.0
220
0.0
230
1.0
 70
     8
 71
     3
 72
    12
 73
     8
 74
     0
 42
0.0000000001
 43
0.0000000001
 40
0.0
 40
0.0
 40
0.0
 40
0.0
 40
0.2265216663104751
 40
0.3452143353230827
 40
0.4636344208912644
 40
0.7213288456497128
 40
1.0
 40
1.0
 40
1.0
 40
1.0
 10
10.28400151207276
 20
8.115161663832731
 30
0.0
 10
10.2944276020117
 20
8.12296067348595
 30
0.0
 10
10.31031674748247
 20
8.134846202925439
 30
0.0
 10
10.33719842380176
 20
8.155448302423907
 30
0.0
 10
10.36695455025565
 20
8.178506504928877
 30
0.0
 10
10.40664448988303
 20
8.209809753739742
 30
0.0
 10
10.43303343788936
 20
8.231405167095767
 30
0.0
 10
10.44674393477702
 20
8.242625161448495
 30
0.0
  0
LINE
  5
31C
330
1F
100
AcDbEntity
  8
0
  6
Continuous
100
AcDbLine
 10
7.141524884076554
 20
6.46239995061788
 30
0.0
 11
7.141524884076554
 21
7.081064480829093
 31
0.0
  0
LINE
  5
31D
330
1F
100
AcDbEntity
  8
0
  6
Continuous
100
AcDbLine
 10
5.842312285651354
 20
7.081064480829093
 30
0.0
 11
5.842312285651354
 21
6.46239995061788
 31
0.0
  0
LINE
  5
31E
330
1F
100
AcDbEntity
  8
0
  6
Continuous
100
AcDbLine
 10
10.2840015038821
 20
8.115161657734114
 30
0.0
 11
10.30549108077256
 21
8.131339396920603
 31
0.0
  0
LINE
  5
31F
330
1F
100
AcDbEntity
  8
0
  6
Continuous
100
AcDbLine
 10
10.43126937631171
 20
8.230055680665907
 30
0.0
 11
10.44674393415311
 21
8.242625160936251
 31
0.0
  0
SPLINE
  5
320
330
1F
100
AcDbEntity
  8
0
  6
Continuous
100
AcDbSpline
210
0.0
220
0.0
230
1.0
 70
     8
 71
     3
 72
     9
 73
     5
 74
     0
 42
0.0000000001
 43
0.0000000001
 40
0.0
 40
0.0
 40
0.0
 40
0.0
 40
0.4903273226445577
 40
1.0
 40
1.0
 40
1.0
 40
1.0
 10
4.800652376487251
 20
8.224261035426268
 30
0.0
 10
4.801962759994035
 20
8.212419626868042
 30
0.0
 10
4.804635226826421
 20
8.188269619288691
 30
0.0
 10
4.807019254481142
 20
8.172869438139999
 30
0.0
 10
4.808234328238812
 20
8.165020386582186
 30
0.0
  0
LINE
  5
321
330
1F
100
AcDbEntity
  8
0
  6
Continuous
100
AcDbLine
 10
10.09422425177302
 20
9.635813276996261
 30
0.0
 11
6.58705695967553
 21
9.63581327699592
 31
0.0
  0
LINE
  5
322
330
1F
100
AcDbEntity
  8
0
  6
Continuous
100
AcDbLine
 10
10.09422425177302
 20
9.635813276996261
 30
0.0
 11
10.09527517056248
 21
8.371848769511382
 31
0.0
  0
LINE
  5
323
330
1F
100
AcDbEntity
  8
0
  6
Continuous
100
AcDbLine
 10
4.267565673860412
 20
9.635813276996261
 30
0.0
 11
4.266514755070959
 21
8.371848769511382
 31
0.0
  0
LINE
  5
324
330
1F
100
AcDbEntity
  8
0
  6
Continuous
100
AcDbLine
 10
6.454181968980529
 20
9.635813276996261
 30
0.0
 11
4.267565673860412
 21
9.635813276996261
 31
0.0
  0
SPLINE
  5
325
330
1F
100
AcDbEntity
  8
0
  6
Continuous
100
AcDbSpline
210
0.0
220
0.0
230
1.0
 70
     8
 71
     3
 72
     8
 73
     4
 74
     0
 42
0.0000000001
 43
0.0000000001
 40
0.0000000062901342
 40
0.0000000062901342
 40
0.0000000062901342
 40
0.0000000062901342
 40
0.0018593748149927
 40
0.0018593748149927
 40
0.0018593748149927
 40
0.0018593748149927
 10
6.4907830972873
 20
9.635810122149033
 30
0.0
 10
6.478582710678972
 20
9.635811031205436
 30
0.0
 10
6.466382334263409
 20
9.635812068114121
 30
0.0
 10
6.454181968882361
 20
9.635813276995913
 30
0.0
  0
SPLINE
  5
326
330
1F
100
AcDbEntity
  8
0
  6
Continuous
100
AcDbSpline
210
0.0
220
0.0
230
1.0
 70
     8
 71
     3
 72
     8
 73
     4
 74
     0
 42
0.0000000001
 43
0.0000000001
 40
0.0
 40
0.0
 40
0.0
 40
0.0
 40
0.0048907794993203
 40
0.0048907794993203
 40
0.0048907794993203
 40
0.0048907794993203
 10
6.58705695967553
 20
9.63581327699592
 30
0.0
 10
6.554965608165895
 20
9.635808575605262
 30
0.0
 10
6.522874315210779
 20
9.635807381510966
 30
0.0
 10
6.490783097193352
 20
9.635809776254967
 30
0.0
  0
LINE
  5
327
330
1F
100
AcDbEntity
  8
0
  6
Continuous
100
AcDbLine
 10
4.266514755070959
 20
8.371848769511382
 30
0.0
 11
10.09527517056248
 21
8.371848769511382
 31
0.0
  0
LINE
  5
328
330
1F
100
AcDbEntity
  8
0
  6
Continuous
100
AcDbLine
 10
11.58749006900483
 20
9.635813276995927
 30
0.0
 11
10.09422425177302
 21
9.635813276996261
 31
0.0
  0
LINE
  5
329
330
1F
100
AcDbEntity
  8
0
  6
Continuous
100
AcDbLine
 10
11.58749006900483
 20
9.635813276995927
 30
0.0
 11
11.63160116248428
 21
8.371848769511382
 31
0.0
  0
LINE
  5
32A
330
1F
100
AcDbEntity
  8
0
  6
Continuous
100
AcDbLine
 10
10.09527517056248
 20
8.371848769511382
 30
0.0
 11
11.63160116248428
 21
8.371848769511382
 31
0.0
  0
LINE
  5
32B
330
1F
100
AcDbEntity
  8
0
  6
Continuous
100
AcDbLine
 10
2.774299856628632
 20
9.635813276995927
 30
0.0
 11
2.730188763149195
 21
8.371848769511382
 31
0.0
  0
LINE
  5
32C
330
1F
100
AcDbEntity
  8
0
  6
Continuous
100
AcDbLine
 10
4.267565673860412
 20
9.635813276996261
 30
0.0
 11
2.774299856628632
 21
9.635813276995927
 31
0.0
  0
LINE
  5
32D
330
1F
100
AcDbEntity
  8
0
  6
Continuous
100
AcDbLine
 10
2.730188763149195
 20
8.371848769511382
 30
0.0
 11
4.266514755070959
 21
8.371848769511382
 31
0.0
  0
ARC
  5
32E
330
1F
100
AcDbEntity
  8
0
  6
Continuous
100
AcDbCircle
 10
12.38724229753252
 20
9.66365917773515
 30
0.0
 40
5.800252179662458
100
AcDbArc
 50
179.1490414101964
 51
180.2750671295565
  0
ARC
  5
32F
330
1F
100
AcDbEntity
  8
0
  6
Continuous
100
AcDbCircle
 10
8.909893181784733
 20
9.663641808058224
 30
0.0
 40
1.184657971939863
100
AcDbArc
 50
358.6539540564598
 51
4.170782429461768
  0
LINE
  5
330
330
1F
100
AcDbEntity
  8
0
  6
Continuous
100
AcDbLine
 10
6.58762982396025
 20
9.749801525416893
 30
0.0
 11
10.09141381790808
 21
9.749801525416893
 31
0.0
  0
LINE
  5
331
330
1F
100
AcDbEntity
  8
0
  6
Continuous
100
AcDbLine
 10
6.45418196918562
 20
9.635814265734724
 30
0.0
 11
6.454181968980529
 21
9.635813276996261
 31
0.0
  0
LINE
  5
332
330
1F
100
AcDbEntity
  8
0
  6
Continuous
100
AcDbLine
 10
4.270376107725349
 20
9.749801525416893
 30
0.0
 11
6.454883015311162
 21
9.749801525416893
 31
0.0
  0
ARC
  5
333
330
1F
100
AcDbEntity
  8
0
  6
Continuous
100
AcDbCircle
 10
11.19396055479947
 20
9.663659395209807
 30
0.0
 40
4.73986037683381
100
AcDbArc
 50
178.9586502880839
 51
180.3365959013451
  0
ARC
  5
334
330
1F
100
AcDbEntity
  8
0
  6
Continuous
100
AcDbCircle
 10
5.45189674384755
 20
9.663641808058217
 30
0.0
 40
1.184657971938718
100
AcDbArc
 50
175.8292175705345
 51
181.3460459435418
  0
ARC
  5
335
330
1F
100
AcDbEntity
  8
0
  6
Continuous
100
AcDbCircle
 10
11.46949026751348
 20
9.631731140661225
 30
0.0
 40
0.1180703899758675
100
AcDbArc
 50
1.981324910133402
 51
89.98296231206998
  0
LINE
  5
336
330
1F
100
AcDbEntity
  8
0
  6
Continuous
100
AcDbLine
 10
10.09141381790808
 20
9.749801525416893
 30
0.0
 11
11.46952537736706
 21
9.749801525416893
 31
0.0
  0
ARC
  5
337
330
1F
100
AcDbEntity
  8
0
  6
Continuous
100
AcDbCircle
 10
2.892299658119933
 20
9.631731140661274
 30
0.0
 40
0.1180703899758173
100
AcDbArc
 50
90.01703768791697
 51
178.0186750898914
  0
LINE
  5
338
330
1F
100
AcDbEntity
  8
0
  6
Continuous
100
AcDbLine
 10
2.892264548266398
 20
9.749801525416893
 30
0.0
 11
4.270376107725349
 21
9.749801525416893
 31
0.0
  0
SPLINE
  5
339
330
1F
100
AcDbEntity
  8
0
  6
Continuous
100
AcDbSpline
210
0.0
220
0.0
230
1.0
 70
     8
 71
     3
 72
    34
 73
    30
 74
     0
 42
0.0000000001
 43
0.0000000001
 40
0.0
 40
0.0
 40
0.0
 40
0.0
 40
0.0122918928363257
 40
0.0246300750653572
 40
0.0370145994121856
 40
0.049445519445345
 40
0.0619228815776651
 40
0.0744467311785802
 40
0.0870171237736556
 40
0.09963411582468
 40
0.1122977646662161
 40
0.1250081259077908
 40
0.1866451446939931
 40
0.2500106808012138
 40
0.3114569240774709
 40
0.375024203927121
 40
0.4361426043025662
 40
0.5000383383852015
 40
0.5606064029719323
 40
0.6250478665338971
 40
0.6843298344599957
 40
0.750046325563871
 40
0.8047219446247982
 40
0.8750305096626098
 40
0.9103187009985825
 40
0.9404656564981436
 40
0.9654650019205398
 40
0.9853112635920235
 40
0.9999999999999998
 40
0.9999999999999998
 40
0.9999999999999998
 40
0.9999999999999998
 10
5.835721059491712
 20
7.273755110469808
 30
0.0
 10
5.836474956768691
 20
7.275842384822128
 30
0.0
 10
5.837985590384755
 20
7.280024793883457
 30
0.0
 10
5.840325930046583
 20
7.28654213394777
 30
0.0
 10
5.842726233413538
 20
7.293255180191282
 30
0.0
 10
5.845191767536485
 20
7.300182754952169
 30
0.0
 10
5.847721365661252
 20
7.307322499489929
 30
0.0
 10
5.850315534842914
 20
7.314677765695458
 30
0.0
 10
5.852974314084898
 20
7.322250375964559
 30
0.0
 10
5.855697909064483
 20
7.330042567963518
 30
0.0
 10
5.858486406407772
 20
7.338056496468249
 30
0.0
 10
5.864998618062537
 20
7.356854162505834
 30
0.0
 10
5.875872585969782
 20
7.388663836455039
 30
0.0
 10
5.891782550011891
 20
7.436414238537105
 30
0.0
 10
5.908973633551008
 20
7.489370637052909
 30
0.0
 10
5.926964220585981
 20
7.546342096962819
 30
0.0
 10
5.946123255535392
 20
7.608736634066852
 30
0.0
 10
5.965790080103028
 20
7.674723710034891
 30
0.0
 10
5.986553163272597
 20
7.746498670443935
 30
0.0
 10
6.007427407646725
 20
7.821001199502214
 30
0.0
 10
6.029444016159951
 20
7.902094735362632
 30
0.0
 10
6.050745900211405
 20
7.983287054627931
 30
0.0
 10
6.073736716214407
 20
8.073776249850839
 30
0.0
 10
6.093280297715915
 20
8.153558999877263
 30
0.0
 10
6.109948251332278
 20
8.223755629237524
 30
0.0
 10
6.121083856665061
 20
8.271594121367224
 30
0.0
 10
6.130344847243813
 20
8.312019115885201
 30
0.0
 10
6.137713191469424
 20
8.344563800176034
 30
0.0
 10
6.141987770893331
 20
8.363703981913042
 30
0.0
 10
6.143805873511093
 20
8.371844856387356
 30
0.0
  0
SPLINE
  5
33A
330
1F
100
AcDbEntity
  8
0
  6
Continuous
100
AcDbSpline
210
0.0
220
0.0
230
1.0
 70
     8
 71
     3
 72
    14
 73
    10
 74
     0
 42
0.0000000001
 43
0.0000000001
 40
0.0
 40
0.0
 40
0.0
 40
0.0
 40
0.25
 40
0.25
 40
0.5000000000000001
 40
0.5000000000000001
 40
0.7500000000000002
 40
0.7500000000000002
 40
1.0
 40
1.0
 40
1.0
 40
1.0
 10
5.835721821825083
 20
7.273755166328415
 30
0.0
 10
5.831505872167392
 20
7.262113596906539
 30
0.0
 10
5.827489338862514
 20
7.251463381835963
 30
0.0
 10
5.82001442723047
 20
7.232284003869745
 30
0.0
 10
5.816574928816914
 20
7.22374787119415
 30
0.0
 10
5.810229471552952
 20
7.208581242474503
 30
0.0
 10
5.80733200879589
 20
7.201952733607607
 30
0.0
 10
5.801908466238723
 20
7.190547643705373
 30
0.0
 10
5.799342631319968
 20
7.185765465453956
 30
0.0
 10
5.796797937018036
 20
7.182036298549855
 30
0.0
  0
SPLINE
  5
33B
330
1F
100
AcDbEntity
  8
0
  6
Continuous
100
AcDbSpline
210
0.0
220
0.0
230
1.0
 70
     8
 71
     3
 72
    14
 73
    10
 74
     0
 42
0.0000000001
 43
0.0000000001
 40
0.0
 40
0.0
 40
0.0
 40
0.0
 40
0.5000000000000001
 40
0.5000000000000001
 40
0.7500000000000002
 40
0.7500000000000002
 40
0.8750000000000001
 40
0.8750000000000001
 40
1.0
 40
1.0
 40
1.0
 40
1.0
 10
5.796798213461608
 20
7.182036291119631
 30
0.0
 10
5.773620809415001
 20
7.182421499235553
 30
0.0
 10
5.755471538249105
 20
7.183460907408099
 30
0.0
 10
5.736761767449204
 20
7.184781796894244
 30
0.0
 10
5.731885174293845
 20
7.185247333397535
 30
0.0
 10
5.726484456388002
 20
7.186147319360637
 30
0.0
 10
5.725025053891991
 20
7.186460240355261
 30
0.0
 10
5.723008604356516
 20
7.186941708693405
 30
0.0
 10
5.722451205034881
 20
7.187108607087475
 30
0.0
 10
5.722451210176197
 20
7.187108602538815
 30
0.0
  0
SPLINE
  5
33C
330
1F
100
AcDbEntity
  8
0
  6
Continuous
100
AcDbSpline
210
0.0
220
0.0
230
1.0
 70
     8
 71
     3
 72
    21
 73
    17
 74
     0
 42
0.0000000001
 43
0.0000000001
 40
0.0
 40
0.0
 40
0.0
 40
0.0
 40
0.0339473420759576
 40
0.1002758329336595
 40
0.1678732026546869
 40
0.2359071564336734
 40
0.3024846321353028
 40
0.3694790844513405
 40
0.4377820431102741
 40
0.5065355094298801
 40
0.5829605824014476
 40
0.6600185936991997
 40
0.7390929221676058
 40
0.8188690123794609
 40
0.9089139707271145
 40
1.0
 40
1.0
 40
1.0
 40
1.0
 10
4.80908319649499
 20
8.165158815004433
 30
0.0
 10
4.811487875811929
 20
8.149271083145295
 30
0.0
 10
4.81859097156842
 20
8.10234088336597
 30
0.0
 10
4.838401264324042
 20
8.025249686412402
 30
0.0
 10
4.868106381467905
 20
7.934361251144112
 30
0.0
 10
4.905419896441673
 20
7.846120186726105
 30
0.0
 10
4.949395853397257
 20
7.76136012726709
 30
0.0
 10
5.000016440816432
 20
7.680230374311671
 30
0.0
 10
5.057567814854403
 20
7.602571291090578
 30
0.0
 10
5.124159176122114
 20
7.526465854851617
 30
0.0
 10
5.200040724716254
 20
7.453448192357393
 30
0.0
 10
5.286046636248117
 20
7.384566567685206
 30
0.0
 10
5.379359530306638
 20
7.322970692414481
 30
0.0
 10
5.483515137015141
 20
7.267727980502622
 30
0.0
 10
5.597811293882154
 20
7.220105746851539
 30
0.0
 10
5.680745679810422
 20
7.198149715570943
 30
0.0
 10
5.722451210176197
 20
7.187108602538815
 30
0.0
  0
SPLINE
  5
33D
330
1F
100
AcDbEntity
  8
0
  6
Continuous
100
AcDbSpline
210
0.0
220
0.0
230
1.0
 70
     8
 71
     3
 72
    32
 73
    28
 74
     0
 42
0.0000000001
 43
0.0000000001
 40
0.0
 40
0.0
 40
0.0
 40
0.0
 40
0.0247303862615418
 40
0.0494817618214818
 40
0.0742552084970548
 40
0.0990518046812266
 40
0.1238726246363352
 40
0.1487187377904046
 40
0.1735912080367996
 40
0.1984910930378072
 40
0.2234194435328018
 40
0.2483773026515649
 40
0.2733657052333564
 40
0.2983856771523265
 40
0.3234382346498053
 40
0.348524383674031
 40
0.3736451192278221
 40
0.3988014247247204
 40
0.423994271354082
 40
0.4492246174555813
 40
0.474493407903592
 40
0.4998015735018477
 40
0.6240796012538081
 40
0.7497403666326514
 40
0.8737878474128555
 40
0.9997358532460797
 40
0.9999999999999998
 40
0.9999999999999998
 40
0.9999999999999998
 40
0.9999999999999998
 10
4.801778788333153
 20
8.20995984112571
 30
0.0
 10
4.801776993832627
 20
8.20998015703657
 30
0.0
 10
4.801773403308525
 20
8.210020806100908
 30
0.0
 10
4.801744391394956
 20
8.210349355272791
 30
0.0
 10
4.801698111653125
 20
8.210873808844043
 30
0.0
 10
4.801632892524063
 20
8.211613452099493
 30
0.0
 10
4.801549229711804
 20
8.212563127194536
 30
0.0
 10
4.801447049683824
 20
8.213724201813471
 30
0.0
 10
4.801326443942501
 20
8.215096259511975
 30
0.0
 10
4.801187472004231
 20
8.21667932937777
 30
0.0
 10
4.801030214281839
 20
8.218473287557857
 30
0.0
 10
4.800854757902635
 20
8.220478017736867
 30
0.0
 10
4.800661200523743
 20
8.222693367933866
 30
0.0
 10
4.800449649317494
 20
8.225119161954987
 30
0.0
 10
4.800220221247863
 20
8.227755196212116
 30
0.0
 10
4.799973043016573
 20
8.230601240331091
 30
0.0
 10
4.799708251033139
 20
8.233657037257104
 30
0.0
 10
4.799425991616859
 20
8.236922301567583
 30
0.0
 10
4.799126420240911
 20
8.240396725471109
 30
0.0
 10
4.798809704379651
 20
8.244079955791699
 30
0.0
 10
4.798476012868905
 20
8.2479716795471
 30
0.0
 10
4.797668915775746
 20
8.257413045975185
 30
0.0
 10
4.796226291419012
 20
8.274430896896619
 30
0.0
 10
4.793915891321356
 20
8.302222030616379
 30
0.0
 10
4.791289088456425
 20
8.334576580034076
 30
0.0
 10
4.789369542255373
 20
8.358899537090318
 30
0.0
 10
4.788367410201617
 20
8.371821894336386
 30
0.0
 10
4.788365312860564
 20
8.371848939265499
 30
0.0
  0
SPLINE
  5
33E
330
1F
100
AcDbEntity
  8
0
  6
Continuous
100
AcDbSpline
210
0.0
220
0.0
230
1.0
 70
     8
 71
     3
 72
     8
 73
     4
 74
     0
 42
0.0000000001
 43
0.0000000001
 40
0.0
 40
0.0
 40
0.0
 40
0.0
 40
1.0
 40
1.0
 40
1.0
 40
1.0
 10
6.491085297570188
 20
8.371849277911389
 30
0.0
 10
6.491125765791247
 20
8.225159649108322
 30
0.0
 10
6.491177458110309
 20
8.090419300678734
 30
0.0
 10
6.491237374625734
 20
7.968273347265645
 30
0.0
  0
SPLINE
  5
33F
330
1F
100
AcDbEntity
  8
0
  6
Continuous
100
AcDbSpline
210
0.0
220
0.0
230
1.0
 70
     8
 71
     3
 72
    10
 73
     6
 74
     0
 42
0.0000000001
 43
0.0000000001
 40
0.0
 40
0.0
 40
0.0
 40
0.0
 40
0.5
 40
0.5
 40
1.0
 40
1.0
 40
1.0
 40
1.0
 10
9.076381199828356
 20
7.967127059321443
 30
0.0
 10
9.179697766941041
 20
8.02927911785308
 30
0.0
 10
9.28239279171961
 20
8.094682331268552
 30
0.0
 10
9.483958523713647
 20
8.230274316746653
 30
0.0
 10
9.582831926949873
 20
8.300459620822943
 30
0.0
 10
9.678594290038896
 20
8.371851301647305
 30
0.0
  0
SPLINE
  5
340
330
1F
100
AcDbEntity
  8
0
  6
Continuous
100
AcDbSpline
210
0.0
220
0.0
230
1.0
 70
     8
 71
     3
 72
    30
 73
    26
 74
     0
 42
0.0000000001
 43
0.0000000001
 40
0.0
 40
0.0
 40
0.0
 40
0.0
 40
0.1249999999999994
 40
0.1249999999999994
 40
0.2499999999999989
 40
0.2499999999999989
 40
0.3124999999999985
 40
0.3124999999999985
 40
0.3281249999999982
 40
0.3281249999999982
 40
0.335937499999998
 40
0.335937499999998
 40
0.3437499999999978
 40
0.3437499999999978
 40
0.3515624999999976
 40
0.3515624999999976
 40
0.3593749999999974
 40
0.3593749999999974
 40
0.3749999999999973
 40
0.3749999999999973
 40
0.4999999999999978
 40
0.4999999999999978
 40
0.749999999999999
 40
0.749999999999999
 40
1.0
 40
1.0
 40
1.0
 40
1.0
 10
9.076381167853236
 20
7.967127216401971
 30
0.0
 10
8.9862662052687
 20
7.968184520590037
 30
0.0
 10
8.890276373423455
 20
7.969025293706545
 30
0.0
 10
8.689087396979113
 20
7.970405991761142
 30
0.0
 10
8.58389937735752
 20
7.970945327548948
 30
0.0
 10
8.421327124274791
 20
7.971651884658507
 30
0.0
 10
8.366344772468503
 20
7.971870198579155
 30
0.0
 10
8.296848863702473
 20
7.972137312726752
 30
0.0
 10
8.282903310102378
 20
7.972190722855232
 30
0.0
 10
8.261952589502451
 20
7.97226930613686
 30
0.0
 10
8.254963905152118
 20
7.972295599562004
 30
0.0
 10
8.240940249446078
 20
7.972350565191016
 30
0.0
 10
8.233875253266541
 20
7.972380466801817
 30
0.0
 10
8.220201406881011
 20
7.9723919471545
 30
0.0
 10
8.213462566814664
 20
7.972386604814809
 30
0.0
 10
8.199876146271458
 20
7.972382862294155
 30
0.0
 10
8.193069587793752
 20
7.972381368376952
 30
0.0
 10
8.172661349349093
 20
7.972374735549815
 30
0.0
 10
8.159056030293479
 20
7.972368240040085
 30
0.0
 10
8.036578772326061
 20
7.972291930392524
 30
0.0
 10
7.927307633432173
 20
7.972100366915507
 30
0.0
 10
7.598525886940501
 20
7.971312165437952
 30
0.0
 10
7.378014197087191
 20
7.970499227452252
 30
0.0
 10
6.935450025497027
 20
7.969059125198961
 30
0.0
 10
6.713398985383173
 20
7.968428976328505
 30
0.0
 10
6.491237432136239
 20
7.968273789008373
 30
0.0
  0
LINE
  5
341
330
1F
100
AcDbEntity
  8
0
  6
Continuous
100
AcDbLine
 10
2.653335907698613
 20
8.371848769511382
 30
0.0
 11
2.730188763149195
 21
8.371848769511382
 31
0.0
  0
LINE
  5
342
330
1F
100
AcDbEntity
  8
0
  6
Continuous
100
AcDbLine
 10
11.6100942218473
 20
9.635813276995138
 30
0.0
 11
11.58749006900483
 21
9.635813276995927
 31
0.0
  0
SPLINE
  5
343
330
1F
100
AcDbEntity
  8
0
  6
Continuous
100
AcDbSpline
210
0.0
220
0.0
230
1.0
 70
     8
 71
     3
 72
    16
 73
    12
 74
     0
 42
0.0000000001
 43
0.0000000001
 40
0.0
 40
0.0
 40
0.0
 40
0.0
 40
0.2499999999999998
 40
0.2499999999999998
 40
0.4999999999999996
 40
0.4999999999999996
 40
0.6249999999999997
 40
0.6249999999999997
 40
0.7499999999999999
 40
0.7499999999999999
 40
1.0
 40
1.0
 40
1.0
 40
1.0
 10
11.65686164339792
 20
9.635813276996126
 30
0.0
 10
11.65477533922783
 20
9.635179980965981
 30
0.0
 10
11.65224687919296
 20
9.63440099519717
 30
0.0
 10
11.64629290925738
 20
9.632918354109287
 30
0.0
 10
11.64286791104345
 20
9.632200067048765
 30
0.0
 10
11.6370408436121
 20
9.631659536853634
 30
0.0
 10
11.63498274312833
 20
9.631592181676603
 30
0.0
 10
11.63063886034825
 20
9.631573994204922
 30
0.0
 10
11.62835235875541
 20
9.631643747582829
 30
0.0
 10
11.62114116930444
 20
9.632318093237325
 30
0.0
 10
11.61586365585963
 20
9.633417524527823
 30
0.0
 10
11.61009422184718
 20
9.63581327699592
 30
0.0
  0
LINE
  5
344
330
1F
100
AcDbEntity
  8
0
  6
Continuous
100
AcDbLine
 10
11.70845401793482
 20
8.371848769511382
 30
0.0
 11
11.63160116248428
 21
8.371848769511382
 31
0.0
  0
LINE
  5
345
330
1F
100
AcDbEntity
  8
0
  6
Continuous
100
AcDbLine
 10
2.815512807565932
 20
9.749801525416893
 30
0.0
 11
2.892264548266398
 21
9.749801525416893
 31
0.0
  0
ARC
  5
346
330
1F
100
AcDbEntity
  8
0
  6
Continuous
100
AcDbCircle
 10
11.49208309922354
 20
9.631719417831293
 30
0.0
 40
0.118082110185119
100
AcDbArc
 50
1.986819736610462
 51
89.98797757149569
  0
LINE
  5
347
330
1F
100
AcDbEntity
  8
0
  6
Continuous
100
AcDbLine
 10
11.46952537736706
 20
9.749801525416893
 30
0.0
 11
11.49210787650607
 21
9.749801525416893
 31
0.0
  0
SPLINE
  5
348
330
1F
100
AcDbEntity
  8
0
  6
Continuous
100
AcDbSpline
210
0.0
220
0.0
230
1.0
 70
     8
 71
     3
 72
    18
 73
    14
 74
     0
 42
0.0000000001
 43
0.0000000001
 40
0.0
 40
0.0
 40
0.0
 40
0.0
 40
0.0312500000000002
 40
0.0312500000000002
 40
0.0625000000000004
 40
0.0625000000000004
 40
0.1250000000000004
 40
0.1250000000000004
 40
0.2500000000000005
 40
0.2500000000000005
 40
0.5000000000000004
 40
0.5000000000000004
 40
1.0
 40
1.0
 40
1.0
 40
1.0
 10
6.4918305376711
 20
7.243705442531473
 30
0.0
 10
6.491856687438678
 20
7.247863582334341
 30
0.0
 10
6.491821962328325
 20
7.25213000961604
 30
0.0
 10
6.491806055410714
 20
7.260879085735391
 30
0.0
 10
6.491803881349278
 20
7.265361742158136
 30
0.0
 10
6.491787894326913
 20
7.279133654897004
 30
0.0
 10
6.491774522844488
 20
7.288746849677041
 30
0.0
 10
6.491735830304358
 20
7.318878814314325
 30
0.0
 10
6.491711185659889
 20
7.340689715000083
 30
0.0
 10
6.491633731836325
 20
7.411245134606327
 30
0.0
 10
6.491580724127041
 20
7.465113141249448
 30
0.0
 10
6.491424266800999
 20
7.646848300675772
 30
0.0
 10
6.491322584154682
 20
7.794853592050083
 30
0.0
 10
6.491237432397221
 20
7.968273257478225
 30
0.0
  0
SPLINE
  5
349
330
1F
100
AcDbEntity
  8
0
  6
Continuous
100
AcDbSpline
210
0.0
220
0.0
230
1.0
 70
     8
 71
     3
 72
    14
 73
    10
 74
     0
 42
0.0000000001
 43
0.0000000001
 40
0.0
 40
0.0
 40
0.0
 40
0.0
 40
0.5000000000000002
 40
0.5000000000000002
 40
0.7500000000000001
 40
0.7500000000000001
 40
0.875
 40
0.875
 40
1.0
 40
1.0
 40
1.0
 40
1.0
 10
5.83571604728443
 20
7.273751567522859
 30
0.0
 10
5.950046962019237
 20
7.263257381432874
 30
0.0
 10
6.062619837796285
 20
7.25571097929423
 30
0.0
 10
6.227199520702351
 20
7.248379996951891
 30
0.0
 10
6.281355077558467
 20
7.246600610591842
 30
0.0
 10
6.361300581147057
 20
7.244846837163409
 30
0.0
 10
6.387735029053738
 20
7.244413281038022
 30
0.0
 10
6.440200384285938
 20
7.243842688463034
 30
0.0
 10
6.466258881568757
 20
7.243715099240583
 30
0.0
 10
6.491830539902617
 20
7.243704101497103
 30
0.0
  0
SPLINE
  5
34A
330
1F
100
AcDbEntity
  8
0
  6
Continuous
100
AcDbSpline
210
0.0
220
0.0
230
1.0
 70
     8
 71
     3
 72
    16
 73
    12
 74
     0
 42
0.0000000001
 43
0.0000000001
 40
0.0
 40
0.0
 40
0.0
 40
0.0
 40
0.125
 40
0.125
 40
0.25
 40
0.25
 40
0.5
 40
0.5
 40
0.75
 40
0.75
 40
1.0
 40
1.0
 40
1.0
 40
1.0
 10
10.57912559367809
 20
8.371848134288073
 30
0.0
 10
10.5435436604044
 20
8.340233340218917
 30
0.0
 10
10.50972874726853
 20
8.311298715389847
 30
0.0
 10
10.44543994586741
 20
8.257857844837831
 30
0.0
 10
10.41496350913737
 20
8.233352423881706
 30
0.0
 10
10.32807995369765
 20
8.165279024999842
 30
0.0
 10
10.27625308029304
 20
8.127119747248871
 30
0.0
 10
10.18135296756021
 20
8.059887743513643
 30
0.0
 10
10.13820533473915
 20
8.030792984553835
 30
0.0
 10
10.05627822488787
 20
7.977442430537289
 30
0.0
 10
10.01737101525165
 20
7.953117461047122
 30
0.0
 10
9.978149717590577
 20
7.929469447646591
 30
0.0
  0
SPLINE
  5
34B
330
1F
100
AcDbEntity
  8
0
  6
Continuous
100
AcDbSpline
210
0.0
220
0.0
230
1.0
 70
     8
 71
     3
 72
    32
 73
    28
 74
     0
 42
0.0000000001
 43
0.0000000001
 40
0.0
 40
0.0
 40
0.0
 40
0.0
 40
0.2499999999999985
 40
0.2499999999999985
 40
0.3749999999999978
 40
0.3749999999999978
 40
0.4062499999999977
 40
0.4062499999999977
 40
0.4218749999999977
 40
0.4218749999999977
 40
0.4296874999999977
 40
0.4296874999999977
 40
0.4374999999999976
 40
0.4374999999999976
 40
0.4531249999999976
 40
0.4531249999999976
 40
0.4687499999999976
 40
0.4687499999999976
 40
0.4999999999999978
 40
0.4999999999999978
 40
0.6249999999999984
 40
0.6249999999999984
 40
0.749999999999999
 40
0.749999999999999
 40
0.8749999999999996
 40
0.8749999999999996
 40
1.0
 40
1.0
 40
1.0
 40
1.0
 10
9.978149717590577
 20
7.929469447646591
 30
0.0
 10
9.960519303466066
 20
7.931813634049818
 30
0.0
 10
9.935187440801835
 20
7.934920883812063
 30
0.0
 10
9.886952891171199
 20
7.94013841666125
 30
0.0
 10
9.869170676543101
 20
7.941970768829941
 30
0.0
 10
9.844962703863822
 20
7.944310405511609
 30
0.0
 10
9.840021415733483
 20
7.944780541695388
 30
0.0
 10
9.832462164450356
 20
7.945488116014738
 30
0.0
 10
9.829917310296275
 20
7.945724208263984
 30
0.0
 10
9.826062042445707
 20
7.946078577831764
 30
0.0
 10
9.824772180813704
 20
7.946197180865739
 30
0.0
 10
9.82218237042303
 20
7.946434470721522
 30
0.0
 10
9.820937775833096
 20
7.946565280177148
 30
0.0
 10
9.816652265736616
 20
7.946838389309684
 30
0.0
 10
9.813635500721796
 20
7.947015897667322
 30
0.0
 10
9.807385764572879
 20
7.94738368497577
 30
0.0
 10
9.804136643839195
 20
7.947570426438398
 30
0.0
 10
9.794020217594587
 20
7.94813870759672
 30
0.0
 10
9.786783664745181
 20
7.948528254785687
 30
0.0
 10
9.748173676302736
 20
7.950517128771062
 30
0.0
 10
9.709520975977619
 20
7.952240832466452
 30
0.0
 10
9.617833005027913
 20
7.955706198844902
 30
0.0
 10
9.56480634024164
 20
7.957448701346018
 30
0.0
 10
9.445753836617251
 20
7.960739600378454
 30
0.0
 10
9.379733284601053
 20
7.962290231069895
 30
0.0
 10
9.236279274612792
 20
7.965005024500934
 30
0.0
 10
9.158829066997279
 20
7.966159611573127
 30
0.0
 10
9.076381197927029
 20
7.967127058177654
 30
0.0
  0
ARC
  5
34C
330
1F
100
AcDbEntity
  8
0
  6
Continuous
100
AcDbCircle
 10
11.49212323765722
 20
9.631760334373185
 30
0.0
 40
0.1180405839305832
100
AcDbArc
 50
1.967646635920562
 51
67.42422299092824
  0
ARC
  5
34D
330
1F
100
AcDbEntity
  8
0
  6
Continuous
100
AcDbCircle
 10
11.53882487667747
 20
9.631691634779508
 30
0.0
 40
0.1181087051507308
100
AcDbArc
 50
1.999858188895468
 51
101.5589262837836
  0
SPLINE
  5
34E
330
1F
100
AcDbEntity
  8
0
  6
Continuous
100
AcDbSpline
210
0.0
220
0.0
230
1.0
 70
     8
 71
     3
 72
    12
 73
     8
 74
     0
 42
0.0000000001
 43
0.0000000001
 40
0.0
 40
0.0
 40
0.0
 40
0.0
 40
0.5
 40
0.5
 40
0.75
 40
0.75
 40
1.0
 40
1.0
 40
1.0
 40
1.0
 10
6.491669420779581
 20
7.179813134441795
 30
0.0
 10
6.491438919976312
 20
7.188443576649264
 30
0.0
 10
6.491346884743885
 20
7.198086105442664
 30
0.0
 10
6.491391551397734
 20
7.214061138821444
 30
0.0
 10
6.491438329124301
 20
7.21963803884436
 30
0.0
 10
6.491619673327159
 20
7.231294709427013
 30
0.0
 10
6.491790723710389
 20
7.237374525278264
 30
0.0
 10
6.4918305376711
 20
7.243705442531473
 30
0.0
  0
SPLINE
  5
34F
330
1F
100
AcDbEntity
  8
0
  6
Continuous
100
AcDbSpline
210
0.0
220
0.0
230
1.0
 70
     8
 71
     3
 72
    20
 73
    16
 74
     0
 42
0.0000000001
 43
0.0000000001
 40
0.0
 40
0.0
 40
0.0
 40
0.0
 40
0.25
 40
0.25
 40
0.5
 40
0.5
 40
0.625
 40
0.625
 40
0.75
 40
0.75
 40
0.8749999999999998
 40
0.8749999999999998
 40
0.9374999999999998
 40
0.9374999999999998
 40
1.0
 40
1.0
 40
1.0
 40
1.0
 10
9.076381119036534
 20
7.967127214079527
 30
0.0
 10
8.917149142884904
 20
7.871337815555444
 30
0.0
 10
8.755955633396334
 20
7.783263910530488
 30
0.0
 10
8.430528468548653
 20
7.622902984579292
 30
0.0
 10
8.266282390890248
 20
7.550609617748564
 30
0.0
 10
8.01849225305437
 20
7.454214570847861
 30
0.0
 10
7.935714225149903
 20
7.424087051459951
 30
0.0
 10
7.769630447687001
 20
7.367884214203188
 30
0.0
 10
7.686303414143788
 20
7.341809603009808
 30
0.0
 10
7.519188077413028
 20
7.29374349866879
 30
0.0
 10
7.435388615168017
 20
7.271753041318428
 30
0.0
 10
7.309486187583226
 20
7.241845237596026
 30
0.0
 10
7.26754954177664
 20
7.232387597624148
 30
0.0
 10
7.183530052924377
 20
7.214503782666854
 30
0.0
 10
7.141476249281106
 20
7.206076791127623
 30
0.0
 10
7.099404558785019
 20
7.198165922485197
 30
0.0
  0
SPLINE
  5
350
330
1F
100
AcDbEntity
  8
0
  6
Continuous
100
AcDbSpline
210
0.0
220
0.0
230
1.0
 70
     8
 71
     3
 72
    13
 73
     9
 74
     0
 42
0.0000000001
 43
0.0000000001
 40
0.0
 40
0.0
 40
0.0
 40
0.0
 40
0.1606608518545155
 40
0.5445380481053316
 40
0.7375099650493324
 40
0.8327700100067021
 40
0.9307706300751748
 40
1.0
 40
1.0
 40
1.0
 40
1.0
 10
7.099404566944793
 20
7.198165922408529
 30
0.0
 10
7.083921284019632
 20
7.197009010283247
 30
0.0
 10
7.031442807993864
 20
7.193087814402227
 30
0.0
 10
6.960332487124825
 20
7.188252184067616
 30
0.0
 10
6.895494579336892
 20
7.184392049531753
 30
0.0
 10
6.858224430516338
 20
7.182370191493612
 30
0.0
 10
6.832890582331339
 20
7.181069584214734
 30
0.0
 10
6.816748011225721
 20
7.180293586844927
 30
0.0
 10
6.810065358032639
 20
7.179972341780109
 30
0.0
  0
SPLINE
  5
351
330
1F
100
AcDbEntity
  8
0
  6
Continuous
100
AcDbSpline
210
0.0
220
0.0
230
1.0
 70
     8
 71
     3
 72
    14
 73
    10
 74
     0
 42
0.0000000001
 43
0.0000000001
 40
0.0
 40
0.0
 40
0.0
 40
0.0
 40
0.4999999999999997
 40
0.4999999999999997
 40
0.6249999999999997
 40
0.6249999999999997
 40
0.7499999999999997
 40
0.7499999999999997
 40
1.0
 40
1.0
 40
1.0
 40
1.0
 10
6.491667196496715
 20
7.179813141354495
 30
0.0
 10
6.546740946870267
 20
7.179742363615497
 30
0.0
 10
6.600980016750066
 20
7.179790671637912
 30
0.0
 10
6.667729869312831
 20
7.179868942664315
 30
0.0
 10
6.681026964723182
 20
7.17988534209166
 30
0.0
 10
6.707513196171413
 20
7.179916339549771
 30
0.0
 10
6.720710672377856
 20
7.179930968136085
 30
0.0
 10
6.759765310921588
 20
7.179967032876065
 30
0.0
 10
6.785210615114772
 20
7.179980566030943
 30
0.0
 10
6.810065358032625
 20
7.179972341780109
 30
0.0
  0
SPLINE
  5
352
330
1F
100
AcDbEntity
  8
0
  6
Continuous
100
AcDbSpline
210
0.0
220
0.0
230
1.0
 70
     8
 71
     3
 72
    61
 73
    57
 74
     0
 42
0.0000000001
 43
0.0000000001
 40
0.0
 40
0.0
 40
0.0
 40
0.0
 40
0.0095576482589241
 40
0.0190458180123369
 40
0.02846444943957
 40
0.0378134830613777
 40
0.0470928598077767
 40
0.0563025210804682
 40
0.065442408810128
 40
0.0745124655088839
 40
0.083512634318243
 40
0.092442858988992
 40
0.101303083889644
 40
0.1100932542396595
 40
0.1188133160403328
 40
0.1274632161005697
 40
0.1360428591748173
 40
0.1445518924586463
 40
0.1529902109452183
 40
0.193317699806728
 40
0.2322101634158828
 40
0.269662714296716
 40
0.3056688982974056
 40
0.3447452308385611
 40
0.3821968353728507
 40
0.4211753252419073
 40
0.4583967686048202
 40
0.4973091927230313
 40
0.5343020777633454
 40
0.5475093999139475
 40
0.5604598635862272
 40
0.5729325343986106
 40
0.5851789249189281
 40
0.5972109564161174
 40
0.6090289575034309
 40
0.6472224762899824
 40
0.6832455563392131
 40
0.7214638632517837
 40
0.7573297033218108
 40
0.7621043862743049
 40
0.7668284213535262
 40
0.7715250666145749
 40
0.7761832284349691
 40
0.780800806927899
 40
0.7853775796893836
 40
0.7899132714837672
 40
0.794407665297457
 40
0.8131914497239613
 40
0.8314372010624568
 40
0.8684263818307309
 40
0.905248749191575
 40
0.9419902032657079
 40
0.9605581194508166
 40
0.9786897304112516
 40
0.9893953114809093
 40
1.0
 40
1.0
 40
1.0
 40
1.0
 10
9.978149696779036
 20
7.929469484017056
 30
0.0
 10
9.969953619451993
 20
7.9245493198383
 30
0.0
 10
9.953621045480142
 20
7.914744758192918
 30
0.0
 10
9.929088885196685
 20
7.900297586133442
 30
0.0
 10
9.904649538363964
 20
7.886105346586527
 30
0.0
 10
9.880297478759368
 20
7.872179765867175
 30
0.0
 10
9.856038314375803
 20
7.858513993463391
 30
0.0
 10
9.831874622611445
 20
7.845106098750358
 30
0.0
 10
9.807809704885267
 20
7.831952845247288
 30
0.0
 10
9.783846592880758
 20
7.819051340832524
 30
0.0
 10
9.759988312951259
 20
7.806398601212167
 30
0.0
 10
9.73623781723017
 20
7.793991666151486
 30
0.0
 10
9.712598002954218
 20
7.78182756924175
 30
0.0
 10
9.689071707990814
 20
7.769903346363017
 30
0.0
 10
9.665661713583
 20
7.758216035587219
 30
0.0
 10
9.642370780914442
 20
7.746762690551465
 30
0.0
 10
9.61920189419022
 20
7.735540517023723
 30
0.0
 10
9.596158013896323
 20
7.724546659077832
 30
0.0
 10
9.544311191112948
 20
7.700183148400144
 30
0.0
 10
9.464332129204843
 20
7.664231111530982
 30
0.0
 10
9.356622680232243
 20
7.619292160358591
 30
0.0
 10
9.251810954471347
 20
7.578732637965616
 30
0.0
 10
9.145849594832251
 20
7.540734347651943
 30
0.0
 10
9.038962322221715
 20
7.505418803492888
 30
0.0
 10
8.928370489483066
 20
7.471960844220484
 30
0.0
 10
8.81876712855678
 20
7.441759280687586
 30
0.0
 10
8.707045294911006
 20
7.413878353212838
 30
0.0
 10
8.596633274678419
 20
7.389078614510106
 30
0.0
 10
8.509239101534612
 20
7.371520756077908
 30
0.0
 10
8.447140794516991
 20
7.359959359054025
 30
0.0
 10
8.409101724737633
 20
7.353174207638028
 30
0.0
 10
8.371971237226185
 20
7.346773116738555
 30
0.0
 10
8.33572915615043
 20
7.3406272368184
 30
0.0
 10
8.300110869447914
 20
7.334720590738628
 30
0.0
 10
8.238856187544252
 20
7.324769472228547
 30
0.0
 10
8.153819664226469
 20
7.311562720487403
 30
0.0
 10
8.04252376215245
 20
7.295409637996018
 30
0.0
 10
7.933384819764166
 20
7.280640173927006
 30
0.0
 10
7.855128166939758
 20
7.270763662512573
 30
0.0
 10
7.810084321839577
 20
7.265295328853023
 30
0.0
 10
7.79598812211544
 20
7.263594193177974
 30
0.0
 10
7.7820036009961
 20
7.261940268848066
 30
0.0
 10
7.768123047574684
 20
7.260314484843911
 30
0.0
 10
7.754359443345217
 20
7.258720685423741
 30
0.0
 10
7.740715585490614
 20
7.257157751582022
 30
0.0
 10
7.727192251401271
 20
7.255625291596823
 30
0.0
 10
7.699545402824222
 20
7.252525630095187
 30
0.0
 10
7.658256660169252
 20
7.248023969337589
 30
0.0
 10
7.584623099407133
 20
7.240318700052116
 30
0.0
 10
7.49298357369758
 20
7.231328569328342
 30
0.0
 10
7.382856338938148
 20
7.221345961216906
 30
0.0
 10
7.291039455094926
 20
7.213483509454002
 30
0.0
 10
7.217828975509954
 20
7.20746273901893
 30
0.0
 10
7.170564828806982
 20
7.203673164895429
 30
0.0
 10
7.131234603346195
 20
7.200589950106044
 30
0.0
 10
7.109981037715892
 20
7.198971377286676
 30
0.0
 10
7.099404566944793
 20
7.198165922408529
 30
0.0
  0
ARC
  5
353
330
1F
100
AcDbEntity
  8
0
  6
Continuous
100
AcDbCircle
 10
11.53882709161552
 20
9.631695156760715
 30
0.0
 40
0.1181063687052734
100
AcDbArc
 50
1.998188142750941
 51
89.99834793552365
  0
LINE
  5
354
330
1F
100
AcDbEntity
  8
0
  6
Continuous
100
AcDbLine
 10
11.53883049709038
 20
9.749801525416893
 30
0.0
 11
11.54627711806743
 21
9.749801525416893
 31
0.0
  0
SPLINE
  5
355
330
1F
100
AcDbEntity
  8
0
  6
Continuous
100
AcDbSpline
210
0.0
220
0.0
230
1.0
 70
     8
 71
     3
 72
    30
 73
    26
 74
     0
 42
0.0000000001
 43
0.0000000001
 40
0.0
 40
0.0
 40
0.0
 40
0.0
 40
0.0624999999999999
 40
0.0624999999999999
 40
0.1249999999999997
 40
0.1249999999999997
 40
0.2499999999999995
 40
0.2499999999999995
 40
0.3124999999999993
 40
0.3124999999999993
 40
0.3749999999999992
 40
0.3749999999999992
 40
0.4999999999999992
 40
0.4999999999999992
 40
0.6249999999999991
 40
0.6249999999999991
 40
0.6874999999999992
 40
0.6874999999999992
 40
0.7499999999999992
 40
0.7499999999999992
 40
0.8749999999999996
 40
0.8749999999999996
 40
0.9374999999999998
 40
0.9374999999999998
 40
1.0
 40
1.0
 40
1.0
 40
1.0
 10
6.491078308446867
 20
7.179813868571494
 30
0.0
 10
6.472987513930016
 20
7.179837348798999
 30
0.0
 10
6.454864013708808
 20
7.179862515160303
 30
0.0
 10
6.418549957023055
 20
7.179909679380992
 30
0.0
 10
6.400309555925412
 20
7.179930463194255
 30
0.0
 10
6.346268276124186
 20
7.179985222668891
 30
0.0
 10
6.310925559127747
 20
7.180012098667626
 30
0.0
 10
6.258911763559675
 20
7.180057098599272
 30
0.0
 10
6.241741235735512
 20
7.180072740683835
 30
0.0
 10
6.207738581751636
 20
7.180107320123804
 30
0.0
 10
6.190866927748496
 20
7.180126318862265
 30
0.0
 10
6.141036161618965
 20
7.180189295539046
 30
0.0
 10
6.109314023917869
 20
7.180236210914104
 30
0.0
 10
6.048727091501612
 20
7.18035783147682
 30
0.0
 10
6.019862029252402
 20
7.180433683270296
 30
0.0
 10
5.978738006655953
 20
7.180578827383095
 30
0.0
 10
5.965391441823181
 20
7.180632579995782
 30
0.0
 10
5.93945740159655
 20
7.180749878594484
 30
0.0
 10
5.927017053322922
 20
7.180812635449983
 30
0.0
 10
5.89123435233146
 20
7.18101933336039
 30
0.0
 10
5.869425119355662
 20
7.181179158708276
 30
0.0
 10
5.839769257480137
 20
7.181461876946267
 30
0.0
 10
5.830393765751916
 20
7.18156522459939
 30
0.0
 10
5.81268645983915
 20
7.181789145344874
 30
0.0
 10
5.804437342323632
 20
7.181908009596059
 30
0.0
 10
5.796799345467201
 20
7.182035183633709
 30
0.0
  0
SPLINE
  5
356
330
1F
100
AcDbEntity
  8
0
  6
Continuous
100
AcDbSpline
210
0.0
220
0.0
230
1.0
 70
    24
 71
     3
 72
     8
 73
     4
 74
     0
 42
0.0000000001
 43
0.0000000001
 40
0.0
 40
0.0
 40
0.0
 40
0.0
 40
1.0
 40
1.0
 40
1.0
 40
1.0
 10
6.491667196402639
 20
7.179813104519604
 30
0.0
 10
6.491470904279561
 20
7.179813359108239
 30
0.0
 10
6.491274608294441
 20
7.179813613791909
 30
0.0
 10
6.491078308446867
 20
7.179813868571494
 30
0.0
  0
SPLINE
  5
357
330
1F
100
AcDbEntity
  8
0
  6
Continuous
100
AcDbSpline
210
0.0
220
0.0
230
1.0
 70
     8
 71
     3
 72
     8
 73
     4
 74
     0
 42
0.0000000001
 43
0.0000000001
 40
0.0
 40
0.0
 40
0.0
 40
0.0
 40
1.0
 40
1.0
 40
1.0
 40
1.0
 10
4.801778788333153
 20
8.20995984112571
 30
0.0
 10
4.795130068596707
 20
8.263884740812814
 30
0.0
 10
4.788806242736571
 20
8.317847714093113
 30
0.0
 10
4.782807383668144
 20
8.371848769511382
 30
0.0
  0
SPLINE
  5
358
330
1F
100
AcDbEntity
  8
0
  6
Continuous
100
AcDbSpline
210
0.0
220
0.0
230
1.0
 70
     8
 71
     3
 72
    28
 73
    24
 74
     0
 42
0.0000000001
 43
0.0000000001
 40
0.0
 40
0.0
 40
0.0
 40
0.0
 40
0.0625
 40
0.0625
 40
0.1249999999999999
 40
0.1249999999999999
 40
0.2499999999999998
 40
0.2499999999999998
 40
0.3124999999999997
 40
0.3124999999999997
 40
0.3749999999999996
 40
0.3749999999999996
 40
0.4999999999999999
 40
0.4999999999999999
 40
0.625
 40
0.625
 40
0.75
 40
0.75
 40
0.8750000000000001
 40
0.8750000000000001
 40
0.9375
 40
0.9375
 40
1.0
 40
1.0
 40
1.0
 40
1.0
 10
7.248401848827265
 20
7.175621231743102
 30
0.0
 10
7.248401849152765
 20
7.175621232031078
 30
0.0
 10
7.247786154749983
 20
7.175651912012144
 30
0.0
 10
7.245313150543632
 20
7.175763596101313
 30
0.0
 10
7.243462747401602
 20
7.175844291145297
 30
0.0
 10
7.236088573228196
 20
7.176141907705138
 30
0.0
 10
7.228750668982494
 20
7.176414178933926
 30
0.0
 10
7.214026507148355
 20
7.176861028090181
 30
0.0
 10
7.208496780155877
 20
7.177016470909459
 30
0.0
 10
7.196151533781184
 20
7.177328757372601
 30
0.0
 10
7.189357601844628
 20
7.177484909693058
 30
0.0
 10
7.167352211217243
 20
7.177932413117689
 30
0.0
 10
7.150444876342101
 20
7.178202633448572
 30
0.0
 10
7.112287153328916
 20
7.178736963506205
 30
0.0
 10
7.091025728458044
 20
7.178988985966698
 30
0.0
 10
7.04389318059311
 20
7.179408648623757
 30
0.0
 10
7.018241064415414
 20
7.17956521680283
 30
0.0
 10
6.96396074692006
 20
7.179769899679778
 30
0.0
 10
6.935259665233283
 20
7.179827592488445
 30
0.0
 10
6.889902310392537
 20
7.179893035310742
 30
0.0
 10
6.874397356341697
 20
7.179911202143324
 30
0.0
 10
6.842603767501794
 20
7.179947796824132
 30
0.0
 10
6.826424308572905
 20
7.179966928724207
 30
0.0
 10
6.810065358032625
 20
7.179972341780109
 30
0.0
  0
LINE
  5
359
330
1F
100
AcDbEntity
  8
0
  6
Continuous
100
AcDbLine
 10
7.141524884076554
 20
7.081064480829093
 30
0.0
 11
5.842312285651354
 21
7.081064480829093
 31
0.0
  0
SPLINE
  5
35A
330
1F
100
AcDbEntity
  8
0
  6
Continuous
100
AcDbSpline
210
0.0
220
0.0
230
1.0
 70
     8
 71
     3
 72
    17
 73
    13
 74
     0
 42
0.0000000001
 43
0.0000000001
 40
0.0
 40
0.0
 40
0.0
 40
0.0
 40
0.0078125
 40
0.0078125
 40
0.015625
 40
0.03125
 40
0.0625
 40
0.125
 40
0.2500000000000001
 40
0.5000000000000001
 40
0.5000000000000001
 40
1.0
 40
1.0
 40
1.0
 40
1.0
 10
10.00731988910849
 20
7.92503604867649
 30
0.0
 10
10.00732221881922
 20
7.925037521147176
 30
0.0
 10
10.00732391589431
 20
7.925039084553235
 30
0.0
 10
10.0073260457961
 20
7.925042392545707
 30
0.0
 10
10.00732734425228
 20
7.925047626343202
 30
0.0
 10
10.00731710944616
 20
7.925061734761309
 30
0.0
 10
10.00724366360618
 20
7.925097485207894
 30
0.0
 10
10.00688552263703
 20
7.925198713418724
 30
0.0
 10
10.00532949396193
 20
7.925516869168257
 30
0.0
 10
10.00257418972968
 20
7.925977125494513
 30
0.0
 10
9.995216500958898
 20
7.927120614348924
 30
0.0
 10
9.987848288681925
 20
7.928179959062257
 30
0.0
 10
9.978149750864625
 20
7.929469509966432
 30
0.0
  0
SPLINE
  5
35B
330
1F
100
AcDbEntity
  8
0
  6
Continuous
100
AcDbSpline
210
0.0
220
0.0
230
1.0
 70
     8
 71
     3
 72
    28
 73
    24
 74
     0
 42
0.0000000001
 43
0.0000000001
 40
0.0
 40
0.0
 40
0.0
 40
0.0
 40
0.1249999999999999
 40
0.1249999999999999
 40
0.2499999999999998
 40
0.2499999999999998
 40
0.3124999999999998
 40
0.3124999999999998
 40
0.3749999999999996
 40
0.3749999999999996
 40
0.4999999999999992
 40
0.4999999999999992
 40
0.562499999999999
 40
0.562499999999999
 40
0.5937499999999991
 40
0.5937499999999991
 40
0.6249999999999992
 40
0.6249999999999992
 40
0.6874999999999992
 40
0.6874999999999992
 40
0.7499999999999993
 40
0.7499999999999993
 40
1.0
 40
1.0
 40
1.0
 40
1.0
 10
10.00731988909543
 20
7.925036048668184
 30
0.0
 10
9.905063052259217
 20
7.860445823403098
 30
0.0
 10
9.800602946589714
 20
7.800418021779195
 30
0.0
 10
9.58735424861471
 20
7.689325641475571
 30
0.0
 10
9.478564318856379
 20
7.638263832329167
 30
0.0
 10
9.312125450585265
 20
7.568409291459611
 30
0.0
 10
9.256102391873136
 20
7.546249765667491
 30
0.0
 10
9.142959022524076
 20
7.504202850849546
 30
0.0
 10
9.08578246848746
 20
7.484299831830663
 30
0.0
 10
8.913593956346597
 20
7.42835174130179
 30
0.0
 10
8.797638885270666
 20
7.395946930273973
 30
0.0
 10
8.621978582312886
 20
7.354611568178571
 30
0.0
 10
8.563136850493743
 20
7.342046555075691
 30
0.0
 10
8.474440703733558
 20
7.325023838410212
 30
0.0
 10
8.444803459063146
 20
7.319652067625264
 30
0.0
 10
8.385494371905204
 20
7.30905414787791
 30
0.0
 10
8.355808236330981
 20
7.303888158356345
 30
0.0
 10
8.266655570906431
 20
7.288786923605821
 30
0.0
 10
8.207072383581555
 20
7.279244890931488
 30
0.0
 10
8.087784910056962
 20
7.261239595144397
 30
0.0
 10
8.028082819902744
 20
7.252776573291003
 30
0.0
 10
7.729280833486564
 20
7.213157455130501
 30
0.0
 10
7.489308112078555
 20
7.190072854955809
 30
0.0
 10
7.248401848827265
 20
7.175621231743102
 30
0.0
  0
SPLINE
  5
35C
330
1F
100
AcDbEntity
  8
0
  6
Continuous
100
AcDbSpline
210
0.0
220
0.0
230
1.0
 70
     8
 71
     3
 72
    12
 73
     8
 74
     0
 42
0.0000000001
 43
0.0000000001
 40
0.0
 40
0.0
 40
0.0
 40
0.0
 40
0.2499999999999996
 40
0.2499999999999996
 40
0.4999999999999992
 40
0.4999999999999992
 40
1.0
 40
1.0
 40
1.0
 40
1.0
 10
10.00731993147934
 20
7.925035981561658
 30
0.0
 10
10.05952320612077
 20
7.958010023914292
 30
0.0
 10
10.11099370308582
 20
7.992076772547273
 30
0.0
 10
10.21247232280698
 20
8.06239093870363
 30
0.0
 10
10.26247375252993
 20
8.098635515089222
 30
0.0
 10
10.41001334084617
 20
8.210446001318908
 30
0.0
 10
10.50524487454098
 20
8.289214641661923
 30
0.0
 10
10.59691119352843
 20
8.371848769511375
 30
0.0
  0
LWPOLYLINE
  5
35D
330
1F
100
AcDbEntity
  8
0
  6
Continuous
100
AcDbPolyline
 90
        3
 70
   128
 43
0.0
 10
11.54254118408826
 20
9.749742434240795
 10
11.5318157134017
 20
9.748912891274118
 10
11.51919235348
 20
9.746654148447186
  0
LINE
  5
35E
330
1F
100
AcDbEntity
  8
0
  6
Continuous
100
AcDbLine
 10
5.842312285651354
 20
6.46239995061788
 30
0.0
 11
7.141524884076554
 21
6.46239995061788
 31
0.0
  0
LWPOLYLINE
  5
35F
330
1F
100
AcDbEntity
  8
0
  6
Continuous
100
AcDbPolyline
 90
        8
 70
   128
 43
0.0
 10
6.45418196918562
 20
9.635814265734724
 10
6.454213995334507
 20
9.665574632054111
 10
6.454289645165127
 20
9.693125622819708
 10
6.454403985903065
 20
9.71667076577267
 10
6.454549561919401
 20
9.734674791401106
 10
6.454716880877635
 20
9.745963740740551
 10
6.454895032684953
 20
9.749801513790389
 10
6.454896668248347
 20
9.749801074065667
  0
SPLINE
  5
360
330
1F
100
AcDbEntity
  8
0
  6
Continuous
100
AcDbSpline
210
0.0
220
0.0
230
1.0
 70
     8
 71
     3
 72
    13
 73
     9
 74
     0
 42
0.0000000001
 43
0.0000000001
 40
0.0
 40
0.0
 40
0.0
 40
0.0
 40
0.1872179759621483
 40
0.3744359519242889
 40
0.5616539278864509
 40
0.7488719038486479
 40
0.9360898798108992
 40
1.0
 40
1.0
 40
1.0
 40
1.0
 10
6.490783221106861
 20
9.635810122139718
 30
0.0
 10
6.49079165304523
 20
9.647113360381917
 30
0.0
 10
6.490808516921953
 20
9.669719836866322
 30
0.0
 10
6.490901282360136
 20
9.700360096395806
 30
0.0
 10
6.491035284227118
 20
9.725542328612087
 30
0.0
 10
6.491204278453489
 20
9.742320151080059
 30
0.0
 10
6.491352137066167
 20
9.750232907626406
 30
0.0
 10
6.491437588153539
 20
9.74900990958738
 30
0.0
 10
6.491459334781447
 20
9.748698666230447
 30
0.0
  0
LWPOLYLINE
  5
361
330
1F
100
AcDbEntity
  8
0
  6
Continuous
100
AcDbPolyline
 90
        8
 70
   128
 43
0.0
 10
6.58705695967553
 20
9.63581327699592
 10
6.58707631446334
 20
9.665574020542289
 10
6.587131761873544
 20
9.693125377378544
 10
6.587219686354353
 20
9.716670809881472
 10
6.587334354625932
 20
9.73467499419762
 10
6.587468289529718
 20
9.745963933899448
 10
6.587612757590429
 20
9.7498015126127
 10
6.587616130908211
 20
9.74979915599537
  0
LINE
  5
362
330
1F
100
AcDbEntity
  8
0
  6
Continuous
100
AcDbLine
 10
4.801777338869877
 20
8.209959662412808
 30
0.0
 11
4.80908319649499
 21
8.165158815004433
 31
0.0
  0
LINE
  5
363
330
1F
100
AcDbEntity
  8
0
  6
Continuous
100
AcDbLine
 10
2.774299856628632
 20
9.635813276995927
 30
0.0
 11
2.697474520910242
 21
9.635813276996261
 31
0.0
  0
LINE
  5
364
330
1F
100
AcDbEntity
  8
0
  6
Continuous
100
AcDbLine
 10
11.66431540472322
 20
9.635813276996126
 30
0.0
 11
11.65686164339792
 21
9.635813276996126
 31
0.0
  0
LINE
  5
365
330
1F
100
AcDbEntity
  8
0
  6
Continuous
100
AcDbLine
 10
11.53849613533651
 20
9.749158073141005
 30
0.0
 11
11.54376108101091
 21
9.749801525416893
 31
0.0
  0
SPLINE
  5
366
330
1F
100
AcDbEntity
  8
0
  6
Continuous
100
AcDbSpline
210
0.0
220
0.0
230
1.0
 70
     8
 71
     3
 72
    12
 73
     8
 74
     0
 42
0.0000000001
 43
0.0000000001
 40
0.0
 40
0.0
 40
0.0
 40
0.0
 40
0.081813930225799
 40
0.2830941705146073
 40
0.5881432110402792
 40
0.9141647731863608
 40
1.0
 40
1.0
 40
1.0
 40
1.0
 10
31.00628051737468
 20
9.748619306799206
 30
0.0
 10
30.94369204644886
 20
9.748005097429512
 30
0.0
 10
30.72712218833765
 20
9.745879798087962
 30
0.0
 10
30.27710004240168
 20
9.74560680646902
 30
0.0
 10
29.64016490236883
 20
9.74576049034411
 30
0.0
 10
29.09151841713787
 20
9.748895113998791
 30
0.0
 10
28.77629725132372
 20
9.749270445620659
 30
0.0
 10
28.71060189072894
 20
9.749348668623795
 30
0.0
  0
SPLINE
  5
367
330
1F
100
AcDbEntity
  8
0
  6
Continuous
100
AcDbSpline
210
0.0
220
0.0
230
1.0
 70
     8
 71
     3
 72
    11
 73
     7
 74
     0
 42
0.0000000001
 43
0.0000000001
 40
0.0
 40
0.0
 40
0.0
 40
0.0
 40
0.3192092761423733
 40
0.6360592885149536
 40
0.9052987573666641
 40
1.0
 40
1.0
 40
1.0
 40
1.0
 10
26.00182420330974
 20
9.749545738696888
 30
0.0
 10
25.75752073591432
 20
9.748659130670745
 30
0.0
 10
25.27071943887443
 20
9.746892467505091
 30
0.0
 10
24.57794910929139
 20
9.745392972516135
 30
0.0
 10
24.05701696392585
 20
9.745236345789599
 30
0.0
 10
23.77860186343836
 20
9.748096382284991
 30
0.0
 10
23.70615529411539
 20
9.748840594189687
 30
0.0
  0
ARC
  5
368
330
1F
100
AcDbEntity
  8
0
  6
Continuous
100
AcDbCircle
 10
28.71021796871348
 20
9.631691289196446
 30
0.0
 40
0.118110236220474
100
AcDbArc
 50
89.81051724787613
 51
90.00000002726542
  0
ARC
  5
369
330
1F
100
AcDbEntity
  8
0
  6
Continuous
100
AcDbCircle
 10
26.0022133066039
 20
9.631691289196446
 30
0.0
 40
0.118110236220474
100
AcDbArc
 50
90.0000000007739
 51
90.18948275212471
  0
ARC
  5
36A
330
1F
100
AcDbEntity
  8
0
  6
Continuous
100
AcDbCircle
 10
31.00774629280953
 20
9.631691289196439
 30
0.0
 40
0.118110236220474
100
AcDbArc
 50
89.99999999789036
 51
90.71709196366896
  0
ARC
  5
36B
330
1F
100
AcDbEntity
  8
0
  6
Continuous
100
AcDbCircle
 10
23.70468498250785
 20
9.631691289196446
 30
0.0
 40
0.118110236220474
100
AcDbArc
 50
89.28290803633062
 51
90.00000000211125
  0
LINE
  5
36C
330
1F
100
AcDbEntity
  8
0
  6
Continuous
100
AcDbLine
 10
33.09950326783737
 20
9.749800337163932
 30
0.0
 11
33.09860370436853
 21
9.749800946608132
 31
0.0
  0
LINE
  5
36D
330
1F
100
AcDbEntity
  8
0
  6
Continuous
100
AcDbLine
 10
21.61382757094886
 20
9.749800946608132
 30
0.0
 11
21.61292800748
 21
9.749800337163939
 31
0.0
  0
LINE
  5
36E
330
1F
100
AcDbEntity
  8
0
  6
Continuous
100
AcDbLine
 10
21.49484243984669
 20
9.635813276996287
 30
0.0
 11
21.45070382663507
 21
8.371848769511409
 31
0.0
  0
LINE
  5
36F
330
1F
100
AcDbEntity
  8
0
  6
Continuous
100
AcDbLine
 10
33.26172744868231
 20
8.371848769511402
 30
0.0
 11
33.21758883547068
 21
9.63581327699628
 31
0.0
  0
ARC
  5
370
330
1F
100
AcDbEntity
  8
0
  6
Continuous
100
AcDbCircle
 10
33.09955054881479
 20
9.631691289196439
 30
0.0
 40
0.1181102362204746
100
AcDbArc
 50
2.000000000161705
 51
90.0
  0
ARC
  5
371
330
1F
100
AcDbEntity
  8
0
  6
Continuous
100
AcDbCircle
 10
21.61288072650258
 20
9.631691289196446
 30
0.0
 40
0.118110236220474
100
AcDbArc
 50
90.0
 51
177.9999999998391
  0
SPLINE
  5
372
330
1F
100
AcDbEntity
  8
0
  6
Continuous
100
AcDbSpline
210
0.0
220
0.0
230
1.0
 70
     8
 71
     3
 72
     9
 73
     5
 74
     0
 42
0.0000000001
 43
0.0000000001
 40
0.0
 40
0.0
 40
0.0
 40
0.0
 40
0.4999812651149913
 40
1.0
 40
1.0
 40
1.0
 40
1.0
 10
30.87179342228935
 20
7.968316756247837
 30
0.0
 10
30.99992710492305
 20
8.031352663253443
 30
0.0
 10
31.2562040728295
 20
8.157429201323559
 30
0.0
 10
31.50250810717019
 20
8.302187146366804
 30
0.0
 10
31.62566473881829
 20
8.374568830911883
 30
0.0
  0
SPLINE
  5
373
330
1F
100
AcDbEntity
  8
0
  6
Continuous
100
AcDbSpline
210
0.0
220
0.0
230
1.0
 70
     8
 71
     3
 72
     9
 73
     5
 74
     0
 42
0.0000000001
 43
0.0000000001
 40
0.0
 40
0.0
 40
0.0
 40
0.0
 40
0.500010982095019
 40
1.0
 40
1.0
 40
1.0
 40
1.0
 10
23.08647699090625
 20
8.374743870750371
 30
0.0
 10
23.20968085678502
 20
8.302328867682369
 30
0.0
 10
23.45608317651517
 20
8.15750204255027
 30
0.0
 10
23.71245483785571
 20
8.031377594941538
 30
0.0
 10
23.84063785302803
 20
7.968316756247844
 30
0.0
  0
SPLINE
  5
374
330
1F
100
AcDbEntity
  8
0
  6
Continuous
100
AcDbSpline
210
0.0
220
0.0
230
1.0
 70
     8
 71
     3
 72
    10
 73
     6
 74
     0
 42
0.0000000001
 43
0.0000000001
 40
0.0
 40
0.0
 40
0.0
 40
0.0
 40
0.2867379034990911
 40
0.6432414499129261
 40
1.0
 40
1.0
 40
1.0
 40
1.0
 10
29.92978629071012
 20
7.586592565257028
 30
0.0
 10
30.02174691138447
 20
7.618374487711058
 30
0.0
 10
30.22804291290926
 20
7.689671130501835
 30
0.0
 10
30.54267436178086
 20
7.816552124764271
 30
0.0
 10
30.76206772940773
 20
7.917720912196571
 30
0.0
 10
30.87180363170403
 20
7.968323390718111
 30
0.0
  0
LINE
  5
375
330
1F
100
AcDbEntity
  8
0
  6
Continuous
100
AcDbLine
 10
28.55052362195987
 20
7.241461224061119
 30
0.0
 11
28.56596910551377
 21
7.244160064390371
 31
0.0
  0
SPLINE
  5
376
330
1F
100
AcDbEntity
  8
0
  6
Continuous
100
AcDbSpline
210
0.0
220
0.0
230
1.0
 70
     8
 71
     3
 72
     9
 73
     5
 74
     0
 42
0.0000000001
 43
0.0000000001
 40
0.0
 40
0.0
 40
0.0
 40
0.0
 40
0.7784598035116787
 40
1.0
 40
1.0
 40
1.0
 40
1.0
 10
28.11673742220021
 20
7.180156784724466
 30
0.0
 10
28.22974271056302
 20
7.19319145437101
 30
0.0
 10
28.37490793020962
 20
7.209935632538908
 30
0.0
 10
28.51867372052508
 20
7.235743699774715
 30
0.0
 10
28.55052362195987
 20
7.241461224061119
 30
0.0
  0
SPLINE
  5
377
330
1F
100
AcDbEntity
  8
0
  6
Continuous
100
AcDbSpline
210
0.0
220
0.0
230
1.0
 70
     8
 71
     3
 72
    10
 73
     6
 74
     0
 42
0.0000000001
 43
0.0000000001
 40
0.0
 40
0.0
 40
0.0
 40
0.0
 40
0.2063419400100727
 40
0.6152049624981439
 40
1.0
 40
1.0
 40
1.0
 40
1.0
 10
25.72157801450804
 20
7.326173871444737
 30
0.0
 10
25.78108808084989
 20
7.312834175542747
 30
0.0
 10
25.9585163251046
 20
7.273062100526281
 30
0.0
 10
26.25004255667934
 20
7.22313368964609
 30
0.0
 10
26.48282628987326
 20
7.194190372390437
 30
0.0
 10
26.59568852848684
 20
7.180157572359448
 30
0.0
  0
SPLINE
  5
378
330
1F
100
AcDbEntity
  8
0
  6
Continuous
100
AcDbSpline
210
0.0
220
0.0
230
1.0
 70
     8
 71
     3
 72
    11
 73
     7
 74
     0
 42
0.0000000001
 43
0.0000000001
 40
0.0
 40
0.0
 40
0.0
 40
0.0
 40
0.3164576841098004
 40
0.6326764435083956
 40
0.9486646242596199
 40
1.0
 40
1.0
 40
1.0
 40
1.0
 10
23.84062764361334
 20
7.968323390718119
 30
0.0
 10
23.95027801377659
 20
7.91758388915327
 30
0.0
 10
24.16949596836475
 20
7.816143194212521
 30
0.0
 10
24.50668442789743
 20
7.682748087412392
 30
0.0
 10
24.75217016686373
 20
7.592437960769281
 30
0.0
 10
24.88658035764567
 20
7.551471133999939
 30
0.0
 10
24.90536488024212
 20
7.545745807083306
 30
0.0
  0
LINE
  5
379
330
1F
100
AcDbEntity
  8
0
  6
Continuous
100
AcDbLine
 10
26.5949946461766
 20
7.179812818975577
 30
0.0
 11
26.70660933844609
 21
7.08106448082912
 31
0.0
  0
LINE
  5
37A
330
1F
100
AcDbEntity
  8
0
  6
Continuous
100
AcDbLine
 10
28.00582193687129
 20
7.08106448082912
 30
0.0
 11
28.11743662914078
 21
7.179812818975577
 31
0.0
  0
LINE
  5
37B
330
1F
100
AcDbEntity
  8
0
  6
Continuous
100
AcDbLine
 10
28.00582193687129
 20
6.462399950617907
 30
0.0
 11
28.00582193687129
 21
7.08106448082912
 31
0.0
  0
LINE
  5
37C
330
1F
100
AcDbEntity
  8
0
  6
Continuous
100
AcDbLine
 10
26.70660933844609
 20
7.08106448082912
 30
0.0
 11
26.70660933844609
 21
6.462399950617907
 31
0.0
  0
SPLINE
  5
37D
330
1F
100
AcDbEntity
  8
0
  6
Continuous
100
AcDbSpline
210
0.0
220
0.0
230
1.0
 70
     8
 71
     3
 72
    16
 73
    12
 74
     0
 42
0.0000000001
 43
0.0000000001
 40
0.0
 40
0.0
 40
0.0
 40
0.0
 40
0.2499999999999998
 40
0.2499999999999998
 40
0.4999999999999996
 40
0.4999999999999996
 40
0.6249999999999997
 40
0.6249999999999997
 40
0.7499999999999999
 40
0.7499999999999999
 40
1.0
 40
1.0
 40
1.0
 40
1.0
 10
28.71151628222082
 20
9.635813276996145
 30
0.0
 10
28.90319517878411
 20
9.635179980966007
 30
0.0
 10
29.09486549732641
 20
9.634400995197204
 30
0.0
 10
29.4781893095675
 20
9.632918354109314
 30
0.0
 10
29.66984279011633
 20
9.632200067048792
 30
0.0
 10
29.95731082438801
 20
9.631659536853661
 30
0.0
 10
30.05313149235822
 20
9.63159218167663
 30
0.0
 10
30.24476870982781
 20
9.631573994204948
 30
0.0
 10
30.34058527783953
 20
9.631643747582856
 30
0.0
 10
30.62802906488476
 20
9.632318093237344
 30
0.0
 10
30.81965303253578
 20
9.633417524527835
 30
0.0
 10
31.01124763965168
 20
9.635813276995939
 30
0.0
  0
LINE
  5
37E
330
1F
100
AcDbEntity
  8
0
  6
Continuous
100
AcDbLine
 10
31.70671391022767
 20
9.635813276995946
 30
0.0
 11
31.01124763964963
 21
9.635813276995158
 31
0.0
  0
LINE
  5
37F
330
1F
100
AcDbEntity
  8
0
  6
Continuous
100
AcDbLine
 10
31.70827230950032
 20
8.371848769511402
 30
0.0
 11
31.70671391022767
 21
9.635813276995946
 31
0.0
  0
LINE
  5
380
330
1F
100
AcDbEntity
  8
0
  6
Continuous
100
AcDbLine
 10
23.0057173650897
 20
9.635813276995953
 30
0.0
 11
23.00415896581707
 21
8.371848769511409
 31
0.0
  0
LINE
  5
381
330
1F
100
AcDbEntity
  8
0
  6
Continuous
100
AcDbLine
 10
23.70118363566776
 20
9.635813276995165
 30
0.0
 11
23.0057173650897
 21
9.635813276995953
 31
0.0
  0
SPLINE
  5
382
330
1F
100
AcDbEntity
  8
0
  6
Continuous
100
AcDbSpline
210
0.0
220
0.0
230
1.0
 70
     8
 71
     3
 72
    16
 73
    12
 74
     0
 42
0.0000000001
 43
0.0000000001
 40
0.0
 40
0.0
 40
0.0
 40
0.0
 40
0.2499999999999998
 40
0.2499999999999998
 40
0.4999999999999996
 40
0.4999999999999996
 40
0.6249999999999997
 40
0.6249999999999997
 40
0.7499999999999999
 40
0.7499999999999999
 40
1.0
 40
1.0
 40
1.0
 40
1.0
 10
26.00091499309656
 20
9.635813276996145
 30
0.0
 10
25.80923609653327
 20
9.635179980966007
 30
0.0
 10
25.61756577799096
 20
9.634400995197204
 30
0.0
 10
25.23424196574987
 20
9.632918354109314
 30
0.0
 10
25.04258848520105
 20
9.632200067048792
 30
0.0
 10
24.75512045092937
 20
9.631659536853661
 30
0.0
 10
24.65929978295915
 20
9.63159218167663
 30
0.0
 10
24.46766256548956
 20
9.631573994204948
 30
0.0
 10
24.37184599747785
 20
9.631643747582856
 30
0.0
 10
24.08440221043262
 20
9.632318093237351
 30
0.0
 10
23.8927782427816
 20
9.633417524527843
 30
0.0
 10
23.7011836356657
 20
9.635813276995946
 30
0.0
  0
LINE
  5
383
330
1F
100
AcDbEntity
  8
0
  6
Continuous
100
AcDbLine
 10
28.71151628222082
 20
9.635813276996145
 30
0.0
 11
26.00091499309656
 21
9.635813276996145
 31
0.0
  0
LINE
  5
384
330
1F
100
AcDbEntity
  8
0
  6
Continuous
100
AcDbLine
 10
31.70827230950032
 20
8.371848769511402
 30
0.0
 11
23.00415896581707
 21
8.371848769511409
 31
0.0
  0
ARC
  5
385
330
1F
100
AcDbEntity
  8
0
  6
Continuous
100
AcDbCircle
 10
26.15146221858425
 20
9.663656063210751
 30
0.0
 40
2.560205466263657
100
AcDbArc
 50
359.3768837664509
 51
1.92824494418563
  0
ARC
  5
386
330
1F
100
AcDbEntity
  8
0
  6
Continuous
100
AcDbCircle
 10
28.56096905673606
 20
9.663656063210638
 30
0.0
 40
2.560205466266581
100
AcDbArc
 50
178.0717550558152
 51
180.6231162335467
  0
LINE
  5
387
330
1F
100
AcDbEntity
  8
0
  6
Continuous
100
AcDbLine
 10
26.00221330660231
 20
9.74980152541692
 30
0.0
 11
27.35621563765869
 21
9.74980152541692
 31
0.0
  0
LINE
  5
388
330
1F
100
AcDbEntity
  8
0
  6
Continuous
100
AcDbLine
 10
27.35621563765869
 20
9.74980152541692
 30
0.0
 11
28.71021796871508
 21
9.74980152541692
 31
0.0
  0
LINE
  5
389
330
1F
100
AcDbEntity
  8
0
  6
Continuous
100
AcDbLine
 10
33.18290144613195
 20
9.63581327699628
 30
0.0
 11
31.70671391022767
 21
9.635813276995946
 31
0.0
  0
LINE
  5
38A
330
1F
100
AcDbEntity
  8
0
  6
Continuous
100
AcDbLine
 10
33.22702754663884
 20
8.371848769511402
 30
0.0
 11
33.18290144613195
 21
9.63581327699628
 31
0.0
  0
LINE
  5
38B
330
1F
100
AcDbEntity
  8
0
  6
Continuous
100
AcDbLine
 10
31.70827230950032
 20
8.371848769511402
 30
0.0
 11
33.22702754663884
 21
8.371848769511402
 31
0.0
  0
LINE
  5
38C
330
1F
100
AcDbEntity
  8
0
  6
Continuous
100
AcDbLine
 10
21.52952982918543
 20
9.635813276996287
 30
0.0
 11
21.48540372867854
 21
8.371848769511409
 31
0.0
  0
LINE
  5
38D
330
1F
100
AcDbEntity
  8
0
  6
Continuous
100
AcDbLine
 10
23.0057173650897
 20
9.635813276995953
 30
0.0
 11
21.52952982918543
 21
9.635813276996287
 31
0.0
  0
LINE
  5
38E
330
1F
100
AcDbEntity
  8
0
  6
Continuous
100
AcDbLine
 10
21.48540372867854
 20
8.371848769511409
 30
0.0
 11
23.00415896581707
 21
8.371848769511409
 31
0.0
  0
ARC
  5
38F
330
1F
100
AcDbEntity
  8
0
  6
Continuous
100
AcDbCircle
 10
30.0596694908107
 20
9.663631802215604
 30
0.0
 40
0.9519846866904808
100
AcDbArc
 50
358.3254867080995
 51
5.193285463255375
  0
ARC
  5
390
330
1F
100
AcDbEntity
  8
0
  6
Continuous
100
AcDbCircle
 10
24.65276178450457
 20
9.663631802215704
 30
0.0
 40
0.9519846866883613
100
AcDbArc
 50
174.8067145367397
 51
181.6745132919112
  0
ARC
  5
391
330
1F
100
AcDbEntity
  8
0
  6
Continuous
100
AcDbCircle
 10
23.80611079650353
 20
9.663620079386191
 30
0.0
 40
0.8008763096193883
100
AcDbArc
 50
173.8225006402579
 51
181.9897363415829
  0
LINE
  5
392
330
1F
100
AcDbEntity
  8
0
  6
Continuous
100
AcDbLine
 10
23.00988493553843
 20
9.74980152541692
 30
0.0
 11
23.7046849825035
 21
9.74980152541692
 31
0.0
  0
LINE
  5
393
330
1F
100
AcDbEntity
  8
0
  6
Continuous
100
AcDbLine
 10
31.00774629281387
 20
9.749801525416913
 30
0.0
 11
31.70254633977895
 21
9.749801525416913
 31
0.0
  0
ARC
  5
394
330
1F
100
AcDbEntity
  8
0
  6
Continuous
100
AcDbCircle
 10
30.90632047881236
 20
9.663620079386156
 30
0.0
 40
0.8008763096208751
100
AcDbArc
 50
358.0102636584236
 51
6.177499359733046
  0
ARC
  5
395
330
1F
100
AcDbEntity
  8
0
  6
Continuous
100
AcDbCircle
 10
21.64755061464517
 20
9.631709411989426
 30
0.0
 40
0.1180921145061278
100
AcDbArc
 50
90.00774397365997
 51
178.0084910979427
  0
LINE
  5
396
330
1F
100
AcDbEntity
  8
0
  6
Continuous
100
AcDbLine
 10
21.64753465357039
 20
9.74980152541692
 30
0.0
 11
23.00988493553843
 21
9.74980152541692
 31
0.0
  0
LINE
  5
397
330
1F
100
AcDbEntity
  8
0
  6
Continuous
100
AcDbLine
 10
31.70254633977895
 20
9.749801525416913
 30
0.0
 11
33.06489662174698
 21
9.749801525416913
 31
0.0
  0
ARC
  5
398
330
1F
100
AcDbEntity
  8
0
  6
Continuous
100
AcDbCircle
 10
33.0648806606722
 20
9.631709411989412
 30
0.0
 40
0.1180921145061333
100
AcDbArc
 50
1.991508902061327
 51
89.9922560263384
  0
SPLINE
  5
399
330
1F
100
AcDbEntity
  8
0
  6
Continuous
100
AcDbSpline
210
0.0
220
0.0
230
1.0
 70
     8
 71
     3
 72
    16
 73
    12
 74
     0
 42
0.0000000001
 43
0.0000000001
 40
0.0
 40
0.0
 40
0.0
 40
0.0
 40
0.125
 40
0.125
 40
0.25
 40
0.25
 40
0.5
 40
0.5
 40
0.75
 40
0.75
 40
1.0
 40
1.0
 40
1.0
 40
1.0
 10
26.67943852711617
 20
8.3718481342881
 30
0.0
 10
26.67931730609363
 20
8.340233340218944
 30
0.0
 10
26.67917632098154
 20
8.311298715389881
 30
0.0
 10
26.67887063339445
 20
8.257857844837857
 30
0.0
 10
26.67870589378626
 20
8.233352423881733
 30
0.0
 10
26.67819327749273
 20
8.165279024999868
 30
0.0
 10
26.6778287845763
 20
8.127119747248897
 30
0.0
 10
26.67709853212592
 20
8.059887743513669
 30
0.0
 10
26.6767339876978
 20
8.030792984553862
 30
0.0
 10
26.67599301426511
 20
7.977442430537308
 30
0.0
 10
26.67562223204891
 20
7.953117461047142
 30
0.0
 10
26.67522415797396
 20
7.929469447646617
 30
0.0
  0
SPLINE
  5
39A
330
1F
100
AcDbEntity
  8
0
  6
Continuous
100
AcDbSpline
210
0.0
220
0.0
230
1.0
 70
     8
 71
     3
 72
    32
 73
    28
 74
     0
 42
0.0000000001
 43
0.0000000001
 40
0.0
 40
0.0
 40
0.0
 40
0.0
 40
0.2499999999999985
 40
0.2499999999999985
 40
0.3749999999999978
 40
0.3749999999999978
 40
0.4062499999999977
 40
0.4062499999999977
 40
0.4218749999999977
 40
0.4218749999999977
 40
0.4296874999999977
 40
0.4296874999999977
 40
0.4374999999999976
 40
0.4374999999999976
 40
0.4531249999999976
 40
0.4531249999999976
 40
0.4687499999999976
 40
0.4687499999999976
 40
0.4999999999999978
 40
0.4999999999999978
 40
0.6249999999999984
 40
0.6249999999999984
 40
0.749999999999999
 40
0.749999999999999
 40
0.8749999999999996
 40
0.8749999999999996
 40
1.0
 40
1.0
 40
1.0
 40
1.0
 10
26.67522415797396
 20
7.929469447646617
 30
0.0
 10
26.46977382351588
 20
7.931813634049845
 30
0.0
 10
26.26534054573943
 20
7.93492088381209
 30
0.0
 10
25.96088957506983
 20
7.940138416661284
 30
0.0
 10
25.85977251823772
 20
7.941970768829975
 30
0.0
 10
25.73387960792086
 20
7.944310405511629
 30
0.0
 10
25.70872512400701
 20
7.944780541695408
 30
0.0
 10
25.67103036595295
 20
7.945488116014765
 30
0.0
 10
25.65847063736719
 20
7.94572420826401
 30
0.0
 10
25.63963908877675
 20
7.946078577831791
 30
0.0
 10
25.63336600663192
 20
7.946197180865766
 30
0.0
 10
25.62082809004043
 20
7.946434470721541
 30
0.0
 10
25.61465669328542
 20
7.946565280177175
 30
0.0
 10
25.59517677351422
 20
7.946838389309711
 30
0.0
 10
25.58214260321288
 20
7.947015897667348
 30
0.0
 10
25.55622100507083
 20
7.947383684975797
 30
0.0
 10
25.54329524450821
 20
7.947570426438424
 30
0.0
 10
25.50462908825393
 20
7.948138707596747
 30
0.0
 10
25.47899940721816
 20
7.948528254785713
 30
0.0
 10
25.35167343071524
 20
7.950517128771089
 30
0.0
 10
25.252463600768
 20
7.952240832466479
 30
0.0
 10
25.06141777041046
 20
7.955706198844936
 30
0.0
 10
24.96959200540916
 20
7.957448701346045
 30
0.0
 10
24.79519524934663
 20
7.960739600378481
 30
0.0
 10
24.71263100397675
 20
7.962290231069914
 30
0.0
 10
24.55843873459937
 20
7.965005024500968
 30
0.0
 10
24.48677236135712
 20
7.966159611573147
 30
0.0
 10
24.42127407162754
 20
7.967127058177688
 30
0.0
  0
SPLINE
  5
39B
330
1F
100
AcDbEntity
  8
0
  6
Continuous
100
AcDbSpline
210
0.0
220
0.0
230
1.0
 70
     8
 71
     3
 72
    10
 73
     6
 74
     0
 42
0.0000000001
 43
0.0000000001
 40
0.0
 40
0.0
 40
0.0
 40
0.0
 40
0.5
 40
0.5
 40
1.0
 40
1.0
 40
1.0
 40
1.0
 10
24.42127406948911
 20
7.96712705932147
 30
0.0
 10
24.3050745185535
 20
8.029279117853107
 30
0.0
 10
24.19005371753276
 20
8.094682331268579
 30
0.0
 10
23.96495354769619
 20
8.23027431674668
 30
0.0
 10
23.8548909518549
 20
8.300459620822969
 30
0.0
 10
23.74852574086554
 20
8.371851301647332
 30
0.0
  0
SPLINE
  5
39C
330
1F
100
AcDbEntity
  8
0
  6
Continuous
100
AcDbSpline
210
0.0
220
0.0
230
1.0
 70
     8
 71
     3
 72
    32
 73
    28
 74
     0
 42
0.0000000001
 43
0.0000000001
 40
0.0
 40
0.0
 40
0.0
 40
0.0
 40
0.2499999999999985
 40
0.2499999999999985
 40
0.3749999999999978
 40
0.3749999999999978
 40
0.4062499999999977
 40
0.4062499999999977
 40
0.4218749999999977
 40
0.4218749999999977
 40
0.4296874999999977
 40
0.4296874999999977
 40
0.4374999999999976
 40
0.4374999999999976
 40
0.4531249999999976
 40
0.4531249999999976
 40
0.4687499999999976
 40
0.4687499999999976
 40
0.4999999999999978
 40
0.4999999999999978
 40
0.6249999999999984
 40
0.6249999999999984
 40
0.749999999999999
 40
0.749999999999999
 40
0.8749999999999996
 40
0.8749999999999996
 40
1.0
 40
1.0
 40
1.0
 40
1.0
 10
28.03720711734342
 20
7.929469447646617
 30
0.0
 10
28.2426574518015
 20
7.931813634049845
 30
0.0
 10
28.44709072957796
 20
7.93492088381209
 30
0.0
 10
28.75154170024755
 20
7.940138416661284
 30
0.0
 10
28.85265875707966
 20
7.941970768829975
 30
0.0
 10
28.97855166739652
 20
7.944310405511629
 30
0.0
 10
29.00370615131036
 20
7.944780541695408
 30
0.0
 10
29.04140090936443
 20
7.945488116014765
 30
0.0
 10
29.05396063795019
 20
7.94572420826401
 30
0.0
 10
29.07279218654063
 20
7.946078577831791
 30
0.0
 10
29.07906526868546
 20
7.946197180865766
 30
0.0
 10
29.09160318527696
 20
7.946434470721541
 30
0.0
 10
29.09777458203196
 20
7.946565280177175
 30
0.0
 10
29.11725450180317
 20
7.946838389309711
 30
0.0
 10
29.1302886721045
 20
7.947015897667348
 30
0.0
 10
29.15621027024655
 20
7.947383684975797
 30
0.0
 10
29.16913603080918
 20
7.947570426438424
 30
0.0
 10
29.20780218706346
 20
7.948138707596747
 30
0.0
 10
29.23343186809922
 20
7.948528254785713
 30
0.0
 10
29.36075784460214
 20
7.950517128771089
 30
0.0
 10
29.45996767454939
 20
7.952240832466479
 30
0.0
 10
29.65101350490692
 20
7.955706198844936
 30
0.0
 10
29.74283926990822
 20
7.957448701346045
 30
0.0
 10
29.91723602597076
 20
7.960739600378481
 30
0.0
 10
29.99980027134062
 20
7.962290231069914
 30
0.0
 10
30.153992540718
 20
7.965005024500968
 30
0.0
 10
30.22565891396026
 20
7.966159611573147
 30
0.0
 10
30.29115720368984
 20
7.967127058177688
 30
0.0
  0
SPLINE
  5
39D
330
1F
100
AcDbEntity
  8
0
  6
Continuous
100
AcDbSpline
210
0.0
220
0.0
230
1.0
 70
     8
 71
     3
 72
    16
 73
    12
 74
     0
 42
0.0000000001
 43
0.0000000001
 40
0.0
 40
0.0
 40
0.0
 40
0.0
 40
0.125
 40
0.125
 40
0.25
 40
0.25
 40
0.5
 40
0.5
 40
0.75
 40
0.75
 40
1.0
 40
1.0
 40
1.0
 40
1.0
 10
28.03299274820121
 20
8.3718481342881
 30
0.0
 10
28.03311396922375
 20
8.340233340218944
 30
0.0
 10
28.03325495433584
 20
8.311298715389881
 30
0.0
 10
28.03356064192292
 20
8.257857844837857
 30
0.0
 10
28.03372538153112
 20
8.233352423881733
 30
0.0
 10
28.03423799782465
 20
8.165279024999868
 30
0.0
 10
28.03460249074108
 20
8.127119747248897
 30
0.0
 10
28.03533274319147
 20
8.059887743513669
 30
0.0
 10
28.03569728761957
 20
8.030792984553862
 30
0.0
 10
28.03643826105226
 20
7.977442430537308
 30
0.0
 10
28.03680904326847
 20
7.953117461047142
 30
0.0
 10
28.03720711734342
 20
7.929469447646617
 30
0.0
  0
SPLINE
  5
39E
330
1F
100
AcDbEntity
  8
0
  6
Continuous
100
AcDbSpline
210
0.0
220
0.0
230
1.0
 70
     8
 71
     3
 72
    10
 73
     6
 74
     0
 42
0.0000000001
 43
0.0000000001
 40
0.0
 40
0.0
 40
0.0
 40
0.0
 40
0.5
 40
0.5
 40
1.0
 40
1.0
 40
1.0
 40
1.0
 10
30.29115720582827
 20
7.96712705932147
 30
0.0
 10
30.40735675676388
 20
8.029279117853107
 30
0.0
 10
30.52237755778461
 20
8.094682331268572
 30
0.0
 10
30.74747772762118
 20
8.230274316746672
 30
0.0
 10
30.85754032346248
 20
8.300459620822962
 30
0.0
 10
30.96390553445184
 20
8.371851301647325
 30
0.0
  0
SPLINE
  5
39F
330
1F
100
AcDbEntity
  8
0
  6
Continuous
100
AcDbSpline
210
0.0
220
0.0
230
1.0
 70
    24
 71
     3
 72
    12
 73
     8
 74
     0
 42
0.0000000001
 43
0.0000000001
 40
0.0
 40
0.0
 40
0.0
 40
0.0
 40
0.2499999999999996
 40
0.2499999999999996
 40
0.4999999999999992
 40
0.4999999999999992
 40
1.0
 40
1.0
 40
1.0
 40
1.0
 10
27.3562156376587
 20
7.925035981561691
 30
0.0
 10
27.3562156376587
 20
7.958010023914312
 30
0.0
 10
27.3562156376587
 20
7.992076772547299
 30
0.0
 10
27.3562156376587
 20
8.062390938703657
 30
0.0
 10
27.35621563765869
 20
8.098635515089249
 30
0.0
 10
27.35621563765869
 20
8.210446001318935
 30
0.0
 10
27.3562156376587
 20
8.289214641661949
 30
0.0
 10
27.3562156376587
 20
8.371848769511402
 30
0.0
  0
SPLINE
  5
3A0
330
1F
100
AcDbEntity
  8
0
  6
Continuous
100
AcDbSpline
210
0.0
220
0.0
230
1.0
 70
     8
 71
     3
 72
    17
 73
    13
 74
     0
 42
0.0000000001
 43
0.0000000001
 40
0.0
 40
0.0
 40
0.0
 40
0.0
 40
0.0078125
 40
0.0078125
 40
0.015625
 40
0.03125
 40
0.0625
 40
0.125
 40
0.2500000000000001
 40
0.5000000000000001
 40
0.5000000000000001
 40
1.0
 40
1.0
 40
1.0
 40
1.0
 10
27.35621554159881
 20
7.925036048676517
 30
0.0
 10
27.35447004806492
 20
7.925037521147196
 30
0.0
 10
27.35265728812725
 20
7.925039084553262
 30
0.0
 10
27.34909912585014
 20
7.925042392545734
 30
0.0
 10
27.34376197398529
 20
7.925047626343229
 30
0.0
 10
27.3313092679681
 20
7.925061734761328
 30
0.0
 10
27.30640650896122
 20
7.925097485207921
 30
0.0
 10
27.25661207851822
 20
7.925198713418758
 30
0.0
 10
27.15707133864847
 20
7.925516869168284
 30
0.0
 10
27.07184600854051
 20
7.925977125494533
 30
0.0
 10
26.90155522583009
 20
7.927120614348957
 30
0.0
 10
26.78824202872983
 20
7.928179959062283
 30
0.0
 10
26.67522415582954
 20
7.929469509966459
 30
0.0
  0
SPLINE
  5
3A1
330
1F
100
AcDbEntity
  8
0
  6
Continuous
100
AcDbSpline
210
0.0
220
0.0
230
1.0
 70
     8
 71
     3
 72
    17
 73
    13
 74
     0
 42
0.0000000001
 43
0.0000000001
 40
0.0
 40
0.0
 40
0.0
 40
0.0
 40
0.0078125
 40
0.0078125
 40
0.015625
 40
0.03125
 40
0.0625
 40
0.125
 40
0.2500000000000001
 40
0.5000000000000001
 40
0.5000000000000001
 40
1.0
 40
1.0
 40
1.0
 40
1.0
 10
27.35621573371858
 20
7.925036048676517
 30
0.0
 10
27.35796122725246
 20
7.925037521147196
 30
0.0
 10
27.35977398719013
 20
7.925039084553262
 30
0.0
 10
27.36333214946724
 20
7.925042392545734
 30
0.0
 10
27.36866930133208
 20
7.925047626343229
 30
0.0
 10
27.38112200734927
 20
7.925061734761328
 30
0.0
 10
27.40602476635616
 20
7.925097485207921
 30
0.0
 10
27.45581919679917
 20
7.925198713418758
 30
0.0
 10
27.55535993666891
 20
7.925516869168284
 30
0.0
 10
27.64058526677687
 20
7.925977125494533
 30
0.0
 10
27.81087604948729
 20
7.927120614348957
 30
0.0
 10
27.92418924658755
 20
7.928179959062283
 30
0.0
 10
28.03720711948784
 20
7.929469509966459
 30
0.0
  0
LINE
  5
3A2
330
1F
100
AcDbEntity
  8
0
  6
Continuous
100
AcDbLine
 10
21.45070382663507
 20
8.371848769511409
 30
0.0
 11
21.48540372867854
 21
8.371848769511409
 31
0.0
  0
LINE
  5
3A3
330
1F
100
AcDbEntity
  8
0
  6
Continuous
100
AcDbLine
 10
33.22702754663884
 20
8.371848769511402
 30
0.0
 11
33.26172744868231
 21
8.371848769511402
 31
0.0
  0
LINE
  5
3A4
330
1F
100
AcDbEntity
  8
0
  6
Continuous
100
AcDbLine
 10
33.06489662174698
 20
9.749801525416913
 30
0.0
 11
33.09955054881479
 21
9.749801525416913
 31
0.0
  0
LINE
  5
3A5
330
1F
100
AcDbEntity
  8
0
  6
Continuous
100
AcDbLine
 10
21.61288072650258
 20
9.74980152541692
 30
0.0
 11
21.64753465357039
 21
9.74980152541692
 31
0.0
  0
SPLINE
  5
3A6
330
1F
100
AcDbEntity
  8
0
  6
Continuous
100
AcDbSpline
210
0.0
220
0.0
230
1.0
 70
     8
 71
     3
 72
    13
 73
     9
 74
     0
 42
0.0000000001
 43
0.0000000001
 40
0.0
 40
0.0
 40
0.0
 40
0.0
 40
0.1606608518545155
 40
0.5445380481053316
 40
0.7375099650493324
 40
0.8327700100067021
 40
0.9307706300751748
 40
1.0
 40
1.0
 40
1.0
 40
1.0
 10
28.04653897668048
 20
7.198165922408556
 30
0.0
 10
28.04657124238904
 20
7.197009010283267
 30
0.0
 10
28.0466806026081
 20
7.193087814402254
 30
0.0
 10
28.0470708235051
 20
7.188252184067643
 30
0.0
 10
28.04746671150963
 20
7.18439204953178
 30
0.0
 10
28.04776174599286
 20
7.182370191493639
 30
0.0
 10
28.04787608781617
 20
7.18106958421476
 30
0.0
 10
28.04793763396547
 20
7.180293586844953
 30
0.0
 10
28.04796311265585
 20
7.179972341780135
 30
0.0
  0
SPLINE
  5
3A7
330
1F
100
AcDbEntity
  8
0
  6
Continuous
100
AcDbSpline
210
0.0
220
0.0
230
1.0
 70
     8
 71
     3
 72
    28
 73
    24
 74
     0
 42
0.0000000001
 43
0.0000000001
 40
0.0
 40
0.0
 40
0.0
 40
0.0
 40
0.0625
 40
0.0625
 40
0.1249999999999999
 40
0.1249999999999999
 40
0.2499999999999998
 40
0.2499999999999998
 40
0.3124999999999997
 40
0.3124999999999997
 40
0.3749999999999996
 40
0.3749999999999996
 40
0.4999999999999999
 40
0.4999999999999999
 40
0.625
 40
0.625
 40
0.75
 40
0.75
 40
0.8750000000000001
 40
0.8750000000000001
 40
0.9375
 40
0.9375
 40
1.0
 40
1.0
 40
1.0
 40
1.0
 10
27.3562156376587
 20
7.175621231743122
 30
0.0
 10
27.3742551491769
 20
7.175621232031105
 30
0.0
 10
27.39243186498718
 20
7.17565191201217
 30
0.0
 10
27.42856922853141
 20
7.175763596101347
 30
0.0
 10
27.44651110109542
 20
7.175844291145324
 30
0.0
 10
27.49996028525741
 20
7.176141907705165
 30
0.0
 10
27.53509298640481
 20
7.176414178933953
 30
0.0
 10
27.58702493764844
 20
7.176861028090208
 30
0.0
 10
27.60420729962765
 20
7.177016470909485
 30
0.0
 10
27.63830676877581
 20
7.177328757372627
 30
0.0
 10
27.65515010718411
 20
7.177484909693085
 30
0.0
 10
27.70451689257426
 20
7.177932413117716
 30
0.0
 10
27.73610391507213
 20
7.178202633448599
 30
0.0
 10
27.79670680077095
 20
7.178736963506231
 30
0.0
 10
27.82571623509803
 20
7.178988985966725
 30
0.0
 10
27.88100676418646
 20
7.179408648623784
 30
0.0
 10
27.90695698419556
 20
7.179565216802856
 30
0.0
 10
27.95442941582956
 20
7.179769899679804
 30
0.0
 10
27.97607832592661
 20
7.179827592488464
 30
0.0
 10
28.00546825299461
 20
7.179893035310769
 30
0.0
 10
28.01474892054684
 20
7.179911202143351
 30
0.0
 10
28.03226221985314
 20
7.179947796824158
 30
0.0
 10
28.04043261051135
 20
7.179966928724233
 30
0.0
 10
28.04796311265587
 20
7.179972341780135
 30
0.0
  0
SPLINE
  5
3A8
330
1F
100
AcDbEntity
  8
0
  6
Continuous
100
AcDbSpline
210
0.0
220
0.0
230
1.0
 70
    24
 71
     3
 72
    28
 73
    24
 74
     0
 42
0.0000000001
 43
0.0000000001
 40
0.0
 40
0.0
 40
0.0
 40
0.0
 40
0.1249999999999999
 40
0.1249999999999999
 40
0.2499999999999998
 40
0.2499999999999998
 40
0.3124999999999998
 40
0.3124999999999998
 40
0.3749999999999996
 40
0.3749999999999996
 40
0.4999999999999992
 40
0.4999999999999992
 40
0.562499999999999
 40
0.562499999999999
 40
0.5937499999999991
 40
0.5937499999999991
 40
0.6249999999999992
 40
0.6249999999999992
 40
0.6874999999999992
 40
0.6874999999999992
 40
0.7499999999999993
 40
0.7499999999999993
 40
1.0
 40
1.0
 40
1.0
 40
1.0
 10
27.35621563765868
 20
7.925036048668211
 30
0.0
 10
27.35621563765868
 20
7.860445823403125
 30
0.0
 10
27.35621563765867
 20
7.800418021779222
 30
0.0
 10
27.35621563765867
 20
7.689325641475598
 30
0.0
 10
27.3562156376587
 20
7.638263832329201
 30
0.0
 10
27.3562156376587
 20
7.568409291459637
 30
0.0
 10
27.35621563765868
 20
7.546249765667518
 30
0.0
 10
27.35621563765868
 20
7.504202850849573
 30
0.0
 10
27.3562156376587
 20
7.484299831830689
 30
0.0
 10
27.3562156376587
 20
7.428351741301824
 30
0.0
 10
27.35621563768354
 20
7.395946930274
 30
0.0
 10
27.35621563768354
 20
7.354611568178597
 30
0.0
 10
27.35621563765867
 20
7.342046555075718
 30
0.0
 10
27.35621563765867
 20
7.325023838410238
 30
0.0
 10
27.35621563765868
 20
7.319652067625291
 30
0.0
 10
27.35621563765868
 20
7.309054147877937
 30
0.0
 10
27.35621563765869
 20
7.303888158356372
 30
0.0
 10
27.35621563765869
 20
7.288786923605847
 30
0.0
 10
27.35621563765868
 20
7.279244890931515
 30
0.0
 10
27.35621563765868
 20
7.261239595144424
 30
0.0
 10
27.35621563765869
 20
7.252776573291029
 30
0.0
 10
27.35621563765869
 20
7.213157455130527
 30
0.0
 10
27.35621563765869
 20
7.190072854955843
 30
0.0
 10
27.35621563765869
 20
7.175621231743122
 30
0.0
  0
SPLINE
  5
3A9
330
1F
100
AcDbEntity
  8
0
  6
Continuous
100
AcDbSpline
210
0.0
220
0.0
230
1.0
 70
     8
 71
     3
 72
    61
 73
    57
 74
     0
 42
0.0000000001
 43
0.0000000001
 40
0.0
 40
0.0
 40
0.0
 40
0.0
 40
0.0095576482589241
 40
0.0190458180123369
 40
0.02846444943957
 40
0.0378134830613777
 40
0.0470928598077767
 40
0.0563025210804682
 40
0.065442408810128
 40
0.0745124655088839
 40
0.083512634318243
 40
0.092442858988992
 40
0.101303083889644
 40
0.1100932542396595
 40
0.1188133160403328
 40
0.1274632161005697
 40
0.1360428591748173
 40
0.1445518924586463
 40
0.1529902109452183
 40
0.193317699806728
 40
0.2322101634158828
 40
0.269662714296716
 40
0.3056688982974056
 40
0.3447452308385611
 40
0.3821968353728507
 40
0.4211753252419073
 40
0.4583967686048202
 40
0.4973091927230313
 40
0.5343020777633454
 40
0.5475093999139475
 40
0.5604598635862272
 40
0.5729325343986106
 40
0.5851789249189281
 40
0.5972109564161174
 40
0.6090289575034309
 40
0.6472224762899824
 40
0.6832455563392131
 40
0.7214638632517837
 40
0.7573297033218108
 40
0.7621043862743049
 40
0.7668284213535262
 40
0.7715250666145749
 40
0.7761832284349691
 40
0.780800806927899
 40
0.7853775796893836
 40
0.7899132714837672
 40
0.794407665297457
 40
0.8131914497239613
 40
0.8314372010624568
 40
0.8684263818307309
 40
0.905248749191575
 40
0.9419902032657079
 40
0.9605581194508166
 40
0.9786897304112516
 40
0.9893953114809093
 40
1.0
 40
1.0
 40
1.0
 40
1.0
 10
28.03720722542069
 20
7.929469484017083
 30
0.0
 10
28.03729188504144
 20
7.92454931983832
 30
0.0
 10
28.03746058885706
 20
7.914744758192952
 30
0.0
 10
28.03771304732571
 20
7.900297586133468
 30
0.0
 10
28.03796365798723
 20
7.886105346586553
 30
0.0
 10
28.03821228759377
 20
7.872179765867201
 30
0.0
 10
28.0384587729827
 20
7.858513993463418
 30
0.0
 10
28.03870298059609
 20
7.845106098750385
 30
0.0
 10
28.03894479073222
 20
7.831952845247315
 30
0.0
 10
28.03918410165782
 20
7.819051340832551
 30
0.0
 10
28.03942082879097
 20
7.806398601212187
 30
0.0
 10
28.03965490398144
 20
7.793991666151512
 30
0.0
 10
28.03988627412006
 20
7.781827569241777
 30
0.0
 10
28.04011490701303
 20
7.769903346363044
 30
0.0
 10
28.04034078533754
 20
7.758216035587253
 30
0.0
 10
28.04056391481617
 20
7.746762690551491
 30
0.0
 10
28.0407842940131
 20
7.73554051702375
 30
0.0
 10
28.04100208064582
 20
7.724546659077859
 30
0.0
 10
28.04148901457052
 20
7.700183148400171
 30
0.0
 10
28.04222832997482
 20
7.664231111531009
 30
0.0
 10
28.04317653868981
 20
7.619292160358618
 30
0.0
 10
28.04403918966213
 20
7.578732637965643
 30
0.0
 10
28.04484717112741
 20
7.540734347651977
 30
0.0
 10
28.0455956477879
 20
7.505418803492915
 30
0.0
 10
28.04626652456122
 20
7.471960844220511
 30
0.0
 10
28.04681798427742
 20
7.441759280687612
 30
0.0
 10
28.04722522095474
 20
7.413878353212865
 30
0.0
 10
28.04746153072799
 20
7.38907861451014
 30
0.0
 10
28.04746294795314
 20
7.371520756077934
 30
0.0
 10
28.04738464393793
 20
7.359959359054052
 30
0.0
 10
28.04726624363306
 20
7.353174207638055
 30
0.0
 10
28.04731397665431
 20
7.346773116738582
 30
0.0
 10
28.04731658450048
 20
7.340627236818427
 30
0.0
 10
28.04732286560375
 20
7.334720590738655
 30
0.0
 10
28.0473172591768
 20
7.324769472228574
 30
0.0
 10
28.04728477103135
 20
7.31156272048743
 30
0.0
 10
28.04714054611346
 20
7.295409637996044
 30
0.0
 10
28.04693306980967
 20
7.280640173927032
 30
0.0
 10
28.04665260804805
 20
7.270763662512599
 30
0.0
 10
28.04651009923821
 20
7.265295328853049
 30
0.0
 10
28.04641582237527
 20
7.263594193178001
 30
0.0
 10
28.04650103263737
 20
7.261940268848093
 30
0.0
 10
28.04654944941382
 20
7.260314484843938
 30
0.0
 10
28.04660260175556
 20
7.258720685423767
 30
0.0
 10
28.04664975505091
 20
7.257157751582049
 30
0.0
 10
28.04669367772445
 20
7.255625291596849
 30
0.0
 10
28.04677920885547
 20
7.252525630095213
 30
0.0
 10
28.04688063582613
 20
7.248023969337616
 30
0.0
 10
28.0470299059893
 20
7.240318700052149
 30
0.0
 10
28.04693302462526
 20
7.231328569328368
 30
0.0
 10
28.04689178739216
 20
7.221345961216933
 30
0.0
 10
28.04673195472235
 20
7.213483509454029
 30
0.0
 10
28.04661658167053
 20
7.207462739018957
 30
0.0
 10
28.04651657789648
 20
7.203673164895455
 30
0.0
 10
28.04649969260878
 20
7.200589950106071
 30
0.0
 10
28.04652592338608
 20
7.198971377286703
 30
0.0
 10
28.04653897668048
 20
7.198165922408556
 30
0.0
  0
SPLINE
  5
3AA
330
1F
100
AcDbEntity
  8
0
  6
Continuous
100
AcDbSpline
210
0.0
220
0.0
230
1.0
 70
     8
 71
     3
 72
    28
 73
    24
 74
     0
 42
0.0000000001
 43
0.0000000001
 40
0.0
 40
0.0
 40
0.0
 40
0.0
 40
0.0625
 40
0.0625
 40
0.1249999999999999
 40
0.1249999999999999
 40
0.2499999999999998
 40
0.2499999999999998
 40
0.3124999999999997
 40
0.3124999999999997
 40
0.3749999999999996
 40
0.3749999999999996
 40
0.4999999999999999
 40
0.4999999999999999
 40
0.625
 40
0.625
 40
0.75
 40
0.75
 40
0.8750000000000001
 40
0.8750000000000001
 40
0.9375
 40
0.9375
 40
1.0
 40
1.0
 40
1.0
 40
1.0
 10
27.35621563765868
 20
7.175621231743122
 30
0.0
 10
27.33817612614047
 20
7.175621232031105
 30
0.0
 10
27.3199994103302
 20
7.17565191201217
 30
0.0
 10
27.28386204678598
 20
7.175763596101347
 30
0.0
 10
27.26592017422196
 20
7.175844291145324
 30
0.0
 10
27.21247099005998
 20
7.176141907705165
 30
0.0
 10
27.17733828891257
 20
7.176414178933953
 30
0.0
 10
27.12540633766893
 20
7.176861028090208
 30
0.0
 10
27.10822397568972
 20
7.177016470909485
 30
0.0
 10
27.07412450654157
 20
7.177328757372627
 30
0.0
 10
27.05728116813327
 20
7.177484909693085
 30
0.0
 10
27.00791438274312
 20
7.177932413117716
 30
0.0
 10
26.97632736024524
 20
7.178202633448599
 30
0.0
 10
26.91572447454643
 20
7.178736963506231
 30
0.0
 10
26.88671504021935
 20
7.178988985966725
 30
0.0
 10
26.83142451113092
 20
7.179408648623784
 30
0.0
 10
26.80547429112182
 20
7.179565216802856
 30
0.0
 10
26.75800185948782
 20
7.179769899679804
 30
0.0
 10
26.73635294939077
 20
7.179827592488464
 30
0.0
 10
26.70696302232276
 20
7.179893035310769
 30
0.0
 10
26.69768235477053
 20
7.179911202143351
 30
0.0
 10
26.68016905546424
 20
7.179947796824158
 30
0.0
 10
26.67199866480603
 20
7.179966928724233
 30
0.0
 10
26.66446816266151
 20
7.179972341780135
 30
0.0
  0
SPLINE
  5
3AB
330
1F
100
AcDbEntity
  8
0
  6
Continuous
100
AcDbSpline
210
0.0
220
0.0
230
1.0
 70
     8
 71
     3
 72
    13
 73
     9
 74
     0
 42
0.0000000001
 43
0.0000000001
 40
0.0
 40
0.0
 40
0.0
 40
0.0
 40
0.1606608518545155
 40
0.5445380481053316
 40
0.7375099650493324
 40
0.8327700100067021
 40
0.9307706300751748
 40
1.0
 40
1.0
 40
1.0
 40
1.0
 10
26.66589229863689
 20
7.198165922408556
 30
0.0
 10
26.66586003292834
 20
7.197009010283267
 30
0.0
 10
26.66575067270928
 20
7.193087814402254
 30
0.0
 10
26.66536045181228
 20
7.188252184067643
 30
0.0
 10
26.66496456380775
 20
7.18439204953178
 30
0.0
 10
26.66466952932452
 20
7.182370191493639
 30
0.0
 10
26.66455518750121
 20
7.18106958421476
 30
0.0
 10
26.66449364135191
 20
7.180293586844953
 30
0.0
 10
26.66446816266152
 20
7.179972341780135
 30
0.0
  0
SPLINE
  5
3AC
330
1F
100
AcDbEntity
  8
0
  6
Continuous
100
AcDbSpline
210
0.0
220
0.0
230
1.0
 70
     8
 71
     3
 72
    61
 73
    57
 74
     0
 42
0.0000000001
 43
0.0000000001
 40
0.0
 40
0.0
 40
0.0
 40
0.0
 40
0.0095576482589241
 40
0.0190458180123369
 40
0.02846444943957
 40
0.0378134830613777
 40
0.0470928598077767
 40
0.0563025210804682
 40
0.065442408810128
 40
0.0745124655088839
 40
0.083512634318243
 40
0.092442858988992
 40
0.101303083889644
 40
0.1100932542396595
 40
0.1188133160403328
 40
0.1274632161005697
 40
0.1360428591748173
 40
0.1445518924586463
 40
0.1529902109452183
 40
0.193317699806728
 40
0.2322101634158828
 40
0.269662714296716
 40
0.3056688982974056
 40
0.3447452308385611
 40
0.3821968353728507
 40
0.4211753252419073
 40
0.4583967686048202
 40
0.4973091927230313
 40
0.5343020777633454
 40
0.5475093999139475
 40
0.5604598635862272
 40
0.5729325343986106
 40
0.5851789249189281
 40
0.5972109564161174
 40
0.6090289575034309
 40
0.6472224762899824
 40
0.6832455563392131
 40
0.7214638632517837
 40
0.7573297033218108
 40
0.7621043862743049
 40
0.7668284213535262
 40
0.7715250666145749
 40
0.7761832284349691
 40
0.780800806927899
 40
0.7853775796893836
 40
0.7899132714837672
 40
0.794407665297457
 40
0.8131914497239613
 40
0.8314372010624568
 40
0.8684263818307309
 40
0.905248749191575
 40
0.9419902032657079
 40
0.9605581194508166
 40
0.9786897304112516
 40
0.9893953114809093
 40
1.0
 40
1.0
 40
1.0
 40
1.0
 10
26.67522404989669
 20
7.929469484017083
 30
0.0
 10
26.67513939027594
 20
7.92454931983832
 30
0.0
 10
26.67497068646032
 20
7.914744758192952
 30
0.0
 10
26.67471822799166
 20
7.900297586133468
 30
0.0
 10
26.67446761733016
 20
7.886105346586553
 30
0.0
 10
26.67421898772361
 20
7.872179765867201
 30
0.0
 10
26.67397250233468
 20
7.858513993463418
 30
0.0
 10
26.67372829472129
 20
7.845106098750385
 30
0.0
 10
26.67348648458516
 20
7.831952845247315
 30
0.0
 10
26.67324717365956
 20
7.819051340832551
 30
0.0
 10
26.67301044652641
 20
7.806398601212187
 30
0.0
 10
26.67277637133594
 20
7.793991666151512
 30
0.0
 10
26.67254500119732
 20
7.781827569241777
 30
0.0
 10
26.67231636830435
 20
7.769903346363044
 30
0.0
 10
26.67209048997984
 20
7.758216035587253
 30
0.0
 10
26.67186736050121
 20
7.746762690551491
 30
0.0
 10
26.67164698130428
 20
7.73554051702375
 30
0.0
 10
26.67142919467157
 20
7.724546659077859
 30
0.0
 10
26.67094226074686
 20
7.700183148400171
 30
0.0
 10
26.67020294534255
 20
7.664231111531009
 30
0.0
 10
26.66925473662757
 20
7.619292160358618
 30
0.0
 10
26.66839208565525
 20
7.578732637965643
 30
0.0
 10
26.66758410418998
 20
7.540734347651977
 30
0.0
 10
26.66683562752949
 20
7.505418803492915
 30
0.0
 10
26.66616475075615
 20
7.471960844220511
 30
0.0
 10
26.66561329103997
 20
7.441759280687612
 30
0.0
 10
26.66520605436264
 20
7.413878353212865
 30
0.0
 10
26.66496974458939
 20
7.38907861451014
 30
0.0
 10
26.66496832736424
 20
7.371520756077934
 30
0.0
 10
26.66504663137945
 20
7.359959359054052
 30
0.0
 10
26.66516503168431
 20
7.353174207638055
 30
0.0
 10
26.66511729866307
 20
7.346773116738582
 30
0.0
 10
26.6651146908169
 20
7.340627236818427
 30
0.0
 10
26.66510840971363
 20
7.334720590738655
 30
0.0
 10
26.66511401614057
 20
7.324769472228574
 30
0.0
 10
26.66514650428603
 20
7.31156272048743
 30
0.0
 10
26.66529072920392
 20
7.295409637996044
 30
0.0
 10
26.66549820550771
 20
7.280640173927032
 30
0.0
 10
26.66577866726933
 20
7.270763662512599
 30
0.0
 10
26.66592117607917
 20
7.265295328853049
 30
0.0
 10
26.66601545294211
 20
7.263594193178001
 30
0.0
 10
26.66593024268001
 20
7.261940268848093
 30
0.0
 10
26.66588182590356
 20
7.260314484843938
 30
0.0
 10
26.66582867356182
 20
7.258720685423767
 30
0.0
 10
26.66578152026647
 20
7.257157751582049
 30
0.0
 10
26.66573759759293
 20
7.255625291596849
 30
0.0
 10
26.66565206646191
 20
7.252525630095213
 30
0.0
 10
26.66555063949124
 20
7.248023969337616
 30
0.0
 10
26.66540136932808
 20
7.240318700052149
 30
0.0
 10
26.66549825069211
 20
7.231328569328368
 30
0.0
 10
26.66553948792522
 20
7.221345961216933
 30
0.0
 10
26.66569932059502
 20
7.213483509454029
 30
0.0
 10
26.66581469364686
 20
7.207462739018957
 30
0.0
 10
26.6659146974209
 20
7.203673164895455
 30
0.0
 10
26.6659315827086
 20
7.200589950106071
 30
0.0
 10
26.6659053519313
 20
7.198971377286703
 30
0.0
 10
26.66589229863689
 20
7.198165922408556
 30
0.0
  0
SPLINE
  5
3AD
330
1F
100
AcDbEntity
  8
0
  6
Continuous
100
AcDbSpline
210
0.0
220
0.0
230
1.0
 70
     8
 71
     3
 72
    20
 73
    16
 74
     0
 42
0.0000000001
 43
0.0000000001
 40
0.0
 40
0.0
 40
0.0
 40
0.0
 40
0.25
 40
0.25
 40
0.5
 40
0.5
 40
0.625
 40
0.625
 40
0.75
 40
0.75
 40
0.8749999999999998
 40
0.8749999999999998
 40
0.9374999999999998
 40
0.9374999999999998
 40
1.0
 40
1.0
 40
1.0
 40
1.0
 10
30.29115719488653
 20
7.967127214079553
 30
0.0
 10
30.11206879022399
 20
7.87133781555547
 30
0.0
 10
29.93059366600423
 20
7.783263910530521
 30
0.0
 10
29.56345598569331
 20
7.622902984579319
 30
0.0
 10
29.37780001471201
 20
7.550609617748591
 30
0.0
 10
29.09643872279082
 20
7.454214570847888
 30
0.0
 10
29.00212537230516
 20
7.424087051459977
 30
0.0
 10
28.81275708575754
 20
7.367884214203215
 30
0.0
 10
28.71772085024272
 20
7.341809603009835
 30
0.0
 10
28.52701881298252
 20
7.293743498668817
 30
0.0
 10
28.43136515312394
 20
7.271753041318447
 30
0.0
 10
28.28742339624559
 20
7.241845237596052
 30
0.0
 10
28.23930886321401
 20
7.232387597624168
 30
0.0
 10
28.1430160585267
 20
7.214503782666881
 30
0.0
 10
28.09481230896616
 20
7.206076791127649
 30
0.0
 10
28.04653898377943
 20
7.198165922485223
 30
0.0
  0
SPLINE
  5
3AE
330
1F
100
AcDbEntity
  8
0
  6
Continuous
100
AcDbSpline
210
0.0
220
0.0
230
1.0
 70
     8
 71
     3
 72
    20
 73
    16
 74
     0
 42
0.0000000001
 43
0.0000000001
 40
0.0
 40
0.0
 40
0.0
 40
0.0
 40
0.25
 40
0.25
 40
0.5
 40
0.5
 40
0.625
 40
0.625
 40
0.75
 40
0.75
 40
0.8749999999999998
 40
0.8749999999999998
 40
0.9374999999999998
 40
0.9374999999999998
 40
1.0
 40
1.0
 40
1.0
 40
1.0
 10
24.42127408043085
 20
7.967127214079553
 30
0.0
 10
24.60036248509338
 20
7.87133781555547
 30
0.0
 10
24.78183760931316
 20
7.783263910530521
 30
0.0
 10
25.14897528962408
 20
7.622902984579319
 30
0.0
 10
25.33463126060536
 20
7.550609617748591
 30
0.0
 10
25.61599255252656
 20
7.454214570847888
 30
0.0
 10
25.71030590301221
 20
7.424087051459977
 30
0.0
 10
25.89967418955984
 20
7.367884214203215
 30
0.0
 10
25.99471042507465
 20
7.341809603009835
 30
0.0
 10
26.18541246233485
 20
7.293743498668817
 30
0.0
 10
26.28106612219344
 20
7.271753041318447
 30
0.0
 10
26.42500787907179
 20
7.241845237596052
 30
0.0
 10
26.47312241210337
 20
7.232387597624168
 30
0.0
 10
26.56941521679068
 20
7.214503782666881
 30
0.0
 10
26.61761896635122
 20
7.206076791127649
 30
0.0
 10
26.66589229153796
 20
7.198165922485223
 30
0.0
  0
LINE
  5
3AF
330
1F
100
AcDbEntity
  8
0
  6
Continuous
100
AcDbLine
 10
30.87076584871069
 20
7.968359395242387
 30
0.0
 11
30.87067849951786
 21
7.968369341707223
 31
0.0
  0
LINE
  5
3B0
330
1F
100
AcDbEntity
  8
0
  6
Continuous
100
AcDbLine
 10
23.84175278434359
 20
7.968369342680141
 30
0.0
 11
23.84166544692608
 21
7.96835939755617
 31
0.0
  0
SPLINE
  5
3B1
330
1F
100
AcDbEntity
  8
0
  6
Continuous
100
AcDbSpline
210
0.0
220
0.0
230
1.0
 70
     8
 71
     3
 72
    11
 73
     7
 74
     0
 42
0.0000000001
 43
0.0000000001
 40
0.0
 40
0.0
 40
0.0
 40
0.0
 40
0.2804543794881278
 40
0.5609063876531177
 40
0.84135962808097
 40
1.0
 40
1.0
 40
1.0
 40
1.0
 10
28.57306858639053
 20
7.243705442531499
 30
0.0
 10
28.70197460540802
 20
7.266975719364715
 30
0.0
 10
28.95978555350522
 20
7.313516076274211
 30
0.0
 10
29.34170671152758
 20
7.406265961537265
 30
0.0
 10
29.66556983934465
 20
7.496507018777002
 30
0.0
 10
29.85936347667342
 20
7.563564784577465
 30
0.0
 10
29.92937928614298
 20
7.587792121545049
 30
0.0
  0
LINE
  5
3B2
330
1F
100
AcDbEntity
  8
0
  6
Continuous
100
AcDbLine
 10
28.56232748258952
 20
7.242199239265922
 30
0.0
 11
28.57306858639053
 21
7.243705442531499
 31
0.0
  0
SPLINE
  5
3B3
330
1F
100
AcDbEntity
  8
0
  6
Continuous
100
AcDbSpline
210
0.0
220
0.0
230
1.0
 70
     8
 71
     3
 72
    10
 73
     6
 74
     0
 42
0.0000000001
 43
0.0000000001
 40
0.0
 40
0.0
 40
0.0
 40
0.0
 40
0.3368845467971312
 40
0.6788374053368333
 40
1.0
 40
1.0
 40
1.0
 40
1.0
 10
28.04796311265585
 20
7.179972341780135
 30
0.0
 10
28.06153059672121
 20
7.179962664511045
 30
0.0
 10
28.08886968296734
 20
7.179943164381683
 30
0.0
 10
28.11202730075181
 20
7.179764277443339
 30
0.0
 10
28.11523120094186
 20
7.179796322012897
 30
0.0
 10
28.11678292604961
 20
7.179811841960528
 30
0.0
  0
SPLINE
  5
3B4
330
1F
100
AcDbEntity
  8
0
  6
Continuous
100
AcDbSpline
210
0.0
220
0.0
230
1.0
 70
     8
 71
     3
 72
    10
 73
     6
 74
     0
 42
0.0000000001
 43
0.0000000001
 40
0.0
 40
0.0
 40
0.0
 40
0.0
 40
0.1098579632044733
 40
0.5744685343188292
 40
1.0
 40
1.0
 40
1.0
 40
1.0
 10
24.90558867584676
 20
7.546402890199324
 30
0.0
 10
24.93489006560117
 20
7.536384531259223
 30
0.0
 10
25.08811269903367
 20
7.483996594975621
 30
0.0
 10
25.35996350944412
 20
7.408380824075969
 30
0.0
 10
25.60443180513486
 20
7.351966629356546
 30
0.0
 10
25.7212996170993
 20
7.324997882828633
 30
0.0
  0
SPLINE
  5
3B5
330
1F
100
AcDbEntity
  8
0
  6
Continuous
100
AcDbSpline
210
0.0
220
0.0
230
1.0
 70
     8
 71
     3
 72
    10
 73
     6
 74
     0
 42
0.0000000001
 43
0.0000000001
 40
0.0
 40
0.0
 40
0.0
 40
0.0
 40
0.3137831562844775
 40
0.6630015144221913
 40
1.0
 40
1.0
 40
1.0
 40
1.0
 10
26.59564291229132
 20
7.17981166065018
 30
0.0
 10
26.59713438623903
 20
7.179796005309455
 30
0.0
 10
26.60028576471888
 20
7.179762926686834
 30
0.0
 10
26.62327833379847
 20
7.179942865254361
 30
0.0
 10
26.65090219120794
 20
7.179962633613861
 30
0.0
 10
26.66446816266152
 20
7.179972341780135
 30
0.0
  0
SPLINE
  5
3B6
330
1F
100
AcDbEntity
  8
0
  6
Continuous
100
AcDbSpline
210
0.0
220
0.0
230
1.0
 70
     8
 71
     3
 72
     8
 73
     4
 74
     0
 42
0.0000000001
 43
0.0000000001
 40
0.0
 40
0.0
 40
0.0
 40
0.0
 40
1.0
 40
1.0
 40
1.0
 40
1.0
 10
26.59499436493748
 20
7.179813104519631
 30
0.0
 10
26.59499414200158
 20
7.179813359108266
 30
0.0
 10
26.59499399488468
 20
7.179813613791935
 30
0.0
 10
26.59499392359462
 20
7.179813868571514
 30
0.0
  0
SPLINE
  5
3B7
330
1F
100
AcDbEntity
  8
0
  6
Continuous
100
AcDbSpline
210
0.0
220
0.0
230
1.0
 70
     8
 71
     3
 72
     8
 73
     4
 74
     0
 42
0.0000000001
 43
0.0000000001
 40
0.0
 40
0.0
 40
0.0
 40
0.0
 40
1.0
 40
1.0
 40
1.0
 40
1.0
 10
28.11743691037991
 20
7.179813104519631
 30
0.0
 10
28.1174371333158
 20
7.179813359108266
 30
0.0
 10
28.1174372804327
 20
7.179813613791935
 30
0.0
 10
28.11743735172275
 20
7.179813868571514
 30
0.0
  0
LINE
  5
3B8
330
1F
100
AcDbEntity
  8
0
  6
Continuous
100
AcDbLine
 10
27.35621563765869
 20
7.08106448082912
 30
0.0
 11
26.70660933844609
 21
7.08106448082912
 31
0.0
  0
LINE
  5
3B9
330
1F
100
AcDbEntity
  8
0
  6
Continuous
100
AcDbLine
 10
28.00582193687129
 20
7.08106448082912
 30
0.0
 11
27.35621563765869
 21
7.08106448082912
 31
0.0
  0
LINE
  5
3BA
330
1F
100
AcDbEntity
  8
0
  6
Continuous
100
AcDbLine
 10
27.35621563765869
 20
6.462399950617907
 30
0.0
 11
28.00582193687129
 21
6.462399950617907
 31
0.0
  0
LINE
  5
3BB
330
1F
100
AcDbEntity
  8
0
  6
Continuous
100
AcDbLine
 10
26.70660933844609
 20
6.462399950617907
 30
0.0
 11
27.35621563765869
 21
6.462399950617907
 31
0.0
  0
SPLINE
  5
3BC
330
1F
100
AcDbEntity
  8
0
  6
Continuous
100
AcDbSpline
210
0.0
220
0.0
230
1.0
 70
     8
 71
     3
 72
    14
 73
    10
 74
     0
 42
0.0000000001
 43
0.0000000001
 40
0.0
 40
0.0
 40
0.0
 40
0.0
 40
0.5000000000000002
 40
0.5000000000000002
 40
0.7500000000000001
 40
0.7500000000000001
 40
0.875
 40
0.875
 40
1.0
 40
1.0
 40
1.0
 40
1.0
 10
28.57178136103407
 20
7.273751567522879
 30
0.0
 10
28.57223287850294
 20
7.2632573814329
 30
0.0
 10
28.57256570810474
 20
7.255710979294256
 30
0.0
 10
28.57288896316834
 20
7.248379996951918
 30
0.0
 10
28.57296722202913
 20
7.246600610591869
 30
0.0
 10
28.57303949525867
 20
7.244846837163436
 30
0.0
 10
28.57305616548498
 20
7.244413281038049
 30
0.0
 10
28.5730741591143
 20
7.243842688463061
 30
0.0
 10
28.57307478141423
 20
7.24371509924061
 30
0.0
 10
28.57306879337713
 20
7.243704101497129
 30
0.0
  0
SPLINE
  5
3BD
330
1F
100
AcDbEntity
  8
0
  6
Continuous
100
AcDbSpline
210
0.0
220
0.0
230
1.0
 70
    24
 71
     3
 72
    10
 73
     6
 74
     0
 42
0.0000000001
 43
0.0000000001
 40
0.0
 40
0.0
 40
0.0
 40
0.0
 40
0.2057331956988455
 40
0.6943711027632226
 40
1.0
 40
1.0
 40
1.0
 40
1.0
 10
28.7171077324946
 20
9.74980152541692
 30
0.0
 10
28.87375165550809
 20
9.74980152541692
 30
0.0
 10
29.40244131686566
 20
9.74980152541692
 30
0.0
 10
30.16372216852118
 20
9.74980152541692
 30
0.0
 10
30.76824133553472
 20
9.749801525416913
 30
0.0
 10
31.00085652903435
 20
9.749801525416913
 30
0.0
  0
SPLINE
  5
3BE
330
1F
100
AcDbEntity
  8
0
  6
Continuous
100
AcDbSpline
210
0.0
220
0.0
230
1.0
 70
    24
 71
     3
 72
    12
 73
     8
 74
     0
 42
0.0000000001
 43
0.0000000001
 40
0.0
 40
0.0
 40
0.0
 40
0.0
 40
0.1986926853420652
 40
0.3590330745661525
 40
0.6186390415775477
 40
0.7942581874985391
 40
1.0
 40
1.0
 40
1.0
 40
1.0
 10
23.71157494313342
 20
9.74980152541692
 30
0.0
 10
23.86280339627479
 20
9.74980152541692
 30
0.0
 10
24.13606970398891
 20
9.74980152541692
 30
0.0
 10
24.60697797706445
 20
9.74980152541692
 30
0.0
 10
25.06035629431667
 20
9.74980152541692
 30
0.0
 10
25.54832649715717
 20
9.74980152541692
 30
0.0
 10
25.83867966038228
 20
9.74980152541692
 30
0.0
 10
25.99532334597239
 20
9.74980152541692
 30
0.0
  0
ARC
  5
3BF
330
1F
100
AcDbEntity
  8
0
  6
Continuous
100
AcDbCircle
 10
26.94446652953846
 20
9.67868320554011
 30
0.0
 40
1.767569704206358
100
AcDbArc
 50
358.6102348084767
 51
2.305887529404208
  0
ARC
  5
3C0
330
1F
100
AcDbEntity
  8
0
  6
Continuous
100
AcDbCircle
 10
30.3573261880546
 20
9.664344361419964
 30
0.0
 40
0.6545435719908911
100
AcDbArc
 50
357.5017265451752
 51
7.501133340120507
  0
ARC
  5
3C1
330
1F
100
AcDbEntity
  8
0
  6
Continuous
100
AcDbCircle
 10
27.77463287556865
 20
9.678664434340632
 30
0.0
 40
1.774235426398381
100
AcDbArc
 50
177.7021611061402
 51
181.3839365286681
  0
ARC
  5
3C2
330
1F
100
AcDbEntity
  8
0
  6
Continuous
100
AcDbCircle
 10
24.35381074015265
 20
9.664382334033327
 30
0.0
 40
0.6532521171250636
100
AcDbArc
 50
172.4873183308974
 51
182.5065492964794
  0
LINE
  5
3C3
330
1F
100
AcDbEntity
  8
0
  6
Continuous
100
AcDbLine
 10
21.52952982918543
 20
9.635813276996287
 30
0.0
 11
21.49484243984669
 21
9.635813276996287
 31
0.0
  0
LINE
  5
3C4
330
1F
100
AcDbEntity
  8
0
  6
Continuous
100
AcDbLine
 10
33.21758883547068
 20
9.63581327699628
 30
0.0
 11
33.18290144613195
 21
9.63581327699628
 31
0.0
  0
SPLINE
  5
3C5
330
1F
100
AcDbEntity
  8
0
  6
Continuous
100
AcDbSpline
210
0.0
220
0.0
230
1.0
 70
     8
 71
     3
 72
    18
 73
    14
 74
     0
 42
0.0000000001
 43
0.0000000001
 40
0.0
 40
0.0
 40
0.0
 40
0.0
 40
0.1156029703842937
 40
0.2525420352378266
 40
0.3894575603067414
 40
0.5263939596751082
 40
0.5948855877127225
 40
0.6641302446528505
 40
0.7350197261771193
 40
0.8059195783979113
 40
0.8705887445376953
 40
0.9352815649195303
 40
1.0
 40
1.0
 40
1.0
 40
1.0
 10
30.87067849951786
 20
7.968369341707223
 30
0.0
 10
30.87009224497336
 20
7.968511487630109
 30
0.0
 10
30.86881153466511
 20
7.968822014431857
 30
0.0
 10
30.84643124392543
 20
7.969959935526645
 30
0.0
 10
30.80820519996412
 20
7.971198274646866
 30
0.0
 10
30.76309865898247
 20
7.972002569206118
 30
0.0
 10
30.71880653904183
 20
7.972398907311372
 30
0.0
 10
30.68304717516121
 20
7.972295164037582
 30
0.0
 10
30.62978077296941
 20
7.971441414451966
 30
0.0
 10
30.56237666929903
 20
7.970689442026923
 30
0.0
 10
30.48284339906352
 20
7.969725806778498
 30
0.0
 10
30.39428902127472
 20
7.968606175729171
 30
0.0
 10
30.32553898649146
 20
7.967620267892137
 30
0.0
 10
30.29115716516529
 20
7.967127216401998
 30
0.0
  0
SPLINE
  5
3C6
330
1F
100
AcDbEntity
  8
0
  6
Continuous
100
AcDbSpline
210
0.0
220
0.0
230
1.0
 70
     8
 71
     3
 72
    18
 73
    14
 74
     0
 42
0.0000000001
 43
0.0000000001
 40
0.0
 40
0.0
 40
0.0
 40
0.0
 40
0.0647184491874351
 40
0.129411283670652
 40
0.1940804639066623
 40
0.2649803315818109
 40
0.3358698285581758
 40
0.40511450059187
 40
0.4736061435589093
 40
0.6105425727759128
 40
0.7474581276889144
 40
0.8843972223916649
 40
1.0
 40
1.0
 40
1.0
 40
1.0
 10
24.4212741101521
 20
7.967127216401998
 30
0.0
 10
24.38689228882592
 20
7.967620267892137
 30
0.0
 10
24.31814225404266
 20
7.968606175729171
 30
0.0
 10
24.22958787625383
 20
7.969725806778505
 30
0.0
 10
24.15005460601846
 20
7.97068944202693
 30
0.0
 10
24.0826505023475
 20
7.971441414451959
 30
0.0
 10
24.02938410015791
 20
7.972295164037646
 30
0.0
 10
23.99362473626925
 20
7.97239890731118
 30
0.0
 10
23.94933261636793
 20
7.972002569207191
 30
0.0
 10
23.9042260750871
 20
7.971198274638275
 30
0.0
 10
23.86600003236369
 20
7.969959935558037
 30
0.0
 10
23.84361974979531
 20
7.968822014959478
 30
0.0
 10
23.84233903866499
 20
7.968511488363503
 30
0.0
 10
23.84175278434359
 20
7.968369342680141
 30
0.0
  0
ENDSEC
  0
SECTION
  2
OBJECTS
  0
DICTIONARY
  5
C
330
0
100
AcDbDictionary
281
     1
  3
ACAD_CIP_PREVIOUS_PRODUCT_INFO
350
401
  3
ACAD_COLOR
350
3FA
  3
ACAD_GROUP
350
D
  3
ACAD_LAYOUT
350
1A
  3
ACAD_MATERIAL
350
3C8
  3
ACAD_MLEADERSTYLE
350
3FD
  3
ACAD_MLINESTYLE
350
17
  3
ACAD_PLOTSETTINGS
350
19
  3
ACAD_PLOTSTYLENAME
350
E
  3
ACAD_SCALELIST
350
47
  3
ACAD_TABLESTYLE
350
3FB
  3
ACAD_VISUALSTYLE
350
3E1
  3
ACDB_RECOMPOSE_DATA
350
433
  3
AcDbVariableDictionary
350
426
  0
DICTIONARY
  5
424
330
10
100
AcDbDictionary
280
     1
281
     1
  3
ADSK_XREC_LAYER_RECONCILED
360
425
  0
XRECORD
  5
401
102
{ACAD_REACTORS
330
C
102
}
330
C
100
AcDbXrecord
280
     1
300
ACD
300
2012
300
85730ACD_2012_0F
  0
DICTIONARY
  5
3FA
102
{ACAD_REACTORS
330
C
102
}
330
C
100
AcDbDictionary
281
     1
  0
DICTIONARY
  5
D
102
{ACAD_REACTORS
330
C
102
}
330
C
100
AcDbDictionary
281
     1
  0
DICTIONARY
  5
1A
102
{ACAD_REACTORS
330
C
102
}
330
C
100
AcDbDictionary
281
     1
  3
Layout1
350
1E
  3
Layout2
350
26
  3
Model
350
22
  0
DICTIONARY
  5
3C8
102
{ACAD_REACTORS
330
C
102
}
330
C
100
AcDbDictionary
281
     1
  3
ByBlock
350
3D1
  3
ByLayer
350
3C9
  3
Global
350
3D9
  0
DICTIONARY
  5
3FD
102
{ACAD_REACTORS
330
C
102
}
330
C
100
AcDbDictionary
281
     1
  3
Standard
350
3FE
  0
DICTIONARY
  5
17
102
{ACAD_REACTORS
330
C
102
}
330
C
100
AcDbDictionary
281
     1
  3
Standard
350
18
  0
DICTIONARY
  5
19
102
{ACAD_REACTORS
330
C
102
}
330
C
100
AcDbDictionary
281
     1
  0
ACDBDICTIONARYWDFLT
  5
E
102
{ACAD_REACTORS
330
C
102
}
330
C
100
AcDbDictionary
281
     1
  3
Normal
350
F
100
AcDbDictionaryWithDefault
340
F
  0
DICTIONARY
  5
47
102
{ACAD_REACTORS
330
C
102
}
330
C
100
AcDbDictionary
281
     1
  3
A0
350
48
  3
A1
350
49
  3
A2
350
4A
  3
A3
350
4B
  3
A4
350
4C
  3
A5
350
4D
  3
A6
350
4E
  3
A7
350
4F
  3
A8
350
50
  3
A9
350
51
  3
B0
350
52
  3
B1
350
53
  3
B2
350
54
  3
B3
350
55
  3
B4
350
56
  3
B5
350
57
  3
B6
350
58
  3
B7
350
59
  3
B8
350
5A
  3
B9
350
5B
  3
C0
350
5C
  3
C1
350
5D
  3
C2
350
5E
  3
C3
350
5F
  3
C4
350
60
  3
C5
350
61
  3
C6
350
62
  3
C7
350
63
  3
C8
350
64
  3
C9
350
65
  3
D0
350
66
  3
D1
350
67
  3
D2
350
68
  0
DICTIONARY
  5
3FB
102
{ACAD_REACTORS
330
C
102
}
330
C
100
AcDbDictionary
281
     1
  3
Standard
350
3FC
  0
DICTIONARY
  5
3E1
102
{ACAD_REACTORS
330
C
102
}
330
C
100
AcDbDictionary
281
     1
  3
2dWireframe
350
3E7
  3
Basic
350
3E6
  3
Brighten
350
3ED
  3
ColorChange
350
3F1
  3
Conceptual
350
3EA
  3
Dim
350
3EC
  3
EdgeColorOff
350
3F9
  3
Facepattern
350
3F0
  3
Flat
350
3E2
  3
FlatWithEdges
350
3E3
  3
Gouraud
350
3E4
  3
GouraudWithEdges
350
3E5
  3
Hidden
350
3E9
  3
JitterOff
350
3F7
  3
Linepattern
350
3EF
  3
OverhangOff
350
3F8
  3
Realistic
350
3EB
  3
Shaded
350
3F6
  3
Shaded with edges
350
3F5
  3
Shades of Gray
350
3F2
  3
Sketchy
350
3F3
  3
Thicken
350
3EE
  3
Wireframe
350
3E8
  3
X-Ray
350
3F4
  0
XRECORD
  5
433
102
{ACAD_REACTORS
330
C
102
}
330
C
100
AcDbXrecord
280
     1
 90
        1
330
3FC
  0
DICTIONARY
  5
426
102
{ACAD_REACTORS
330
C
102
}
330
C
100
AcDbDictionary
281
     1
  3
CANNOSCALE
350
42A
  3
CMLEADERSTYLE
350
428
  3
CTABLESTYLE
350
427
  3
LAYEREVAL
350
42C
  3
LAYERNOTIFY
350
42D
  3
LIGHTINGUNITS
350
42B
  3
MSLTSCALE
350
429
  0
XRECORD
  5
425
102
{ACAD_REACTORS
330
424
102
}
330
424
100
AcDbXrecord
280
     1
290
     1
  0
LAYOUT
  5
1E
102
{ACAD_REACTORS
330
1A
102
}
330
1A
100
AcDbPlotSettings
  1

  2
none_device
  4

  6

 40
0.0
 41
0.0
 42
0.0
 43
0.0
 44
0.0
 45
0.0
 46
0.0
 47
0.0
 48
0.0
 49
0.0
140
0.0
141
0.0
142
1.0
143
1.0
 70
   688
 72
     0
 73
     0
 74
     5
  7

 75
    16
147
1.0
 76
     0
 77
     2
 78
   300
148
0.0
149
0.0
100
AcDbLayout
  1
Layout1
 70
     1
 71
     1
 10
0.0
 20
0.0
 11
12.0
 21
9.0
 12
0.0
 22
0.0
 32
0.0
 14
1.000000000000000E+20
 24
1.000000000000000E+20
 34
1.000000000000000E+20
 15
-1.000000000000000E+20
 25
-1.000000000000000E+20
 35
-1.000000000000000E+20
146
0.0
 13
0.0
 23
0.0
 33
0.0
 16
1.0
 26
0.0
 36
0.0
 17
0.0
 27
1.0
 37
0.0
 76
     0
330
1B
  0
LAYOUT
  5
26
102
{ACAD_REACTORS
330
1A
102
}
330
1A
100
AcDbPlotSettings
  1

  2
none_device
  4

  6

 40
0.0
 41
0.0
 42
0.0
 43
0.0
 44
0.0
 45
0.0
 46
0.0
 47
0.0
 48
0.0
 49
0.0
140
0.0
141
0.0
142
1.0
143
1.0
 70
   688
 72
     0
 73
     0
 74
     5
  7

 75
    16
147
1.0
 76
     0
 77
     2
 78
   300
148
0.0
149
0.0
100
AcDbLayout
  1
Layout2
 70
     1
 71
     2
 10
0.0
 20
0.0
 11
0.0
 21
0.0
 12
0.0
 22
0.0
 32
0.0
 14
0.0
 24
0.0
 34
0.0
 15
0.0
 25
0.0
 35
0.0
146
0.0
 13
0.0
 23
0.0
 33
0.0
 16
1.0
 26
0.0
 36
0.0
 17
0.0
 27
1.0
 37
0.0
 76
     0
330
23
  0
LAYOUT
  5
22
102
{ACAD_REACTORS
330
1A
102
}
330
1A
100
AcDbPlotSettings
  1

  2
none_device
  4
Letter_(8.50_x_11.00_Inches)
  6

 40
6.349999999999999
 41
6.349999999999999
 42
6.350005079999999
 43
6.350005079999999
 44
215.9
 45
279.4
 46
0.0
 47
0.0
 48
0.0
 49
0.0
140
0.0
141
0.0
142
1.0
143
1.0
 70
  1712
 72
     0
 73
     0
 74
     0
  7

 75
     0
147
1.0
 76
     0
 77
     2
 78
   300
148
0.0
149
0.0
100
AcDbLayout
  1
Model
 70
     1
 71
     0
 10
0.0
 20
0.0
 11
46.81102362204724
 21
33.11023622047244
 12
0.0
 22
0.0
 32
0.0
 14
0.0
 24
0.0
 34
0.0
 15
46.81102362204724
 25
33.11023622047244
 35
0.0
146
0.0
 13
0.0
 23
0.0
 33
0.0
 16
1.0
 26
0.0
 36
0.0
 17
0.0
 27
1.0
 37
0.0
 76
     0
330
1F
331
29
  0
MATERIAL
  5
3D1
102
{ACAD_XDICTIONARY
360
3D2
102
}
102
{ACAD_REACTORS
330
3C8
102
}
330
3C8
100
AcDbMaterial
  1
ByBlock
 72
     0
 43
0.0208333333333333
 43
0.0
 43
0.0
 43
0.0
 43
0.0
 43
0.0208333333333333
 43
0.0
 43
0.0
 43
0.0
 43
0.0
 43
1.0
 43
0.0
 43
0.0
 43
0.0
 43
0.0
 43
1.0
 77
     0
 47
0.0208333333333333
 47
0.0
 47
0.0
 47
0.0
 47
0.0
 47
0.0208333333333333
 47
0.0
 47
0.0
 47
0.0
 47
0.0
 47
1.0
 47
0.0
 47
0.0
 47
0.0
 47
0.0
 47
1.0
171
     0
 49
0.0208333333333333
 49
0.0
 49
0.0
 49
0.0
 49
0.0
 49
0.0208333333333333
 49
0.0
 49
0.0
 49
0.0
 49
0.0
 49
1.0
 49
0.0
 49
0.0
 49
0.0
 49
0.0
 49
1.0
175
     0
142
0.0208333333333333
142
0.0
142
0.0
142
0.0
142
0.0
142
0.0208333333333333
142
0.0
142
0.0
142
0.0
142
0.0
142
1.0
142
0.0
142
0.0
142
0.0
142
0.0
142
1.0
179
     0
144
0.0208333333333333
144
0.0
144
0.0
144
0.0
144
0.0
144
0.0208333333333333
144
0.0
144
0.0
144
0.0
144
0.0
144
1.0
144
0.0
144
0.0
144
0.0
144
0.0
144
1.0
147
0.0208333333333333
147
0.0
147
0.0
147
0.0
147
0.0
147
0.0208333333333333
147
0.0
147
0.0
147
0.0
147
0.0
147
1.0
147
0.0
147
0.0
147
0.0
147
0.0
147
1.0
  0
MATERIAL
  5
3C9
102
{ACAD_XDICTIONARY
360
3CA
102
}
102
{ACAD_REACTORS
330
3C8
102
}
330
3C8
100
AcDbMaterial
  1
ByLayer
 72
     0
 43
0.0208333333333333
 43
0.0
 43
0.0
 43
0.0
 43
0.0
 43
0.0208333333333333
 43
0.0
 43
0.0
 43
0.0
 43
0.0
 43
1.0
 43
0.0
 43
0.0
 43
0.0
 43
0.0
 43
1.0
 77
     0
 47
0.0208333333333333
 47
0.0
 47
0.0
 47
0.0
 47
0.0
 47
0.0208333333333333
 47
0.0
 47
0.0
 47
0.0
 47
0.0
 47
1.0
 47
0.0
 47
0.0
 47
0.0
 47
0.0
 47
1.0
171
     0
 49
0.0208333333333333
 49
0.0
 49
0.0
 49
0.0
 49
0.0
 49
0.0208333333333333
 49
0.0
 49
0.0
 49
0.0
 49
0.0
 49
1.0
 49
0.0
 49
0.0
 49
0.0
 49
0.0
 49
1.0
175
     0
142
0.0208333333333333
142
0.0
142
0.0
142
0.0
142
0.0
142
0.0208333333333333
142
0.0
142
0.0
142
0.0
142
0.0
142
1.0
142
0.0
142
0.0
142
0.0
142
0.0
142
1.0
179
     0
144
0.0208333333333333
144
0.0
144
0.0
144
0.0
144
0.0
144
0.0208333333333333
144
0.0
144
0.0
144
0.0
144
0.0
144
1.0
144
0.0
144
0.0
144
0.0
144
0.0
144
1.0
147
0.0208333333333333
147
0.0
147
0.0
147
0.0
147
0.0
147
0.0208333333333333
147
0.0
147
0.0
147
0.0
147
0.0
147
1.0
147
0.0
147
0.0
147
0.0
147
0.0
147
1.0
  0
MATERIAL
  5
3D9
102
{ACAD_XDICTIONARY
360
3DA
102
}
102
{ACAD_REACTORS
330
3C8
102
}
330
3C8
100
AcDbMaterial
  1
Global
 72
     0
 43
0.0208333333333333
 43
0.0
 43
0.0
 43
0.0
 43
0.0
 43
0.0208333333333333
 43
0.0
 43
0.0
 43
0.0
 43
0.0
 43
1.0
 43
0.0
 43
0.0
 43
0.0
 43
0.0
 43
1.0
 77
     0
 47
0.0208333333333333
 47
0.0
 47
0.0
 47
0.0
 47
0.0
 47
0.0208333333333333
 47
0.0
 47
0.0
 47
0.0
 47
0.0
 47
1.0
 47
0.0
 47
0.0
 47
0.0
 47
0.0
 47
1.0
171
     0
 49
0.0208333333333333
 49
0.0
 49
0.0
 49
0.0
 49
0.0
 49
0.0208333333333333
 49
0.0
 49
0.0
 49
0.0
 49
0.0
 49
1.0
 49
0.0
 49
0.0
 49
0.0
 49
0.0
 49
1.0
175
     0
142
0.0208333333333333
142
0.0
142
0.0
142
0.0
142
0.0
142
0.0208333333333333
142
0.0
142
0.0
142
0.0
142
0.0
142
1.0
142
0.0
142
0.0
142
0.0
142
0.0
142
1.0
179
     0
144
0.0208333333333333
144
0.0
144
0.0
144
0.0
144
0.0
144
0.0208333333333333
144
0.0
144
0.0
144
0.0
144
0.0
144
1.0
144
0.0
144
0.0
144
0.0
144
0.0
144
1.0
147
0.0208333333333333
147
0.0
147
0.0
147
0.0
147
0.0
147
0.0208333333333333
147
0.0
147
0.0
147
0.0
147
0.0
147
1.0
147
0.0
147
0.0
147
0.0
147
0.0
147
1.0
  0
MLEADERSTYLE
  5
3FE
102
{ACAD_XDICTIONARY
360
431
102
}
102
{ACAD_REACTORS
330
3FD
102
}
330
3FD
100
AcDbMLeaderStyle
179
     2
170
     2
171
     1
172
     0
 90
        2
 40
0.0
 41
0.0
173
     1
 91
-1056964608
340
14
 92
       -2
290
     1
 42
0.09
291
     1
 43
0.36
  3
Standard
 44
0.18
300

342
11
174
     1
178
     6
175
     1
176
     0
 93
-1056964608
 45
0.18
292
     0
297
     0
 46
0.18
 94
-1056964608
 47
1.0
 49
1.0
140
1.0
293
     1
141
0.0
294
     1
177
     0
142
1.0
295
     0
296
     0
143
0.125
271
     0
272
     9
273
     9
  0
MLINESTYLE
  5
18
102
{ACAD_REACTORS
330
17
102
}
330
17
100
AcDbMlineStyle
  2
STANDARD
 70
     0
  3

 62
   256
 51
90.0
 52
90.0
 71
     2
 49
0.5
 62
   256
  6
BYLAYER
 49
-0.5
 62
   256
  6
BYLAYER
  0
ACDBPLACEHOLDER
  5
F
102
{ACAD_REACTORS
330
E
102
}
330
E
  0
SCALE
  5
48
102
{ACAD_REACTORS
330
47
102
}
330
47
100
AcDbScale
 70
     0
300
1:1
140
1.0
141
1.0
290
     1
  0
SCALE
  5
49
102
{ACAD_REACTORS
330
47
102
}
330
47
100
AcDbScale
 70
     0
300
1:2
140
1.0
141
2.0
290
     0
  0
SCALE
  5
4A
102
{ACAD_REACTORS
330
47
102
}
330
47
100
AcDbScale
 70
     0
300
1:4
140
1.0
141
4.0
290
     0
  0
SCALE
  5
4B
102
{ACAD_REACTORS
330
47
102
}
330
47
100
AcDbScale
 70
     0
300
1:5
140
1.0
141
5.0
290
     0
  0
SCALE
  5
4C
102
{ACAD_REACTORS
330
47
102
}
330
47
100
AcDbScale
 70
     0
300
1:8
140
1.0
141
8.0
290
     0
  0
SCALE
  5
4D
102
{ACAD_REACTORS
330
47
102
}
330
47
100
AcDbScale
 70
     0
300
1:10
140
1.0
141
10.0
290
     0
  0
SCALE
  5
4E
102
{ACAD_REACTORS
330
47
102
}
330
47
100
AcDbScale
 70
     0
300
1:16
140
1.0
141
16.0
290
     0
  0
SCALE
  5
4F
102
{ACAD_REACTORS
330
47
102
}
330
47
100
AcDbScale
 70
     0
300
1:20
140
1.0
141
20.0
290
     0
  0
SCALE
  5
50
102
{ACAD_REACTORS
330
47
102
}
330
47
100
AcDbScale
 70
     0
300
1:30
140
1.0
141
30.0
290
     0
  0
SCALE
  5
51
102
{ACAD_REACTORS
330
47
102
}
330
47
100
AcDbScale
 70
     0
300
1:40
140
1.0
141
40.0
290
     0
  0
SCALE
  5
52
102
{ACAD_REACTORS
330
47
102
}
330
47
100
AcDbScale
 70
     0
300
1:50
140
1.0
141
50.0
290
     0
  0
SCALE
  5
53
102
{ACAD_REACTORS
330
47
102
}
330
47
100
AcDbScale
 70
     0
300
1:100
140
1.0
141
100.0
290
     0
  0
SCALE
  5
54
102
{ACAD_REACTORS
330
47
102
}
330
47
100
AcDbScale
 70
     0
300
2:1
140
2.0
141
1.0
290
     0
  0
SCALE
  5
55
102
{ACAD_REACTORS
330
47
102
}
330
47
100
AcDbScale
 70
     0
300
4:1
140
4.0
141
1.0
290
     0
  0
SCALE
  5
56
102
{ACAD_REACTORS
330
47
102
}
330
47
100
AcDbScale
 70
     0
300
8:1
140
8.0
141
1.0
290
     0
  0
SCALE
  5
57
102
{ACAD_REACTORS
330
47
102
}
330
47
100
AcDbScale
 70
     0
300
10:1
140
10.0
141
1.0
290
     0
  0
SCALE
  5
58
102
{ACAD_REACTORS
330
47
102
}
330
47
100
AcDbScale
 70
     0
300
100:1
140
100.0
141
1.0
290
     0
  0
SCALE
  5
59
102
{ACAD_REACTORS
330
47
102
}
330
47
100
AcDbScale
 70
     0
300
1/128" = 1'-0"
140
0.0078125
141
12.0
290
     0
  0
SCALE
  5
5A
102
{ACAD_REACTORS
330
47
102
}
330
47
100
AcDbScale
 70
     0
300
1/64" = 1'-0"
140
0.015625
141
12.0
290
     0
  0
SCALE
  5
5B
102
{ACAD_REACTORS
330
47
102
}
330
47
100
AcDbScale
 70
     0
300
1/32" = 1'-0"
140
0.03125
141
12.0
290
     0
  0
SCALE
  5
5C
102
{ACAD_REACTORS
330
47
102
}
330
47
100
AcDbScale
 70
     0
300
1/16" = 1'-0"
140
0.0625
141
12.0
290
     0
  0
SCALE
  5
5D
102
{ACAD_REACTORS
330
47
102
}
330
47
100
AcDbScale
 70
     0
300
3/32" = 1'-0"
140
0.09375
141
12.0
290
     0
  0
SCALE
  5
5E
102
{ACAD_REACTORS
330
47
102
}
330
47
100
AcDbScale
 70
     0
300
1/8" = 1'-0"
140
0.125
141
12.0
290
     0
  0
SCALE
  5
5F
102
{ACAD_REACTORS
330
47
102
}
330
47
100
AcDbScale
 70
     0
300
3/16" = 1'-0"
140
0.1875
141
12.0
290
     0
  0
SCALE
  5
60
102
{ACAD_REACTORS
330
47
102
}
330
47
100
AcDbScale
 70
     0
300
1/4" = 1'-0"
140
0.25
141
12.0
290
     0
  0
SCALE
  5
61
102
{ACAD_REACTORS
330
47
102
}
330
47
100
AcDbScale
 70
     0
300
3/8" = 1'-0"
140
0.375
141
12.0
290
     0
  0
SCALE
  5
62
102
{ACAD_REACTORS
330
47
102
}
330
47
100
AcDbScale
 70
     0
300
1/2" = 1'-0"
140
0.5
141
12.0
290
     0
  0
SCALE
  5
63
102
{ACAD_REACTORS
330
47
102
}
330
47
100
AcDbScale
 70
     0
300
3/4" = 1'-0"
140
0.75
141
12.0
290
     0
  0
SCALE
  5
64
102
{ACAD_REACTORS
330
47
102
}
330
47
100
AcDbScale
 70
     0
300
1" = 1'-0"
140
1.0
141
12.0
290
     0
  0
SCALE
  5
65
102
{ACAD_REACTORS
330
47
102
}
330
47
100
AcDbScale
 70
     0
300
1-1/2" = 1'-0"
140
1.5
141
12.0
290
     0
  0
SCALE
  5
66
102
{ACAD_REACTORS
330
47
102
}
330
47
100
AcDbScale
 70
     0
300
3" = 1'-0"
140
3.0
141
12.0
290
     0
  0
SCALE
  5
67
102
{ACAD_REACTORS
330
47
102
}
330
47
100
AcDbScale
 70
     0
300
6" = 1'-0"
140
6.0
141
12.0
290
     0
  0
SCALE
  5
68
102
{ACAD_REACTORS
330
47
102
}
330
47
100
AcDbScale
 70
     0
300
1'-0" = 1'-0"
140
12.0
141
12.0
290
     0
  0
TABLESTYLE
  5
3FC
102
{ACAD_XDICTIONARY
360
42F
102
}
102
{ACAD_REACTORS
330
3FB
102
}
330
3FB
100
AcDbTableStyle
280
     0
  3
Standard
 70
     0
 71
     0
 40
0.06
 41
0.06
280
     0
281
     0
  7
Standard
140
0.18
170
     2
 62
     0
 63
     7
283
     0
 90
      512
 91
        0
  1

274
    -2
284
     1
 64
     0
275
    -2
285
     1
 65
     0
276
    -2
286
     1
 66
     0
277
    -2
287
     1
 67
     0
278
    -2
288
     1
 68
     0
279
    -2
289
     1
 69
     0
  7
Standard
140
0.25
170
     5
 62
     0
 63
     7
283
     0
 90
      512
 91
        0
  1

274
    -2
284
     1
 64
     0
275
    -2
285
     1
 65
     0
276
    -2
286
     1
 66
     0
277
    -2
287
     1
 67
     0
278
    -2
288
     1
 68
     0
279
    -2
289
     1
 69
     0
  7
Standard
140
0.18
170
     5
 62
     0
 63
     7
283
     0
 90
      512
 91
        0
  1

274
    -2
284
     1
 64
     0
275
    -2
285
     1
 65
     0
276
    -2
286
     1
 66
     0
277
    -2
287
     1
 67
     0
278
    -2
288
     1
 68
     0
279
    -2
289
     1
 69
     0
  0
VISUALSTYLE
  5
3E7
102
{ACAD_REACTORS
330
3E1
102
}
330
3E1
100
AcDbVisualStyle
  2
2dWireframe
 70
     4
177
     2
291
     0
 71
     0
176
     1
 72
     2
176
     1
 73
     0
176
     1
 90
        0
176
     1
 40
0.6
176
     1
 41
30.0
176
     1
 63
     7
421
 16777215
176
     1
 74
     1
176
     1
 91
        4
176
     1
 64
     7
176
     1
 65
   257
176
     1
 75
     1
176
     1
175
     1
176
     1
 42
1.0
176
     1
 92
        0
176
     1
 66
   257
176
     1
 43
1.0
176
     1
 76
     1
176
     1
 77
     6
176
     1
 78
     2
176
     1
 67
     7
176
     1
 79
     5
176
     1
170
     0
176
     1
171
     0
176
     1
290
     0
176
     1
 93
        1
176
     1
 44
0.0
176
     1
173
     0
176
     1
  0
VISUALSTYLE
  5
3E6
102
{ACAD_REACTORS
330
3E1
102
}
330
3E1
100
AcDbVisualStyle
  2
Basic
 70
     7
177
     2
291
     1
 71
     1
176
     1
 72
     0
176
     1
 73
     1
176
     1
 90
        0
176
     1
 40
0.6
176
     1
 41
30.0
176
     1
 63
     7
421
 16777215
176
     1
 74
     0
176
     1
 91
        4
176
     1
 64
     7
176
     1
 65
   257
176
     1
 75
     1
176
     1
175
     1
176
     1
 42
1.0
176
     1
 92
        8
176
     1
 66
     7
176
     1
 43
1.0
176
     1
 76
     1
176
     1
 77
     6
176
     1
 78
     2
176
     1
 67
     7
176
     1
 79
     5
176
     1
170
     0
176
     1
171
     0
176
     1
290
     0
176
     1
 93
        1
176
     1
 44
0.0
176
     1
173
     0
176
     1
  0
VISUALSTYLE
  5
3ED
102
{ACAD_REACTORS
330
3E1
102
}
330
3E1
100
AcDbVisualStyle
  2
Brighten
 70
    12
177
     2
291
     1
 71
     2
176
     1
 72
     2
176
     1
 73
     0
176
     1
 90
        0
176
     1
 40
0.6
176
     1
 41
30.0
176
     1
 63
     7
421
 16777215
176
     1
 74
     1
176
     1
 91
        4
176
     1
 64
     7
176
     1
 65
   257
176
     1
 75
     1
176
     1
175
     1
176
     1
 42
1.0
176
     1
 92
        8
176
     1
 66
     7
176
     1
 43
1.0
176
     1
 76
     1
176
     1
 77
     6
176
     1
 78
     2
176
     1
 67
     7
176
     1
 79
     5
176
     1
170
     0
176
     1
171
     0
176
     1
290
     0
176
     1
 93
        1
176
     1
 44
50.0
176
     1
173
     0
176
     1
  0
VISUALSTYLE
  5
3F1
102
{ACAD_REACTORS
330
3E1
102
}
330
3E1
100
AcDbVisualStyle
  2
ColorChange
 70
    16
177
     2
291
     1
 71
     2
176
     1
 72
     2
176
     1
 73
     3
176
     1
 90
        0
176
     1
 40
0.6
176
     1
 41
30.0
176
     1
 63
     8
421
  8421504
176
     1
 74
     1
176
     1
 91
        4
176
     1
 64
     7
176
     1
 65
   257
176
     1
 75
     1
176
     1
175
     1
176
     1
 42
1.0
176
     1
 92
        8
176
     1
 66
     8
424
  8421504
176
     1
 43
1.0
176
     1
 76
     1
176
     1
 77
     6
176
     1
 78
     2
176
     1
 67
     7
176
     1
 79
     5
176
     1
170
     0
176
     1
171
     0
176
     1
290
     0
176
     1
 93
        1
176
     1
 44
0.0
176
     1
173
     0
176
     1
  0
VISUALSTYLE
  5
3EA
102
{ACAD_REACTORS
330
3E1
102
}
330
3E1
100
AcDbVisualStyle
  2
Conceptual
 70
     9
177
     2
291
     0
 71
     3
176
     1
 72
     2
176
     1
 73
     0
176
     1
 90
        0
176
     1
 40
0.6
176
     1
 41
30.0
176
     1
 63
     7
421
 16777215
176
     1
 74
     2
176
     1
 91
        2
176
     1
 64
     7
176
     1
 65
   257
176
     1
 75
     1
176
     1
175
     1
176
     1
 42
179.0
176
     1
 92
        8
176
     1
 66
     7
176
     1
 43
1.0
176
     1
 76
     1
176
     1
 77
     6
176
     1
 78
     2
176
     1
 67
     7
176
     1
 79
     3
176
     1
170
     0
176
     1
171
     0
176
     1
290
     0
176
     1
 93
        1
176
     1
 44
0.0
176
     1
173
     0
176
     1
  0
VISUALSTYLE
  5
3EC
102
{ACAD_REACTORS
330
3E1
102
}
330
3E1
100
AcDbVisualStyle
  2
Dim
 70
    11
177
     2
291
     1
 71
     2
176
     1
 72
     2
176
     1
 73
     0
176
     1
 90
        0
176
     1
 40
0.6
176
     1
 41
30.0
176
     1
 63
     7
421
 16777215
176
     1
 74
     1
176
     1
 91
        4
176
     1
 64
     7
176
     1
 65
   257
176
     1
 75
     1
176
     1
175
     1
176
     1
 42
1.0
176
     1
 92
        8
176
     1
 66
     7
176
     1
 43
1.0
176
     1
 76
     1
176
     1
 77
     6
176
     1
 78
     2
176
     1
 67
     7
176
     1
 79
     5
176
     1
170
     0
176
     1
171
     0
176
     1
290
     0
176
     1
 93
        1
176
     1
 44
-50.0
176
     1
173
     0
176
     1
  0
VISUALSTYLE
  5
3F9
102
{ACAD_REACTORS
330
3E1
102
}
330
3E1
100
AcDbVisualStyle
  2
EdgeColorOff
 70
    22
177
     2
291
     1
 71
     2
176
     0
 72
     2
176
     0
 73
     0
176
     0
 90
        0
176
     0
 40
0.6
176
     0
 41
30.0
176
     0
 63
     7
421
 16777215
176
     0
 74
     1
176
     0
 91
        4
176
     0
 64
     7
176
     0
 65
   257
176
     0
 75
     1
176
     0
175
     1
176
     0
 42
1.0
176
     0
 92
        8
176
     2
 66
     7
176
     0
 43
1.0
176
     0
 76
     1
176
     0
 77
     6
176
     0
 78
     2
176
     0
 67
     7
176
     0
 79
     5
176
     0
170
     0
176
     0
171
     0
176
     0
290
     0
176
     0
 93
        1
176
     0
 44
0.0
176
     0
173
     0
176
     0
  0
VISUALSTYLE
  5
3F0
102
{ACAD_REACTORS
330
3E1
102
}
330
3E1
100
AcDbVisualStyle
  2
Facepattern
 70
    15
177
     2
291
     1
 71
     2
176
     1
 72
     2
176
     1
 73
     0
176
     1
 90
        0
176
     1
 40
0.6
176
     1
 41
30.0
176
     1
 63
     7
421
 16777215
176
     1
 74
     1
176
     1
 91
        4
176
     1
 64
     7
176
     1
 65
   257
176
     1
 75
     1
176
     1
175
     1
176
     1
 42
1.0
176
     1
 92
        8
176
     1
 66
     7
176
     1
 43
1.0
176
     1
 76
     1
176
     1
 77
     6
176
     1
 78
     2
176
     1
 67
     7
176
     1
 79
     5
176
     1
170
     0
176
     1
171
     0
176
     1
290
     0
176
     1
 93
        1
176
     1
 44
0.0
176
     1
173
     0
176
     1
  0
VISUALSTYLE
  5
3E2
102
{ACAD_REACTORS
330
3E1
102
}
330
3E1
100
AcDbVisualStyle
  2
Flat
 70
     0
177
     2
291
     1
 71
     2
176
     1
 72
     1
176
     1
 73
     1
176
     1
 90
        2
176
     1
 40
0.6
176
     1
 41
30.0
176
     1
 63
     7
421
 16777215
176
     1
 74
     0
176
     1
 91
        0
176
     1
 64
     7
176
     1
 65
   257
176
     1
 75
     1
176
     1
175
     1
176
     1
 42
1.0
176
     1
 92
        8
176
     1
 66
     7
176
     1
 43
1.0
176
     1
 76
     1
176
     1
 77
     6
176
     1
 78
     2
176
     1
 67
     7
176
     1
 79
     5
176
     1
170
     0
176
     1
171
     0
176
     1
290
     0
176
     1
 93
       13
176
     1
 44
0.0
176
     1
173
     0
176
     1
  0
VISUALSTYLE
  5
3E3
102
{ACAD_REACTORS
330
3E1
102
}
330
3E1
100
AcDbVisualStyle
  2
FlatWithEdges
 70
     1
177
     2
291
     1
 71
     2
176
     1
 72
     1
176
     1
 73
     1
176
     1
 90
        2
176
     1
 40
0.6
176
     1
 41
30.0
176
     1
 63
     7
421
 16777215
176
     1
 74
     1
176
     1
 91
        0
176
     1
 64
     7
176
     1
 65
   257
176
     1
 75
     1
176
     1
175
     1
176
     1
 42
1.0
176
     1
 92
        0
176
     1
 66
   257
176
     1
 43
1.0
176
     1
 76
     1
176
     1
 77
     6
176
     1
 78
     2
176
     1
 67
     7
176
     1
 79
     5
176
     1
170
     0
176
     1
171
     0
176
     1
290
     0
176
     1
 93
       13
176
     1
 44
0.0
176
     1
173
     0
176
     1
  0
VISUALSTYLE
  5
3E4
102
{ACAD_REACTORS
330
3E1
102
}
330
3E1
100
AcDbVisualStyle
  2
Gouraud
 70
     2
177
     2
291
     1
 71
     2
176
     1
 72
     2
176
     1
 73
     1
176
     1
 90
        2
176
     1
 40
0.6
176
     1
 41
30.0
176
     1
 63
     7
421
 16777215
176
     1
 74
     0
176
     1
 91
        0
176
     1
 64
     7
176
     1
 65
   257
176
     1
 75
     1
176
     1
175
     1
176
     1
 42
1.0
176
     1
 92
        0
176
     1
 66
     7
176
     1
 43
1.0
176
     1
 76
     1
176
     1
 77
     6
176
     1
 78
     2
176
     1
 67
     7
176
     1
 79
     5
176
     1
170
     0
176
     1
171
     0
176
     1
290
     0
176
     1
 93
       13
176
     1
 44
0.0
176
     1
173
     0
176
     1
  0
VISUALSTYLE
  5
3E5
102
{ACAD_REACTORS
330
3E1
102
}
330
3E1
100
AcDbVisualStyle
  2
GouraudWithEdges
 70
     3
177
     2
291
     1
 71
     2
176
     1
 72
     2
176
     1
 73
     1
176
     1
 90
        2
176
     1
 40
0.6
176
     1
 41
30.0
176
     1
 63
     7
421
 16777215
176
     1
 74
     1
176
     1
 91
        0
176
     1
 64
     7
176
     1
 65
   257
176
     1
 75
     1
176
     1
175
     1
176
     1
 42
1.0
176
     1
 92
        0
176
     1
 66
   257
176
     1
 43
1.0
176
     1
 76
     1
176
     1
 77
     6
176
     1
 78
     2
176
     1
 67
     7
176
     1
 79
     5
176
     1
170
     0
176
     1
171
     0
176
     1
290
     0
176
     1
 93
       13
176
     1
 44
0.0
176
     1
173
     0
176
     1
  0
VISUALSTYLE
  5
3E9
102
{ACAD_REACTORS
330
3E1
102
}
330
3E1
100
AcDbVisualStyle
  2
Hidden
 70
     6
177
     2
291
     0
 71
     1
176
     1
 72
     2
176
     1
 73
     2
176
     1
 90
        0
176
     1
 40
0.6
176
     1
 41
30.0
176
     1
 63
     7
421
 16777215
176
     1
 74
     2
176
     1
 91
        2
176
     1
 64
     7
176
     1
 65
   257
176
     1
 75
     2
176
     1
175
     1
176
     1
 42
40.0
176
     1
 92
        0
176
     1
 66
   257
176
     1
 43
1.0
176
     1
 76
     1
176
     1
 77
     6
176
     1
 78
     2
176
     1
 67
     7
176
     1
 79
     3
176
     1
170
     0
176
     1
171
     0
176
     1
290
     0
176
     1
 93
        1
176
     1
 44
0.0
176
     1
173
     0
176
     1
  0
VISUALSTYLE
  5
3F7
102
{ACAD_REACTORS
330
3E1
102
}
330
3E1
100
AcDbVisualStyle
  2
JitterOff
 70
    20
177
     2
291
     1
 71
     2
176
     0
 72
     2
176
     0
 73
     0
176
     0
 90
        0
176
     0
 40
0.6
176
     0
 41
30.0
176
     0
 63
     7
421
 16777215
176
     0
 74
     1
176
     0
 91
        4
176
     0
 64
     7
176
     0
 65
   257
176
     0
 75
     1
176
     0
175
     1
176
     0
 42
1.0
176
     0
 92
       10
176
     2
 66
     7
176
     0
 43
1.0
176
     0
 76
     1
176
     0
 77
     6
176
     0
 78
     2
176
     0
 67
     7
176
     0
 79
     5
176
     0
170
     0
176
     0
171
     0
176
     0
290
     0
176
     0
 93
        1
176
     0
 44
0.0
176
     0
173
     0
176
     0
  0
VISUALSTYLE
  5
3EF
102
{ACAD_REACTORS
330
3E1
102
}
330
3E1
100
AcDbVisualStyle
  2
Linepattern
 70
    14
177
     2
291
     1
 71
     2
176
     1
 72
     2
176
     1
 73
     0
176
     1
 90
        0
176
     1
 40
0.6
176
     1
 41
30.0
176
     1
 63
     7
421
 16777215
176
     1
 74
     1
176
     1
 91
        4
176
     1
 64
     7
176
     1
 65
   257
176
     1
 75
     7
176
     1
175
     7
176
     1
 42
1.0
176
     1
 92
        8
176
     1
 66
     7
176
     1
 43
1.0
176
     1
 76
     1
176
     1
 77
     6
176
     1
 78
     2
176
     1
 67
     7
176
     1
 79
     5
176
     1
170
     0
176
     1
171
     0
176
     1
290
     0
176
     1
 93
        1
176
     1
 44
0.0
176
     1
173
     0
176
     1
  0
VISUALSTYLE
  5
3F8
102
{ACAD_REACTORS
330
3E1
102
}
330
3E1
100
AcDbVisualStyle
  2
OverhangOff
 70
    21
177
     2
291
     1
 71
     2
176
     0
 72
     2
176
     0
 73
     0
176
     0
 90
        0
176
     0
 40
0.6
176
     0
 41
30.0
176
     0
 63
     7
421
 16777215
176
     0
 74
     1
176
     0
 91
        4
176
     0
 64
     7
176
     0
 65
   257
176
     0
 75
     1
176
     0
175
     1
176
     0
 42
1.0
176
     0
 92
        9
176
     2
 66
     7
176
     0
 43
1.0
176
     0
 76
     1
176
     0
 77
     6
176
     0
 78
     2
176
     0
 67
     7
176
     0
 79
     5
176
     0
170
     0
176
     0
171
     0
176
     0
290
     0
176
     0
 93
        1
176
     0
 44
0.0
176
     0
173
     0
176
     0
  0
VISUALSTYLE
  5
3EB
102
{ACAD_REACTORS
330
3E1
102
}
330
3E1
100
AcDbVisualStyle
  2
Realistic
 70
     8
177
     2
291
     0
 71
     2
176
     1
 72
     3
176
     1
 73
     0
176
     1
 90
        2
176
     1
 40
0.6
176
     1
 41
30.0
176
     1
 63
     7
421
 16777215
176
     1
 74
     0
176
     1
 91
        0
176
     1
 64
     7
176
     1
 65
   257
176
     1
 75
     1
176
     1
175
     1
176
     1
 42
1.0
176
     1
 92
        8
176
     1
 66
   257
176
     1
 43
1.0
176
     1
 76
     1
176
     1
 77
     6
176
     1
 78
     2
176
     1
 67
     7
176
     1
 79
     3
176
     1
170
     0
176
     1
171
     0
176
     1
290
     0
176
     1
 93
       13
176
     1
 44
0.0
176
     1
173
     0
176
     1
  0
VISUALSTYLE
  5
3F6
102
{ACAD_REACTORS
330
3E1
102
}
330
3E1
100
AcDbVisualStyle
  2
Shaded
 70
    27
177
     2
291
     0
 71
     2
176
     1
 72
     2
176
     1
 73
     1
176
     1
 90
        2
176
     1
 40
0.6
176
     1
 41
30.0
176
     1
 63
     7
421
 16777215
176
     1
 74
     0
176
     1
 91
        4
176
     1
 64
     7
176
     1
 65
   257
176
     1
 75
     1
176
     1
175
     1
176
     1
 42
1.0
176
     1
 92
        8
176
     1
 66
   257
176
     1
 43
1.0
176
     1
 76
     1
176
     1
 77
     6
176
     1
 78
     2
176
     1
 67
     8
425
  7895160
176
     1
 79
     3
176
     1
170
     0
176
     1
171
     0
176
     1
290
     0
176
     1
 93
        5
176
     1
 44
0.0
176
     1
173
     0
176
     1
  0
VISUALSTYLE
  5
3F5
102
{ACAD_REACTORS
330
3E1
102
}
330
3E1
100
AcDbVisualStyle
  2
Shaded with edges
 70
    26
177
     2
291
     0
 71
     2
176
     1
 72
     2
176
     1
 73
     1
176
     1
 90
        2
176
     1
 40
0.6
176
     1
 41
30.0
176
     1
 63
     7
421
 16777215
176
     1
 74
     1
176
     1
 91
       10
176
     1
 64
     7
176
     1
 65
   257
176
     1
 75
     2
176
     1
175
     1
176
     1
 42
1.0
176
     1
 92
        8
176
     1
 66
   257
176
     1
 43
1.0
176
     1
 76
     1
176
     1
 77
     6
176
     1
 78
     2
176
     1
 67
     7
176
     1
 79
     3
176
     1
170
     0
176
     1
171
     0
176
     1
290
     0
176
     1
 93
        5
176
     1
 44
0.0
176
     1
173
     0
176
     1
  0
VISUALSTYLE
  5
3F2
102
{ACAD_REACTORS
330
3E1
102
}
330
3E1
100
AcDbVisualStyle
  2
Shades of Gray
 70
    23
177
     2
291
     0
 71
     2
176
     1
 72
     2
176
     1
 73
     3
176
     1
 90
        0
176
     1
 40
0.6
176
     1
 41
30.0
176
     1
 63
     7
421
 16777215
176
     1
 74
     2
176
     1
 91
        2
176
     1
 64
     7
176
     1
 65
     7
176
     1
 75
     1
176
     1
175
     1
176
     1
 42
40.0
176
     1
 92
        8
176
     1
 66
     7
176
     1
 43
1.0
176
     1
 76
     1
176
     1
 77
     6
176
     1
 78
     2
176
     1
 67
     7
176
     1
 79
     3
176
     1
170
     0
176
     1
171
     0
176
     1
290
     0
176
     1
 93
        1
176
     1
 44
0.0
176
     1
173
     0
176
     1
  0
VISUALSTYLE
  5
3F3
102
{ACAD_REACTORS
330
3E1
102
}
330
3E1
100
AcDbVisualStyle
  2
Sketchy
 70
    24
177
     2
291
     0
 71
     1
176
     1
 72
     2
176
     1
 73
     2
176
     1
 90
        0
176
     1
 40
0.6
176
     1
 41
30.0
176
     1
 63
     7
421
 16777215
176
     1
 74
     2
176
     1
 91
        2
176
     1
 64
     7
176
     1
 65
     7
176
     1
 75
     1
176
     1
175
     1
176
     1
 42
40.0
176
     1
 92
       11
176
     1
 66
     7
176
     1
 43
1.0
176
     1
 76
     1
176
     1
 77
     6
176
     1
 78
     2
176
     1
 67
     7
176
     1
 79
     6
176
     1
170
     0
176
     1
171
     0
176
     1
290
     0
176
     1
 93
        1
176
     1
 44
0.0
176
     1
173
     0
176
     1
  0
VISUALSTYLE
  5
3EE
102
{ACAD_REACTORS
330
3E1
102
}
330
3E1
100
AcDbVisualStyle
  2
Thicken
 70
    13
177
     2
291
     1
 71
     2
176
     1
 72
     2
176
     1
 73
     0
176
     1
 90
        0
176
     1
 40
0.6
176
     1
 41
30.0
176
     1
 63
     7
421
 16777215
176
     1
 74
     1
176
     1
 91
        4
176
     1
 64
     7
176
     1
 65
   257
176
     1
 75
     1
176
     1
175
     1
176
     1
 42
1.0
176
     1
 92
       12
176
     1
 66
     7
176
     1
 43
1.0
176
     1
 76
     1
176
     1
 77
     6
176
     1
 78
     2
176
     1
 67
     7
176
     1
 79
     5
176
     1
170
     0
176
     1
171
     0
176
     1
290
     0
176
     1
 93
        1
176
     1
 44
0.0
176
     1
173
     0
176
     1
  0
VISUALSTYLE
  5
3E8
102
{ACAD_REACTORS
330
3E1
102
}
330
3E1
100
AcDbVisualStyle
  2
Wireframe
 70
     5
177
     2
291
     0
 71
     0
176
     1
 72
     2
176
     1
 73
     0
176
     1
 90
        0
176
     1
 40
0.6
176
     1
 41
30.0
176
     1
 63
     7
421
 16777215
176
     1
 74
     1
176
     1
 91
        4
176
     1
 64
     7
176
     1
 65
   257
176
     1
 75
     1
176
     1
175
     1
176
     1
 42
1.0
176
     1
 92
        0
176
     1
 66
   257
176
     1
 43
1.0
176
     1
 76
     1
176
     1
 77
     6
176
     1
 78
     2
176
     1
 67
     7
176
     1
 79
     3
176
     1
170
     0
176
     1
171
     0
176
     1
290
     0
176
     1
 93
        1
176
     1
 44
0.0
176
     1
173
     0
176
     1
  0
VISUALSTYLE
  5
3F4
102
{ACAD_REACTORS
330
3E1
102
}
330
3E1
100
AcDbVisualStyle
  2
X-Ray
 70
    25
177
     2
291
     0
 71
     2
176
     1
 72
     2
176
     1
 73
     1
176
     1
 90
        1
176
     1
 40
0.5
176
     1
 41
30.0
176
     1
 63
     7
421
 16777215
176
     1
 74
     1
176
     1
 91
        0
176
     1
 64
     7
176
     1
 65
   257
176
     1
 75
     1
176
     1
175
     1
176
     1
 42
1.0
176
     1
 92
        8
176
     1
 66
     7
176
     1
 43
1.0
176
     1
 76
     1
176
     1
 77
     6
176
     1
 78
     2
176
     1
 67
     7
176
     1
 79
     3
176
     1
170
     0
176
     1
171
     0
176
     1
290
     0
176
     1
 93
       13
176
     1
 44
0.0
176
     1
173
     0
176
     1
  0
DICTIONARYVAR
  5
42A
102
{ACAD_REACTORS
330
426
102
}
330
426
100
DictionaryVariables
280
     0
  1
1:1
  0
DICTIONARYVAR
  5
428
102
{ACAD_REACTORS
330
426
102
}
330
426
100
DictionaryVariables
280
     0
  1
STANDARD
  0
DICTIONARYVAR
  5
427
102
{ACAD_REACTORS
330
426
102
}
330
426
100
DictionaryVariables
280
     0
  1
STANDARD
  0
DICTIONARYVAR
  5
42C
102
{ACAD_REACTORS
330
426
102
}
330
426
100
DictionaryVariables
280
     0
  1
1
  0
DICTIONARYVAR
  5
42D
102
{ACAD_REACTORS
330
426
102
}
330
426
100
DictionaryVariables
280
     0
  1
15
  0
DICTIONARYVAR
  5
42B
102
{ACAD_REACTORS
330
426
102
}
330
426
100
DictionaryVariables
280
     0
  1
0
  0
DICTIONARYVAR
  5
429
102
{ACAD_REACTORS
330
426
102
}
330
426
100
DictionaryVariables
280
     0
  1
0
  0
DICTIONARY
  5
3D2
330
3D1
100
AcDbDictionary
280
     1
281
     1
  3
BUMPTILE
360
3D4
  3
DIFFUSETILE
360
3D3
  3
OPACITYTILE
360
3D7
  3
REFLECTIONTILE
360
3D6
  3
REFRACTIONTILE
360
3D8
  3
SPECULARTILE
360
3D5
  0
DICTIONARY
  5
3CA
330
3C9
100
AcDbDictionary
280
     1
281
     1
  3
BUMPTILE
360
3CC
  3
DIFFUSETILE
360
3CB
  3
OPACITYTILE
360
3CF
  3
REFLECTIONTILE
360
3CE
  3
REFRACTIONTILE
360
3D0
  3
SPECULARTILE
360
3CD
  0
DICTIONARY
  5
3DA
330
3D9
100
AcDbDictionary
280
     1
281
     1
  3
BUMPTILE
360
3DC
  3
DIFFUSETILE
360
3DB
  3
OPACITYTILE
360
3DF
  3
REFLECTIONTILE
360
3DE
  3
REFRACTIONTILE
360
3E0
  3
SPECULARTILE
360
3DD
  0
DICTIONARY
  5
431
330
3FE
100
AcDbDictionary
280
     1
281
     1
  3
ACAD_XREC_ROUNDTRIP
360
432
  0
DICTIONARY
  5
42F
330
3FC
100
AcDbDictionary
280
     1
281
     1
  3
ACAD_ROUNDTRIP_2008_TABLESTYLE_CELLSTYLEMAP
360
430
  0
XRECORD
  5
3D4
102
{ACAD_REACTORS
330
3D2
102
}
330
3D2
100
AcDbXrecord
280
     1
270
     1
271
     1
  0
XRECORD
  5
3D3
102
{ACAD_REACTORS
330
3D2
102
}
330
3D2
100
AcDbXrecord
280
     1
270
     1
271
     1
  0
XRECORD
  5
3D7
102
{ACAD_REACTORS
330
3D2
102
}
330
3D2
100
AcDbXrecord
280
     1
270
     1
271
     1
  0
XRECORD
  5
3D6
102
{ACAD_REACTORS
330
3D2
102
}
330
3D2
100
AcDbXrecord
280
     1
270
     1
271
     1
  0
XRECORD
  5
3D8
102
{ACAD_REACTORS
330
3D2
102
}
330
3D2
100
AcDbXrecord
280
     1
270
     1
271
     1
  0
XRECORD
  5
3D5
102
{ACAD_REACTORS
330
3D2
102
}
330
3D2
100
AcDbXrecord
280
     1
270
     1
271
     1
  0
XRECORD
  5
3CC
102
{ACAD_REACTORS
330
3CA
102
}
330
3CA
100
AcDbXrecord
280
     1
270
     1
271
     1
  0
XRECORD
  5
3CB
102
{ACAD_REACTORS
330
3CA
102
}
330
3CA
100
AcDbXrecord
280
     1
270
     1
271
     1
  0
XRECORD
  5
3CF
102
{ACAD_REACTORS
330
3CA
102
}
330
3CA
100
AcDbXrecord
280
     1
270
     1
271
     1
  0
XRECORD
  5
3CE
102
{ACAD_REACTORS
330
3CA
102
}
330
3CA
100
AcDbXrecord
280
     1
270
     1
271
     1
  0
XRECORD
  5
3D0
102
{ACAD_REACTORS
330
3CA
102
}
330
3CA
100
AcDbXrecord
280
     1
270
     1
271
     1
  0
XRECORD
  5
3CD
102
{ACAD_REACTORS
330
3CA
102
}
330
3CA
100
AcDbXrecord
280
     1
270
     1
271
     1
  0
XRECORD
  5
3DC
102
{ACAD_REACTORS
330
3DA
102
}
330
3DA
100
AcDbXrecord
280
     1
270
     1
271
     1
  0
XRECORD
  5
3DB
102
{ACAD_REACTORS
330
3DA
102
}
330
3DA
100
AcDbXrecord
280
     1
270
     1
271
     1
  0
XRECORD
  5
3DF
102
{ACAD_REACTORS
330
3DA
102
}
330
3DA
100
AcDbXrecord
280
     1
270
     1
271
     1
  0
XRECORD
  5
3DE
102
{ACAD_REACTORS
330
3DA
102
}
330
3DA
100
AcDbXrecord
280
     1
270
     1
271
     1
  0
XRECORD
  5
3E0
102
{ACAD_REACTORS
330
3DA
102
}
330
3DA
100
AcDbXrecord
280
     1
270
     1
271
     1
  0
XRECORD
  5
3DD
102
{ACAD_REACTORS
330
3DA
102
}
330
3DA
100
AcDbXrecord
280
     1
270
     1
271
     1
  0
XRECORD
  5
432
102
{ACAD_REACTORS
330
431
102
}
330
431
100
AcDbXrecord
280
     1
102
ACAD_ROUNDTRIP_2012_MLEADER_STYLE
298
     1
  0
CELLSTYLEMAP
  5
430
102
{ACAD_REACTORS
330
42F
102
}
330
42F
100
AcDbCellStyleMap
 90
        3
300
CELLSTYLE
  1
TABLEFORMAT_BEGIN
 90
        5
170
     1
 91
        0
 92
    32768
 62
   257
 93
        1
300
CONTENTFORMAT
  1
CONTENTFORMAT_BEGIN
 90
        0
 91
        0
 92
      512
 93
        0
300

 40
0.0
140
1.0
 94
        5
 62
     0
340
11
144
0.25
309
CONTENTFORMAT_END
171
     0
 94
        0
309
TABLEFORMAT_END
  1
CELLSTYLE_BEGIN
 90
        1
 91
        1
300
_TITLE
309
CELLSTYLE_END
300
CELLSTYLE
  1
TABLEFORMAT_BEGIN
 90
        5
170
     1
 91
        0
 92
        0
 62
   257
 93
        1
300
CONTENTFORMAT
  1
CONTENTFORMAT_BEGIN
 90
        0
 91
        0
 92
      512
 93
        0
300

 40
0.0
140
1.0
 94
        5
 62
     0
340
11
144
0.18
309
CONTENTFORMAT_END
171
     0
 94
        0
309
TABLEFORMAT_END
  1
CELLSTYLE_BEGIN
 90
        2
 91
        1
300
_HEADER
309
CELLSTYLE_END
300
CELLSTYLE
  1
TABLEFORMAT_BEGIN
 90
        5
170
     1
 91
        0
 92
        0
 62
   257
 93
        1
300
CONTENTFORMAT
  1
CONTENTFORMAT_BEGIN
 90
        0
 91
        0
 92
      512
 93
        0
300

 40
0.0
140
1.0
 94
        2
 62
     0
340
11
144
0.18
309
CONTENTFORMAT_END
171
     0
 94
        0
309
TABLEFORMAT_END
  1
CELLSTYLE_BEGIN
 90
        3
 91
        2
300
_DATA
309
CELLSTYLE_END
  0
ENDSEC
  0
EOF
