  0
SECTION
  2
HEADER
  9
$ACADVER
  1
AC1018
  9
$ACADMAINTVER
 70
   104
  9
$DWGCODEPAGE
  3
ANSI_1252
  9
$LASTSAVEDBY
  1
jgayle
  9
$INSBASE
 10
0.0
 20
0.0
 30
0.0
  9
$EXTMIN
 10
7.473506894996006
 20
13.90270212444876
 30
-0.0000000349181948
  9
$EXTMAX
 10
26.07691735770583
 20
31.95176199730187
 30
0.0000000814935747
  9
$LIMMIN
 10
0.0
 20
0.0
  9
$LIMMAX
 10
46.81102362204724
 20
33.11023622047244
  9
$ORTHOMODE
 70
     1
  9
$REGENMODE
 70
     1
  9
$FILLMODE
 70
     1
  9
$QTEXTMODE
 70
     0
  9
$MIRRTEXT
 70
     1
  9
$LTSCALE
 40
1.0
  9
$ATTMODE
 70
     1
  9
$TEXTSIZE
 40
0.1377952755905512
  9
$TRACEWID
 40
0.05
  9
$TEXTSTYLE
  7
Standard
  9
$CLAYER
  8
0
  9
$CELTYPE
  6
ByLayer
  9
$CECOLOR
 62
   256
  9
$CELTSCALE
 40
1.0
  9
$DISPSILH
 70
     0
  9
$DIMSCALE
 40
1.0
  9
$DIMASZ
 40
0.13
  9
$DIMEXO
 40
0.0393700787401575
  9
$DIMDLI
 40
0.38
  9
$DIMRND
 40
0.0
  9
$DIMDLE
 40
0.0
  9
$DIMEXE
 40
0.0393700787401575
  9
$DIMTP
 40
0.0
  9
$DIMTM
 40
0.0
  9
$DIMTXT
 40
0.1377952755905512
  9
$DIMCEN
 40
0.09
  9
$DIMTSZ
 40
0.0
  9
$DIMTOL
 70
     0
  9
$DIMLIM
 70
     0
  9
$DIMTIH
 70
     1
  9
$DIMTOH
 70
     1
  9
$DIMSE1
 70
     0
  9
$DIMSE2
 70
     0
  9
$DIMTAD
 70
     1
  9
$DIMZIN
 70
     0
  9
$DIMBLK
  1

  9
$DIMASO
 70
     1
  9
$DIMSHO
 70
     1
  9
$DIMPOST
  1

  9
$DIMAPOST
  1

  9
$DIMALT
 70
     0
  9
$DIMALTD
 70
     2
  9
$DIMALTF
 40
25.4
  9
$DIMLFAC
 40
1.0
  9
$DIMTOFL
 70
     0
  9
$DIMTVP
 40
0.0
  9
$DIMTIX
 70
     0
  9
$DIMSOXD
 70
     0
  9
$DIMSAH
 70
     0
  9
$DIMBLK1
  1

  9
$DIMBLK2
  1

  9
$DIMSTYLE
  2
Standard
  9
$DIMCLRD
 70
     0
  9
$DIMCLRE
 70
     0
  9
$DIMCLRT
 70
     0
  9
$DIMTFAC
 40
1.0
  9
$DIMGAP
 40
0.06
  9
$DIMJUST
 70
     0
  9
$DIMSD1
 70
     0
  9
$DIMSD2
 70
     0
  9
$DIMTOLJ
 70
     1
  9
$DIMTZIN
 70
     0
  9
$DIMALTZ
 70
     0
  9
$DIMALTTZ
 70
     0
  9
$DIMUPT
 70
     0
  9
$DIMDEC
 70
     2
  9
$DIMTDEC
 70
     2
  9
$DIMALTU
 70
     2
  9
$DIMALTTD
 70
     2
  9
$DIMTXSTY
  7
Standard
  9
$DIMAUNIT
 70
     0
  9
$DIMADEC
 70
     2
  9
$DIMALTRND
 40
0.0
  9
$DIMAZIN
 70
     0
  9
$DIMDSEP
 70
    46
  9
$DIMATFIT
 70
     3
  9
$DIMFRAC
 70
     0
  9
$DIMLDRBLK
  1

  9
$DIMLUNIT
 70
     2
  9
$DIMLWD
 70
    -2
  9
$DIMLWE
 70
    -2
  9
$DIMTMOVE
 70
     0
  9
$LUNITS
 70
     2
  9
$LUPREC
 70
     2
  9
$SKETCHINC
 40
0.1
  9
$FILLETRAD
 40
0.5
  9
$AUNITS
 70
     0
  9
$AUPREC
 70
     2
  9
$MENU
  1
.
  9
$ELEVATION
 40
0.0
  9
$PELEVATION
 40
0.0
  9
$THICKNESS
 40
0.0
  9
$LIMCHECK
 70
     0
  9
$CHAMFERA
 40
0.0
  9
$CHAMFERB
 40
0.0
  9
$CHAMFERC
 40
0.0
  9
$CHAMFERD
 40
0.0
  9
$SKPOLY
 70
     0
  9
$TDCREATE
 40
2458087.492910648
  9
$TDUCREATE
 40
2458087.701243981
  9
$TDUPDATE
 40
2458087.506965255
  9
$TDUUPDATE
 40
2458087.715298588
  9
$TDINDWG
 40
0.0086284606
  9
$TDUSRTIMER
 40
0.0086281829
  9
$USRTIMER
 70
     1
  9
$ANGBASE
 50
0.0
  9
$ANGDIR
 70
     0
  9
$PDMODE
 70
     0
  9
$PDSIZE
 40
-1.0
  9
$PLINEWID
 40
0.0
  9
$SPLFRAME
 70
     0
  9
$SPLINETYPE
 70
     6
  9
$SPLINESEGS
 70
     8
  9
$HANDSEED
  5
711
  9
$SURFTAB1
 70
     6
  9
$SURFTAB2
 70
     6
  9
$SURFTYPE
 70
     6
  9
$SURFU
 70
     6
  9
$SURFV
 70
     6
  9
$UCSBASE
  2

  9
$UCSNAME
  2

  9
$UCSORG
 10
0.0
 20
0.0
 30
0.0
  9
$UCSXDIR
 10
1.0
 20
0.0
 30
0.0
  9
$UCSYDIR
 10
0.0
 20
1.0
 30
0.0
  9
$UCSORTHOREF
  2

  9
$UCSORTHOVIEW
 70
     0
  9
$UCSORGTOP
 10
0.0
 20
0.0
 30
0.0
  9
$UCSORGBOTTOM
 10
0.0
 20
0.0
 30
0.0
  9
$UCSORGLEFT
 10
0.0
 20
0.0
 30
0.0
  9
$UCSORGRIGHT
 10
0.0
 20
0.0
 30
0.0
  9
$UCSORGFRONT
 10
0.0
 20
0.0
 30
0.0
  9
$UCSORGBACK
 10
0.0
 20
0.0
 30
0.0
  9
$PUCSBASE
  2

  9
$PUCSNAME
  2

  9
$PUCSORG
 10
0.0
 20
0.0
 30
0.0
  9
$PUCSXDIR
 10
1.0
 20
0.0
 30
0.0
  9
$PUCSYDIR
 10
0.0
 20
1.0
 30
0.0
  9
$PUCSORTHOREF
  2

  9
$PUCSORTHOVIEW
 70
     0
  9
$PUCSORGTOP
 10
0.0
 20
0.0
 30
0.0
  9
$PUCSORGBOTTOM
 10
0.0
 20
0.0
 30
0.0
  9
$PUCSORGLEFT
 10
0.0
 20
0.0
 30
0.0
  9
$PUCSORGRIGHT
 10
0.0
 20
0.0
 30
0.0
  9
$PUCSORGFRONT
 10
0.0
 20
0.0
 30
0.0
  9
$PUCSORGBACK
 10
0.0
 20
0.0
 30
0.0
  9
$USERI1
 70
     0
  9
$USERI2
 70
     0
  9
$USERI3
 70
     0
  9
$USERI4
 70
     0
  9
$USERI5
 70
     0
  9
$USERR1
 40
0.0
  9
$USERR2
 40
0.0
  9
$USERR3
 40
0.0
  9
$USERR4
 40
0.0
  9
$USERR5
 40
0.0
  9
$WORLDVIEW
 70
     1
  9
$SHADEDGE
 70
     3
  9
$SHADEDIF
 70
    70
  9
$TILEMODE
 70
     1
  9
$MAXACTVP
 70
    64
  9
$PINSBASE
 10
0.0
 20
0.0
 30
0.0
  9
$PLIMCHECK
 70
     0
  9
$PEXTMIN
 10
1.000000000000000E+20
 20
1.000000000000000E+20
 30
1.000000000000000E+20
  9
$PEXTMAX
 10
-1.000000000000000E+20
 20
-1.000000000000000E+20
 30
-1.000000000000000E+20
  9
$PLIMMIN
 10
0.0
 20
0.0
  9
$PLIMMAX
 10
12.0
 20
9.0
  9
$UNITMODE
 70
     0
  9
$VISRETAIN
 70
     1
  9
$PLINEGEN
 70
     0
  9
$PSLTSCALE
 70
     1
  9
$TREEDEPTH
 70
  3020
  9
$CMLSTYLE
  2
Standard
  9
$CMLJUST
 70
     0
  9
$CMLSCALE
 40
1.0
  9
$PROXYGRAPHICS
 70
     1
  9
$MEASUREMENT
 70
     0
  9
$CELWEIGHT
370
    -1
  9
$ENDCAPS
280
     0
  9
$JOINSTYLE
280
     0
  9
$LWDISPLAY
290
     1
  9
$INSUNITS
 70
     1
  9
$HYPERLINKBASE
  1

  9
$STYLESHEET
  1

  9
$XEDIT
290
     1
  9
$CEPSNTYPE
380
     0
  9
$PSTYLEMODE
290
     1
  9
$FINGERPRINTGUID
  2
{65479238-5893-4655-891F-F3DD7468EE70}
  9
$VERSIONGUID
  2
{1918C1A4-ACC8-403C-8988-88C6AC8BCA64}
  9
$EXTNAMES
290
     1
  9
$PSVPSCALE
 40
0.0
  9
$OLESTARTUP
290
     0
  9
$SORTENTS
280
   127
  9
$INDEXCTL
280
     0
  9
$HIDETEXT
280
     0
  9
$XCLIPFRAME
290
     0
  9
$HALOGAP
280
     0
  9
$OBSCOLOR
 70
   257
  9
$OBSLTYPE
280
     0
  9
$INTERSECTIONDISPLAY
280
     0
  9
$INTERSECTIONCOLOR
 70
   257
  9
$DIMASSOC
280
     1
  9
$PROJECTNAME
  1

  0
ENDSEC
  0
SECTION
  2
CLASSES
  0
CLASS
  1
ACDBDICTIONARYWDFLT
  2
AcDbDictionaryWithDefault
  3
ObjectDBX Classes
 90
        0
 91
        1
280
     0
281
     0
  0
CLASS
  1
VISUALSTYLE
  2
AcDbVisualStyle
  3
ObjectDBX Classes
 90
     4095
 91
       24
280
     0
281
     0
  0
CLASS
  1
MATERIAL
  2
AcDbMaterial
  3
ObjectDBX Classes
 90
     1153
 91
        3
280
     0
281
     0
  0
CLASS
  1
SCALE
  2
AcDbScale
  3
ObjectDBX Classes
 90
     1153
 91
       33
280
     0
281
     0
  0
CLASS
  1
TABLESTYLE
  2
AcDbTableStyle
  3
ObjectDBX Classes
 90
     4095
 91
        1
280
     0
281
     0
  0
CLASS
  1
MLEADERSTYLE
  2
AcDbMLeaderStyle
  3
ACDB_MLEADERSTYLE_CLASS
 90
     4095
 91
        1
280
     0
281
     0
  0
CLASS
  1
SUN
  2
AcDbSun
  3
SCENEOE
 90
     1153
 91
        0
280
     0
281
     0
  0
CLASS
  1
DICTIONARYVAR
  2
AcDbDictionaryVar
  3
ObjectDBX Classes
 90
        0
 91
        5
280
     0
281
     0
  0
CLASS
  1
CELLSTYLEMAP
  2
AcDbCellStyleMap
  3
ObjectDBX Classes
 90
     1152
 91
        2
280
     0
281
     0
  0
CLASS
  1
SORTENTSTABLE
  2
AcDbSortentsTable
  3
ObjectDBX Classes
 90
        0
 91
        1
280
     0
281
     0
  0
ENDSEC
  0
SECTION
  2
TABLES
  0
TABLE
  2
VPORT
  5
8
330
0
100
AcDbSymbolTable
 70
     1
  0
VPORT
  5
29
330
8
100
AcDbSymbolTableRecord
100
AcDbViewportTableRecord
  2
*Active
 70
     0
 10
0.0
 20
0.0
 11
1.0
 21
1.0
 12
16.77521212635091
 22
22.92723206087532
 13
0.0
 23
0.0
 14
0.5
 24
0.5
 15
0.5
 25
0.5
 16
0.0
 26
0.0
 36
1.0
 17
0.0
 27
0.0
 37
0.0
 40
18.18897506566592
 41
2.362225097024579
 42
50.0
 43
0.0
 44
0.0
 50
0.0
 51
0.0
 71
     0
 72
  2000
 73
     1
 74
     3
 75
     0
 76
     0
 77
     0
 78
     0
281
     0
 65
     1
110
0.0
120
0.0
130
0.0
111
1.0
121
0.0
131
0.0
112
0.0
122
1.0
132
0.0
 79
     0
146
0.0
1001
ACAD_NAV_VCDISPLAY
1070
     3
  0
ENDTAB
  0
TABLE
  2
LTYPE
  5
5
330
0
100
AcDbSymbolTable
 70
     7
  0
LTYPE
  5
14
330
5
100
AcDbSymbolTableRecord
100
AcDbLinetypeTableRecord
  2
ByBlock
 70
     0
  3

 72
    65
 73
     0
 40
0.0
  0
LTYPE
  5
15
330
5
100
AcDbSymbolTableRecord
100
AcDbLinetypeTableRecord
  2
ByLayer
 70
     0
  3

 72
    65
 73
     0
 40
0.0
  0
LTYPE
  5
16
330
5
100
AcDbSymbolTableRecord
100
AcDbLinetypeTableRecord
  2
Continuous
 70
     0
  3
Solid line
 72
    65
 73
     0
 40
0.0
  0
LTYPE
  5
6E
330
5
100
AcDbSymbolTableRecord
100
AcDbLinetypeTableRecord
  2
HIDDEN
 70
     0
  3
Hidden __ __ __ __ __ __ __ __ __ __ __ __ __ __
 72
    65
 73
     2
 40
0.075
 49
0.05
 74
     0
 49
-0.025
 74
     0
  0
LTYPE
  5
6F
330
5
100
AcDbSymbolTableRecord
100
AcDbLinetypeTableRecord
  2
PHANTOM
 70
     0
  3
Phantom ______  __  __  ______  __  __  ______
 72
    65
 73
     6
 40
0.5
 49
0.25
 74
     0
 49
-0.05
 74
     0
 49
0.05
 74
     0
 49
-0.05
 74
     0
 49
0.05
 74
     0
 49
-0.05
 74
     0
  0
LTYPE
  5
70
330
5
100
AcDbSymbolTableRecord
100
AcDbLinetypeTableRecord
  2
CENTER
 70
     0
  3
Center ____ _ ____ _ ____ _ ____ _ ____ _ ____
 72
    65
 73
     4
 40
0.4
 49
0.25
 74
     0
 49
-0.05
 74
     0
 49
0.05
 74
     0
 49
-0.05
 74
     0
  0
LTYPE
  5
71
330
5
100
AcDbSymbolTableRecord
100
AcDbLinetypeTableRecord
  2
CENTERX2
 70
     0
  3
Center (2x) ________  __  ________  __  _____
 72
    65
 73
     4
 40
0.8
 49
0.5
 74
     0
 49
-0.1
 74
     0
 49
0.1
 74
     0
 49
-0.1
 74
     0
  0
LTYPE
  5
72
330
5
100
AcDbSymbolTableRecord
100
AcDbLinetypeTableRecord
  2
DOT2
 70
     0
  3
Dot (.5x) ........................................
 72
    65
 73
     2
 40
0.025
 49
0.0
 74
     0
 49
-0.025
 74
     0
  0
ENDTAB
  0
TABLE
  2
LAYER
  5
2
102
{ACAD_XDICTIONARY
360
67A
102
}
330
0
100
AcDbSymbolTable
 70
     3
  0
LAYER
  5
10
102
{ACAD_XDICTIONARY
360
673
102
}
330
2
100
AcDbSymbolTableRecord
100
AcDbLayerTableRecord
  2
0
 70
     0
 62
     7
  6
Continuous
370
    -3
390
F
  0
LAYER
  5
73
102
{ACAD_XDICTIONARY
360
675
102
}
330
2
100
AcDbSymbolTableRecord
100
AcDbLayerTableRecord
  2
FORMAT
 70
     0
 62
     7
  6
Continuous
370
    -3
390
F
  0
LAYER
  5
666
330
2
100
AcDbSymbolTableRecord
100
AcDbLayerTableRecord
  2
Defpoints
 70
     0
 62
     7
  6
Continuous
290
     0
370
    -3
390
F
  0
ENDTAB
  0
TABLE
  2
STYLE
  5
3
330
0
100
AcDbSymbolTable
 70
     4
  0
STYLE
  5
11
330
3
100
AcDbSymbolTableRecord
100
AcDbTextStyleTableRecord
  2
Standard
 70
     0
 40
0.0
 41
1.0
 50
0.0
 71
     0
 42
0.1377952755905512
  3
txt
  4

  0
STYLE
  5
E5
330
3
100
AcDbSymbolTableRecord
100
AcDbTextStyleTableRecord
  2
SLDTEXTSTYLE0
 70
     0
 40
0.0
 41
0.75
 50
0.0
 71
     0
 42
0.1377952755905512
  3
TXT
  4

  0
STYLE
  5
136
330
3
100
AcDbSymbolTableRecord
100
AcDbTextStyleTableRecord
  2
SLDTEXTSTYLE1
 70
     0
 40
0.0
 41
0.6864493305940874
 50
0.0
 71
     0
 42
0.1377952755905512
  3
TXT
  4

  0
STYLE
  5
157
330
3
100
AcDbSymbolTableRecord
100
AcDbTextStyleTableRecord
  2
SLDTEXTSTYLE2
 70
     0
 40
0.0
 41
0.6875
 50
0.0
 71
     0
 42
0.1377952755905512
  3
TXT
  4

  0
ENDTAB
  0
TABLE
  2
VIEW
  5
6
330
0
100
AcDbSymbolTable
 70
     0
  0
ENDTAB
  0
TABLE
  2
UCS
  5
7
330
0
100
AcDbSymbolTable
 70
     0
  0
ENDTAB
  0
TABLE
  2
APPID
  5
9
330
0
100
AcDbSymbolTable
 70
     4
  0
APPID
  5
12
330
9
100
AcDbSymbolTableRecord
100
AcDbRegAppTableRecord
  2
ACAD
 70
     0
  0
APPID
  5
682
330
9
100
AcDbSymbolTableRecord
100
AcDbRegAppTableRecord
  2
ACAD_NAV_VCDISPLAY
 70
     0
  0
APPID
  5
6CB
330
9
100
AcDbSymbolTableRecord
100
AcDbRegAppTableRecord
  2
ACAD_MLEADERVER
 70
     0
  0
APPID
  5
6D0
330
9
100
AcDbSymbolTableRecord
100
AcDbRegAppTableRecord
  2
ACAD_EXEMPT_FROM_CAD_STANDARDS
 70
     0
  0
ENDTAB
  0
TABLE
  2
DIMSTYLE
  5
A
330
0
100
AcDbSymbolTable
 70
     2
100
AcDbDimStyleTable
 71
     1
340
27
  0
DIMSTYLE
105
27
330
A
100
AcDbSymbolTableRecord
100
AcDbDimStyleTableRecord
  2
Standard
 70
     0
340
11
  0
ENDTAB
  0
TABLE
  2
BLOCK_RECORD
  5
1
330
0
100
AcDbSymbolTable
 70
     5
  0
BLOCK_RECORD
  5
1F
102
{ACAD_XDICTIONARY
360
6D9
102
}
330
1
100
AcDbSymbolTableRecord
100
AcDbBlockTableRecord
  2
*Model_Space
340
22
  0
BLOCK_RECORD
  5
1B
330
1
100
AcDbSymbolTableRecord
100
AcDbBlockTableRecord
  2
*Paper_Space
340
1E
  0
BLOCK_RECORD
  5
23
330
1
100
AcDbSymbolTableRecord
100
AcDbBlockTableRecord
  2
*Paper_Space0
340
26
  0
BLOCK_RECORD
  5
13C
330
1
100
AcDbSymbolTableRecord
100
AcDbBlockTableRecord
  2
SW_NOTE_0
340
0
  0
BLOCK_RECORD
  5
147
330
1
100
AcDbSymbolTableRecord
100
AcDbBlockTableRecord
  2
SW_NOTE_1
340
0
  0
BLOCK_RECORD
  5
667
330
1
100
AcDbSymbolTableRecord
100
AcDbBlockTableRecord
  2
*D3
340
0
  0
ENDTAB
  0
ENDSEC
  0
SECTION
  2
BLOCKS
  0
BLOCK
  5
20
330
1F
100
AcDbEntity
  8
0
100
AcDbBlockBegin
  2
*Model_Space
 70
     0
 10
0.0
 20
0.0
 30
0.0
  3
*Model_Space
  1

  0
ENDBLK
  5
21
330
1F
100
AcDbEntity
  8
0
100
AcDbBlockEnd
  0
BLOCK
  5
1C
330
1B
100
AcDbEntity
 67
     1
  8
0
100
AcDbBlockBegin
  2
*Paper_Space
 70
     0
 10
0.0
 20
0.0
 30
0.0
  3
*Paper_Space
  1

  0
ENDBLK
  5
1D
330
1B
100
AcDbEntity
 67
     1
  8
0
100
AcDbBlockEnd
  0
BLOCK
  5
24
330
23
100
AcDbEntity
 67
     1
  8
0
100
AcDbBlockBegin
  2
*Paper_Space0
 70
     0
 10
0.0
 20
0.0
 30
0.0
  3
*Paper_Space0
  1

  0
ENDBLK
  5
25
330
23
100
AcDbEntity
 67
     1
  8
0
100
AcDbBlockEnd
  0
BLOCK
  5
13D
330
13C
100
AcDbEntity
  8
0
100
AcDbBlockBegin
  2
SW_NOTE_0
 70
     0
 10
0.0
 20
0.0
 30
0.0
  3
SW_NOTE_0
  1

  0
MTEXT
  5
13F
330
13C
100
AcDbEntity
  8
0
  6
Continuous
 62
     0
370
     0
100
AcDbMText
 10
0.0
 20
0.0761260476243285
 30
0.0
 40
0.0590551181102362
 41
0.0
 71
     1
 72
     1
  1
UNLESS OTHERWISE SPECIFIED:
  7
SLDTEXTSTYLE0
 73
     1
 44
1.0
  0
MTEXT
  5
140
330
13C
100
AcDbEntity
  8
0
  6
Continuous
 62
     0
370
     0
100
AcDbMText
 10
0.0
 20
-0.0222991470260904
 30
0.0
 40
0.0590551181102362
 41
0.0
 71
     1
 72
     1
  1
DIMENSIONS ARE IN MILLIMETERS
  7
SLDTEXTSTYLE0
 73
     1
 44
1.0
  0
MTEXT
  5
141
330
13C
100
AcDbEntity
  8
0
  6
Continuous
 62
     0
370
     0
100
AcDbMText
 10
0.0
 20
-0.1207243416765095
 30
0.0
 40
0.0590551181102362
 41
0.0
 71
     1
 72
     1
  1
SURFACE FINISH:
  7
SLDTEXTSTYLE0
 73
     1
 44
1.0
  0
MTEXT
  5
142
330
13C
100
AcDbEntity
  8
0
  6
Continuous
 62
     0
370
     0
100
AcDbMText
 10
0.0
 20
-0.2191495363269286
 30
0.0
 40
0.0590551181102362
 41
0.0
 71
     1
 72
     1
  1
TOLERANCES:
  7
SLDTEXTSTYLE0
 73
     1
 44
1.0
  0
MTEXT
  5
143
330
13C
100
AcDbEntity
  8
0
  6
Continuous
 62
     0
370
     0
100
AcDbMText
 10
0.0664370078740183
 20
-0.3175747309773478
 30
0.0
 40
0.0590551181102362
 41
0.0
 71
     1
 72
     1
  1
LINEAR:
  7
SLDTEXTSTYLE0
 73
     1
 44
1.0
  0
MTEXT
  5
144
330
13C
100
AcDbEntity
  8
0
  6
Continuous
 62
     0
370
     0
100
AcDbMText
 10
0.0664370078740183
 20
-0.4159999256277669
 30
0.0
 40
0.0590551181102362
 41
0.0
 71
     1
 72
     1
  1
ANGULAR:
  7
SLDTEXTSTYLE0
 73
     1
 44
1.0
  0
ENDBLK
  5
13E
330
13C
100
AcDbEntity
  8
0
100
AcDbBlockEnd
  0
BLOCK
  5
148
330
147
100
AcDbEntity
  8
0
100
AcDbBlockBegin
  2
SW_NOTE_1
 70
     0
 10
0.0
 20
0.0
 30
0.0
  3
SW_NOTE_1
  1

  0
MTEXT
  5
14A
330
147
100
AcDbEntity
  8
0
  6
Continuous
 62
     0
370
     0
100
AcDbMText
 10
0.0
 20
0.0761260476243285
 30
0.0
 40
0.0590551181102362
 41
0.0
 71
     1
 72
     1
  1
DEBURR AND
  7
SLDTEXTSTYLE0
 73
     1
 44
1.0
  0
MTEXT
  5
14B
330
147
100
AcDbEntity
  8
0
  6
Continuous
 62
     0
370
     0
100
AcDbMText
 10
0.0
 20
-0.0222991470260904
 30
0.0
 40
0.0590551181102362
 41
0.0
 71
     1
 72
     1
  1
BREAK SHARP
  7
SLDTEXTSTYLE0
 73
     1
 44
1.0
  0
MTEXT
  5
14C
330
147
100
AcDbEntity
  8
0
  6
Continuous
 62
     0
370
     0
100
AcDbMText
 10
0.0
 20
-0.1207243416765095
 30
0.0
 40
0.0590551181102362
 41
0.0
 71
     1
 72
     1
  1
EDGES
  7
SLDTEXTSTYLE0
 73
     1
 44
1.0
  0
ENDBLK
  5
149
330
147
100
AcDbEntity
  8
0
100
AcDbBlockEnd
  0
BLOCK
  5
668
330
667
100
AcDbEntity
  8
0
100
AcDbBlockBegin
  2
*D3
 70
     1
 10
0.0
 20
0.0
 30
0.0
  3
*D3
  1

  0
LINE
  5
66A
330
667
100
AcDbEntity
  8
0
 62
     0
440
 16777216
370
    -2
100
AcDbLine
 10
18.98845189324855
 20
20.83369223115541
 30
0.0
 11
18.98845189324855
 21
22.06185334091204
 31
0.0
  0
LINE
  5
66B
330
667
100
AcDbEntity
  8
0
 62
     0
440
 16777216
370
    -2
100
AcDbLine
 10
26.07506634807365
 20
20.83369223115541
 30
0.0
 11
26.07506634807365
 21
22.06185334091204
 31
0.0
  0
LINE
  5
66C
330
667
100
AcDbEntity
  8
0
 62
     0
440
 16777216
370
    -2
100
AcDbLine
 10
19.11845189324855
 20
22.02248326217189
 30
0.0
 11
25.94506634807365
 21
22.02248326217189
 31
0.0
  0
SOLID
  5
66D
330
667
100
AcDbEntity
  8
0
 62
     0
440
 16777216
100
AcDbTrace
 10
19.11845189324855
 20
22.04414992883856
 30
0.0
 11
19.11845189324855
 21
22.00081659550522
 31
0.0
 12
18.98845189324855
 22
22.02248326217189
 32
0.0
 13
18.98845189324855
 23
22.02248326217189
 33
0.0
  0
SOLID
  5
66E
330
667
100
AcDbEntity
  8
0
 62
     0
440
 16777216
100
AcDbTrace
 10
25.94506634807365
 20
22.04414992883856
 30
0.0
 11
25.94506634807365
 21
22.00081659550522
 31
0.0
 12
26.07506634807365
 22
22.02248326217189
 32
0.0
 13
26.07506634807365
 23
22.02248326217189
 33
0.0
  0
MTEXT
  5
66F
330
667
100
AcDbEntity
  8
0
 62
     0
440
 16777216
100
AcDbMText
 10
22.5317591206611
 20
22.15138089996717
 30
0.0
 40
0.1377952755905512
 41
0.0
 71
     5
 72
     1
  1
\A1;7.09
 73
     1
 44
1.0
  0
POINT
  5
670
330
667
100
AcDbEntity
  8
Defpoints
 62
     0
440
 16777216
100
AcDbPoint
 10
18.98845189324855
 20
20.79432215241526
 30
0.0
  0
POINT
  5
671
330
667
100
AcDbEntity
  8
Defpoints
 62
     0
440
 16777216
100
AcDbPoint
 10
26.07506634807365
 20
20.79432215241526
 30
0.0
  0
POINT
  5
672
330
667
100
AcDbEntity
  8
Defpoints
 62
     0
440
 16777216
100
AcDbPoint
 10
26.07506634807365
 20
22.02248326217189
 30
0.0
  0
ENDBLK
  5
669
330
667
100
AcDbEntity
  8
0
100
AcDbBlockEnd
  0
ENDSEC
  0
SECTION
  2
ENTITIES
  0
ARC
  5
15D
330
1F
100
AcDbEntity
  8
0
100
AcDbCircle
 10
22.5317591206611
 20
17.44786542430227
 30
0.0
 40
0.9448818897637814
100
AcDbArc
 50
0.0
 51
90.0
  0
ARC
  5
15E
330
1F
100
AcDbEntity
  8
0
100
AcDbCircle
 10
22.5317591206611
 20
17.44786542430227
 30
0.0
 40
0.9448818897637814
100
AcDbArc
 50
0.0
 51
90.0
  0
SPLINE
  5
16D
330
1F
100
AcDbEntity
  8
0
100
AcDbSpline
210
0.0
220
0.0
230
1.0
 70
     8
 71
     3
 72
     9
 73
     5
 74
     0
 42
0.0000000001
 43
0.0000000001
 40
0.0
 40
0.0
 40
0.0
 40
0.0
 40
0.520665314429802
 40
1.0
 40
1.0
 40
1.0
 40
1.0
 10
21.58687722268408
 20
17.44786542430227
 30
0.0
 10
21.58688921832744
 20
17.27282027603382
 30
0.0
 10
21.58691225739502
 20
16.93662513605192
 30
0.0
 10
21.58889194759936
 20
16.60033994618576
 30
0.0
 10
21.58984088178097
 20
16.43914679043934
 30
0.0
  0
SPLINE
  5
16E
330
1F
100
AcDbEntity
  8
0
100
AcDbSpline
210
0.0
220
0.0
230
1.0
 70
     8
 71
     3
 72
     9
 73
     5
 74
     0
 42
0.0000000001
 43
0.0000000001
 40
0.0
 40
0.0
 40
0.0
 40
0.0
 40
0.479334685570198
 40
1.0
 40
1.0
 40
1.0
 40
1.0
 10
23.47367735954123
 20
16.43914679043934
 30
0.0
 10
23.47462629372286
 20
16.60033994618576
 30
0.0
 10
23.47660598392717
 20
16.93662513605192
 30
0.0
 10
23.47662902299475
 20
17.27282027603382
 30
0.0
 10
23.47664101863812
 20
17.44786542430227
 30
0.0
  0
SPLINE
  5
16F
330
1F
100
AcDbEntity
  8
0
100
AcDbSpline
210
0.0
220
0.0
230
1.0
 70
     8
 71
     3
 72
    10
 73
     6
 74
     0
 42
0.0000000001
 43
0.0000000001
 40
0.0
 40
0.0
 40
0.0
 40
0.0
 40
0.1553726966024048
 40
0.8310824095125092
 40
0.9999999999999998
 40
0.9999999999999998
 40
0.9999999999999998
 40
0.9999999999999998
 10
23.47664101863812
 20
17.44786542430227
 30
0.0
 10
23.47649179838286
 20
17.37118989304909
 30
0.0
 10
23.47569362513877
 20
16.96105550870735
 30
0.0
 10
23.47304309881665
 20
16.46756193313222
 30
0.0
 10
23.47023224950445
 20
16.05074939138444
 30
0.0
 10
23.46967010583338
 20
15.96739076687185
 30
0.0
  0
LWPOLYLINE
  5
170
330
1F
100
AcDbEntity
  8
0
100
AcDbPolyline
 90
        9
 70
   128
 43
0.0
 10
23.46967010583338
 20
15.96739076687185
 10
23.46853066566294
 20
15.96739868678036
 10
23.46603354784319
 20
15.96741584658213
 10
23.46226770467987
 20
15.96744195294721
 10
23.45736711462524
 20
15.9674759792208
 10
23.45150608899897
 20
15.96751645875318
 10
23.44489311205931
 20
15.96756236488953
 10
23.43776350775444
 20
15.96761164432026
 10
23.43037093315409
 20
15.96766283039562
  0
SPLINE
  5
171
330
1F
100
AcDbEntity
  8
0
100
AcDbSpline
210
0.0
220
0.0
230
1.0
 70
     8
 71
     3
 72
    10
 73
     6
 74
     0
 42
0.0000000001
 43
0.0000000001
 40
0.0
 40
0.0
 40
0.0
 40
0.0
 40
0.1599447345617552
 40
0.7997242525012095
 40
1.0
 40
1.0
 40
1.0
 40
1.0
 10
23.43037093315409
 20
15.96766283039562
 30
0.0
 10
23.43093416546141
 20
16.05101417313347
 30
0.0
 10
23.43375032903934
 20
16.46777118891551
 30
0.0
 10
23.43648867982372
 20
16.98890384968079
 30
0.0
 10
23.43722035494149
 20
17.42668794962142
 30
0.0
 10
23.43739479201388
 20
17.53105910407512
 30
0.0
  0
SPLINE
  5
173
330
1F
100
AcDbEntity
  8
0
100
AcDbSpline
210
0.0
220
0.0
230
1.0
 70
     8
 71
     3
 72
    24
 73
    20
 74
     0
 42
0.0000000001
 43
0.0000000001
 40
0.0
 40
0.0
 40
0.0
 40
0.0
 40
0.0682121515752297
 40
0.3820485265245708
 40
0.5900296600273149
 40
0.7278120373688811
 40
0.8190950554628432
 40
0.8795891445884809
 40
0.9197029142417376
 40
0.9463403493059059
 40
0.9640565706040494
 40
0.9758808209773675
 40
0.9838150458749918
 40
0.9891780739864012
 40
0.9928525209945595
 40
0.996694670250347
 40
0.9982260024320416
 40
0.9994885721840459
 40
1.0
 40
1.0
 40
1.0
 40
1.0
 10
23.47647059394021
 20
17.46580969117523
 30
0.0
 10
23.47647822187324
 20
17.46539951949354
 30
0.0
 10
23.47652094506125
 20
17.46310219441294
 30
0.0
 10
23.47657251819056
 20
17.45955459992876
 30
0.0
 10
23.47661119204654
 20
17.4555891619516
 30
0.0
 10
23.47662800536512
 20
17.45296261227932
 30
0.0
 10
23.47663531749296
 20
17.45122363723358
 30
0.0
 10
23.4766386615745
 20
17.45007272622079
 30
0.0
 10
23.47663992962023
 20
17.44931100308489
 30
0.0
 10
23.47664051931547
 20
17.44880740670875
 30
0.0
 10
23.47664090113796
 20
17.44847432487096
 30
0.0
 10
23.47664091173082
 20
17.44825420414652
 30
0.0
 10
23.47664103412512
 20
17.44810906973021
 30
0.0
 10
23.47664101638474
 20
17.44801320013634
 30
0.0
 10
23.47664101918427
 20
17.44794379458202
 30
0.0
 10
23.47664101858348
 20
17.44789828046729
 30
0.0
 10
23.47664101864546
 20
17.44787340285653
 30
0.0
 10
23.47664101863753
 20
17.44786613831068
 30
0.0
 10
23.47664101863799
 20
17.4478655840817
 30
0.0
 10
23.47664101863812
 20
17.44786542430238
 30
0.0
  0
ARC
  5
174
330
1F
100
AcDbEntity
  8
0
100
AcDbCircle
 10
22.5317591206611
 20
17.44786542430227
 30
0.0
 40
0.9448818897637794
100
AcDbArc
 50
1.088170450186137
 51
178.9118295498123
  0
ARC
  5
175
330
1F
100
AcDbEntity
  8
0
100
AcDbCircle
 10
22.5317591206611
 20
17.44786542430227
 30
0.0
 40
0.9094488188977052
100
AcDbArc
 50
5.248585519254918
 51
174.7514144807916
  0
LWPOLYLINE
  5
177
330
1F
100
AcDbEntity
  8
0
100
AcDbPolyline
 90
        9
 70
   128
 43
0.0
 10
21.59384813548884
 20
15.96739076687185
 10
21.59498757565926
 20
15.96739868678036
 10
21.59748469347901
 20
15.96741584658213
 10
21.60125053664233
 20
15.96744195294721
 10
21.60615112669697
 20
15.9674759792208
 10
21.61201215232323
 20
15.96751645875318
 10
21.61862512926289
 20
15.96756236488953
 10
21.62575473356776
 20
15.96761164432026
 10
21.63314730816811
 20
15.96766283039562
  0
SPLINE
  5
178
330
1F
100
AcDbEntity
  8
0
100
AcDbSpline
210
0.0
220
0.0
230
1.0
 70
     8
 71
     3
 72
    10
 73
     6
 74
     0
 42
0.0000000001
 43
0.0000000001
 40
0.0
 40
0.0
 40
0.0
 40
0.0
 40
0.1553726966024048
 40
0.8310824095125092
 40
0.9999999999999998
 40
0.9999999999999998
 40
0.9999999999999998
 40
0.9999999999999998
 10
21.58687722268408
 20
17.44786542430227
 30
0.0
 10
21.58702644293934
 20
17.37118989304909
 30
0.0
 10
21.58782461618343
 20
16.96105550870735
 30
0.0
 10
21.59047514250555
 20
16.46756193313222
 30
0.0
 10
21.59328599181774
 20
16.05074939138444
 30
0.0
 10
21.59384813548884
 20
15.96739076687185
 30
0.0
  0
SPLINE
  5
179
330
1F
100
AcDbEntity
  8
0
100
AcDbSpline
210
0.0
220
0.0
230
1.0
 70
     8
 71
     3
 72
    24
 73
    20
 74
     0
 42
0.0000000001
 43
0.0000000001
 40
0.0
 40
0.0
 40
0.0
 40
0.0
 40
0.0682121515752297
 40
0.3820485265245708
 40
0.5900296600273149
 40
0.7278120373688811
 40
0.8190950554628432
 40
0.8795891445884809
 40
0.9197029142417376
 40
0.9463403493059059
 40
0.9640565706040494
 40
0.9758808209773675
 40
0.9838150458749918
 40
0.9891780739864012
 40
0.9928525209945595
 40
0.996694670250347
 40
0.9982260024320416
 40
0.9994885721840459
 40
1.0
 40
1.0
 40
1.0
 40
1.0
 10
21.58704764738199
 20
17.46580969117523
 30
0.0
 10
21.58704001944895
 20
17.46539951949354
 30
0.0
 10
21.58699729626095
 20
17.46310219441294
 30
0.0
 10
21.58694572313164
 20
17.45955459992876
 30
0.0
 10
21.58690704927566
 20
17.4555891619516
 30
0.0
 10
21.58689023595708
 20
17.45296261227932
 30
0.0
 10
21.58688292382924
 20
17.45122363723358
 30
0.0
 10
21.58687957974769
 20
17.45007272622079
 30
0.0
 10
21.58687831170196
 20
17.44931100308489
 30
0.0
 10
21.58687772200674
 20
17.44880740670875
 30
0.0
 10
21.58687734018423
 20
17.44847432487096
 30
0.0
 10
21.58687732959137
 20
17.44825420414652
 30
0.0
 10
21.58687720719707
 20
17.44810906973021
 30
0.0
 10
21.58687722493745
 20
17.44801320013634
 30
0.0
 10
21.58687722213793
 20
17.44794379458202
 30
0.0
 10
21.58687722273871
 20
17.44789828046729
 30
0.0
 10
21.58687722267674
 20
17.44787340285653
 30
0.0
 10
21.58687722268466
 20
17.44786613831068
 30
0.0
 10
21.58687722268421
 20
17.4478655840817
 30
0.0
 10
21.58687722268408
 20
17.44786542430238
 30
0.0
  0
SPLINE
  5
17A
330
1F
100
AcDbEntity
  8
0
100
AcDbSpline
210
0.0
220
0.0
230
1.0
 70
     8
 71
     3
 72
    10
 73
     6
 74
     0
 42
0.0000000001
 43
0.0000000001
 40
0.0
 40
0.0
 40
0.0
 40
0.0
 40
0.1599447345617552
 40
0.7997242525012095
 40
1.0
 40
1.0
 40
1.0
 40
1.0
 10
21.63314730816811
 20
15.96766283039562
 30
0.0
 10
21.63258407586079
 20
16.05101417313347
 30
0.0
 10
21.62976791228286
 20
16.46777118891551
 30
0.0
 10
21.62702956149848
 20
16.98890384968079
 30
0.0
 10
21.6262978863807
 20
17.42668794962142
 30
0.0
 10
21.62612344930832
 20
17.53105910407512
 30
0.0
  0
SPLINE
  5
17B
330
1F
100
AcDbEntity
  8
0
100
AcDbSpline
210
0.0
220
0.0
230
1.0
 70
     8
 71
     3
 72
     9
 73
     5
 74
     0
 42
0.0000000001
 43
0.0000000001
 40
0.0
 40
0.0
 40
0.0
 40
0.0
 40
0.8044145118100761
 40
1.0
 40
1.0
 40
1.0
 40
1.0
 10
23.42058698617909
 20
14.68918206618117
 30
0.0
 10
23.42333788071339
 20
15.03199060826854
 30
0.0
 10
23.42675762823649
 20
15.45814968055578
 30
0.0
 10
23.42977983363568
 20
15.88431171988533
 30
0.0
 10
23.43037093315409
 20
15.96766283039562
 30
0.0
  0
SPLINE
  5
17C
330
1F
100
AcDbEntity
  8
0
100
AcDbSpline
210
0.0
220
0.0
230
1.0
 70
     8
 71
     3
 72
    16
 73
    12
 74
     0
 42
0.0000000001
 43
0.0000000001
 40
0.0
 40
0.0
 40
0.0
 40
0.0
 40
0.10796246155617
 40
0.2159248400628879
 40
0.3238868094684996
 40
0.4318487621942835
 40
0.5398004238851267
 40
0.6477521301846077
 40
0.755686395755691
 40
0.8636202897867592
 40
1.0
 40
1.0
 40
1.0
 40
1.0
 10
23.06620639001397
 20
14.33762906068482
 30
0.0
 10
23.08613223563246
 20
14.33862199748054
 30
0.0
 10
23.12598391154162
 20
14.34060787030818
 30
0.0
 10
23.18409964055884
 20
14.35611039487983
 30
0.0
 10
23.23879859783887
 20
14.38060926728806
 30
0.0
 10
23.28870090718867
 20
14.4139647974519
 30
0.0
 10
23.33214000903585
 20
14.45532437808313
 30
0.0
 10
23.36823630303302
 20
14.50327532674156
 30
0.0
 10
23.39537344209944
 20
14.55669349123503
 30
0.0
 10
23.41577453690196
 20
14.61887469412696
 30
0.0
 10
23.41886297261513
 20
14.66399512787029
 30
0.0
 10
23.42058698617909
 20
14.68918206618117
 30
0.0
  0
LINE
  5
17D
330
1F
100
AcDbEntity
  8
0
100
AcDbLine
 10
21.99731185130823
 20
14.33762906068482
 30
0.0
 11
23.06620639001397
 21
14.33762906068482
 31
0.0
  0
SPLINE
  5
17E
330
1F
100
AcDbEntity
  8
0
100
AcDbSpline
210
0.0
220
0.0
230
1.0
 70
     8
 71
     3
 72
    16
 73
    12
 74
     0
 42
0.0000000001
 43
0.0000000001
 40
0.0
 40
0.0
 40
0.0
 40
0.0
 40
0.10796246155617
 40
0.2159248400628879
 40
0.3238868094684996
 40
0.4318487621942835
 40
0.5398004238851267
 40
0.6477521301846077
 40
0.755686395755691
 40
0.8636202897867592
 40
1.0
 40
1.0
 40
1.0
 40
1.0
 10
21.99731185130823
 20
14.33762906068482
 30
0.0
 10
21.97738600568973
 20
14.33862199748054
 30
0.0
 10
21.93753432978057
 20
14.34060787030818
 30
0.0
 10
21.87941860076335
 20
14.35611039487983
 30
0.0
 10
21.82471964348333
 20
14.38060926728806
 30
0.0
 10
21.77481733413353
 20
14.4139647974519
 30
0.0
 10
21.73137823228636
 20
14.45532437808313
 30
0.0
 10
21.69528193828917
 20
14.50327532674156
 30
0.0
 10
21.66814479922276
 20
14.55669349123503
 30
0.0
 10
21.64774370442023
 20
14.61887469412696
 30
0.0
 10
21.64465526870706
 20
14.66399512787029
 30
0.0
 10
21.64293125514312
 20
14.68918206618117
 30
0.0
  0
SPLINE
  5
17F
330
1F
100
AcDbEntity
  8
0
100
AcDbSpline
210
0.0
220
0.0
230
1.0
 70
     8
 71
     3
 72
     9
 73
     5
 74
     0
 42
0.0000000001
 43
0.0000000001
 40
0.0
 40
0.0
 40
0.0
 40
0.0
 40
0.8044145118100761
 40
1.0
 40
1.0
 40
1.0
 40
1.0
 10
21.64293125514312
 20
14.68918206618117
 30
0.0
 10
21.6401803606088
 20
15.03199060826854
 30
0.0
 10
21.6367606130857
 20
15.45814968055578
 30
0.0
 10
21.63373840768652
 20
15.88431171988533
 30
0.0
 10
21.63314730816811
 20
15.96766283039562
 30
0.0
  0
LWPOLYLINE
  5
180
330
1F
100
AcDbEntity
  8
0
100
AcDbPolyline
 90
        9
 70
   128
 43
0.0
 10
21.60356923652318
 20
14.68887318974934
 10
21.60444937302244
 20
14.68888022966801
 10
21.60677349950726
 20
14.68889841612458
 10
21.61045442365157
 20
14.68892716245917
 10
21.61535413371638
 20
14.68896558868193
 10
21.62128856516132
 20
14.68901222814315
 10
21.6280352272233
 20
14.68906502753321
 10
21.63534082949503
 20
14.68912252020238
 10
21.64293125514312
 20
14.68918206618117
  0
SPLINE
  5
181
330
1F
100
AcDbEntity
  8
0
100
AcDbSpline
210
0.0
220
0.0
230
1.0
 70
     8
 71
     3
 72
     9
 73
     5
 74
     0
 42
0.0000000001
 43
0.0000000001
 40
0.0
 40
0.0
 40
0.0
 40
0.0
 40
0.1955931722436505
 40
1.0
 40
1.0
 40
1.0
 40
1.0
 10
21.59384813548884
 20
15.96739076687185
 30
0.0
 10
21.59443660443765
 20
15.88403393093326
 30
0.0
 10
21.59744524191745
 20
15.45785936163513
 30
0.0
 10
21.60083915204432
 20
15.03168819000308
 30
0.0
 10
21.60356923652318
 20
14.68887318974934
 30
0.0
  0
SPLINE
  5
182
330
1F
100
AcDbEntity
  8
0
100
AcDbSpline
210
0.0
220
0.0
230
1.0
 70
     8
 71
     3
 72
     9
 73
     5
 74
     0
 42
0.0000000001
 43
0.0000000001
 40
0.0
 40
0.0
 40
0.0
 40
0.0
 40
0.1955931722436505
 40
1.0
 40
1.0
 40
1.0
 40
1.0
 10
23.46967010583338
 20
15.96739076687185
 30
0.0
 10
23.46908163688456
 20
15.88403393093326
 30
0.0
 10
23.46607299940476
 20
15.45785936163513
 30
0.0
 10
23.46267908927787
 20
15.03168819000308
 30
0.0
 10
23.45994900479902
 20
14.68887318974934
 30
0.0
  0
LWPOLYLINE
  5
183
330
1F
100
AcDbEntity
  8
0
100
AcDbPolyline
 90
        9
 70
   128
 43
0.0
 10
23.45994900479902
 20
14.68887318974934
 10
23.45906886829977
 20
14.68888022966801
 10
23.45674474181494
 20
14.68889841612458
 10
23.45306381767062
 20
14.68892716245917
 10
23.44816410760582
 20
14.68896558868193
 10
23.44222967616088
 20
14.68901222814315
 10
23.4354830140989
 20
14.68906502753321
 10
23.42817741182718
 20
14.68912252020238
 10
23.42058698617909
 20
14.68918206618117
  0
LINE
  5
184
330
1F
100
AcDbEntity
  8
0
100
AcDbLine
 10
21.99731185130823
 20
14.29825919548886
 30
0.0
 11
21.99731185130823
 21
14.33762906068482
 31
0.0
  0
SPLINE
  5
185
330
1F
100
AcDbEntity
  8
0
100
AcDbSpline
210
0.0
220
0.0
230
1.0
 70
     8
 71
     3
 72
    16
 73
    12
 74
     0
 42
0.0000000001
 43
0.0000000001
 40
0.0
 40
0.0
 40
0.0
 40
0.0
 40
0.1363816501481593
 40
0.2443167589677874
 40
0.3522523579877976
 40
0.4602039758860049
 40
0.5681559453960701
 40
0.6761171500656018
 40
0.7840782291894427
 40
0.8920391316521946
 40
0.9999999999999998
 40
0.9999999999999998
 40
0.9999999999999998
 40
0.9999999999999998
 10
21.60356923652317
 20
14.68887318974933
 30
0.0
 10
21.60548475613488
 20
14.66088778169909
 30
0.0
 10
21.60891625548075
 20
14.61075417365286
 30
0.0
 10
21.63158330087476
 20
14.54166405919243
 30
0.0
 10
21.66173436939153
 20
14.4823105874246
 30
0.0
 10
21.70184022721177
 20
14.42903196838584
 30
0.0
 10
21.75010401121987
 20
14.38307684014588
 30
0.0
 10
21.80554896881367
 20
14.3460146613039
 30
0.0
 10
21.86632370155539
 20
14.31879402906488
 30
0.0
 10
21.93089451842397
 20
14.30156855380136
 30
0.0
 10
21.97517274267875
 20
14.29936231481017
 30
0.0
 10
21.99731185130823
 20
14.29825919548886
 30
0.0
  0
LINE
  5
186
330
1F
100
AcDbEntity
  8
0
100
AcDbLine
 10
23.06620639001397
 20
14.29825919548886
 30
0.0
 11
21.99731185130823
 21
14.29825919548886
 31
0.0
  0
LINE
  5
187
330
1F
100
AcDbEntity
  8
0
100
AcDbLine
 10
23.06620639001397
 20
14.29825919548886
 30
0.0
 11
23.06620639001397
 21
14.33762906068482
 31
0.0
  0
SPLINE
  5
188
330
1F
100
AcDbEntity
  8
0
100
AcDbSpline
210
0.0
220
0.0
230
1.0
 70
     8
 71
     3
 72
    16
 73
    12
 74
     0
 42
0.0000000001
 43
0.0000000001
 40
0.0
 40
0.0
 40
0.0
 40
0.0
 40
0.1363758268410492
 40
0.2427686765495968
 40
0.3522480118654722
 40
0.458657207945333
 40
0.5681531224626452
 40
0.6745714360848766
 40
0.7840768232425979
 40
0.8904952251186067
 40
0.9999999999999998
 40
0.9999999999999998
 40
0.9999999999999998
 40
0.9999999999999998
 10
23.45994900479902
 20
14.68887318974934
 30
0.0
 10
23.45802678377745
 20
14.66089036901234
 30
0.0
 10
23.45460495261974
 20
14.61107690489775
 30
0.0
 10
23.43212387781009
 20
14.54193559678867
 30
0.0
 10
23.40208610785731
 20
14.48286623596167
 30
0.0
 10
23.36195284652419
 20
14.42922269896103
 30
0.0
 10
23.31388252040225
 20
14.38350153052674
 30
0.0
 10
23.25829191619436
 20
14.34610490132118
 30
0.0
 10
23.19777718264893
 20
14.31903907211122
 30
0.0
 10
23.13295712807268
 20
14.30155861793457
 30
0.0
 10
23.08866765834534
 20
14.29936943359329
 30
0.0
 10
23.06620639001397
 20
14.29825919548886
 30
0.0
  0
SPLINE
  5
189
330
1F
100
AcDbEntity
  8
0
100
AcDbSpline
210
0.0
220
0.0
230
1.0
 70
     8
 71
     3
 72
    16
 73
    12
 74
     0
 42
0.0000000001
 43
0.0000000001
 40
0.0
 40
0.0
 40
0.0
 40
0.0
 40
0.1064548552828298
 40
0.215996190912962
 40
0.3224624372968599
 40
0.4320146436575849
 40
0.5385090185238256
 40
0.6480928900708923
 40
0.7545581295438259
 40
0.8641101827956088
 40
0.9999999999999998
 40
0.9999999999999998
 40
0.9999999999999998
 40
0.9999999999999998
 10
23.0668782255862
 20
14.29825919548886
 30
0.0
 10
23.08869053548051
 20
14.29931003763996
 30
0.0
 10
23.13294756668559
 20
14.30144218935146
 30
0.0
 10
23.19718101408607
 20
14.31859642307098
 30
0.0
 10
23.25828778952315
 20
14.34574186724435
 30
0.0
 10
23.31344916330671
 20
14.38263677379285
 30
0.0
 10
23.36207140945631
 20
14.42863389563035
 30
0.0
 10
23.4019770387536
 20
14.48167118368145
 30
0.0
 10
23.43244958710384
 20
14.54118478685514
 30
0.0
 10
23.45510467949376
 20
14.61015415978195
 30
0.0
 10
23.45862390078939
 20
14.66046020901798
 30
0.0
 10
23.46057233093164
 20
14.68831234289495
 30
0.0
  0
SPLINE
  5
18A
330
1F
100
AcDbEntity
  8
0
100
AcDbSpline
210
0.0
220
0.0
230
1.0
 70
    24
 71
     3
 72
     9
 73
     5
 74
     0
 42
0.0000000001
 43
0.0000000001
 40
0.0
 40
0.0
 40
0.0
 40
0.0
 40
0.5454238022320582
 40
1.0
 40
1.0
 40
1.0
 40
1.0
 10
23.0668782255862
 20
14.29825919548886
 30
0.0
 10
23.06679107905683
 20
14.29825919548886
 30
0.0
 10
23.06663130141419
 20
14.29825919548886
 30
0.0
 10
23.06633918100079
 20
14.29825919548886
 30
0.0
 10
23.06620639001397
 20
14.29825919548886
 30
0.0
  0
SPLINE
  5
18B
330
1F
100
AcDbEntity
  8
0
100
AcDbSpline
210
0.0
220
0.0
230
1.0
 70
     8
 71
     3
 72
     9
 73
     5
 74
     0
 42
0.0000000001
 43
0.0000000001
 40
0.0
 40
0.0
 40
0.0
 40
0.0
 40
0.316276927264424
 40
1.0
 40
1.0
 40
1.0
 40
1.0
 10
23.45994900479902
 20
14.68887318974934
 30
0.0
 10
23.46004002100433
 20
14.68878525502651
 30
0.0
 10
23.46032779477935
 20
14.68850722424005
 30
0.0
 10
23.4604730301546
 20
14.68839147994204
 30
0.0
 10
23.46057233093164
 20
14.68831234289495
 30
0.0
  0
SPLINE
  5
18C
330
1F
100
AcDbEntity
  8
0
100
AcDbSpline
210
0.0
220
0.0
230
1.0
 70
    24
 71
     3
 72
     9
 73
     5
 74
     0
 42
0.0000000001
 43
0.0000000001
 40
0.0
 40
0.0
 40
0.0
 40
0.0
 40
0.5454238022320582
 40
1.0
 40
1.0
 40
1.0
 40
1.0
 10
21.996640015736
 20
14.29825919548886
 30
0.0
 10
21.99672716226536
 20
14.29825919548886
 30
0.0
 10
21.996886939908
 20
14.29825919548886
 30
0.0
 10
21.99717906032141
 20
14.29825919548886
 30
0.0
 10
21.99731185130822
 20
14.29825919548886
 30
0.0
  0
SPLINE
  5
18D
330
1F
100
AcDbEntity
  8
0
100
AcDbSpline
210
0.0
220
0.0
230
1.0
 70
     8
 71
     3
 72
    16
 73
    12
 74
     0
 42
0.0000000001
 43
0.0000000001
 40
0.0
 40
0.0
 40
0.0
 40
0.0
 40
0.1079971948675159
 40
0.2159947743955155
 40
0.3240033925939945
 40
0.4320117443506347
 40
0.5400503039486142
 40
0.6480885189683401
 40
0.7560962708593432
 40
0.8641043696960315
 40
1.0
 40
1.0
 40
1.0
 40
1.0
 10
21.99664001573599
 20
14.29825919548886
 30
0.0
 10
21.97451466978673
 20
14.29936133057433
 30
0.0
 10
21.93026389908296
 20
14.3015656046708
 30
0.0
 10
21.86572941909764
 20
14.31877304049855
 30
0.0
 10
21.8049842235072
 20
14.34596772168863
 30
0.0
 10
21.74955222156508
 20
14.38300033903359
 30
0.0
 10
21.70128873387463
 20
14.42892918549198
 30
0.0
 10
21.66117575550787
 20
14.48218545616062
 30
0.0
 10
21.63101284694141
 20
14.5415143092565
 30
0.0
 10
21.60836582774559
 20
14.61046177599557
 30
0.0
 10
21.604885205618
 20
14.66045670913669
 30
0.0
 10
21.60294591039056
 20
14.68831234289495
 30
0.0
  0
SPLINE
  5
18E
330
1F
100
AcDbEntity
  8
0
100
AcDbSpline
210
0.0
220
0.0
230
1.0
 70
     8
 71
     3
 72
     9
 73
     5
 74
     0
 42
0.0000000001
 43
0.0000000001
 40
0.0
 40
0.0
 40
0.0
 40
0.0
 40
0.316276927264424
 40
1.0
 40
1.0
 40
1.0
 40
1.0
 10
21.60356923652318
 20
14.68887318974934
 30
0.0
 10
21.60347822031787
 20
14.68878525502651
 30
0.0
 10
21.60319044654285
 20
14.68850722424005
 30
0.0
 10
21.6030452111676
 20
14.68839147994204
 30
0.0
 10
21.60294591039056
 20
14.68831234289495
 30
0.0
  0
LINE
  5
18F
330
1F
100
AcDbEntity
  8
0
100
AcDbLine
 10
21.59384813548884
 20
15.96739076687185
 30
0.0
 11
21.59218326805486
 21
15.96367031651748
 31
0.0
  0
SPLINE
  5
190
330
1F
100
AcDbEntity
  8
0
100
AcDbSpline
210
0.0
220
0.0
230
1.0
 70
     8
 71
     3
 72
    10
 73
     6
 74
     0
 42
0.0000000001
 43
0.0000000001
 40
0.0
 40
0.0
 40
0.0
 40
0.0
 40
0.4967286368939647
 40
0.8420107811296691
 40
1.0
 40
1.0
 40
1.0
 40
1.0
 10
21.59218326805486
 20
15.96367031651748
 30
0.0
 10
21.5912451091126
 20
16.10934909899397
 30
0.0
 10
21.58965482442772
 20
16.35629098298531
 30
0.0
 10
21.58838819134353
 20
16.64946692398346
 30
0.0
 10
21.58796863420297
 20
16.79704804789865
 30
0.0
 10
21.58783692493086
 20
16.84337738073307
 30
0.0
  0
LWPOLYLINE
  5
191
330
1F
100
AcDbEntity
  8
0
100
AcDbPolyline
 90
        8
 70
   128
 43
0.0
 10
21.58725393166564
 20
17.09861285889771
 10
21.58697402156585
 20
17.25903495068802
 10
21.58697387490088
 20
17.25918222065341
 10
21.58688565591999
 20
17.39138787381909
 10
21.58688565591999
 20
17.39141981011682
 10
21.58688022931602
 20
17.42551903119971
 10
21.58688022931602
 20
17.42553030836111
 10
21.58688022931602
 20
17.42553030836111
  0
SPLINE
  5
192
330
1F
100
AcDbEntity
  8
0
100
AcDbSpline
210
0.0
220
0.0
230
1.0
 70
     8
 71
     3
 72
    10
 73
     6
 74
     0
 42
0.0000000001
 43
0.0000000001
 40
0.0
 40
0.0
 40
0.0
 40
0.0
 40
0.4967286368939647
 40
0.8420107811296691
 40
1.0
 40
1.0
 40
1.0
 40
1.0
 10
23.47133497326734
 20
15.96367031651748
 30
0.0
 10
23.4722731322096
 20
16.10934909899397
 30
0.0
 10
23.47386341689448
 20
16.35629098298531
 30
0.0
 10
23.47513004997867
 20
16.64946692398346
 30
0.0
 10
23.47554960711923
 20
16.79704804789865
 30
0.0
 10
23.47568131639135
 20
16.84337738073307
 30
0.0
  0
SPLINE
  5
193
330
1F
100
AcDbEntity
  8
0
100
AcDbSpline
210
0.0
220
0.0
230
1.0
 70
     8
 71
     3
 72
    18
 73
    14
 74
     0
 42
0.0000000001
 43
0.0000000001
 40
0.0
 40
0.0
 40
0.0
 40
0.0
 40
0.459314877926434
 40
0.4597365111983108
 40
0.8382299851970675
 40
0.8383214488019396
 40
0.9363937095366619
 40
0.9364265251735822
 40
0.970384127525939
 40
0.9797983404000255
 40
0.9872766093146756
 40
0.997092973172519
 40
1.0
 40
1.0
 40
1.0
 40
1.0
 10
23.47626430965656
 20
17.09861285889771
 30
0.0
 10
23.47637761769923
 20
17.15208531598469
 30
0.0
 10
23.47649102975429
 20
17.20560685871665
 30
0.0
 10
23.4765881885108
 20
17.30320042598008
 30
0.0
 10
23.47663259547871
 20
17.34734577699304
 30
0.0
 10
23.47663258278902
 20
17.40282376576248
 30
0.0
 10
23.47663801327726
 20
17.41428850814384
 30
0.0
 10
23.47663801156589
 20
17.42941642895105
 30
0.0
 10
23.47663892656569
 20
17.43430423949034
 30
0.0
 10
23.47663992462927
 20
17.44032199088408
 30
0.0
 10
23.47664059830347
 20
17.44320001899599
 30
0.0
 10
23.47664089531728
 20
17.44484227550801
 30
0.0
 10
23.47664099570226
 20
17.44569289223218
 30
0.0
 10
23.47664101863812
 20
17.44588724024036
 30
0.0
  0
LINE
  5
194
330
1F
100
AcDbEntity
  8
0
100
AcDbLine
 10
23.46967010583338
 20
15.96739076687185
 30
0.0
 11
23.47133497326734
 21
15.96367031651748
 31
0.0
  0
SPLINE
  5
195
330
1F
100
AcDbEntity
  8
0
100
AcDbSpline
210
0.0
220
0.0
230
1.0
 70
     8
 71
     3
 72
    10
 73
     6
 74
     0
 42
0.0000000001
 43
0.0000000001
 40
0.0
 40
0.0
 40
0.0
 40
0.0
 40
0.1955401819612996
 40
0.5866344283979318
 40
1.0
 40
1.0
 40
1.0
 40
1.0
 10
21.60294591039056
 20
14.68831234289495
 30
0.0
 10
21.60217712703245
 20
14.77127691197645
 30
0.0
 10
21.59987072237781
 20
15.02017650934943
 30
0.0
 10
21.59603655915163
 20
15.44446015678702
 30
0.0
 10
21.59350257150713
 20
15.7857863510938
 30
0.0
 10
21.59220050118911
 20
15.96117422535253
 30
0.0
  0
LINE
  5
196
330
1F
100
AcDbEntity
  8
0
100
AcDbLine
 10
21.59220050118912
 20
15.96117422535253
 30
0.0
 11
21.59218326805486
 21
15.96367031651748
 31
0.0
  0
LINE
  5
197
330
1F
100
AcDbEntity
  8
0
100
AcDbLine
 10
23.47131774013309
 20
15.96117422535253
 30
0.0
 11
23.47133497326734
 21
15.96367031651748
 31
0.0
  0
SPLINE
  5
198
330
1F
100
AcDbEntity
  8
0
100
AcDbSpline
210
0.0
220
0.0
230
1.0
 70
     8
 71
     3
 72
    10
 73
     6
 74
     0
 42
0.0000000001
 43
0.0000000001
 40
0.0
 40
0.0
 40
0.0
 40
0.0
 40
0.1955401819612996
 40
0.5866344283979318
 40
1.0
 40
1.0
 40
1.0
 40
1.0
 10
23.46057233093164
 20
14.68831234289495
 30
0.0
 10
23.46134111428975
 20
14.77127691197645
 30
0.0
 10
23.46364751894439
 20
15.02017650934943
 30
0.0
 10
23.46748168217057
 20
15.44446015678702
 30
0.0
 10
23.47001566981507
 20
15.7857863510938
 30
0.0
 10
23.47131774013309
 20
15.96117422535253
 30
0.0
  0
ARC
  5
1AC
330
1F
100
AcDbEntity
  8
0
100
AcDbCircle
 10
22.5317591206611
 20
17.44786542430227
 30
0.0
 40
1.013779527559055
100
AcDbArc
 50
90.0
 51
200.7005055045263
  0
ARC
  5
1AD
330
1F
100
AcDbEntity
  8
0
100
AcDbCircle
 10
22.5317591206611
 20
17.44786542430227
 30
0.0
 40
1.013779527559055
100
AcDbArc
 50
339.3008903045189
 51
90.0
  0
ARC
  5
1B3
330
1F
100
AcDbEntity
  8
0
100
AcDbCircle
 10
22.5317591206611
 20
17.44786542430227
 30
0.0
 40
0.9724409448818908
100
AcDbArc
 50
347.2719743610924
 51
193.1217249938354
  0
ARC
  5
1B4
330
1F
100
AcDbEntity
  8
0
100
AcDbCircle
 10
22.5317591206611
 20
17.44786542430227
 30
0.0
 40
1.053149606299214
100
AcDbArc
 50
334.1192202355615
 51
90.0
  0
ARC
  5
1B5
330
1F
100
AcDbEntity
  8
0
100
AcDbCircle
 10
22.5317591206611
 20
17.44786542430227
 30
0.0
 40
1.053149606299214
100
AcDbArc
 50
90.0
 51
205.9662396256542
  0
ARC
  5
2A2
330
1F
100
AcDbEntity
  8
0
100
AcDbCircle
 10
13.44517335636894
 20
15.91243235343613
 30
0.0
 40
0.5905511811023631
100
AcDbArc
 50
3.999999999999737
 51
90.0
  0
LINE
  5
2BA
330
1F
100
AcDbEntity
  8
0
100
AcDbLine
 10
13.00830830758552
 20
18.39274731406606
 30
0.0
 11
14.26815082727056
 21
18.39274731406606
 31
0.0
  0
LINE
  5
2BB
330
1F
100
AcDbEntity
  8
0
100
AcDbLine
 10
14.26815082727056
 20
18.39274731406606
 30
0.0
 11
14.26815082727056
 21
14.29825912508968
 31
0.0
  0
LINE
  5
2BC
330
1F
100
AcDbEntity
  8
0
100
AcDbLine
 10
13.44517335636894
 20
16.50298353453849
 30
0.0
 11
13.00830830758552
 21
16.50298353453849
 31
0.0
  0
LINE
  5
2BD
330
1F
100
AcDbEntity
  8
0
100
AcDbLine
 10
14.26815082727056
 20
14.29825912508968
 30
0.0
 11
14.15004059105009
 21
14.29825912508968
 31
0.0
  0
LINE
  5
2BE
330
1F
100
AcDbEntity
  8
0
100
AcDbLine
 10
14.15004059105009
 20
14.29825912508968
 30
0.0
 11
14.15004059105009
 21
18.39274731406606
 31
0.0
  0
LINE
  5
2BF
330
1F
100
AcDbEntity
  8
0
100
AcDbLine
 10
14.15004059105009
 20
14.29825912508968
 30
0.0
 11
14.03428598447514
 21
15.95362712139526
 31
0.0
  0
LINE
  5
2C0
330
1F
100
AcDbEntity
  8
0
100
AcDbLine
 10
14.26815082727056
 20
18.39274731406606
 30
0.0
 11
14.26815082727056
 21
14.29825912508968
 31
0.0
  0
LINE
  5
2D4
330
1F
100
AcDbEntity
  8
0
100
AcDbLine
 10
11.49624567199831
 20
16.13487329831802
 30
0.0
 11
11.49624567199831
 21
16.09944022745188
 31
0.0
  0
LINE
  5
2D9
330
1F
100
AcDbEntity
  8
0
100
AcDbLine
 10
11.49624567199831
 20
16.09944022745188
 30
0.0
 11
11.49624567199831
 21
16.08452345130402
 31
0.0
  0
LINE
  5
2E4
330
1F
100
AcDbEntity
  8
0
100
AcDbLine
 10
10.73049764050225
 20
15.99746838260616
 30
0.0
 11
10.73049764050225
 21
16.02070006997157
 31
0.0
  0
LINE
  5
2E7
330
1F
100
AcDbEntity
  8
0
100
AcDbLine
 10
10.73049764050225
 20
15.94546509737118
 30
0.0
 11
10.73049764050225
 21
15.95971784057977
 31
0.0
  0
LINE
  5
2EE
330
1F
100
AcDbEntity
  8
0
100
AcDbLine
 10
10.74541441665012
 20
15.94546509737118
 30
0.0
 11
10.73049764050225
 21
15.95971784057977
 31
0.0
  0
LINE
  5
2EF
330
1F
100
AcDbEntity
  8
0
100
AcDbLine
 10
10.73049764050225
 20
15.95971784057977
 30
0.0
 11
10.73049764050225
 21
15.96347958920978
 31
0.0
  0
LINE
  5
2F0
330
1F
100
AcDbEntity
  8
0
100
AcDbLine
 10
10.73049764050225
 20
15.96347958920978
 30
0.0
 11
10.67537953026603
 21
15.96347958920978
 31
0.0
  0
LINE
  5
2F1
330
1F
100
AcDbEntity
  8
0
100
AcDbLine
 10
10.67537953026603
 20
15.96347958920978
 30
0.0
 11
10.67537953026603
 21
15.94546509737118
 31
0.0
  0
LINE
  5
2F2
330
1F
100
AcDbEntity
  8
0
100
AcDbLine
 10
10.67537953026603
 20
15.94546509737118
 30
0.0
 11
10.74541441665012
 21
15.94546509737118
 31
0.0
  0
POINT
  5
2F4
330
1F
100
AcDbEntity
  8
0
100
AcDbPoint
 10
10.76986771924241
 20
15.94546509737118
 30
0.0
  0
POINT
  5
2F5
330
1F
100
AcDbEntity
  8
0
100
AcDbPoint
 10
10.76986771924241
 20
15.94546509737118
 30
0.0
  0
POINT
  5
2F6
330
1F
100
AcDbEntity
  8
0
100
AcDbPoint
 10
10.76986771924241
 20
15.94546509737118
 30
0.0
  0
LINE
  5
2F7
330
1F
100
AcDbEntity
  8
0
100
AcDbLine
 10
11.77183625309907
 20
20.95180249318892
 30
0.0
 11
11.7117968566793
 21
20.95180249318892
 31
0.0
  0
LINE
  5
2F8
330
1F
100
AcDbEntity
  8
0
100
AcDbLine
 10
10.74541442374497
 20
16.09944028142459
 30
0.0
 11
10.73049764273156
 21
16.0845234270787
 31
0.0
  0
LINE
  5
2F9
330
1F
100
AcDbEntity
  8
0
100
AcDbLine
 10
10.73049764273156
 20
15.95687664833184
 30
0.0
 11
10.74541442374497
 21
15.94195994065092
 31
0.0
  0
LINE
  5
2FA
330
1F
100
AcDbEntity
  8
0
100
AcDbLine
 10
10.74541442374497
 20
15.94195994065092
 30
0.0
 11
11.1419149633369
 21
15.94195994065092
 31
0.0
  0
LINE
  5
2FB
330
1F
100
AcDbEntity
  8
0
100
AcDbLine
 10
11.49624565674516
 20
15.94195994065092
 30
0.0
 11
11.7117968566793
 21
15.94195994065092
 31
0.0
  0
LINE
  5
2FC
330
1F
100
AcDbEntity
  8
0
100
AcDbLine
 10
11.7117968566793
 20
16.09944028142459
 30
0.0
 11
11.49624565674516
 21
16.09944028142459
 31
0.0
  0
LINE
  5
2FD
330
1F
100
AcDbEntity
  8
0
100
AcDbLine
 10
11.1419149633369
 20
16.09944028142459
 30
0.0
 11
10.74541442374497
 21
16.09944028142459
 31
0.0
  0
LINE
  5
300
330
1F
100
AcDbEntity
  8
0
100
AcDbLine
 10
7.476560772487955
 20
16.62586640677174
 30
0.0
 11
11.1419149633369
 21
16.62586640677174
 31
0.0
  0
LINE
  5
301
330
1F
100
AcDbEntity
  8
0
100
AcDbLine
 10
11.1419149633369
 20
16.76366174161493
 30
0.0
 11
7.476560772487955
 21
16.76366174161493
 31
0.0
  0
LINE
  5
302
330
1F
100
AcDbEntity
  8
0
100
AcDbLine
 10
7.476560772487955
 20
18.13206910698961
 30
0.0
 11
11.14191496333691
 21
18.13206910698961
 31
0.0
  0
LINE
  5
303
330
1F
100
AcDbEntity
  8
0
100
AcDbLine
 10
11.14191496333691
 20
18.26986444183281
 30
0.0
 11
7.476560772487955
 21
18.26986444183281
 31
0.0
  0
ARC
  5
304
330
1F
100
AcDbEntity
  8
0
100
AcDbCircle
 10
14.23271775640442
 20
18.35731424319991
 30
0.0
 40
0.0354330708661408
100
AcDbArc
 50
0.0000000000002
 51
90.0
  0
LINE
  5
305
330
1F
100
AcDbEntity
  8
0
100
AcDbLine
 10
14.15004053321362
 20
18.39274732227929
 30
0.0
 11
13.02799336186496
 21
18.39274732227929
 31
0.0
  0
LINE
  5
306
330
1F
100
AcDbEntity
  8
0
100
AcDbLine
 10
13.02799336186496
 20
16.50298352632526
 30
0.0
 11
13.25547586730098
 21
16.50298352632526
 31
0.0
  0
LINE
  5
307
330
1F
100
AcDbEntity
  8
0
100
AcDbLine
 10
14.23271763145406
 20
18.39274732227929
 30
0.0
 11
14.15004053321362
 21
18.39274732227929
 31
0.0
  0
ARC
  5
308
330
1F
100
AcDbEntity
  8
0
100
AcDbCircle
 10
13.0279933469556
 20
18.37306227469596
 30
0.0
 40
0.0196850393700796
100
AcDbArc
 50
90.0
 51
179.9999999999998
  0
ARC
  5
309
330
1F
100
AcDbEntity
  8
0
100
AcDbCircle
 10
13.0279933469556
 20
16.52266857390857
 30
0.0
 40
0.0196850393700814
100
AcDbArc
 50
179.9999999999998
 51
270.0000000000008
  0
LINE
  5
30A
330
1F
100
AcDbEntity
  8
0
100
AcDbLine
 10
11.30333228696353
 20
19.10140870909581
 30
0.0
 11
11.1419149633369
 21
19.10140870909581
 31
0.0
  0
LINE
  5
30B
330
1F
100
AcDbEntity
  8
0
100
AcDbLine
 10
11.1419149633369
 20
15.79432213950874
 30
0.0
 11
11.30333228696353
 21
15.79432213950874
 31
0.0
  0
ARC
  5
30C
330
1F
100
AcDbEntity
  8
0
100
AcDbCircle
 10
11.30333228617154
 20
19.02660558178259
 30
0.0
 40
0.0748031496063
100
AcDbArc
 50
0.0000000000002
 51
90.0
  0
ARC
  5
30D
330
1F
100
AcDbEntity
  8
0
100
AcDbCircle
 10
11.30333228617154
 20
15.86912526682196
 30
0.0
 40
0.0748031496063
100
AcDbArc
 50
270.0000000000008
 51
0.0000000000002
  0
ARC
  5
30E
330
1F
100
AcDbEntity
  8
0
100
AcDbCircle
 10
11.417505514518
 20
18.45967644792432
 30
0.0
 40
0.0393700787401574
100
AcDbArc
 50
179.9999999999998
 51
270.0000000000008
  0
ARC
  5
30F
330
1F
100
AcDbEntity
  8
0
100
AcDbCircle
 10
11.417505514518
 20
16.43605440068023
 30
0.0
 40
0.0393700787401574
100
AcDbArc
 50
90.0
 51
179.9999999999998
  0
LINE
  5
310
330
1F
100
AcDbEntity
  8
0
100
AcDbLine
 10
12.87813549303585
 20
18.42030640391443
 30
0.0
 11
12.12616694650733
 21
18.42030640391443
 31
0.0
  0
LINE
  5
311
330
1F
100
AcDbEntity
  8
0
100
AcDbLine
 10
11.7117968566793
 20
18.42030640391443
 30
0.0
 11
11.41750552302457
 21
18.42030640391443
 31
0.0
  0
LINE
  5
312
330
1F
100
AcDbEntity
  8
0
100
AcDbLine
 10
11.41750552302457
 20
16.47542444469012
 30
0.0
 11
11.7117968566793
 21
16.47542444469012
 31
0.0
  0
LINE
  5
313
330
1F
100
AcDbEntity
  8
0
100
AcDbLine
 10
12.12616694650733
 20
16.47542444469012
 30
0.0
 11
12.87813549303585
 21
16.47542444469012
 31
0.0
  0
ARC
  5
314
330
1F
100
AcDbEntity
  8
0
100
AcDbCircle
 10
12.87813543577784
 20
18.34550321957786
 30
0.0
 40
0.0748031496063
100
AcDbArc
 50
0.0000000000002
 51
90.0
  0
ARC
  5
315
330
1F
100
AcDbEntity
  8
0
100
AcDbCircle
 10
12.87813543577784
 20
16.55022762902668
 30
0.0
 40
0.0748031496063
100
AcDbArc
 50
270.0000000000008
 51
0.0000000000002
  0
ARC
  5
316
330
1F
100
AcDbEntity
  8
0
100
AcDbCircle
 10
12.9923086641243
 20
18.17621188099519
 30
0.0
 40
0.0393700787401574
100
AcDbArc
 50
179.9999999999998
 51
270.0000000000008
  0
ARC
  5
317
330
1F
100
AcDbEntity
  8
0
100
AcDbCircle
 10
12.9923086641243
 20
16.71951896760936
 30
0.0
 40
0.0393700787401592
100
AcDbArc
 50
90.0
 51
179.9999999999998
  0
LINE
  5
318
330
1F
100
AcDbEntity
  8
0
100
AcDbLine
 10
13.00830828260201
 20
18.13684180518833
 30
0.0
 11
12.99230860076503
 21
18.13684180518833
 31
0.0
  0
LINE
  5
319
330
1F
100
AcDbEntity
  8
0
100
AcDbLine
 10
12.99230860076503
 20
16.75888904341622
 30
0.0
 11
13.00830828260201
 21
16.75888904341622
 31
0.0
  0
ARC
  5
31A
330
1F
100
AcDbEntity
  8
0
100
AcDbCircle
 10
11.417505514518
 20
16.17424337705818
 30
0.0
 40
0.0393700787401574
100
AcDbArc
 50
179.9999999999998
 51
270.0000000000008
  0
LINE
  5
31B
330
1F
100
AcDbEntity
  8
0
100
AcDbLine
 10
11.49624565674516
 20
16.13487336543191
 30
0.0
 11
11.41750552302457
 21
16.13487336543191
 31
0.0
  0
LINE
  5
31C
330
1F
100
AcDbEntity
  8
0
100
AcDbLine
 10
11.41750552302457
 20
15.9065268566436
 30
0.0
 11
11.49624565674516
 21
15.9065268566436
 31
0.0
  0
ARC
  5
31D
330
1F
100
AcDbEntity
  8
0
100
AcDbCircle
 10
11.41748854339515
 20
15.86715676288495
 30
0.0
 40
0.0393700787401584
100
AcDbArc
 50
90.39169356247894
 51
179.1080375455622
  0
LINE
  5
31E
330
1F
100
AcDbEntity
  8
0
100
AcDbLine
 10
11.77183625309907
 20
14.29825919548886
 30
0.0
 11
11.7117968566793
 21
14.29825919548886
 31
0.0
  0
LINE
  5
31F
330
1F
100
AcDbEntity
  8
0
100
AcDbLine
 10
11.7117968566793
 20
20.95180249318892
 30
0.0
 11
11.7117968566793
 21
14.29825919548886
 31
0.0
  0
LINE
  5
320
330
1F
100
AcDbEntity
  8
0
100
AcDbLine
 10
10.73049764273156
 20
16.08168223323374
 30
0.0
 11
10.73049764273156
 21
16.0845234270787
 31
0.0
  0
LINE
  5
321
330
1F
100
AcDbEntity
  8
0
100
AcDbLine
 10
10.73049764273156
 20
15.95687664833184
 30
0.0
 11
10.73049764273156
 21
16.08168223323374
 31
0.0
  0
LINE
  5
322
330
1F
100
AcDbEntity
  8
0
100
AcDbLine
 10
10.74541442374497
 20
16.0959349885847
 30
0.0
 11
10.74541442374497
 21
16.09944028142459
 31
0.0
  0
LINE
  5
323
330
1F
100
AcDbEntity
  8
0
100
AcDbLine
 10
10.74541442374497
 20
15.94195994065092
 30
0.0
 11
10.74541442374497
 21
16.0959349885847
 31
0.0
  0
LINE
  5
326
330
1F
100
AcDbEntity
  8
0
100
AcDbLine
 10
7.476560772487955
 20
16.63813111842207
 30
0.0
 11
7.476560772487955
 21
16.76366174161493
 31
0.0
  0
LINE
  5
327
330
1F
100
AcDbEntity
  8
0
100
AcDbLine
 10
7.476560772487955
 20
16.62586640677174
 30
0.0
 11
7.476560772487955
 21
16.63813111842207
 31
0.0
  0
LINE
  5
328
330
1F
100
AcDbEntity
  8
0
100
AcDbLine
 10
7.476560772487955
 20
18.17689014254652
 30
0.0
 11
7.476560772487955
 21
18.26986444183281
 31
0.0
  0
LINE
  5
329
330
1F
100
AcDbEntity
  8
0
100
AcDbLine
 10
7.476560772487955
 20
18.13206910698961
 30
0.0
 11
7.476560772487955
 21
18.17689014254652
 31
0.0
  0
SPLINE
  5
32D
330
1F
100
AcDbEntity
  8
0
100
AcDbSpline
210
0.0
220
0.0
230
1.0
 70
     8
 71
     3
 72
    18
 73
    14
 74
     0
 42
0.0000000001
 43
0.0000000001
 40
0.0
 40
0.0
 40
0.0
 40
0.0
 40
0.0006880376584812
 40
0.0030169418047658
 40
0.0047955221842727
 40
0.0070290224098341
 40
0.0150300026680343
 40
0.0380662507543053
 40
0.1271469331069237
 40
0.3333394272002256
 40
0.5012191097868675
 40
0.7060406620762146
 40
1.0
 40
1.0
 40
1.0
 40
1.0
 10
14.15004082654357
 20
17.44598152433348
 30
0.0
 10
14.14976403454409
 20
17.44578367836055
 30
0.0
 10
14.14855034319427
 20
17.44491615348128
 30
0.0
 10
14.14679918158711
 20
17.44324644216561
 30
0.0
 10
14.14542783211977
 20
17.44034363215869
 30
0.0
 10
14.14515779046303
 20
17.43430857567078
 30
0.0
 10
14.14939387135311
 20
17.41827184288971
 30
0.0
 10
14.15116978724404
 20
17.35854425896923
 30
0.0
 10
14.14654673865315
 20
17.20135742295139
 30
0.0
 10
14.14522502787284
 20
16.97194931364205
 30
0.0
 10
14.13975486140387
 20
16.68560496632945
 30
0.0
 10
14.13909576863805
 20
16.35593382469399
 30
0.0
 10
14.14181323956504
 20
16.10917342971603
 30
0.0
 10
14.14341479642136
 20
15.96374379566864
 30
0.0
  0
LINE
  5
32E
330
1F
100
AcDbEntity
  8
0
100
AcDbLine
 10
14.14341479642136
 20
15.96374379566864
 30
0.0
 11
14.14341948970048
 21
15.96125826438171
 31
0.0
  0
SPLINE
  5
32F
330
1F
100
AcDbEntity
  8
0
100
AcDbSpline
210
0.0
220
0.0
230
1.0
 70
     8
 71
     3
 72
    10
 73
     6
 74
     0
 42
0.0000000001
 43
0.0000000001
 40
0.0
 40
0.0
 40
0.0
 40
0.0
 40
0.333397079208186
 40
0.6665555543225514
 40
1.0
 40
1.0
 40
1.0
 40
1.0
 10
14.14342036969032
 20
15.96125855771165
 30
0.0
 10
14.12165117668133
 20
15.95973626848077
 30
0.0
 10
14.07812837033965
 20
15.95669277948398
 30
0.0
 10
14.04159498854604
 20
15.95413829955991
 30
0.0
 10
14.03672308202771
 20
15.95379757471246
 30
0.0
 10
14.03428608375223
 20
15.95362713920378
 30
0.0
  0
SPLINE
  5
330
330
1F
100
AcDbEntity
  8
0
100
AcDbSpline
210
0.0
220
0.0
230
1.0
 70
     8
 71
     3
 72
    15
 73
    11
 74
     0
 42
0.0000000001
 43
0.0000000001
 40
0.0
 40
0.0
 40
0.0
 40
0.0
 40
0.1350812700931905
 40
0.2613038269708374
 40
0.3827195133423771
 40
0.5024675257254963
 40
0.6234788526184876
 40
0.7488390815976529
 40
0.8823302344619971
 40
1.0
 40
1.0
 40
1.0
 40
1.0
 10
14.03428989704151
 20
15.95363065916312
 30
0.0
 10
14.02939286992068
 20
15.9921465469119
 30
0.0
 10
14.01991996574551
 20
16.06665242667594
 30
0.0
 10
13.98000758127311
 20
16.16980521361739
 30
0.0
 10
13.9259882275683
 20
16.26062432239324
 30
0.0
 10
13.85754970017627
 20
16.33935501069719
 30
0.0
 10
13.77562224429814
 20
16.40576486438178
 30
0.0
 10
13.67963225633364
 20
16.45803720176434
 30
0.0
 10
13.57636494833467
 20
16.49253980669388
 30
0.0
 10
13.50455157905859
 20
16.49925526892464
 30
0.0
 10
13.47090676529153
 20
16.50240148638236
 30
0.0
  0
SPLINE
  5
333
330
1F
100
AcDbEntity
  8
0
100
AcDbSpline
210
0.0
220
0.0
230
1.0
 70
     8
 71
     3
 72
    21
 73
    17
 74
     0
 42
0.0000000001
 43
0.0000000001
 40
0.0
 40
0.0
 40
0.0
 40
0.0
 40
0.2944320453082557
 40
0.499095357195064
 40
0.6667892929456932
 40
0.8727786982324083
 40
0.8728779070538216
 40
0.9619360862173099
 40
0.9619576072808662
 40
0.9850336642474651
 40
0.9850413856510638
 40
0.9930314896872262
 40
0.9952466207645626
 40
0.9970062310579644
 40
0.9993159868430499
 40
1.0
 40
1.0
 40
1.0
 40
1.0
 10
14.17792389110269
 20
15.96367031651748
 30
0.0
 10
14.17563425888111
 20
16.10934832431474
 30
0.0
 10
14.171753075329
 20
16.35628889513788
 30
0.0
 10
14.16185188434529
 20
16.68609637853571
 30
0.0
 10
14.15539948835334
 20
16.97221262913469
 30
0.0
 10
14.15263977929332
 20
17.15715745893276
 30
0.0
 10
14.15118396138373
 20
17.30320042510612
 30
0.0
 10
14.15196895774638
 20
17.34734577699286
 30
0.0
 10
14.15044100155959
 20
17.40282376576252
 30
0.0
 10
14.14951722866852
 20
17.41428850814384
 30
0.0
 10
14.14676320558518
 20
17.42941642895105
 30
0.0
 10
14.14526572954814
 20
17.43430423949034
 30
0.0
 10
14.14550673817517
 20
17.44032199088408
 30
0.0
 10
14.14686679000709
 20
17.44320001899599
 30
0.0
 10
14.14861675849162
 20
17.44484227550801
 30
0.0
 10
14.14982802384624
 20
17.44569289223218
 30
0.0
 10
14.15010477247152
 20
17.44588724024036
 30
0.0
  0
ARC
  5
334
330
1F
100
AcDbEntity
  8
0
100
AcDbCircle
 10
14.16503568003804
 20
18.01433379275174
 30
0.0
 40
2.050703976381196
100
AcDbArc
 50
269.3959106988842
 51
270.3600933968382
  0
SPLINE
  5
335
330
1F
100
AcDbEntity
  8
0
100
AcDbSpline
210
0.0
220
0.0
230
1.0
 70
     8
 71
     3
 72
    16
 73
    12
 74
     0
 42
0.0000000001
 43
0.0000000001
 40
0.0
 40
0.0
 40
0.0
 40
0.0
 40
0.1356690510090652
 40
0.2437266624854944
 40
0.3517873853786155
 40
0.4599787172615753
 40
0.5681696482094089
 40
0.6762412943707286
 40
0.7843106097111155
 40
0.8921574281651267
 40
1.0
 40
1.0
 40
1.0
 40
1.0
 10
14.14829434005246
 20
14.68844551468987
 30
0.0
 10
14.14833590189219
 20
14.66308130669443
 30
0.0
 10
14.14841056688326
 20
14.61751502820026
 30
0.0
 10
14.14809329078038
 20
14.55472030042619
 30
0.0
 10
14.14783670474171
 20
14.5006349966451
 30
0.0
 10
14.14773297029597
 20
14.45204795879208
 30
0.0
 10
14.14780830189733
 20
14.41010473734904
 30
0.0
 10
14.14807145622168
 20
14.37622325848594
 30
0.0
 10
14.14839207665058
 20
14.35128776030993
 30
0.0
 10
14.14868271523816
 20
14.33541558465168
 30
0.0
 10
14.14864164455046
 20
14.33327231196928
 30
0.0
 10
14.14862110961092
 20
14.33220069672708
 30
0.0
  0
ARC
  5
336
330
1F
100
AcDbEntity
  8
0
100
AcDbCircle
 10
14.17012968792612
 20
15.76575992389961
 30
0.0
 40
1.077535669343569
100
AcDbArc
 50
268.8388700704924
 51
270.7326287738216
  0
SPLINE
  5
337
330
1F
100
AcDbEntity
  8
0
100
AcDbSpline
210
0.0
220
0.0
230
1.0
 70
     8
 71
     3
 72
    16
 73
    12
 74
     0
 42
0.0000000001
 43
0.0000000001
 40
0.0
 40
0.0
 40
0.0
 40
0.0
 40
0.1079971948675159
 40
0.2159947743955155
 40
0.3240033925939945
 40
0.4320117443506347
 40
0.5400503039486142
 40
0.6480885189683401
 40
0.7560962708593432
 40
0.8641043696960315
 40
1.0
 40
1.0
 40
1.0
 40
1.0
 10
14.18402251398421
 20
14.29825919548886
 30
0.0
 10
14.18406038958539
 20
14.29936133057433
 30
0.0
 10
14.18413614092265
 20
14.3015656046708
 30
0.0
 10
14.18389183362304
 20
14.31877304049855
 30
0.0
 10
14.18360963514604
 20
14.34596772168863
 30
0.0
 10
14.18337766797725
 20
14.38300033903359
 30
0.0
 10
14.18332752764523
 20
14.42892918549198
 30
0.0
 10
14.18345037502831
 20
14.48218545616062
 30
0.0
 10
14.18371828571501
 20
14.5415143092565
 30
0.0
 10
14.18404010668735
 20
14.61046177599557
 30
0.0
 10
14.18395496626277
 20
14.66045670913669
 30
0.0
 10
14.18390752864587
 20
14.68831234289495
 30
0.0
  0
ARC
  5
338
330
1F
100
AcDbEntity
  8
0
100
AcDbCircle
 10
14.18402229153957
 20
14.33369176476913
 30
0.0
 40
0.0354325692809727
100
AcDbArc
 50
182.411824561333
 51
270.0003597012485
  0
SPLINE
  5
339
330
1F
100
AcDbEntity
  8
0
100
AcDbSpline
210
0.0
220
0.0
230
1.0
 70
     8
 71
     3
 72
    16
 73
    12
 74
     0
 42
0.0000000001
 43
0.0000000001
 40
0.0
 40
0.0
 40
0.0
 40
0.0
 40
0.1363758268410492
 40
0.2427686765495968
 40
0.3522480118654722
 40
0.458657207945333
 40
0.5681531224626452
 40
0.6745714360848766
 40
0.7840768232425979
 40
0.8904952251186067
 40
0.9999999999999998
 40
0.9999999999999998
 40
0.9999999999999998
 40
0.9999999999999998
 10
14.22951505511716
 20
14.68887318974934
 30
0.0
 10
14.22951148051094
 20
14.66089036901234
 30
0.0
 10
14.22950511719538
 20
14.61107690489775
 30
0.0
 10
14.22946291998545
 20
14.54193559678867
 30
0.0
 10
14.22940714022254
 20
14.48286623596167
 30
0.0
 10
14.22933140960153
 20
14.42922269896103
 30
0.0
 10
14.22924128797913
 20
14.38350153052674
 30
0.0
 10
14.22913696331361
 20
14.34610490132118
 30
0.0
 10
14.22902387280614
 20
14.31903907211122
 30
0.0
 10
14.22890316210946
 20
14.30155861793457
 30
0.0
 10
14.22882200755041
 20
14.29936943359329
 30
0.0
 10
14.22878085026543
 20
14.29825919548886
 30
0.0
  0
SPLINE
  5
33A
330
1F
100
AcDbEntity
  8
0
100
AcDbSpline
210
0.0
220
0.0
230
1.0
 70
    24
 71
     3
 72
     9
 73
     5
 74
     0
 42
0.0000000001
 43
0.0000000001
 40
0.0
 40
0.0
 40
0.0
 40
0.0
 40
0.5454238022320582
 40
1.0
 40
1.0
 40
1.0
 40
1.0
 10
14.18402251398421
 20
14.29825919548886
 30
0.0
 10
14.19216046937749
 20
14.29825919548886
 30
0.0
 10
14.20708089521878
 20
14.29825919548886
 30
0.0
 10
14.22199929899848
 20
14.29825919548886
 30
0.0
 10
14.22878085026543
 20
14.29825919548886
 30
0.0
  0
SPLINE
  5
33B
330
1F
100
AcDbEntity
  8
0
100
AcDbSpline
210
0.0
220
0.0
230
1.0
 70
     8
 71
     3
 72
     9
 73
     5
 74
     0
 42
0.0000000001
 43
0.0000000001
 40
0.0
 40
0.0
 40
0.0
 40
0.0
 40
0.316276927264424
 40
1.0
 40
1.0
 40
1.0
 40
1.0
 10
14.22951505511716
 20
14.68887318974934
 30
0.0
 10
14.22470761913737
 20
14.68878525502651
 30
0.0
 10
14.20950753476392
 20
14.68850722424005
 30
0.0
 10
14.19430313058808
 20
14.68839147994204
 30
0.0
 10
14.18390752864587
 20
14.68831234289495
 30
0.0
  0
SPLINE
  5
33C
330
1F
100
AcDbEntity
  8
0
100
AcDbSpline
210
0.0
220
0.0
230
1.0
 70
    24
 71
     3
 72
    16
 73
    12
 74
     0
 42
0.0000000001
 43
0.0000000001
 40
0.0
 40
0.0
 40
0.0
 40
0.0
 40
0.10796246155617
 40
0.2159248400628879
 40
0.3238868094684996
 40
0.4318487621942835
 40
0.5398004238851267
 40
0.6477521301846077
 40
0.755686395755691
 40
0.8636202897867592
 40
1.0
 40
1.0
 40
1.0
 40
1.0
 10
14.26815071546139
 20
14.33762906068482
 30
0.0
 10
14.26815071546139
 20
14.33862199748054
 30
0.0
 10
14.26815071546139
 20
14.34060787030818
 30
0.0
 10
14.26815071546139
 20
14.35611039487983
 30
0.0
 10
14.26815071546138
 20
14.38060926728806
 30
0.0
 10
14.26815071546139
 20
14.4139647974519
 30
0.0
 10
14.26815071546139
 20
14.45532437808313
 30
0.0
 10
14.26815071546138
 20
14.50327532674156
 30
0.0
 10
14.26815071546139
 20
14.55669349123503
 30
0.0
 10
14.26815071546139
 20
14.61887469412696
 30
0.0
 10
14.26815071546139
 20
14.66399512787029
 30
0.0
 10
14.26815071546139
 20
14.68918206618117
 30
0.0
  0
ARC
  5
33D
330
1F
100
AcDbEntity
  8
0
100
AcDbCircle
 10
14.22878074853041
 20
14.33762920382983
 30
0.0
 40
0.0393700787401574
100
AcDbArc
 50
270.0000000000008
 51
0.0000000000027467
  0
ARC
  5
33E
330
1F
100
AcDbEntity
  8
0
100
AcDbCircle
 10
14.23905527164215
 20
15.91205574184942
 30
0.0
 40
1.223219756010102
100
AcDbArc
 50
269.5531304317051
 51
271.3629630818616
  0
ARC
  5
33F
330
1F
100
AcDbEntity
  8
0
100
AcDbCircle
 10
14.24002607111307
 20
17.2756587704585
 30
0.0
 40
1.308298274416314
100
AcDbArc
 50
269.6102400189776
 51
271.2317891051908
  0
SPLINE
  5
340
330
1F
100
AcDbEntity
  8
0
100
AcDbSpline
210
0.0
220
0.0
230
1.0
 70
     8
 71
     3
 72
    10
 73
     6
 74
     0
 42
0.0000000001
 43
0.0000000001
 40
0.0
 40
0.0
 40
0.0
 40
0.0
 40
0.1553726966024048
 40
0.8310824095125092
 40
0.9999999999999998
 40
0.9999999999999998
 40
0.9999999999999998
 40
0.9999999999999998
 10
14.22878085026543
 20
17.44786542430227
 30
0.0
 10
14.22905640831831
 20
17.37118989304909
 30
0.0
 10
14.23053035744554
 20
16.96105550870735
 30
0.0
 10
14.23122093903721
 20
16.46756193313222
 30
0.0
 10
14.23114208631369
 20
16.05074939138444
 30
0.0
 10
14.23112631650373
 20
15.96739076687185
 30
0.0
  0
SPLINE
  5
343
330
1F
100
AcDbEntity
  8
0
100
AcDbSpline
210
0.0
220
0.0
230
1.0
 70
    24
 71
     3
 72
    10
 73
     6
 74
     0
 42
0.0000000001
 43
0.0000000001
 40
0.0
 40
0.0
 40
0.0
 40
0.0
 40
0.1599447345617552
 40
0.7997242525012095
 40
1.0
 40
1.0
 40
1.0
 40
1.0
 10
14.26815071546139
 20
15.96766283039562
 30
0.0
 10
14.26815071546139
 20
16.05101417313347
 30
0.0
 10
14.26815071546138
 20
16.46777118891551
 30
0.0
 10
14.26815071546138
 20
16.98890384968079
 30
0.0
 10
14.26815071546139
 20
17.42668794962142
 30
0.0
 10
14.26815071546139
 20
17.53105910407512
 30
0.0
  0
LINE
  5
344
330
1F
100
AcDbEntity
  8
0
100
AcDbLine
 10
14.26815071546139
 20
18.35731423827197
 30
0.0
 11
14.26815071546139
 21
17.53105910407512
 31
0.0
  0
LINE
  5
345
330
1F
100
AcDbEntity
  8
0
100
AcDbLine
 10
14.23112631650373
 20
15.96739076687185
 30
0.0
 11
14.17792389110269
 21
15.96367031651748
 31
0.0
  0
LINE
  5
349
330
1F
100
AcDbEntity
  8
0
100
AcDbLine
 10
13.02799336186496
 20
17.44786542430227
 30
0.0
 11
13.00830828260201
 21
17.44786542430227
 31
0.0
  0
LINE
  5
34A
330
1F
100
AcDbEntity
  8
0
100
AcDbLine
 10
13.00830828260201
 20
17.44786542430227
 30
0.0
 11
13.00830828260201
 21
18.37306224301634
 31
0.0
  0
LINE
  5
34B
330
1F
100
AcDbEntity
  8
0
100
AcDbLine
 10
13.00830828260201
 20
16.52266860558821
 30
0.0
 11
13.00830828260201
 21
17.44786542430227
 31
0.0
  0
LINE
  5
34C
330
1F
100
AcDbEntity
  8
0
100
AcDbLine
 10
14.17793239767109
 20
15.96117422535253
 30
0.0
 11
14.17792389110269
 21
15.96367031651748
 31
0.0
  0
SPLINE
  5
34D
330
1F
100
AcDbEntity
  8
0
100
AcDbSpline
210
0.0
220
0.0
230
1.0
 70
     8
 71
     3
 72
    11
 73
     7
 74
     0
 42
0.0000000001
 43
0.0000000001
 40
0.0
 40
0.0
 40
0.0
 40
0.0
 40
0.2500030180663896
 40
0.5000020711098802
 40
0.7500003312518856
 40
1.0
 40
1.0
 40
1.0
 40
1.0
 10
14.17793269100103
 20
15.96117422535253
 30
0.0
 10
14.17398677991374
 20
15.96116504568346
 30
0.0
 10
14.1660950203209
 20
15.96114668649089
 30
0.0
 10
14.15562028240903
 20
15.9611567825852
 30
0.0
 10
14.14732786661398
 20
15.9611923360429
 30
0.0
 10
14.14472326221738
 20
15.9612362882275
 30
0.0
 10
14.14342095635021
 20
15.96125826438171
 30
0.0
  0
SPLINE
  5
34E
330
1F
100
AcDbEntity
  8
0
100
AcDbSpline
210
0.0
220
0.0
230
1.0
 70
     8
 71
     3
 72
    12
 73
     8
 74
     0
 42
0.0000000001
 43
0.0000000001
 40
0.0
 40
0.0
 40
0.0
 40
0.0
 40
0.0000018434787336
 40
0.3745891841904289
 40
0.4133767225127992
 40
0.8044685094385981
 40
1.0
 40
1.0
 40
1.0
 40
1.0
 10
14.14342095635021
 20
15.96125855771165
 30
0.0
 10
14.1434209563502
 20
15.96125777549847
 30
0.0
 10
14.14342095514813
 20
15.80231447228535
 30
0.0
 10
14.14427236842995
 20
15.62693656955944
 30
0.0
 10
14.14550075223696
 20
15.28562371057777
 30
0.0
 10
14.14669972955541
 20
15.02028512869438
 30
0.0
 10
14.14789570211009
 20
14.77140236287927
 30
0.0
 10
14.14829434005246
 20
14.68844551468987
 30
0.0
  0
SPLINE
  5
34F
330
1F
100
AcDbEntity
  8
0
100
AcDbSpline
210
0.0
220
0.0
230
1.0
 70
     8
 71
     3
 72
    10
 73
     6
 74
     0
 42
0.0000000001
 43
0.0000000001
 40
0.0
 40
0.0
 40
0.0
 40
0.0
 40
0.1955401819612996
 40
0.5866344283979318
 40
1.0
 40
1.0
 40
1.0
 40
1.0
 10
14.18390752864587
 20
14.68831234289495
 30
0.0
 10
14.18350520086272
 20
14.77127691197645
 30
0.0
 10
14.18229818894973
 20
15.02017650934943
 30
0.0
 10
14.17995607913487
 20
15.44446015678702
 30
0.0
 10
14.1786194881393
 20
15.7857863510938
 30
0.0
 10
14.17793269100103
 20
15.96117422535253
 30
0.0
  0
SPLINE
  5
350
330
1F
100
AcDbEntity
  8
0
100
AcDbSpline
210
0.0
220
0.0
230
1.0
 70
     8
 71
     3
 72
     9
 73
     5
 74
     0
 42
0.0000000001
 43
0.0000000001
 40
0.0
 40
0.0
 40
0.0
 40
0.0
 40
0.1955931722436505
 40
1.0
 40
1.0
 40
1.0
 40
1.0
 10
14.23112631650373
 20
15.96739076687185
 30
0.0
 10
14.23108436582691
 20
15.88403393093326
 30
0.0
 10
14.23086988657724
 20
15.45785936163513
 30
0.0
 10
14.23011904068194
 20
15.03168819000308
 30
0.0
 10
14.22951505511716
 20
14.68887318974934
 30
0.0
  0
SPLINE
  5
351
330
1F
100
AcDbEntity
  8
0
100
AcDbSpline
210
0.0
220
0.0
230
1.0
 70
    24
 71
     3
 72
     9
 73
     5
 74
     0
 42
0.0000000001
 43
0.0000000001
 40
0.0
 40
0.0
 40
0.0
 40
0.0
 40
0.8044145118100761
 40
1.0
 40
1.0
 40
1.0
 40
1.0
 10
14.26815071546139
 20
14.68918206618117
 30
0.0
 10
14.26815071546139
 20
15.03199060826854
 30
0.0
 10
14.26815071546139
 20
15.45814968055578
 30
0.0
 10
14.26815071546138
 20
15.88431171988533
 30
0.0
 10
14.26815071546139
 20
15.96766283039562
 30
0.0
  0
SPLINE
  5
352
330
1F
100
AcDbEntity
  8
0
100
AcDbSpline
210
0.0
220
0.0
230
1.0
 70
     8
 71
     3
 72
    10
 73
     6
 74
     0
 42
0.0000000001
 43
0.0000000001
 40
0.0
 40
0.0
 40
0.0
 40
0.0
 40
0.4501530030556746
 40
0.9003333793340299
 40
1.0
 40
1.0
 40
1.0
 40
1.0
 10
14.14862110961092
 20
14.33220069672708
 30
0.0
 10
14.14840182813674
 20
14.33196056539211
 30
0.0
 10
14.14796325185416
 20
14.33148028812009
 30
0.0
 10
14.14775069797559
 20
14.3312373687537
 30
0.0
 10
14.14773811979045
 20
14.33122299370789
 30
0.0
 10
14.14773583983764
 20
14.33122038805169
 30
0.0
  0
LINE
  5
353
330
1F
100
AcDbEntity
  8
0
100
AcDbLine
 10
14.03428608375223
 20
15.95362713920378
 30
0.0
 11
14.14773583983764
 21
14.33122038805169
 31
0.0
  0
SPLINE
  5
354
330
1F
100
AcDbEntity
  8
0
100
AcDbSpline
210
0.0
220
0.0
230
1.0
 70
    24
 71
     3
 72
    10
 73
     6
 74
     0
 42
0.0000000001
 43
0.0000000001
 40
0.0
 40
0.0
 40
0.0
 40
0.0
 40
0.0996603345784298
 40
0.5498301851513745
 40
1.0
 40
1.0
 40
1.0
 40
1.0
 10
14.18308239151125
 20
14.29825919548886
 30
0.0
 10
14.18308486548308
 20
14.29825919548886
 30
0.0
 10
14.1830985144879
 20
14.29825919548886
 30
0.0
 10
14.18332952783715
 20
14.29825919548886
 30
0.0
 10
14.18379151860797
 20
14.29825919548886
 30
0.0
 10
14.18402251398421
 20
14.29825919548886
 30
0.0
  0
ARC
  5
355
330
1F
100
AcDbEntity
  8
0
100
AcDbCircle
 10
14.18308246418095
 20
14.33369219595582
 30
0.0
 40
0.0354330708661443
100
AcDbArc
 50
184.000000000002
 51
270.0000000000008
  0
LINE
  5
356
330
1F
100
AcDbEntity
  8
0
100
AcDbLine
 10
11.77183625309907
 20
14.10140869618929
 30
0.0
 11
11.77183625309907
 21
20.79432215241526
 31
0.0
  0
LINE
  5
358
330
1F
100
AcDbEntity
  8
0
100
AcDbLine
 10
12.06711178205096
 20
14.10140869618929
 30
0.0
 11
12.06711178205096
 21
20.79432215241526
 31
0.0
  0
LINE
  5
35A
330
1F
100
AcDbEntity
  8
0
100
AcDbLine
 10
11.77183625309907
 20
20.79432215241526
 30
0.0
 11
11.77183625309907
 21
20.99117265171482
 31
0.0
  0
LINE
  5
35B
330
1F
100
AcDbEntity
  8
0
100
AcDbLine
 10
11.77183625309907
 20
20.99117265171482
 30
0.0
 11
12.06711178205096
 21
20.99117265171482
 31
0.0
  0
LINE
  5
35C
330
1F
100
AcDbEntity
  8
0
100
AcDbLine
 10
12.06711178205096
 20
20.79432215241526
 30
0.0
 11
12.06711178205096
 21
20.99117265171482
 31
0.0
  0
LINE
  5
35D
330
1F
100
AcDbEntity
  8
0
100
AcDbLine
 10
12.12616694650733
 20
20.93211741392597
 30
0.0
 11
12.12616694650733
 21
20.79432215241526
 31
0.0
  0
ARC
  5
35F
330
1F
100
AcDbEntity
  8
0
100
AcDbCircle
 10
12.06711181373059
 20
20.93211739280621
 30
0.0
 40
0.0590551181102406
100
AcDbArc
 50
0.0
 51
90.0
  0
LINE
  5
360
330
1F
100
AcDbEntity
  8
0
100
AcDbLine
 10
12.12616694650733
 20
20.79432215241526
 30
0.0
 11
12.12616694650733
 21
14.10140869618929
 31
0.0
  0
LINE
  5
362
330
1F
100
AcDbEntity
  8
0
100
AcDbLine
 10
12.06711178205096
 20
13.90455819688973
 30
0.0
 11
12.06711178205096
 21
14.10140869618929
 31
0.0
  0
LINE
  5
363
330
1F
100
AcDbEntity
  8
0
100
AcDbLine
 10
12.06711178205096
 20
13.90455819688973
 30
0.0
 11
11.77183625309907
 21
13.90455819688973
 31
0.0
  0
LINE
  5
364
330
1F
100
AcDbEntity
  8
0
100
AcDbLine
 10
11.77183625309907
 20
13.90455819688973
 30
0.0
 11
11.77183625309907
 21
14.10140869618929
 31
0.0
  0
LINE
  5
365
330
1F
100
AcDbEntity
  8
0
100
AcDbLine
 10
12.12616694650733
 20
14.10140869618929
 30
0.0
 11
12.12616694650733
 21
13.96361343467858
 31
0.0
  0
ARC
  5
366
330
1F
100
AcDbEntity
  8
0
100
AcDbCircle
 10
12.0671118137306
 20
13.96361345579833
 30
0.0
 40
0.059055118110237
100
AcDbArc
 50
270.0000000000043
 51
0.0
  0
LINE
  5
367
330
1F
100
AcDbEntity
  8
0
100
AcDbLine
 10
11.1419149633369
 20
16.82278781858545
 30
0.0
 11
11.30333228696353
 21
16.82278781858545
 31
0.0
  0
LINE
  5
368
330
1F
100
AcDbEntity
  8
0
100
AcDbLine
 10
11.30333228696353
 20
16.48499074084612
 30
0.0
 11
11.30333228696353
 21
16.82278781858545
 31
0.0
  0
LINE
  5
369
330
1F
100
AcDbEntity
  8
0
100
AcDbLine
 10
11.30333228696353
 20
16.48499074084612
 30
0.0
 11
11.1419149633369
 21
16.48499074084612
 31
0.0
  0
LINE
  5
36A
330
1F
100
AcDbEntity
  8
0
100
AcDbLine
 10
11.1419149633369
 20
16.48499074084612
 30
0.0
 11
11.1419149633369
 21
16.82278781858545
 31
0.0
  0
LINE
  5
36B
330
1F
100
AcDbEntity
  8
0
100
AcDbLine
 10
11.1419149633369
 20
18.41074010775843
 30
0.0
 11
11.30333228696353
 21
18.41074010775843
 31
0.0
  0
LINE
  5
36C
330
1F
100
AcDbEntity
  8
0
100
AcDbLine
 10
11.30333228696353
 20
18.0729430300191
 30
0.0
 11
11.30333228696353
 21
18.41074010775843
 31
0.0
  0
LINE
  5
36D
330
1F
100
AcDbEntity
  8
0
100
AcDbLine
 10
11.30333228696353
 20
18.0729430300191
 30
0.0
 11
11.1419149633369
 21
18.0729430300191
 31
0.0
  0
LINE
  5
36E
330
1F
100
AcDbEntity
  8
0
100
AcDbLine
 10
11.1419149633369
 20
18.0729430300191
 30
0.0
 11
11.1419149633369
 21
18.41074010775843
 31
0.0
  0
LWPOLYLINE
  5
370
330
1F
100
AcDbEntity
  8
0
100
AcDbPolyline
 90
        9
 70
   128
 43
0.0
 10
11.30333228696353
 20
16.48499074084612
 10
11.31792565337972
 20
16.48582775784349
 10
11.33195820960777
 20
16.4883064692092
 10
11.34489068687735
 20
16.49233168937618
 10
11.35622609259645
 20
16.49774876013105
 10
11.36552883179708
 20
16.50434949054552
 10
11.37244139027594
 20
16.51188022354985
 10
11.37669812110182
 20
16.52005151582105
 10
11.37813543783115
 20
16.52854935765326
  0
ARC
  5
371
330
1F
100
AcDbEntity
  8
0
100
AcDbCircle
 10
11.31185619271866
 20
16.7560510778138
 30
0.0
 40
0.0672788937048241
100
AcDbArc
 50
9.889198600794989
 51
97.2786558654522
  0
LINE
  5
372
330
1F
100
AcDbEntity
  8
0
100
AcDbLine
 10
11.37813543783115
 20
18.36718149095129
 30
0.0
 11
11.37813543783115
 21
18.12812506588485
 31
0.0
  0
ARC
  5
373
330
1F
100
AcDbEntity
  8
0
100
AcDbCircle
 10
11.31185619271865
 20
18.13967977079076
 30
0.0
 40
0.0672788937048305
100
AcDbArc
 50
262.7213441345543
 51
350.1108013992007
  0
LWPOLYLINE
  5
374
330
1F
100
AcDbEntity
  8
0
100
AcDbPolyline
 90
        9
 70
   128
 43
0.0
 10
11.37813543783115
 20
18.36718149095129
 10
11.37669812110182
 20
18.3756793327835
 10
11.37244139027594
 20
18.3838506250547
 10
11.36552883179708
 20
18.39138135805903
 10
11.35622609259645
 20
18.39798208847349
 10
11.34489068687735
 20
18.40339915922836
 10
11.33195820960777
 20
18.40742437939534
 10
11.31792565337972
 20
18.40990309076106
 10
11.30333228696353
 20
18.41074010775843
  0
LINE
  5
375
330
1F
100
AcDbEntity
  8
0
100
AcDbLine
 10
11.1419149633369
 20
19.10140870909581
 30
0.0
 11
11.1419149633369
 21
18.41074010775843
 31
0.0
  0
LINE
  5
376
330
1F
100
AcDbEntity
  8
0
100
AcDbLine
 10
11.1419149633369
 20
16.48499074084612
 30
0.0
 11
11.1419149633369
 21
15.79432213950874
 31
0.0
  0
LINE
  5
377
330
1F
100
AcDbEntity
  8
0
100
AcDbLine
 10
11.37813543783115
 20
19.02660561322756
 30
0.0
 11
11.37813543783115
 21
18.36718149095129
 31
0.0
  0
LINE
  5
378
330
1F
100
AcDbEntity
  8
0
100
AcDbLine
 10
11.37813543783115
 20
16.52854935765326
 30
0.0
 11
11.37813543783115
 21
15.86933569961235
 31
0.0
  0
LINE
  5
379
330
1F
100
AcDbEntity
  8
0
100
AcDbLine
 10
11.1419149633369
 20
17.11321973682448
 30
0.0
 11
11.30333228696353
 21
17.11321973682448
 31
0.0
  0
LINE
  5
37A
330
1F
100
AcDbEntity
  8
0
100
AcDbLine
 10
11.30333228696353
 20
16.82278781858545
 30
0.0
 11
11.30333228696353
 21
17.11321973682448
 31
0.0
  0
LINE
  5
37B
330
1F
100
AcDbEntity
  8
0
100
AcDbLine
 10
11.1419149633369
 20
16.82278781858545
 30
0.0
 11
11.1419149633369
 21
17.11321973682448
 31
0.0
  0
LINE
  5
37C
330
1F
100
AcDbEntity
  8
0
100
AcDbLine
 10
11.30333228696353
 20
17.78251111178007
 30
0.0
 11
11.30333228696353
 21
18.0729430300191
 31
0.0
  0
LINE
  5
37D
330
1F
100
AcDbEntity
  8
0
100
AcDbLine
 10
11.1419149633369
 20
17.78251111178007
 30
0.0
 11
11.30333228696353
 21
17.78251111178007
 31
0.0
  0
LINE
  5
37E
330
1F
100
AcDbEntity
  8
0
100
AcDbLine
 10
11.1419149633369
 20
17.78251111178007
 30
0.0
 11
11.1419149633369
 21
18.0729430300191
 31
0.0
  0
LINE
  5
37F
330
1F
100
AcDbEntity
  8
0
100
AcDbLine
 10
11.37813543783115
 20
17.78251111178007
 30
0.0
 11
11.30333228696353
 21
17.78251111178007
 31
0.0
  0
LINE
  5
380
330
1F
100
AcDbEntity
  8
0
100
AcDbLine
 10
11.37813543783115
 20
18.12812506588485
 30
0.0
 11
11.37813543783115
 21
17.78251111178007
 31
0.0
  0
LINE
  5
381
330
1F
100
AcDbEntity
  8
0
100
AcDbLine
 10
11.37813543783115
 20
17.11321973682448
 30
0.0
 11
11.30333228696353
 21
17.11321973682448
 31
0.0
  0
LINE
  5
382
330
1F
100
AcDbEntity
  8
0
100
AcDbLine
 10
11.37813543783115
 20
17.11321973682448
 30
0.0
 11
11.37813543783115
 21
16.52854935765326
 31
0.0
  0
LINE
  5
383
330
1F
100
AcDbEntity
  8
0
100
AcDbLine
 10
11.30333228696353
 20
17.11321973682448
 30
0.0
 11
11.30333228696353
 21
17.78251111178007
 31
0.0
  0
LINE
  5
384
330
1F
100
AcDbEntity
  8
0
100
AcDbLine
 10
11.1419149633369
 20
17.11321973682448
 30
0.0
 11
11.1419149633369
 21
17.78251111178007
 31
0.0
  0
LINE
  5
385
330
1F
100
AcDbEntity
  8
0
100
AcDbLine
 10
11.37813543783115
 20
17.78251111178007
 30
0.0
 11
11.37813543783115
 21
17.11321973682448
 31
0.0
  0
LINE
  5
386
330
1F
100
AcDbEntity
  8
0
100
AcDbLine
 10
12.9529385889041
 20
16.55022761389086
 30
0.0
 11
12.9529385889041
 21
18.34550323471369
 31
0.0
  0
ARC
  5
387
330
1F
100
AcDbEntity
  8
0
100
AcDbCircle
 10
11.41722804666172
 20
15.86905442864495
 30
0.0
 40
0.0390936206885043
100
AcDbArc
 50
89.59332602824828
 51
179.5877644973964
  0
LINE
  5
388
330
1F
100
AcDbEntity
  8
0
100
AcDbLine
 10
11.49624565674516
 20
16.13487336543191
 30
0.0
 11
11.49624565674516
 21
15.9065268566436
 31
0.0
  0
LINE
  5
389
330
1F
100
AcDbEntity
  8
0
100
AcDbLine
 10
14.23271763145406
 20
17.46580969117523
 30
0.0
 11
14.23271763145406
 21
18.39274732227929
 31
0.0
  0
LINE
  5
38A
330
1F
100
AcDbEntity
  8
0
100
AcDbLine
 10
14.15004053321362
 20
17.44786542430227
 30
0.0
 11
14.15004053321362
 21
18.39274732227929
 31
0.0
  0
LINE
  5
38B
330
1F
100
AcDbEntity
  8
0
100
AcDbLine
 10
13.02799336186496
 20
18.39274732227929
 30
0.0
 11
13.02799336186496
 21
17.44786542430227
 31
0.0
  0
LINE
  5
38C
330
1F
100
AcDbEntity
  8
0
100
AcDbLine
 10
13.02799336186496
 20
17.44786542430227
 30
0.0
 11
13.02799336186496
 21
16.50298352632526
 31
0.0
  0
LINE
  5
38D
330
1F
100
AcDbEntity
  8
0
100
AcDbLine
 10
11.30333228696353
 20
18.41074010775843
 30
0.0
 11
11.30333228696353
 21
19.10140870909581
 31
0.0
  0
LINE
  5
38E
330
1F
100
AcDbEntity
  8
0
100
AcDbLine
 10
11.30333228696353
 20
15.79432213950874
 30
0.0
 11
11.30333228696353
 21
16.48499074084612
 31
0.0
  0
LINE
  5
38F
330
1F
100
AcDbEntity
  8
0
100
AcDbLine
 10
11.41750552302457
 20
18.42030640391443
 30
0.0
 11
11.41750552302457
 21
16.57453058647418
 31
0.0
  0
LINE
  5
390
330
1F
100
AcDbEntity
  8
0
100
AcDbLine
 10
11.41750552302457
 20
16.57453058647418
 30
0.0
 11
11.41750552302457
 21
16.47542444469012
 31
0.0
  0
LINE
  5
391
330
1F
100
AcDbEntity
  8
0
100
AcDbLine
 10
12.87813549303585
 20
16.47542444469012
 30
0.0
 11
12.87813549303585
 21
18.42030640391443
 31
0.0
  0
LINE
  5
392
330
1F
100
AcDbEntity
  8
0
100
AcDbLine
 10
12.99230860076503
 20
18.13684180518833
 30
0.0
 11
12.99230860076503
 21
16.75888904341622
 31
0.0
  0
LINE
  5
393
330
1F
100
AcDbEntity
  8
0
100
AcDbLine
 10
11.41750552302457
 20
16.13487336543191
 30
0.0
 11
11.41750552302457
 21
15.90814706459349
 31
0.0
  0
LINE
  5
3AB
330
1F
100
AcDbEntity
  8
0
100
AcDbLine
 10
20.87821581357449
 20
28.28404748048695
 30
0.0
 11
22.5317591206611
 21
28.28404748048695
 31
0.0
  0
LINE
  5
3AE
330
1F
100
AcDbEntity
  8
0
100
AcDbLine
 10
21.55931817577921
 20
28.047827008046
 30
0.0
 11
20.87821581357449
 21
28.047827008046
 31
0.0
  0
LINE
  5
3AF
330
1F
100
AcDbEntity
  8
0
100
AcDbLine
 10
20.87821581357449
 20
28.047827008046
 30
0.0
 11
20.87821581357449
 21
28.28404748048695
 31
0.0
  0
LINE
  5
3C6
330
1F
100
AcDbEntity
  8
0
100
AcDbLine
 10
19.02782205177445
 20
27.71416558714455
 30
0.0
 11
19.02782205177445
 21
27.65412619072478
 31
0.0
  0
LINE
  5
3C7
330
1F
100
AcDbEntity
  8
0
100
AcDbLine
 10
26.03569618954775
 20
27.65412619072478
 30
0.0
 11
26.03569618954775
 21
27.71416558714455
 31
0.0
  0
LINE
  5
3CC
330
1F
100
AcDbEntity
  8
0
100
AcDbLine
 10
21.37020935231648
 20
28.0478270059927
 30
0.0
 11
21.28464970070887
 21
27.94940179300915
 31
0.0
  0
LINE
  5
3CD
330
1F
100
AcDbEntity
  8
0
100
AcDbLine
 10
21.3873212679715
 20
31.94940167133589
 30
0.0
 11
21.3873212679715
 21
28.28404748048694
 31
0.0
  0
LINE
  5
3CE
330
1F
100
AcDbEntity
  8
0
100
AcDbLine
 10
21.5251166028147
 20
28.28404748048694
 30
0.0
 11
21.5251166028147
 21
31.94940167133589
 31
0.0
  0
LINE
  5
3CF
330
1F
100
AcDbEntity
  8
0
100
AcDbLine
 10
23.77886854061333
 20
27.94940179300915
 30
0.0
 11
23.69330888900572
 21
28.0478270059927
 31
0.0
  0
LINE
  5
3D0
330
1F
100
AcDbEntity
  8
0
100
AcDbLine
 10
23.52128972285248
 20
28.0478270059927
 30
0.0
 11
23.4357299979124
 21
27.94940179300915
 31
0.0
  0
LINE
  5
3D1
330
1F
100
AcDbEntity
  8
0
100
AcDbLine
 10
23.5384016385075
 20
31.94940167133589
 30
0.0
 11
23.5384016385075
 21
28.28404748048695
 31
0.0
  0
LINE
  5
3D2
330
1F
100
AcDbEntity
  8
0
100
AcDbLine
 10
23.6761969733507
 20
28.28404748048695
 30
0.0
 11
23.6761969733507
 21
31.94940167133589
 31
0.0
  0
SPLINE
  5
3D3
330
1F
100
AcDbEntity
  8
0
100
AcDbSpline
210
0.0
220
0.0
230
1.0
 70
     8
 71
     3
 72
    16
 73
    12
 74
     0
 42
0.0000000001
 43
0.0000000001
 40
0.0
 40
0.0
 40
0.0
 40
0.0
 40
0.1047297247243727
 40
0.3307423521168163
 40
0.4473985633869205
 40
0.5036881415749908
 40
0.5572325449687549
 40
0.6660599253100618
 40
0.7923596743410247
 40
0.9469288167933315
 40
1.0
 40
1.0
 40
1.0
 40
1.0
 10
23.47657619272033
 20
25.70654200271684
 30
0.0
 10
23.47657407840908
 20
25.71714580686032
 30
0.0
 10
23.47656740129544
 20
25.75063321583641
 30
0.0
 10
23.47619577549656
 20
25.79267015887761
 30
0.0
 10
23.47497341108
 20
25.82522500836488
 30
0.0
 10
23.47408138146322
 20
25.84446061760382
 30
0.0
 10
23.47345140501253
 20
25.86556517947713
 30
0.0
 10
23.47333462454735
 20
25.89582015451239
 30
0.0
 10
23.47433738502838
 20
25.933316045985
 30
0.0
 10
23.47572466109383
 20
25.96263874794217
 30
0.0
 10
23.47597865905441
 20
25.97713861276563
 30
0.0
 10
23.47604357887313
 20
25.9808446606158
 30
0.0
  0
SPLINE
  5
3D4
330
1F
100
AcDbEntity
  8
0
100
AcDbSpline
210
0.0
220
0.0
230
1.0
 70
     8
 71
     3
 72
    11
 73
     7
 74
     0
 42
0.0000000001
 43
0.0000000001
 40
0.0
 40
0.0
 40
0.0
 40
0.0
 40
0.3572372252526831
 40
0.7002722118219155
 40
0.8578785631955872
 40
1.0
 40
1.0
 40
1.0
 40
1.0
 10
23.47668582478718
 20
25.27651443709864
 30
0.0
 10
23.47659699252281
 20
25.2779228535496
 30
0.0
 10
23.47642285958856
 20
25.28068369378002
 30
0.0
 10
23.47649746636557
 20
25.28581342585691
 30
0.0
 10
23.47656592891812
 20
25.30095963867282
 30
0.0
 10
23.47659612226248
 20
25.31104297195024
 30
0.0
 10
23.47661043899138
 20
25.31582416965592
 30
0.0
  0
LINE
  5
3D5
330
1F
100
AcDbEntity
  8
0
100
AcDbLine
 10
21.58688162263326
 20
25.27761677103105
 30
0.0
 11
21.58683241653502
 21
25.27651443709864
 31
0.0
  0
SPLINE
  5
3D6
330
1F
100
AcDbEntity
  8
0
100
AcDbSpline
210
0.0
220
0.0
230
1.0
 70
     8
 71
     3
 72
    16
 73
    12
 74
     0
 42
0.0000000001
 43
0.0000000001
 40
0.0
 40
0.0
 40
0.0
 40
0.0
 40
0.0530529048876287
 40
0.2075688119694638
 40
0.3338250619305376
 40
0.4426149608844339
 40
0.4961409229767444
 40
0.6303896197189914
 40
0.7642050600536268
 40
0.8953063453838435
 40
0.9999999999999998
 40
0.9999999999999998
 40
0.9999999999999998
 40
0.9999999999999998
 10
21.58747466244907
 20
25.9808446606158
 30
0.0
 10
21.58753956989473
 20
25.97713864219328
 30
0.0
 10
21.58779351944588
 20
25.96263889250517
 30
0.0
 10
21.58918163147701
 20
25.93331420231577
 30
0.0
 10
21.59018149198422
 20
25.8958252080418
 30
0.0
 10
21.59007215761251
 20
25.86555252347232
 30
0.0
 10
21.58919765229187
 20
25.83696617850783
 30
0.0
 10
21.58785901144076
 20
25.81188772928943
 30
0.0
 10
21.58721598881208
 20
25.77604350315777
 30
0.0
 10
21.58694018137756
 20
25.74112292513067
 30
0.0
 10
21.58694147446652
 20
25.71717496724287
 30
0.0
 10
21.58694204860188
 20
25.70654200271684
 30
0.0
  0
ARC
  5
3D7
330
1F
100
AcDbEntity
  8
0
100
AcDbCircle
 10
21.51994809703905
 20
28.00845692930586
 30
0.0
 40
0.0393700787401592
100
AcDbArc
 50
0.0
 51
90.0
  0
LINE
  5
3D8
330
1F
100
AcDbEntity
  8
0
100
AcDbLine
 10
23.50420010027326
 20
26.54782695078801
 30
0.0
 11
23.50420010027326
 21
27.29979549731651
 31
0.0
  0
LINE
  5
3D9
330
1F
100
AcDbEntity
  8
0
100
AcDbLine
 10
23.50420010027326
 20
27.71416558714455
 30
0.0
 11
23.50420010027326
 21
27.94940179300915
 31
0.0
  0
LINE
  5
3DA
330
1F
100
AcDbEntity
  8
0
100
AcDbLine
 10
21.55931814104894
 20
28.00845692079928
 30
0.0
 11
21.55931814104894
 21
27.71416558714455
 31
0.0
  0
LINE
  5
3DB
330
1F
100
AcDbEntity
  8
0
100
AcDbLine
 10
21.55931814104894
 20
27.29979549731651
 30
0.0
 11
21.55931814104894
 21
26.54782695078801
 31
0.0
  0
ARC
  5
3DC
330
1F
100
AcDbEntity
  8
0
100
AcDbCircle
 10
23.42939691593669
 20
26.547827008046
 30
0.0
 40
0.0748031496063
100
AcDbArc
 50
270.0000000000008
 51
0.0
  0
ARC
  5
3DD
330
1F
100
AcDbEntity
  8
0
100
AcDbCircle
 10
21.63412132538551
 20
26.547827008046
 30
0.0
 40
0.0748031496063
100
AcDbArc
 50
180.0
 51
270.0000000000008
  0
LINE
  5
3DE
330
1F
100
AcDbEntity
  8
0
100
AcDbLine
 10
21.13962033610047
 20
28.28404748048695
 30
0.0
 11
21.13962033610047
 21
28.12263015686031
 31
0.0
  0
ARC
  5
3DF
330
1F
100
AcDbEntity
  8
0
100
AcDbCircle
 10
21.21442350710893
 20
28.1226301576523
 30
0.0
 40
0.0748031496063
100
AcDbArc
 50
180.0
 51
270.0000000000008
  0
LINE
  5
3E0
330
1F
100
AcDbEntity
  8
0
100
AcDbLine
 10
23.92389790522173
 20
28.12263015686031
 30
0.0
 11
23.92389790522173
 21
28.28404748048695
 31
0.0
  0
ARC
  5
3E1
330
1F
100
AcDbEntity
  8
0
100
AcDbCircle
 10
23.84909473421327
 20
28.1226301576523
 30
0.0
 40
0.0748031496063
100
AcDbArc
 50
270.0000000000008
 51
0.0
  0
ARC
  5
3E2
330
1F
100
AcDbEntity
  8
0
100
AcDbCircle
 10
23.26010557735401
 20
26.43365377969955
 30
0.0
 40
0.0393700787401556
100
AcDbArc
 50
90.0
 51
180.0
  0
ARC
  5
3E3
330
1F
100
AcDbEntity
  8
0
100
AcDbCircle
 10
21.80341266396819
 20
26.43365377969955
 30
0.0
 40
0.0393700787401556
100
AcDbArc
 50
0.0
 51
90.0
  0
LINE
  5
3E4
330
1F
100
AcDbEntity
  8
0
100
AcDbLine
 10
23.22073550154716
 20
26.41765416122184
 30
0.0
 11
23.22073550154716
 21
26.43365384305881
 31
0.0
  0
LINE
  5
3E5
330
1F
100
AcDbEntity
  8
0
100
AcDbLine
 10
21.84278273977505
 20
26.43365384305881
 30
0.0
 11
21.84278273977505
 21
26.41765416122184
 31
0.0
  0
LINE
  5
3E6
330
1F
100
AcDbEntity
  8
0
100
AcDbLine
 10
26.03569618954775
 20
27.71416558714455
 30
0.0
 11
19.02782205177445
 21
27.71416558714455
 31
0.0
  0
LINE
  5
3EB
330
1F
100
AcDbEntity
  8
0
100
AcDbLine
 10
21.28464970070887
 20
27.94940179300915
 30
0.0
 11
21.55931814104894
 21
27.94940179300915
 31
0.0
  0
LINE
  5
3EC
330
1F
100
AcDbEntity
  8
0
100
AcDbLine
 10
21.3873212679715
 20
31.94940167133589
 30
0.0
 11
21.5251166028147
 21
31.94940167133589
 31
0.0
  0
LINE
  5
3ED
330
1F
100
AcDbEntity
  8
0
100
AcDbLine
 10
23.4357299979124
 20
27.94940179300915
 30
0.0
 11
23.77886854061333
 21
27.94940179300915
 31
0.0
  0
LINE
  5
3EE
330
1F
100
AcDbEntity
  8
0
100
AcDbLine
 10
23.5384016385075
 20
31.94940167133589
 30
0.0
 11
23.6761969733507
 21
31.94940167133589
 31
0.0
  0
LINE
  5
3EF
330
1F
100
AcDbEntity
  8
0
100
AcDbLine
 10
23.47664101863812
 20
25.98079127456585
 30
0.0
 11
23.47664101863812
 21
25.27592191061022
 31
0.0
  0
LINE
  5
3F0
330
1F
100
AcDbEntity
  8
0
100
AcDbLine
 10
21.58687722268408
 20
25.27592191061022
 30
0.0
 11
23.47664101863812
 21
25.27592191061022
 31
0.0
  0
LINE
  5
3F1
330
1F
100
AcDbEntity
  8
0
100
AcDbLine
 10
21.58687722268408
 20
25.98079127456585
 30
0.0
 11
21.58687722268408
 21
25.27592191061022
 31
0.0
  0
LINE
  5
3F2
330
1F
100
AcDbEntity
  8
0
100
AcDbLine
 10
21.58687722268408
 20
26.39796908195889
 30
0.0
 11
21.58687722268408
 21
25.98079127456585
 31
0.0
  0
LINE
  5
3F3
330
1F
100
AcDbEntity
  8
0
100
AcDbLine
 10
23.47664101863812
 20
26.39796908195889
 30
0.0
 11
21.58687722268408
 21
26.39796908195889
 31
0.0
  0
LINE
  5
3F4
330
1F
100
AcDbEntity
  8
0
100
AcDbLine
 10
23.47664101863812
 20
26.39796908195889
 30
0.0
 11
23.47664101863812
 21
25.98079127456585
 31
0.0
  0
LINE
  5
3F5
330
1F
100
AcDbEntity
  8
0
100
AcDbLine
 10
21.58687722268408
 20
25.27592191061022
 30
0.0
 11
21.58687722268408
 21
25.19718159355842
 31
0.0
  0
LINE
  5
3F6
330
1F
100
AcDbEntity
  8
0
100
AcDbLine
 10
23.47664101863812
 20
25.27592191061022
 30
0.0
 11
23.47664101863812
 21
25.19718159355842
 31
0.0
  0
SPLINE
  5
3F7
330
1F
100
AcDbEntity
  8
0
100
AcDbSpline
210
0.0
220
0.0
230
1.0
 70
     8
 71
     3
 72
    24
 73
    20
 74
     0
 42
0.0000000001
 43
0.0000000001
 40
0.0
 40
0.0
 40
0.0
 40
0.0
 40
0.0682121515752297
 40
0.3820485265245708
 40
0.5900296600273149
 40
0.7278120373688811
 40
0.8190950554628432
 40
0.8795891445884809
 40
0.9197029142417376
 40
0.9463403493059059
 40
0.9640565706040494
 40
0.9758808209773675
 40
0.9838150458749918
 40
0.9891780739864012
 40
0.9928525209945595
 40
0.996694670250347
 40
0.9982260024320416
 40
0.9994885721840459
 40
1.0
 40
1.0
 40
1.0
 40
1.0
 10
23.47647059394021
 20
25.19324481236978
 30
0.0
 10
23.47647822187324
 20
25.19332839034345
 30
0.0
 10
23.47652094506125
 20
25.19379650109715
 30
0.0
 10
23.47657251819056
 20
25.1945225048728
 30
0.0
 10
23.47661119204654
 20
25.19533733115329
 30
0.0
 10
23.47662800536512
 20
25.19588204055703
 30
0.0
 10
23.47663531749296
 20
25.19624884662786
 30
0.0
 10
23.4766386615745
 20
25.19649899382875
 30
0.0
 10
23.47663992962023
 20
25.19667153849076
 30
0.0
 10
23.47664051931547
 20
25.19679486014152
 30
0.0
 10
23.47664090113796
 20
25.19688411154388
 30
0.0
 10
23.47664091173082
 20
25.19695114216748
 30
0.0
 10
23.47664103412512
 20
25.19700328091829
 30
0.0
 10
23.47664101638474
 20
25.19704449733343
 30
0.0
 10
23.47664101918427
 20
25.1970821848805
 30
0.0
 10
23.47664101858348
 20
25.19711541286567
 30
0.0
 10
23.47664101864546
 20
25.19714806465406
 30
0.0
 10
23.47664101863753
 20
25.19716755807814
 30
0.0
 10
23.47664101863799
 20
25.19717845272736
 30
0.0
 10
23.47664101863812
 20
25.19718159355842
 30
0.0
  0
LINE
  5
3F8
330
1F
100
AcDbEntity
  8
0
100
AcDbLine
 10
21.58704764738199
 20
25.19324481236978
 30
0.0
 11
23.47647059394021
 21
25.19324481236978
 31
0.0
  0
SPLINE
  5
3F9
330
1F
100
AcDbEntity
  8
0
100
AcDbSpline
210
0.0
220
0.0
230
1.0
 70
     8
 71
     3
 72
    24
 73
    20
 74
     0
 42
0.0000000001
 43
0.0000000001
 40
0.0
 40
0.0
 40
0.0
 40
0.0
 40
0.0682121515752297
 40
0.3820485265245708
 40
0.5900296600273149
 40
0.7278120373688811
 40
0.8190950554628432
 40
0.8795891445884809
 40
0.9197029142417376
 40
0.9463403493059059
 40
0.9640565706040494
 40
0.9758808209773675
 40
0.9838150458749918
 40
0.9891780739864012
 40
0.9928525209945595
 40
0.996694670250347
 40
0.9982260024320416
 40
0.9994885721840459
 40
1.0
 40
1.0
 40
1.0
 40
1.0
 10
21.58704764738199
 20
25.19324481236978
 30
0.0
 10
21.58704001944895
 20
25.19332839034345
 30
0.0
 10
21.58699729626095
 20
25.19379650109715
 30
0.0
 10
21.58694572313164
 20
25.1945225048728
 30
0.0
 10
21.58690704927566
 20
25.19533733115329
 30
0.0
 10
21.58689023595708
 20
25.19588204055703
 30
0.0
 10
21.58688292382924
 20
25.19624884662786
 30
0.0
 10
21.58687957974769
 20
25.19649899382875
 30
0.0
 10
21.58687831170196
 20
25.19667153849076
 30
0.0
 10
21.58687772200674
 20
25.19679486014152
 30
0.0
 10
21.58687734018423
 20
25.19688411154388
 30
0.0
 10
21.58687732959137
 20
25.19695114216748
 30
0.0
 10
21.58687720719707
 20
25.19700328091829
 30
0.0
 10
21.58687722493745
 20
25.19704449733343
 30
0.0
 10
21.58687722213793
 20
25.1970821848805
 30
0.0
 10
21.58687722273871
 20
25.19711541286567
 30
0.0
 10
21.58687722267674
 20
25.19714806465406
 30
0.0
 10
21.58687722268466
 20
25.19716755807814
 30
0.0
 10
21.58687722268421
 20
25.19717845272736
 30
0.0
 10
21.58687722268408
 20
25.19718159355842
 30
0.0
  0
ARC
  5
3FA
330
1F
100
AcDbEntity
  8
0
100
AcDbCircle
 10
21.60656227026739
 20
26.39796909686824
 30
0.0
 40
0.0196850393700814
100
AcDbArc
 50
90.0
 51
180.0
  0
LINE
  5
3FB
330
1F
100
AcDbEntity
  8
0
100
AcDbLine
 10
21.60656230194703
 20
26.41765416122184
 30
0.0
 11
23.45695593937517
 21
26.41765416122184
 31
0.0
  0
ARC
  5
3FC
330
1F
100
AcDbEntity
  8
0
100
AcDbCircle
 10
23.4569559710548
 20
26.39796909686824
 30
0.0
 40
0.0196850393700814
100
AcDbArc
 50
0.0000000000000064
 51
90.0
  0
SPLINE
  5
3FD
330
1F
100
AcDbEntity
  8
0
100
AcDbSpline
210
0.0
220
0.0
230
1.0
 70
     8
 71
     3
 72
    12
 73
     8
 74
     0
 42
0.0000000001
 43
0.0000000001
 40
0.0
 40
0.0
 40
0.0
 40
0.0
 40
0.3071559242550888
 40
0.536972963199546
 40
0.7677913657637449
 40
0.988445283432506
 40
1.0
 40
1.0
 40
1.0
 40
1.0
 10
23.47647059394021
 20
25.19324481236978
 30
0.0
 10
23.47619961710738
 20
25.19055608830343
 30
0.0
 10
23.47572589278241
 20
25.18585563483624
 30
0.0
 10
23.46899265276334
 20
25.17202384112459
 30
0.0
 10
23.45616711915577
 20
25.16111781479695
 30
0.0
 10
23.44392688549469
 20
25.15786041306329
 30
0.0
 10
23.43770442218804
 20
25.15781403608393
 30
0.0
 10
23.43739479201388
 20
25.15781172836246
 30
0.0
  0
LINE
  5
3FE
330
1F
100
AcDbEntity
  8
0
100
AcDbLine
 10
23.43739479201388
 20
25.15781172836246
 30
0.0
 11
21.62612344930832
 21
25.15781172836246
 31
0.0
  0
SPLINE
  5
3FF
330
1F
100
AcDbEntity
  8
0
100
AcDbSpline
210
0.0
220
0.0
230
1.0
 70
     8
 71
     3
 72
    12
 73
     8
 74
     0
 42
0.0000000001
 43
0.0000000001
 40
0.0
 40
0.0
 40
0.0
 40
0.0
 40
0.0115547165674939
 40
0.2322086342362553
 40
0.4630270368004542
 40
0.6928440757449113
 40
1.0
 40
1.0
 40
1.0
 40
1.0
 10
21.62612344930832
 20
25.15781172836246
 30
0.0
 10
21.62581381913416
 20
25.15781403608394
 30
0.0
 10
21.61959135582751
 20
25.15786041306329
 30
0.0
 10
21.60735112216643
 20
25.16111781479695
 30
0.0
 10
21.59452558855885
 20
25.17202384112459
 30
0.0
 10
21.58779234853978
 20
25.18585563483624
 30
0.0
 10
21.58731862421481
 20
25.19055608830344
 30
0.0
 10
21.58704764738199
 20
25.19324481236978
 30
0.0
  0
LINE
  5
400
330
1F
100
AcDbEntity
  8
0
100
AcDbLine
 10
26.07506634807365
 20
27.35885066177288
 30
0.0
 11
25.87821584877408
 21
27.35885066177288
 31
0.0
  0
LINE
  5
402
330
1F
100
AcDbEntity
  8
0
100
AcDbLine
 10
26.07506634807365
 20
27.65412619072478
 30
0.0
 11
25.87821584877408
 21
27.65412619072478
 31
0.0
  0
LINE
  5
403
330
1F
100
AcDbEntity
  8
0
100
AcDbLine
 10
26.07506634807365
 20
27.35885066177288
 30
0.0
 11
26.07506634807365
 21
27.65412619072478
 31
0.0
  0
LINE
  5
404
330
1F
100
AcDbEntity
  8
0
100
AcDbLine
 10
19.18530239254812
 20
27.65412619072478
 30
0.0
 11
25.87821584877408
 21
27.65412619072478
 31
0.0
  0
LINE
  5
405
330
1F
100
AcDbEntity
  8
0
100
AcDbLine
 10
19.18530239254812
 20
27.35885066177288
 30
0.0
 11
25.87821584877408
 21
27.35885066177288
 31
0.0
  0
ARC
  5
407
330
1F
100
AcDbEntity
  8
0
100
AcDbCircle
 10
26.01601108916501
 20
27.35885063009325
 30
0.0
 40
0.059055118110237
100
AcDbArc
 50
270.0000000000008
 51
0.0
  0
LINE
  5
408
330
1F
100
AcDbEntity
  8
0
100
AcDbLine
 10
25.87821584877408
 20
27.29979549731651
 30
0.0
 11
26.01601111028479
 21
27.29979549731651
 31
0.0
  0
LINE
  5
40B
330
1F
100
AcDbEntity
  8
0
100
AcDbLine
 10
25.87821584877408
 20
27.29979549731651
 30
0.0
 11
19.18530239254812
 21
27.29979549731651
 31
0.0
  0
LINE
  5
40C
330
1F
100
AcDbEntity
  8
0
100
AcDbLine
 10
18.98845189324855
 20
27.35885066177288
 30
0.0
 11
19.18530239254812
 21
27.35885066177288
 31
0.0
  0
LINE
  5
40D
330
1F
100
AcDbEntity
  8
0
100
AcDbLine
 10
18.98845189324855
 20
27.35885066177288
 30
0.0
 11
18.98845189324855
 21
27.65412619072478
 31
0.0
  0
LINE
  5
40E
330
1F
100
AcDbEntity
  8
0
100
AcDbLine
 10
18.98845189324855
 20
27.65412619072478
 30
0.0
 11
19.18530239254812
 21
27.65412619072478
 31
0.0
  0
LINE
  5
40F
330
1F
100
AcDbEntity
  8
0
100
AcDbLine
 10
19.18530239254812
 20
27.29979549731651
 30
0.0
 11
19.0475071310374
 21
27.29979549731651
 31
0.0
  0
ARC
  5
410
330
1F
100
AcDbEntity
  8
0
100
AcDbCircle
 10
19.04750715215716
 20
27.35885063009325
 30
0.0
 40
0.059055118110237
100
AcDbArc
 50
180.0
 51
270.0000000000008
  0
LINE
  5
411
330
1F
100
AcDbEntity
  8
0
100
AcDbLine
 10
23.87603511147014
 20
28.28404748048695
 30
0.0
 11
21.18748312985206
 21
28.28404748048695
 31
0.0
  0
LINE
  5
412
330
1F
100
AcDbEntity
  8
0
100
AcDbLine
 10
23.87603511147014
 20
28.28404748048695
 30
0.0
 11
23.87603511147014
 21
28.12263015686031
 31
0.0
  0
LINE
  5
413
330
1F
100
AcDbEntity
  8
0
100
AcDbLine
 10
21.18748312985206
 20
28.12263015686031
 30
0.0
 11
23.87603511147014
 21
28.12263015686031
 31
0.0
  0
LINE
  5
414
330
1F
100
AcDbEntity
  8
0
100
AcDbLine
 10
21.18748312985206
 20
28.28404748048695
 30
0.0
 11
21.18748312985206
 21
28.12263015686031
 31
0.0
  0
LINE
  5
415
330
1F
100
AcDbEntity
  8
0
100
AcDbLine
 10
23.81522253398223
 20
28.0478270059927
 30
0.0
 11
21.24829570733997
 21
28.0478270059927
 31
0.0
  0
ARC
  5
416
330
1F
100
AcDbEntity
  8
0
100
AcDbCircle
 10
21.25609556224115
 20
28.11628895848262
 30
0.0
 40
0.0689048378215408
100
AcDbArc
 50
174.7196927696887
 51
263.5003298928514
  0
ARC
  5
417
330
1F
100
AcDbEntity
  8
0
100
AcDbCircle
 10
23.80742267908106
 20
28.11628895848262
 30
0.0
 40
0.0689048378215401
100
AcDbArc
 50
276.4996701071473
 51
5.280307230311491
  0
LINE
  5
418
330
1F
100
AcDbEntity
  8
0
100
AcDbLine
 10
23.42939693107252
 20
26.47302385491975
 30
0.0
 11
21.63412131024969
 21
26.47302385491975
 31
0.0
  0
LINE
  5
419
330
1F
100
AcDbEntity
  8
0
100
AcDbLine
 10
21.13962033610047
 20
28.28404748048695
 30
0.0
 11
21.18748312985206
 21
28.28404748048695
 31
0.0
  0
LINE
  5
41A
330
1F
100
AcDbEntity
  8
0
100
AcDbLine
 10
21.24829570733997
 20
28.0478270059927
 30
0.0
 11
21.2144235786337
 21
28.0478270059927
 31
0.0
  0
LINE
  5
41B
330
1F
100
AcDbEntity
  8
0
100
AcDbLine
 10
23.92389790522173
 20
28.28404748048695
 30
0.0
 11
23.87603511147014
 21
28.28404748048695
 31
0.0
  0
LINE
  5
41C
330
1F
100
AcDbEntity
  8
0
100
AcDbLine
 10
23.84909466268851
 20
28.0478270059927
 30
0.0
 11
23.81522253398223
 21
28.0478270059927
 31
0.0
  0
SPLINE
  5
41D
330
1F
100
AcDbEntity
  8
0
100
AcDbSpline
210
0.0
220
0.0
230
1.0
 70
     8
 71
     3
 72
    10
 73
     6
 74
     0
 42
0.0000000001
 43
0.0000000001
 40
0.0
 40
0.0
 40
0.0
 40
0.0
 40
0.1452392657274898
 40
0.6368523685666113
 40
1.0
 40
1.0
 40
1.0
 40
1.0
 10
23.47664079864066
 20
25.27592161728029
 30
0.0
 10
23.47664080207973
 20
25.27619764621158
 30
0.0
 10
23.47664081715954
 20
25.27740799162205
 30
0.0
 10
23.47664052935611
 20
25.27920174003746
 30
0.0
 10
23.47664010074677
 20
25.27993516819093
 30
0.0
 10
23.47663991865083
 20
25.28024676731579
 30
0.0
  0
SPLINE
  5
41E
330
1F
100
AcDbEntity
  8
0
100
AcDbSpline
210
0.0
220
0.0
230
1.0
 70
     8
 71
     3
 72
    10
 73
     6
 74
     0
 42
0.0000000001
 43
0.0000000001
 40
0.0
 40
0.0
 40
0.0
 40
0.0
 40
0.1452392657274898
 40
0.6368523685666113
 40
1.0
 40
1.0
 40
1.0
 40
1.0
 10
21.58687744268154
 20
25.27592161728029
 30
0.0
 10
21.58687743924247
 20
25.27619764621158
 30
0.0
 10
21.58687742416266
 20
25.27740799162205
 30
0.0
 10
21.58687771196609
 20
25.27920174003746
 30
0.0
 10
21.58687814057543
 20
25.27993516819093
 30
0.0
 10
21.58687832267137
 20
25.28024676731579
 30
0.0
  0
LINE
  5
41F
330
1F
100
AcDbEntity
  8
0
100
AcDbLine
 10
23.48706581820994
 20
28.00845692079928
 30
0.0
 11
21.55931814104894
 21
28.00845692079928
 31
0.0
  0
LINE
  5
420
330
1F
100
AcDbEntity
  8
0
100
AcDbLine
 10
21.55931814104894
 20
26.54782695078801
 30
0.0
 11
23.50420010027326
 21
26.54782695078801
 31
0.0
  0
LINE
  5
421
330
1F
100
AcDbEntity
  8
0
100
AcDbLine
 10
21.13962033610047
 20
28.12263015686031
 30
0.0
 11
21.18748312985206
 21
28.12263015686031
 31
0.0
  0
LINE
  5
422
330
1F
100
AcDbEntity
  8
0
100
AcDbLine
 10
23.87603511147014
 20
28.12263015686031
 30
0.0
 11
23.92389790522173
 21
28.12263015686031
 31
0.0
  0
LINE
  5
423
330
1F
100
AcDbEntity
  8
0
100
AcDbLine
 10
23.22073550154716
 20
26.43365384305881
 30
0.0
 11
21.84278273977505
 21
26.43365384305881
 31
0.0
  0
CIRCLE
  5
6D7
330
1F
100
AcDbEntity
  8
0
100
AcDbCircle
 10
22.5317591206611
 20
17.44786542430227
 30
0.0
 40
3.543307227412547
  0
ARC
  5
6D8
330
1F
100
AcDbEntity
  8
0
100
AcDbCircle
 10
22.5317591206611
 20
17.44786542430227
 30
0.0
 40
0.9448818897637771
100
AcDbArc
 50
359.9997440663439
 51
180.2227595888759
  0
ENDSEC
  0
SECTION
  2
OBJECTS
  0
DICTIONARY
  5
C
330
0
100
AcDbDictionary
281
     1
  3
ACAD_CIP_PREVIOUS_PRODUCT_INFO
350
65E
  3
ACAD_COLOR
350
657
  3
ACAD_GROUP
350
D
  3
ACAD_LAYOUT
350
1A
  3
ACAD_MATERIAL
350
625
  3
ACAD_MLEADERSTYLE
350
65A
  3
ACAD_MLINESTYLE
350
17
  3
ACAD_PLOTSETTINGS
350
19
  3
ACAD_PLOTSTYLENAME
350
E
  3
ACAD_SCALELIST
350
47
  3
ACAD_TABLESTYLE
350
658
  3
ACAD_VISUALSTYLE
350
63E
  3
ACDB_RECOMPOSE_DATA
350
6DF
  3
AcDbVariableDictionary
350
68D
  0
DICTIONARY
  5
67A
330
2
100
AcDbDictionary
280
     1
281
     1
  3
ACAD_LAYERSTATES
360
67B
  0
DICTIONARY
  5
673
330
10
100
AcDbDictionary
280
     1
281
     1
  3
ADSK_XREC_LAYER_RECONCILED
360
674
  0
DICTIONARY
  5
675
330
73
100
AcDbDictionary
280
     1
281
     1
  3
ADSK_XREC_LAYER_RECONCILED
360
676
  0
DICTIONARY
  5
6D9
330
1F
100
AcDbDictionary
280
     1
281
     1
  3
ACAD_SORTENTS
360
6DA
  0
XRECORD
  5
65E
102
{ACAD_REACTORS
330
C
102
}
330
C
100
AcDbXrecord
280
     1
300
ACD
300
2012
300
85730ACD_2012_0F
  0
DICTIONARY
  5
657
102
{ACAD_REACTORS
330
C
102
}
330
C
100
AcDbDictionary
281
     1
  0
DICTIONARY
  5
D
102
{ACAD_REACTORS
330
C
102
}
330
C
100
AcDbDictionary
281
     1
  0
DICTIONARY
  5
1A
102
{ACAD_REACTORS
330
C
102
}
330
C
100
AcDbDictionary
281
     1
  3
Layout1
350
1E
  3
Layout2
350
26
  3
Model
350
22
  0
DICTIONARY
  5
625
102
{ACAD_REACTORS
330
C
102
}
330
C
100
AcDbDictionary
281
     1
  3
ByBlock
350
62E
  3
ByLayer
350
626
  3
Global
350
636
  0
DICTIONARY
  5
65A
102
{ACAD_REACTORS
330
C
102
}
330
C
100
AcDbDictionary
281
     1
  3
Standard
350
65B
  0
DICTIONARY
  5
17
102
{ACAD_REACTORS
330
C
102
}
330
C
100
AcDbDictionary
281
     1
  3
Standard
350
18
  0
DICTIONARY
  5
19
102
{ACAD_REACTORS
330
C
102
}
330
C
100
AcDbDictionary
281
     1
  0
ACDBDICTIONARYWDFLT
  5
E
102
{ACAD_REACTORS
330
C
102
}
330
C
100
AcDbDictionary
281
     1
  3
Normal
350
F
100
AcDbDictionaryWithDefault
340
F
  0
DICTIONARY
  5
47
102
{ACAD_REACTORS
330
C
102
}
330
C
100
AcDbDictionary
281
     1
  3
A0
350
48
  3
A1
350
49
  3
A2
350
4A
  3
A3
350
4B
  3
A4
350
4C
  3
A5
350
4D
  3
A6
350
4E
  3
A7
350
4F
  3
A8
350
50
  3
A9
350
51
  3
B0
350
52
  3
B1
350
53
  3
B2
350
54
  3
B3
350
55
  3
B4
350
56
  3
B5
350
57
  3
B6
350
58
  3
B7
350
59
  3
B8
350
5A
  3
B9
350
5B
  3
C0
350
5C
  3
C1
350
5D
  3
C2
350
5E
  3
C3
350
5F
  3
C4
350
60
  3
C5
350
61
  3
C6
350
62
  3
C7
350
63
  3
C8
350
64
  3
C9
350
65
  3
D0
350
66
  3
D1
350
67
  3
D2
350
68
  0
DICTIONARY
  5
658
102
{ACAD_REACTORS
330
C
102
}
330
C
100
AcDbDictionary
281
     1
  3
Standard
350
659
  0
DICTIONARY
  5
63E
102
{ACAD_REACTORS
330
C
102
}
330
C
100
AcDbDictionary
281
     1
  3
2dWireframe
350
644
  3
Basic
350
643
  3
Brighten
350
64A
  3
ColorChange
350
64E
  3
Conceptual
350
647
  3
Dim
350
649
  3
EdgeColorOff
350
656
  3
Facepattern
350
64D
  3
Flat
350
63F
  3
FlatWithEdges
350
640
  3
Gouraud
350
641
  3
GouraudWithEdges
350
642
  3
Hidden
350
646
  3
JitterOff
350
654
  3
Linepattern
350
64C
  3
OverhangOff
350
655
  3
Realistic
350
648
  3
Shaded
350
653
  3
Shaded with edges
350
652
  3
Shades of Gray
350
64F
  3
Sketchy
350
650
  3
Thicken
350
64B
  3
Wireframe
350
645
  3
X-Ray
350
651
  0
XRECORD
  5
6DF
102
{ACAD_REACTORS
330
C
102
}
330
C
100
AcDbXrecord
280
     1
 90
        1
330
659
  0
DICTIONARY
  5
68D
102
{ACAD_REACTORS
330
C
102
}
330
C
100
AcDbDictionary
281
     1
  3
CANNOSCALE
350
690
  3
CMLEADERSTYLE
350
68F
  3
CTABLESTYLE
350
68E
  3
XCLIPFRAME
350
6DB
  0
DICTIONARY
  5
67B
102
{ACAD_REACTORS
330
67A
102
}
330
67A
100
AcDbDictionary
281
     1
  0
XRECORD
  5
674
102
{ACAD_REACTORS
330
673
102
}
330
673
100
AcDbXrecord
280
     1
290
     1
  0
XRECORD
  5
676
102
{ACAD_REACTORS
330
675
102
}
330
675
100
AcDbXrecord
280
     1
290
     1
  0
SORTENTSTABLE
  5
6DA
102
{ACAD_REACTORS
330
6D9
102
}
330
6D9
100
AcDbSortentsTable
330
1F
331
420
  5
421
331
320
  5
321
331
329
  5
32D
331
179
  5
17A
331
34B
  5
34C
331
33A
  5
33B
331
38F
  5
390
331
37E
  5
37F
331
36D
  5
36E
331
35C
  5
35D
331
1AC
  5
1AD
331
40F
  5
410
331
3FE
  5
3FF
331
3ED
  5
3EE
331
3DC
  5
3DD
331
30F
  5
310
331
2A2
  5
2BA
331
18A
  5
18B
331
410
  5
411
331
421
  5
422
331
310
  5
311
331
34C
  5
34D
331
33B
  5
33C
331
18B
  5
18C
331
17A
  5
17B
331
321
  5
322
331
3EE
  5
3EF
331
3DD
  5
3DE
331
3CC
  5
3CD
331
390
  5
391
331
37F
  5
380
331
36E
  5
370
331
35D
  5
35E
331
3FF
  5
400
331
2EE
  5
2EF
331
1AD
  5
1B3
331
400
  5
401
331
411
  5
412
331
300
  5
301
331
422
  5
423
331
322
  5
323
331
3EF
  5
3F0
331
3DE
  5
3DF
331
3CD
  5
3CE
331
391
  5
392
331
380
  5
381
331
34D
  5
34E
331
33C
  5
33D
331
18C
  5
18D
331
17B
  5
17C
331
311
  5
312
331
2EF
  5
2F0
331
3F0
  5
3F1
331
2F0
  5
2F1
331
412
  5
413
331
423
  5
6D7
331
312
  5
313
331
6D7
  5
6D8
331
34E
  5
34F
331
33D
  5
33E
331
18D
  5
18E
331
17C
  5
17D
331
323
  5
326
331
301
  5
302
331
3DF
  5
3E0
331
3CE
  5
3CF
331
392
  5
393
331
381
  5
382
331
370
  5
371
331
35F
  5
360
331
3F1
  5
3F2
331
3E0
  5
3E1
331
402
  5
403
331
2F1
  5
2F2
331
413
  5
414
331
313
  5
314
331
32D
  5
32E
331
17D
  5
17E
331
302
  5
303
331
34F
  5
350
331
33E
  5
33F
331
3CF
  5
3D0
331
393
  5
3A9
331
382
  5
383
331
371
  5
372
331
360
  5
361
331
6D8
  5
15D
331
18E
  5
18F
331
3F2
  5
3F3
331
3E1
  5
3E2
331
3D0
  5
3D1
331
403
  5
404
331
2F2
  5
2F4
331
303
  5
304
331
414
  5
415
331
314
  5
315
331
32E
  5
32F
331
17E
  5
17F
331
16D
  5
16E
331
383
  5
384
331
372
  5
373
331
350
  5
351
331
33F
  5
340
331
18F
  5
190
331
404
  5
405
331
3F3
  5
3F4
331
3E2
  5
3E3
331
3D1
  5
3D2
331
304
  5
305
331
415
  5
416
331
15D
  5
15E
331
326
  5
327
331
16E
  5
16F
331
32F
  5
330
331
384
  5
385
331
373
  5
374
331
362
  5
363
331
351
  5
352
331
340
  5
343
331
190
  5
191
331
17F
  5
180
331
315
  5
316
331
3F4
  5
3F5
331
3E3
  5
3E4
331
3D2
  5
3D3
331
405
  5
406
331
2F4
  5
2F5
331
416
  5
417
331
15E
  5
15F
331
305
  5
306
331
327
  5
328
331
16F
  5
170
331
330
  5
333
331
385
  5
386
331
374
  5
375
331
363
  5
364
331
352
  5
353
331
191
  5
192
331
180
  5
181
331
316
  5
317
331
3E4
  5
3E5
331
3D3
  5
3D4
331
2BA
  5
2BB
331
3F5
  5
3F6
331
2E4
  5
2E7
331
306
  5
307
331
417
  5
418
331
2F5
  5
2F6
331
386
  5
387
331
375
  5
376
331
364
  5
365
331
353
  5
354
331
192
  5
193
331
181
  5
182
331
170
  5
171
331
317
  5
318
331
3D4
  5
3D5
331
2BB
  5
2BC
331
3F6
  5
3F7
331
3E5
  5
3E6
331
2D4
  5
2D9
331
407
  5
408
331
307
  5
308
331
418
  5
419
331
2F6
  5
2F7
331
387
  5
388
331
376
  5
377
331
365
  5
366
331
354
  5
355
331
343
  5
344
331
193
  5
194
331
182
  5
183
331
171
  5
172
331
318
  5
319
331
388
  5
389
331
3F7
  5
3F8
331
3E6
  5
3EB
331
3D5
  5
3D6
331
2BC
  5
2BD
331
1B3
  5
1B4
331
408
  5
409
331
419
  5
41A
331
308
  5
309
331
319
  5
31A
331
333
  5
334
331
183
  5
184
331
2F7
  5
2F8
331
377
  5
378
331
366
  5
367
331
355
  5
356
331
344
  5
345
331
194
  5
195
331
389
  5
38A
331
378
  5
379
331
3D6
  5
3D7
331
2BD
  5
2BE
331
1B4
  5
1B5
331
3F8
  5
3F9
331
2F8
  5
2F9
331
41A
  5
41B
331
31A
  5
31B
331
334
  5
335
331
184
  5
185
331
173
  5
174
331
309
  5
30A
331
2E7
  5
2EE
331
345
  5
349
331
367
  5
368
331
356
  5
357
331
195
  5
196
331
3AB
  5
3AE
331
38A
  5
38B
331
379
  5
37A
331
368
  5
369
331
3C6
  5
3C7
331
1B5
  5
2A2
331
3F9
  5
3FA
331
3D7
  5
3D8
331
2F9
  5
2FA
331
41B
  5
41C
331
31B
  5
31C
331
335
  5
336
331
185
  5
186
331
174
  5
175
331
30A
  5
30B
331
2BE
  5
2BF
331
196
  5
197
331
3C7
  5
3CC
331
38B
  5
38C
331
37A
  5
37B
331
369
  5
36A
331
358
  5
359
331
3FA
  5
3FB
331
3D8
  5
3D9
331
2BF
  5
2C0
331
40B
  5
40C
331
41C
  5
41D
331
30B
  5
30C
331
31C
  5
31D
331
336
  5
337
331
186
  5
187
331
175
  5
176
331
2FA
  5
2FB
331
197
  5
198
331
38C
  5
38D
331
37B
  5
37C
331
36A
  5
36B
331
198
  5
1A6
331
3D9
  5
3DA
331
2C0
  5
2D4
331
3FB
  5
3FC
331
40C
  5
40D
331
2FB
  5
2FC
331
41D
  5
41E
331
31D
  5
31E
331
337
  5
338
331
187
  5
188
331
30C
  5
30D
331
2D9
  5
2E4
331
3FC
  5
3FD
331
3EB
  5
3EC
331
3DA
  5
3DB
331
3AE
  5
3AF
331
38D
  5
38E
331
37C
  5
37D
331
36B
  5
36C
331
35A
  5
35B
331
349
  5
34A
331
338
  5
339
331
188
  5
189
331
40D
  5
40E
331
2FC
  5
2FD
331
41E
  5
41F
331
31E
  5
31F
331
177
  5
178
331
30D
  5
30E
331
328
  5
329
331
178
  5
179
331
3FD
  5
3FE
331
3EC
  5
3ED
331
3DB
  5
3DC
331
3AF
  5
3C6
331
38E
  5
38F
331
37D
  5
37E
331
36C
  5
36D
331
35B
  5
35C
331
34A
  5
34B
331
339
  5
33A
331
189
  5
18A
331
40E
  5
40F
331
41F
  5
420
331
30E
  5
30F
331
31F
  5
320
331
2FD
  5
300
  0
LAYOUT
  5
1E
102
{ACAD_REACTORS
330
1A
102
}
330
1A
100
AcDbPlotSettings
  1

  2
none_device
  4

  6

 40
0.0
 41
0.0
 42
0.0
 43
0.0
 44
0.0
 45
0.0
 46
0.0
 47
0.0
 48
0.0
 49
0.0
140
0.0
141
0.0
142
1.0
143
1.0
 70
   688
 72
     0
 73
     0
 74
     5
  7

 75
    16
147
1.0
 76
     0
 77
     2
 78
   300
148
0.0
149
0.0
100
AcDbLayout
  1
Layout1
 70
     1
 71
     1
 10
0.0
 20
0.0
 11
12.0
 21
9.0
 12
0.0
 22
0.0
 32
0.0
 14
1.000000000000000E+20
 24
1.000000000000000E+20
 34
1.000000000000000E+20
 15
-1.000000000000000E+20
 25
-1.000000000000000E+20
 35
-1.000000000000000E+20
146
0.0
 13
0.0
 23
0.0
 33
0.0
 16
1.0
 26
0.0
 36
0.0
 17
0.0
 27
1.0
 37
0.0
 76
     0
330
1B
  0
LAYOUT
  5
26
102
{ACAD_REACTORS
330
1A
102
}
330
1A
100
AcDbPlotSettings
  1

  2
none_device
  4

  6

 40
0.0
 41
0.0
 42
0.0
 43
0.0
 44
0.0
 45
0.0
 46
0.0
 47
0.0
 48
0.0
 49
0.0
140
0.0
141
0.0
142
1.0
143
1.0
 70
   688
 72
     0
 73
     0
 74
     5
  7

 75
    16
147
1.0
 76
     0
 77
     2
 78
   300
148
0.0
149
0.0
100
AcDbLayout
  1
Layout2
 70
     1
 71
     2
 10
0.0
 20
0.0
 11
0.0
 21
0.0
 12
0.0
 22
0.0
 32
0.0
 14
0.0
 24
0.0
 34
0.0
 15
0.0
 25
0.0
 35
0.0
146
0.0
 13
0.0
 23
0.0
 33
0.0
 16
1.0
 26
0.0
 36
0.0
 17
0.0
 27
1.0
 37
0.0
 76
     0
330
23
  0
LAYOUT
  5
22
102
{ACAD_XDICTIONARY
360
680
102
}
102
{ACAD_REACTORS
330
1A
102
}
330
1A
100
AcDbPlotSettings
  1

  2
none_device
  4
Letter_(8.50_x_11.00_Inches)
  6

 40
6.349999999999998
 41
6.349999999999998
 42
6.350005079999998
 43
6.350005079999998
 44
215.9
 45
279.4
 46
0.0
 47
0.0
 48
0.0
 49
0.0
140
0.0
141
0.0
142
1.0
143
1.0
 70
  1712
 72
     0
 73
     0
 74
     0
  7

 75
     0
147
1.0
 76
     0
 77
     2
 78
   300
148
0.0
149
0.0
100
AcDbLayout
  1
Model
 70
     1
 71
     0
 10
0.0
 20
0.0
 11
46.81102362204724
 21
33.11023622047244
 12
0.0
 22
0.0
 32
0.0
 14
0.0
 24
0.0
 34
0.0
 15
46.81102362204724
 25
33.11023622047244
 35
0.0
146
0.0
 13
0.0
 23
0.0
 33
0.0
 16
1.0
 26
0.0
 36
0.0
 17
0.0
 27
1.0
 37
0.0
 76
     0
330
1F
331
29
  0
MATERIAL
  5
62E
102
{ACAD_XDICTIONARY
360
62F
102
}
102
{ACAD_REACTORS
330
625
102
}
330
625
100
AcDbMaterial
  1
ByBlock
 72
     0
 43
0.0208333333333333
 43
0.0
 43
0.0
 43
0.0
 43
0.0
 43
0.0208333333333333
 43
0.0
 43
0.0
 43
0.0
 43
0.0
 43
1.0
 43
0.0
 43
0.0
 43
0.0
 43
0.0
 43
1.0
 77
     0
 47
0.0208333333333333
 47
0.0
 47
0.0
 47
0.0
 47
0.0
 47
0.0208333333333333
 47
0.0
 47
0.0
 47
0.0
 47
0.0
 47
1.0
 47
0.0
 47
0.0
 47
0.0
 47
0.0
 47
1.0
171
     0
 49
0.0208333333333333
 49
0.0
 49
0.0
 49
0.0
 49
0.0
 49
0.0208333333333333
 49
0.0
 49
0.0
 49
0.0
 49
0.0
 49
1.0
 49
0.0
 49
0.0
 49
0.0
 49
0.0
 49
1.0
175
     0
142
0.0208333333333333
142
0.0
142
0.0
142
0.0
142
0.0
142
0.0208333333333333
142
0.0
142
0.0
142
0.0
142
0.0
142
1.0
142
0.0
142
0.0
142
0.0
142
0.0
142
1.0
179
     0
144
0.0208333333333333
144
0.0
144
0.0
144
0.0
144
0.0
144
0.0208333333333333
144
0.0
144
0.0
144
0.0
144
0.0
144
1.0
144
0.0
144
0.0
144
0.0
144
0.0
144
1.0
147
0.0208333333333333
147
0.0
147
0.0
147
0.0
147
0.0
147
0.0208333333333333
147
0.0
147
0.0
147
0.0
147
0.0
147
1.0
147
0.0
147
0.0
147
0.0
147
0.0
147
1.0
  0
MATERIAL
  5
626
102
{ACAD_XDICTIONARY
360
627
102
}
102
{ACAD_REACTORS
330
625
102
}
330
625
100
AcDbMaterial
  1
ByLayer
 72
     0
 43
0.0208333333333333
 43
0.0
 43
0.0
 43
0.0
 43
0.0
 43
0.0208333333333333
 43
0.0
 43
0.0
 43
0.0
 43
0.0
 43
1.0
 43
0.0
 43
0.0
 43
0.0
 43
0.0
 43
1.0
 77
     0
 47
0.0208333333333333
 47
0.0
 47
0.0
 47
0.0
 47
0.0
 47
0.0208333333333333
 47
0.0
 47
0.0
 47
0.0
 47
0.0
 47
1.0
 47
0.0
 47
0.0
 47
0.0
 47
0.0
 47
1.0
171
     0
 49
0.0208333333333333
 49
0.0
 49
0.0
 49
0.0
 49
0.0
 49
0.0208333333333333
 49
0.0
 49
0.0
 49
0.0
 49
0.0
 49
1.0
 49
0.0
 49
0.0
 49
0.0
 49
0.0
 49
1.0
175
     0
142
0.0208333333333333
142
0.0
142
0.0
142
0.0
142
0.0
142
0.0208333333333333
142
0.0
142
0.0
142
0.0
142
0.0
142
1.0
142
0.0
142
0.0
142
0.0
142
0.0
142
1.0
179
     0
144
0.0208333333333333
144
0.0
144
0.0
144
0.0
144
0.0
144
0.0208333333333333
144
0.0
144
0.0
144
0.0
144
0.0
144
1.0
144
0.0
144
0.0
144
0.0
144
0.0
144
1.0
147
0.0208333333333333
147
0.0
147
0.0
147
0.0
147
0.0
147
0.0208333333333333
147
0.0
147
0.0
147
0.0
147
0.0
147
1.0
147
0.0
147
0.0
147
0.0
147
0.0
147
1.0
  0
MATERIAL
  5
636
102
{ACAD_XDICTIONARY
360
637
102
}
102
{ACAD_REACTORS
330
625
102
}
330
625
100
AcDbMaterial
  1
Global
 72
     0
 43
0.0208333333333333
 43
0.0
 43
0.0
 43
0.0
 43
0.0
 43
0.0208333333333333
 43
0.0
 43
0.0
 43
0.0
 43
0.0
 43
1.0
 43
0.0
 43
0.0
 43
0.0
 43
0.0
 43
1.0
 77
     0
 47
0.0208333333333333
 47
0.0
 47
0.0
 47
0.0
 47
0.0
 47
0.0208333333333333
 47
0.0
 47
0.0
 47
0.0
 47
0.0
 47
1.0
 47
0.0
 47
0.0
 47
0.0
 47
0.0
 47
1.0
171
     0
 49
0.0208333333333333
 49
0.0
 49
0.0
 49
0.0
 49
0.0
 49
0.0208333333333333
 49
0.0
 49
0.0
 49
0.0
 49
0.0
 49
1.0
 49
0.0
 49
0.0
 49
0.0
 49
0.0
 49
1.0
175
     0
142
0.0208333333333333
142
0.0
142
0.0
142
0.0
142
0.0
142
0.0208333333333333
142
0.0
142
0.0
142
0.0
142
0.0
142
1.0
142
0.0
142
0.0
142
0.0
142
0.0
142
1.0
179
     0
144
0.0208333333333333
144
0.0
144
0.0
144
0.0
144
0.0
144
0.0208333333333333
144
0.0
144
0.0
144
0.0
144
0.0
144
1.0
144
0.0
144
0.0
144
0.0
144
0.0
144
1.0
147
0.0208333333333333
147
0.0
147
0.0
147
0.0
147
0.0
147
0.0208333333333333
147
0.0
147
0.0
147
0.0
147
0.0
147
1.0
147
0.0
147
0.0
147
0.0
147
0.0
147
1.0
  0
MLEADERSTYLE
  5
65B
102
{ACAD_XDICTIONARY
360
6DD
102
}
102
{ACAD_REACTORS
330
65A
102
}
330
65A
100
AcDbMLeaderStyle
170
     2
171
     1
172
     0
 90
        2
 40
0.0
 41
0.0
173
     1
 91
-1056964608
340
14
 92
       -2
290
     1
 42
0.09
291
     1
 43
0.36
  3
Standard
 44
0.18
300

342
11
174
     1
178
     6
175
     1
176
     0
 93
-1056964608
 45
0.18
292
     0
297
     0
 46
0.18
 94
-1056964608
 47
1.0
 49
1.0
140
1.0
293
     1
141
0.0
294
     1
177
     0
142
1.0
295
     0
296
     0
143
0.125
1001
ACAD_MLEADERVER
1070
     2
  0
MLINESTYLE
  5
18
102
{ACAD_REACTORS
330
17
102
}
330
17
100
AcDbMlineStyle
  2
STANDARD
 70
     0
  3

 62
   256
 51
90.0
 52
90.0
 71
     2
 49
0.5
 62
   256
  6
BYLAYER
 49
-0.5
 62
   256
  6
BYLAYER
  0
ACDBPLACEHOLDER
  5
F
102
{ACAD_REACTORS
330
E
102
}
330
E
  0
SCALE
  5
48
102
{ACAD_REACTORS
330
47
102
}
330
47
100
AcDbScale
 70
     0
300
1:1
140
1.0
141
1.0
290
     1
  0
SCALE
  5
49
102
{ACAD_REACTORS
330
47
102
}
330
47
100
AcDbScale
 70
     0
300
1:2
140
1.0
141
2.0
290
     0
  0
SCALE
  5
4A
102
{ACAD_REACTORS
330
47
102
}
330
47
100
AcDbScale
 70
     0
300
1:4
140
1.0
141
4.0
290
     0
  0
SCALE
  5
4B
102
{ACAD_REACTORS
330
47
102
}
330
47
100
AcDbScale
 70
     0
300
1:5
140
1.0
141
5.0
290
     0
  0
SCALE
  5
4C
102
{ACAD_REACTORS
330
47
102
}
330
47
100
AcDbScale
 70
     0
300
1:8
140
1.0
141
8.0
290
     0
  0
SCALE
  5
4D
102
{ACAD_REACTORS
330
47
102
}
330
47
100
AcDbScale
 70
     0
300
1:10
140
1.0
141
10.0
290
     0
  0
SCALE
  5
4E
102
{ACAD_REACTORS
330
47
102
}
330
47
100
AcDbScale
 70
     0
300
1:16
140
1.0
141
16.0
290
     0
  0
SCALE
  5
4F
102
{ACAD_REACTORS
330
47
102
}
330
47
100
AcDbScale
 70
     0
300
1:20
140
1.0
141
20.0
290
     0
  0
SCALE
  5
50
102
{ACAD_REACTORS
330
47
102
}
330
47
100
AcDbScale
 70
     0
300
1:30
140
1.0
141
30.0
290
     0
  0
SCALE
  5
51
102
{ACAD_REACTORS
330
47
102
}
330
47
100
AcDbScale
 70
     0
300
1:40
140
1.0
141
40.0
290
     0
  0
SCALE
  5
52
102
{ACAD_REACTORS
330
47
102
}
330
47
100
AcDbScale
 70
     0
300
1:50
140
1.0
141
50.0
290
     0
  0
SCALE
  5
53
102
{ACAD_REACTORS
330
47
102
}
330
47
100
AcDbScale
 70
     0
300
1:100
140
1.0
141
100.0
290
     0
  0
SCALE
  5
54
102
{ACAD_REACTORS
330
47
102
}
330
47
100
AcDbScale
 70
     0
300
2:1
140
2.0
141
1.0
290
     0
  0
SCALE
  5
55
102
{ACAD_REACTORS
330
47
102
}
330
47
100
AcDbScale
 70
     0
300
4:1
140
4.0
141
1.0
290
     0
  0
SCALE
  5
56
102
{ACAD_REACTORS
330
47
102
}
330
47
100
AcDbScale
 70
     0
300
8:1
140
8.0
141
1.0
290
     0
  0
SCALE
  5
57
102
{ACAD_REACTORS
330
47
102
}
330
47
100
AcDbScale
 70
     0
300
10:1
140
10.0
141
1.0
290
     0
  0
SCALE
  5
58
102
{ACAD_REACTORS
330
47
102
}
330
47
100
AcDbScale
 70
     0
300
100:1
140
100.0
141
1.0
290
     0
  0
SCALE
  5
59
102
{ACAD_REACTORS
330
47
102
}
330
47
100
AcDbScale
 70
     0
300
1/128" = 1'-0"
140
0.0078125
141
12.0
290
     0
  0
SCALE
  5
5A
102
{ACAD_REACTORS
330
47
102
}
330
47
100
AcDbScale
 70
     0
300
1/64" = 1'-0"
140
0.015625
141
12.0
290
     0
  0
SCALE
  5
5B
102
{ACAD_REACTORS
330
47
102
}
330
47
100
AcDbScale
 70
     0
300
1/32" = 1'-0"
140
0.03125
141
12.0
290
     0
  0
SCALE
  5
5C
102
{ACAD_REACTORS
330
47
102
}
330
47
100
AcDbScale
 70
     0
300
1/16" = 1'-0"
140
0.0625
141
12.0
290
     0
  0
SCALE
  5
5D
102
{ACAD_REACTORS
330
47
102
}
330
47
100
AcDbScale
 70
     0
300
3/32" = 1'-0"
140
0.09375
141
12.0
290
     0
  0
SCALE
  5
5E
102
{ACAD_REACTORS
330
47
102
}
330
47
100
AcDbScale
 70
     0
300
1/8" = 1'-0"
140
0.125
141
12.0
290
     0
  0
SCALE
  5
5F
102
{ACAD_REACTORS
330
47
102
}
330
47
100
AcDbScale
 70
     0
300
3/16" = 1'-0"
140
0.1875
141
12.0
290
     0
  0
SCALE
  5
60
102
{ACAD_REACTORS
330
47
102
}
330
47
100
AcDbScale
 70
     0
300
1/4" = 1'-0"
140
0.25
141
12.0
290
     0
  0
SCALE
  5
61
102
{ACAD_REACTORS
330
47
102
}
330
47
100
AcDbScale
 70
     0
300
3/8" = 1'-0"
140
0.375
141
12.0
290
     0
  0
SCALE
  5
62
102
{ACAD_REACTORS
330
47
102
}
330
47
100
AcDbScale
 70
     0
300
1/2" = 1'-0"
140
0.5
141
12.0
290
     0
  0
SCALE
  5
63
102
{ACAD_REACTORS
330
47
102
}
330
47
100
AcDbScale
 70
     0
300
3/4" = 1'-0"
140
0.75
141
12.0
290
     0
  0
SCALE
  5
64
102
{ACAD_REACTORS
330
47
102
}
330
47
100
AcDbScale
 70
     0
300
1" = 1'-0"
140
1.0
141
12.0
290
     0
  0
SCALE
  5
65
102
{ACAD_REACTORS
330
47
102
}
330
47
100
AcDbScale
 70
     0
300
1-1/2" = 1'-0"
140
1.5
141
12.0
290
     0
  0
SCALE
  5
66
102
{ACAD_REACTORS
330
47
102
}
330
47
100
AcDbScale
 70
     0
300
3" = 1'-0"
140
3.0
141
12.0
290
     0
  0
SCALE
  5
67
102
{ACAD_REACTORS
330
47
102
}
330
47
100
AcDbScale
 70
     0
300
6" = 1'-0"
140
6.0
141
12.0
290
     0
  0
SCALE
  5
68
102
{ACAD_REACTORS
330
47
102
}
330
47
100
AcDbScale
 70
     0
300
1'-0" = 1'-0"
140
12.0
141
12.0
290
     0
  0
TABLESTYLE
  5
659
102
{ACAD_XDICTIONARY
360
692
102
}
102
{ACAD_REACTORS
330
658
102
}
330
658
100
AcDbTableStyle
  3
Standard
 70
     0
 71
     0
 40
0.06
 41
0.06
280
     0
281
     0
  7
Standard
140
0.18
170
     2
 62
     0
 63
     7
283
     0
274
    -2
284
     1
 64
     0
275
    -2
285
     1
 65
     0
276
    -2
286
     1
 66
     0
277
    -2
287
     1
 67
     0
278
    -2
288
     1
 68
     0
279
    -2
289
     1
 69
     0
  7
Standard
140
0.25
170
     5
 62
     0
 63
     7
283
     0
274
    -2
284
     1
 64
     0
275
    -2
285
     1
 65
     0
276
    -2
286
     1
 66
     0
277
    -2
287
     1
 67
     0
278
    -2
288
     1
 68
     0
279
    -2
289
     1
 69
     0
  7
Standard
140
0.18
170
     5
 62
     0
 63
     7
283
     0
274
    -2
284
     1
 64
     0
275
    -2
285
     1
 65
     0
276
    -2
286
     1
 66
     0
277
    -2
287
     1
 67
     0
278
    -2
288
     1
 68
     0
279
    -2
289
     1
 69
     0
  0
VISUALSTYLE
  5
644
102
{ACAD_XDICTIONARY
360
6EA
102
}
102
{ACAD_REACTORS
330
63E
102
}
330
63E
100
AcDbVisualStyle
  2

 70
     4
 71
     0
 72
     2
 73
     0
 90
        0
 40
-0.6
 41
-30.0
 62
     5
 63
     7
421
 16777215
 74
     1
 91
        4
 64
     7
 65
   257
 75
     1
175
     1
 42
1.0
 92
        0
 66
   257
 43
1.0
 76
     1
 77
     6
 78
     2
 67
     7
 79
     5
170
     0
171
     0
290
     0
174
     0
 93
        1
 44
0.0
173
     0
291
     0
 45
0.0
1001
ACAD
1000
AcDbSavedByObjectVersion
1070
     0
  0
VISUALSTYLE
  5
643
102
{ACAD_XDICTIONARY
360
6E8
102
}
102
{ACAD_REACTORS
330
63E
102
}
330
63E
100
AcDbVisualStyle
  2

 70
     7
 71
     1
 72
     0
 73
     1
 90
        0
 40
-0.6
 41
-30.0
 62
     5
 63
     7
421
 16777215
 74
     0
 91
        4
 64
     7
 65
   257
 75
     1
175
     1
 42
1.0
 92
        8
 66
     7
 43
1.0
 76
     1
 77
     6
 78
     2
 67
     7
 79
     5
170
     0
171
     0
290
     0
174
     0
 93
        1
 44
0.0
173
     0
291
     1
 45
0.0
1001
ACAD
1000
AcDbSavedByObjectVersion
1070
     0
  0
VISUALSTYLE
  5
64A
102
{ACAD_XDICTIONARY
360
6F6
102
}
102
{ACAD_REACTORS
330
63E
102
}
330
63E
100
AcDbVisualStyle
  2

 70
    12
 71
     2
 72
     2
 73
     0
 90
        0
 40
-0.6
 41
-30.0
 62
     5
 63
     7
421
 16777215
 74
     1
 91
        4
 64
     7
 65
   257
 75
     1
175
     1
 42
1.0
 92
        8
 66
     7
 43
1.0
 76
     1
 77
     6
 78
     2
 67
     7
 79
     5
170
     0
171
     0
290
     0
174
     0
 93
        1
 44
50.0
173
     0
291
     1
 45
0.0
1001
ACAD
1000
AcDbSavedByObjectVersion
1070
     0
  0
VISUALSTYLE
  5
64E
102
{ACAD_XDICTIONARY
360
6FE
102
}
102
{ACAD_REACTORS
330
63E
102
}
330
63E
100
AcDbVisualStyle
  2

 70
    16
 71
     2
 72
     2
 73
     3
 90
        0
 40
-0.6
 41
-30.0
 62
     5
 63
     8
421
  8421504
 74
     1
 91
        4
 64
     7
 65
   257
 75
     1
175
     1
 42
1.0
 92
        8
 66
     8
424
  8421504
 43
1.0
 76
     1
 77
     6
 78
     2
 67
     7
 79
     5
170
     0
171
     0
290
     0
174
     0
 93
        1
 44
0.0
173
     0
291
     1
 45
0.0
1001
ACAD
1000
AcDbSavedByObjectVersion
1070
     0
  0
VISUALSTYLE
  5
647
102
{ACAD_XDICTIONARY
360
6F0
102
}
102
{ACAD_REACTORS
330
63E
102
}
330
63E
100
AcDbVisualStyle
  2

 70
     9
 71
     3
 72
     2
 73
     0
 90
        0
 40
-0.6
 41
-30.0
 62
     5
 63
     7
421
 16777215
 74
     2
 91
        2
 64
     7
 65
   257
 75
     1
175
     1
 42
179.0
 92
        8
 66
     7
 43
1.0
 76
     1
 77
     6
 78
     2
 67
     7
 79
     3
170
     0
171
     0
290
     0
174
     0
 93
        1
 44
0.0
173
     0
291
     0
 45
0.0
1001
ACAD
1000
AcDbSavedByObjectVersion
1070
     0
  0
VISUALSTYLE
  5
649
102
{ACAD_XDICTIONARY
360
6F4
102
}
102
{ACAD_REACTORS
330
63E
102
}
330
63E
100
AcDbVisualStyle
  2

 70
    11
 71
     2
 72
     2
 73
     0
 90
        0
 40
-0.6
 41
-30.0
 62
     5
 63
     7
421
 16777215
 74
     1
 91
        4
 64
     7
 65
   257
 75
     1
175
     1
 42
1.0
 92
        8
 66
     7
 43
1.0
 76
     1
 77
     6
 78
     2
 67
     7
 79
     5
170
     0
171
     0
290
     0
174
     0
 93
        1
 44
-50.0
173
     0
291
     1
 45
0.0
1001
ACAD
1000
AcDbSavedByObjectVersion
1070
     0
  0
VISUALSTYLE
  5
656
102
{ACAD_XDICTIONARY
360
70E
102
}
102
{ACAD_REACTORS
330
63E
102
}
330
63E
100
AcDbVisualStyle
  2

 70
    22
 71
     2
 72
     2
 73
     0
 90
        0
 40
-0.6
 41
-30.0
 62
     5
 63
     7
421
 16777215
 74
     1
 91
        4
 64
     7
 65
   257
 75
     1
175
     1
 42
1.0
 92
        8
 66
     7
 43
1.0
 76
     1
 77
     6
 78
     2
 67
     7
 79
     5
170
     0
171
     0
290
     0
174
     0
 93
        1
 44
0.0
173
     0
291
     1
 45
0.0
1001
ACAD
1000
AcDbSavedByObjectVersion
1070
     0
  0
VISUALSTYLE
  5
64D
102
{ACAD_XDICTIONARY
360
6FC
102
}
102
{ACAD_REACTORS
330
63E
102
}
330
63E
100
AcDbVisualStyle
  2

 70
    15
 71
     2
 72
     2
 73
     0
 90
        0
 40
-0.6
 41
-30.0
 62
     5
 63
     7
421
 16777215
 74
     1
 91
        4
 64
     7
 65
   257
 75
     1
175
     1
 42
1.0
 92
        8
 66
     7
 43
1.0
 76
     1
 77
     6
 78
     2
 67
     7
 79
     5
170
     0
171
     0
290
     0
174
     0
 93
        1
 44
0.0
173
     0
291
     1
 45
0.0
1001
ACAD
1000
AcDbSavedByObjectVersion
1070
     0
  0
VISUALSTYLE
  5
63F
102
{ACAD_XDICTIONARY
360
6E0
102
}
102
{ACAD_REACTORS
330
63E
102
}
330
63E
100
AcDbVisualStyle
  2

 70
     0
 71
     2
 72
     1
 73
     1
 90
        2
 40
-0.6
 41
30.0
 62
     5
 63
     7
421
 16777215
 74
     0
 91
        0
 64
     7
 65
   257
 75
     1
175
     1
 42
1.0
 92
        8
 66
     7
 43
1.0
 76
     1
 77
     6
 78
     2
 67
     7
 79
     5
170
     0
171
     0
290
     0
174
     0
 93
       13
 44
0.0
173
     0
291
     1
 45
0.0
1001
ACAD
1000
AcDbSavedByObjectVersion
1070
     0
  0
VISUALSTYLE
  5
640
102
{ACAD_XDICTIONARY
360
6E2
102
}
102
{ACAD_REACTORS
330
63E
102
}
330
63E
100
AcDbVisualStyle
  2

 70
     1
 71
     2
 72
     1
 73
     1
 90
        2
 40
-0.6
 41
30.0
 62
     5
 63
     7
421
 16777215
 74
     1
 91
        0
 64
     7
 65
   257
 75
     1
175
     1
 42
1.0
 92
        0
 66
   257
 43
1.0
 76
     1
 77
     6
 78
     2
 67
     7
 79
     5
170
     0
171
     0
290
     0
174
     0
 93
       13
 44
0.0
173
     0
291
     1
 45
0.0
1001
ACAD
1000
AcDbSavedByObjectVersion
1070
     0
  0
VISUALSTYLE
  5
641
102
{ACAD_XDICTIONARY
360
6E4
102
}
102
{ACAD_REACTORS
330
63E
102
}
330
63E
100
AcDbVisualStyle
  2

 70
     2
 71
     2
 72
     2
 73
     1
 90
        2
 40
-0.6
 41
30.0
 62
     5
 63
     7
421
 16777215
 74
     0
 91
        0
 64
     7
 65
   257
 75
     1
175
     1
 42
1.0
 92
        0
 66
     7
 43
1.0
 76
     1
 77
     6
 78
     2
 67
     7
 79
     5
170
     0
171
     0
290
     0
174
     0
 93
       13
 44
0.0
173
     0
291
     1
 45
0.0
1001
ACAD
1000
AcDbSavedByObjectVersion
1070
     0
  0
VISUALSTYLE
  5
642
102
{ACAD_XDICTIONARY
360
6E6
102
}
102
{ACAD_REACTORS
330
63E
102
}
330
63E
100
AcDbVisualStyle
  2

 70
     3
 71
     2
 72
     2
 73
     1
 90
        2
 40
-0.6
 41
30.0
 62
     5
 63
     7
421
 16777215
 74
     1
 91
        0
 64
     7
 65
   257
 75
     1
175
     1
 42
1.0
 92
        0
 66
   257
 43
1.0
 76
     1
 77
     6
 78
     2
 67
     7
 79
     5
170
     0
171
     0
290
     0
174
     0
 93
       13
 44
0.0
173
     0
291
     1
 45
0.0
1001
ACAD
1000
AcDbSavedByObjectVersion
1070
     0
  0
VISUALSTYLE
  5
646
102
{ACAD_XDICTIONARY
360
6EE
102
}
102
{ACAD_REACTORS
330
63E
102
}
330
63E
100
AcDbVisualStyle
  2

 70
     6
 71
     1
 72
     2
 73
     2
 90
        0
 40
-0.6
 41
-30.0
 62
     5
 63
     7
421
 16777215
 74
     2
 91
        2
 64
     7
 65
   257
 75
     2
175
     1
 42
40.0
 92
        0
 66
   257
 43
1.0
 76
     1
 77
     6
 78
     2
 67
     7
 79
     3
170
     0
171
     0
290
     0
174
     0
 93
        1
 44
0.0
173
     0
291
     0
 45
0.0
1001
ACAD
1000
AcDbSavedByObjectVersion
1070
     0
  0
VISUALSTYLE
  5
654
102
{ACAD_XDICTIONARY
360
70A
102
}
102
{ACAD_REACTORS
330
63E
102
}
330
63E
100
AcDbVisualStyle
  2

 70
    20
 71
     2
 72
     2
 73
     0
 90
        0
 40
-0.6
 41
-30.0
 62
     5
 63
     7
421
 16777215
 74
     1
 91
        4
 64
     7
 65
   257
 75
     1
175
     1
 42
1.0
 92
       10
 66
     7
 43
1.0
 76
     1
 77
     6
 78
     2
 67
     7
 79
     5
170
     0
171
     0
290
     0
174
     0
 93
        1
 44
0.0
173
     0
291
     1
 45
0.0
1001
ACAD
1000
AcDbSavedByObjectVersion
1070
     0
  0
VISUALSTYLE
  5
64C
102
{ACAD_XDICTIONARY
360
6FA
102
}
102
{ACAD_REACTORS
330
63E
102
}
330
63E
100
AcDbVisualStyle
  2

 70
    14
 71
     2
 72
     2
 73
     0
 90
        0
 40
-0.6
 41
-30.0
 62
     5
 63
     7
421
 16777215
 74
     1
 91
        4
 64
     7
 65
   257
 75
     7
175
     7
 42
1.0
 92
        8
 66
     7
 43
1.0
 76
     1
 77
     6
 78
     2
 67
     7
 79
     5
170
     0
171
     0
290
     0
174
     0
 93
        1
 44
0.0
173
     0
291
     1
 45
0.0
1001
ACAD
1000
AcDbSavedByObjectVersion
1070
     0
  0
VISUALSTYLE
  5
655
102
{ACAD_XDICTIONARY
360
70C
102
}
102
{ACAD_REACTORS
330
63E
102
}
330
63E
100
AcDbVisualStyle
  2

 70
    21
 71
     2
 72
     2
 73
     0
 90
        0
 40
-0.6
 41
-30.0
 62
     5
 63
     7
421
 16777215
 74
     1
 91
        4
 64
     7
 65
   257
 75
     1
175
     1
 42
1.0
 92
        9
 66
     7
 43
1.0
 76
     1
 77
     6
 78
     2
 67
     7
 79
     5
170
     0
171
     0
290
     0
174
     0
 93
        1
 44
0.0
173
     0
291
     1
 45
0.0
1001
ACAD
1000
AcDbSavedByObjectVersion
1070
     0
  0
VISUALSTYLE
  5
648
102
{ACAD_XDICTIONARY
360
6F2
102
}
102
{ACAD_REACTORS
330
63E
102
}
330
63E
100
AcDbVisualStyle
  2

 70
     8
 71
     2
 72
     3
 73
     0
 90
        2
 40
-0.6
 41
30.0
 62
     5
 63
     7
421
 16777215
 74
     0
 91
        0
 64
     7
 65
   257
 75
     1
175
     1
 42
1.0
 92
        8
 66
   257
 43
1.0
 76
     1
 77
     6
 78
     2
 67
     7
 79
     3
170
     0
171
     0
290
     0
174
     0
 93
       13
 44
0.0
173
     0
291
     0
 45
0.0
1001
ACAD
1000
AcDbSavedByObjectVersion
1070
     0
  0
VISUALSTYLE
  5
653
102
{ACAD_XDICTIONARY
360
708
102
}
102
{ACAD_REACTORS
330
63E
102
}
330
63E
100
AcDbVisualStyle
  2

 70
    27
 71
     2
 72
     2
 73
     1
 90
        2
 40
-0.6
 41
30.0
 62
     5
 63
     7
421
 16777215
 74
     0
 91
        4
 64
     7
 65
   257
 75
     1
175
     1
 42
1.0
 92
        8
 66
   257
 43
1.0
 76
     1
 77
     6
 78
     2
 67
     8
425
  7895160
 79
     3
170
     0
171
     0
290
     0
174
     0
 93
        5
 44
0.0
173
     0
291
     0
 45
0.0
1001
ACAD
1000
AcDbSavedByObjectVersion
1070
     0
  0
VISUALSTYLE
  5
652
102
{ACAD_XDICTIONARY
360
706
102
}
102
{ACAD_REACTORS
330
63E
102
}
330
63E
100
AcDbVisualStyle
  2

 70
    26
 71
     2
 72
     2
 73
     1
 90
        2
 40
-0.6
 41
30.0
 62
     5
 63
     7
421
 16777215
 74
     1
 91
       10
 64
     7
 65
   257
 75
     2
175
     1
 42
1.0
 92
        8
 66
   257
 43
1.0
 76
     1
 77
     6
 78
     2
 67
     7
 79
     3
170
     0
171
     0
290
     0
174
     0
 93
        5
 44
0.0
173
     0
291
     0
 45
0.0
1001
ACAD
1000
AcDbSavedByObjectVersion
1070
     0
  0
VISUALSTYLE
  5
64F
102
{ACAD_XDICTIONARY
360
700
102
}
102
{ACAD_REACTORS
330
63E
102
}
330
63E
100
AcDbVisualStyle
  2

 70
    23
 71
     2
 72
     2
 73
     3
 90
        0
 40
-0.6
 41
-30.0
 62
     5
 63
     7
421
 16777215
 74
     2
 91
        2
 64
     7
 65
     7
 75
     1
175
     1
 42
40.0
 92
        8
 66
     7
 43
1.0
 76
     1
 77
     6
 78
     2
 67
     7
 79
     3
170
     0
171
     0
290
     0
174
     0
 93
        1
 44
0.0
173
     0
291
     0
 45
0.0
1001
ACAD
1000
AcDbSavedByObjectVersion
1070
     0
  0
VISUALSTYLE
  5
650
102
{ACAD_XDICTIONARY
360
702
102
}
102
{ACAD_REACTORS
330
63E
102
}
330
63E
100
AcDbVisualStyle
  2

 70
    24
 71
     1
 72
     2
 73
     2
 90
        0
 40
-0.6
 41
-30.0
 62
     5
 63
     7
421
 16777215
 74
     2
 91
        2
 64
     7
 65
     7
 75
     1
175
     1
 42
40.0
 92
       11
 66
     7
 43
1.0
 76
     1
 77
     6
 78
     2
 67
     7
 79
     6
170
     0
171
     0
290
     0
174
     0
 93
        1
 44
0.0
173
     0
291
     0
 45
0.0
1001
ACAD
1000
AcDbSavedByObjectVersion
1070
     0
  0
VISUALSTYLE
  5
64B
102
{ACAD_XDICTIONARY
360
6F8
102
}
102
{ACAD_REACTORS
330
63E
102
}
330
63E
100
AcDbVisualStyle
  2

 70
    13
 71
     2
 72
     2
 73
     0
 90
        0
 40
-0.6
 41
-30.0
 62
     5
 63
     7
421
 16777215
 74
     1
 91
        4
 64
     7
 65
   257
 75
     1
175
     1
 42
1.0
 92
       12
 66
     7
 43
1.0
 76
     1
 77
     6
 78
     2
 67
     7
 79
     5
170
     0
171
     0
290
     0
174
     0
 93
        1
 44
0.0
173
     0
291
     1
 45
0.0
1001
ACAD
1000
AcDbSavedByObjectVersion
1070
     0
  0
VISUALSTYLE
  5
645
102
{ACAD_XDICTIONARY
360
6EC
102
}
102
{ACAD_REACTORS
330
63E
102
}
330
63E
100
AcDbVisualStyle
  2

 70
     5
 71
     0
 72
     2
 73
     0
 90
        0
 40
-0.6
 41
-30.0
 62
     5
 63
     7
421
 16777215
 74
     1
 91
        4
 64
     7
 65
   257
 75
     1
175
     1
 42
1.0
 92
        0
 66
   257
 43
1.0
 76
     1
 77
     6
 78
     2
 67
     7
 79
     3
170
     0
171
     0
290
     0
174
     0
 93
        1
 44
0.0
173
     0
291
     0
 45
0.0
1001
ACAD
1000
AcDbSavedByObjectVersion
1070
     0
  0
VISUALSTYLE
  5
651
102
{ACAD_XDICTIONARY
360
704
102
}
102
{ACAD_REACTORS
330
63E
102
}
330
63E
100
AcDbVisualStyle
  2

 70
    25
 71
     2
 72
     2
 73
     1
 90
        1
 40
0.5
 41
-30.0
 62
     5
 63
     7
421
 16777215
 74
     1
 91
        0
 64
     7
 65
   257
 75
     1
175
     1
 42
1.0
 92
        8
 66
     7
 43
1.0
 76
     1
 77
     6
 78
     2
 67
     7
 79
     3
170
     0
171
     0
290
     0
174
     0
 93
       13
 44
0.0
173
     0
291
     0
 45
0.0
1001
ACAD
1000
AcDbSavedByObjectVersion
1070
     0
  0
DICTIONARYVAR
  5
690
102
{ACAD_REACTORS
330
68D
102
}
330
68D
100
DictionaryVariables
280
     0
  1
1:1
  0
DICTIONARYVAR
  5
68F
102
{ACAD_REACTORS
330
68D
102
}
330
68D
100
DictionaryVariables
280
     0
  1
STANDARD
  0
DICTIONARYVAR
  5
68E
102
{ACAD_REACTORS
330
68D
102
}
330
68D
100
DictionaryVariables
280
     0
  1
STANDARD
  0
DICTIONARYVAR
  5
6DB
102
{ACAD_REACTORS
330
68D
102
}
330
68D
100
DictionaryVariables
280
     0
  1
2
  0
DICTIONARY
  5
680
330
22
100
AcDbDictionary
280
     1
281
     1
  3
ADSK_XREC_LAYOUTTHUMBNAIL
360
681
  0
DICTIONARY
  5
62F
330
62E
100
AcDbDictionary
280
     1
281
     1
  3
ACAD_XREC_ROUNDTRIP
360
698
  3
BUMPTILE
360
631
  3
DIFFUSETILE
360
630
  3
OPACITYTILE
360
634
  3
REFLECTIONTILE
360
633
  3
REFRACTIONTILE
360
635
  3
SPECULARTILE
360
632
  0
DICTIONARY
  5
627
330
626
100
AcDbDictionary
280
     1
281
     1
  3
ACAD_XREC_ROUNDTRIP
360
697
  3
BUMPTILE
360
629
  3
DIFFUSETILE
360
628
  3
OPACITYTILE
360
62C
  3
REFLECTIONTILE
360
62B
  3
REFRACTIONTILE
360
62D
  3
SPECULARTILE
360
62A
  0
DICTIONARY
  5
637
330
636
100
AcDbDictionary
280
     1
281
     1
  3
ACAD_XREC_ROUNDTRIP
360
699
  3
BUMPTILE
360
639
  3
DIFFUSETILE
360
638
  3
OPACITYTILE
360
63C
  3
REFLECTIONTILE
360
63B
  3
REFRACTIONTILE
360
63D
  3
SPECULARTILE
360
63A
  0
DICTIONARY
  5
6DD
330
65B
100
AcDbDictionary
280
     1
281
     1
  3
ACAD_XREC_ROUNDTRIP
360
6DE
  0
DICTIONARY
  5
692
330
659
100
AcDbDictionary
280
     1
281
     1
  3
ACAD_ROUNDTRIP_2008_TABLESTYLE_CELLSTYLEMAP
360
6DC
  3
ACAD_XREC_ROUNDTRIP
360
710
  0
DICTIONARY
  5
6EA
330
644
100
AcDbDictionary
280
     1
281
     1
  3
ACAD_XREC_ROUNDTRIP
360
6EB
  0
DICTIONARY
  5
6E8
330
643
100
AcDbDictionary
280
     1
281
     1
  3
ACAD_XREC_ROUNDTRIP
360
6E9
  0
DICTIONARY
  5
6F6
330
64A
100
AcDbDictionary
280
     1
281
     1
  3
ACAD_XREC_ROUNDTRIP
360
6F7
  0
DICTIONARY
  5
6FE
330
64E
100
AcDbDictionary
280
     1
281
     1
  3
ACAD_XREC_ROUNDTRIP
360
6FF
  0
DICTIONARY
  5
6F0
330
647
100
AcDbDictionary
280
     1
281
     1
  3
ACAD_XREC_ROUNDTRIP
360
6F1
  0
DICTIONARY
  5
6F4
330
649
100
AcDbDictionary
280
     1
281
     1
  3
ACAD_XREC_ROUNDTRIP
360
6F5
  0
DICTIONARY
  5
70E
330
656
100
AcDbDictionary
280
     1
281
     1
  3
ACAD_XREC_ROUNDTRIP
360
70F
  0
DICTIONARY
  5
6FC
330
64D
100
AcDbDictionary
280
     1
281
     1
  3
ACAD_XREC_ROUNDTRIP
360
6FD
  0
DICTIONARY
  5
6E0
330
63F
100
AcDbDictionary
280
     1
281
     1
  3
ACAD_XREC_ROUNDTRIP
360
6E1
  0
DICTIONARY
  5
6E2
330
640
100
AcDbDictionary
280
     1
281
     1
  3
ACAD_XREC_ROUNDTRIP
360
6E3
  0
DICTIONARY
  5
6E4
330
641
100
AcDbDictionary
280
     1
281
     1
  3
ACAD_XREC_ROUNDTRIP
360
6E5
  0
DICTIONARY
  5
6E6
330
642
100
AcDbDictionary
280
     1
281
     1
  3
ACAD_XREC_ROUNDTRIP
360
6E7
  0
DICTIONARY
  5
6EE
330
646
100
AcDbDictionary
280
     1
281
     1
  3
ACAD_XREC_ROUNDTRIP
360
6EF
  0
DICTIONARY
  5
70A
330
654
100
AcDbDictionary
280
     1
281
     1
  3
ACAD_XREC_ROUNDTRIP
360
70B
  0
DICTIONARY
  5
6FA
330
64C
100
AcDbDictionary
280
     1
281
     1
  3
ACAD_XREC_ROUNDTRIP
360
6FB
  0
DICTIONARY
  5
70C
330
655
100
AcDbDictionary
280
     1
281
     1
  3
ACAD_XREC_ROUNDTRIP
360
70D
  0
DICTIONARY
  5
6F2
330
648
100
AcDbDictionary
280
     1
281
     1
  3
ACAD_XREC_ROUNDTRIP
360
6F3
  0
DICTIONARY
  5
708
330
653
100
AcDbDictionary
280
     1
281
     1
  3
ACAD_XREC_ROUNDTRIP
360
709
  0
DICTIONARY
  5
706
330
652
100
AcDbDictionary
280
     1
281
     1
  3
ACAD_XREC_ROUNDTRIP
360
707
  0
DICTIONARY
  5
700
330
64F
100
AcDbDictionary
280
     1
281
     1
  3
ACAD_XREC_ROUNDTRIP
360
701
  0
DICTIONARY
  5
702
330
650
100
AcDbDictionary
280
     1
281
     1
  3
ACAD_XREC_ROUNDTRIP
360
703
  0
DICTIONARY
  5
6F8
330
64B
100
AcDbDictionary
280
     1
281
     1
  3
ACAD_XREC_ROUNDTRIP
360
6F9
  0
DICTIONARY
  5
6EC
330
645
100
AcDbDictionary
280
     1
281
     1
  3
ACAD_XREC_ROUNDTRIP
360
6ED
  0
DICTIONARY
  5
704
330
651
100
AcDbDictionary
280
     1
281
     1
  3
ACAD_XREC_ROUNDTRIP
360
705
  0
XRECORD
  5
681
102
{ACAD_REACTORS
330
680
102
}
330
680
100
AcDbXrecord
280
     1
310
28000000000100006C0000000100080000000000006C0000000000000000000000010000000000003028210000000000C8C8C8000000000000000000000000000000000000000000000000000000000000000000330000006600000099000000CC000000FF00000000330000333300006633000099330000CC330000FF3300
310
0000660000336600006666000099660000CC660000FF66000000990000339900006699000099990000CC990000FF99000000CC000033CC000066CC000099CC0000CCCC0000FFCC000000FF000033FF000066FF000099FF0000CCFF0000FFFF000000003300330033006600330099003300CC003300FF003300003333003333
310
33006633330099333300CC333300FF33330000663300336633006666330099663300CC663300FF66330000993300339933006699330099993300CC993300FF99330000CC330033CC330066CC330099CC3300CCCC3300FFCC330000FF330033FF330066FF330099FF3300CCFF3300FFFF330000006600330066006600660099
310
006600CC006600FF00660000336600333366006633660099336600CC336600FF33660000666600336666006666660099666600CC666600FF66660000996600339966006699660099996600CC996600FF99660000CC660033CC660066CC660099CC6600CCCC6600FFCC660000FF660033FF660066FF660099FF6600CCFF6600
310
FFFF660000009900330099006600990099009900CC009900FF00990000339900333399006633990099339900CC339900FF33990000669900336699006666990099669900CC669900FF66990000999900339999006699990099999900CC999900FF99990000CC990033CC990066CC990099CC9900CCCC9900FFCC990000FF99
310
0033FF990066FF990099FF9900CCFF9900FFFF99000000CC003300CC006600CC009900CC00CC00CC00FF00CC000033CC003333CC006633CC009933CC00CC33CC00FF33CC000066CC003366CC006666CC009966CC00CC66CC00FF66CC000099CC003399CC006699CC009999CC00CC99CC00FF99CC0000CCCC0033CCCC0066CC
310
CC0099CCCC00CCCCCC00FFCCCC0000FFCC0033FFCC0066FFCC0099FFCC00CCFFCC00FFFFCC000000FF003300FF006600FF009900FF00CC00FF00FF00FF000033FF003333FF006633FF009933FF00CC33FF00FF33FF000066FF003366FF006666FF009966FF00CC66FF00FF66FF000099FF003399FF006699FF009999FF00CC
310
99FF00FF99FF0000CCFF0033CCFF0066CCFF0099CCFF00CCCCFF00FFCCFF0000FFFF0033FFFF0066FFFF0099FFFF00CCFFFF00FFFFFF00000000000D0D0D001A1A1A00282828003535350043434300505050005D5D5D006B6B6B00787878008686860093939300A1A1A100AEAEAE00BBBBBB00C9C9C900D6D6D600E4E4E400
310
F1F1F100FFFFFF000000000000000000000000000000000000000000000000000000000000000000000000000000000000000000000000000000000000000000000000000000000000000000000000000000000000000000000000000000000000000000000000000000000000000000000000000000000000000000000000
310
00000000000000000000000000000000000000F5F5F50000000000000000000000000000000000000000000000000000000000000000000000000000000000F5F5F5F5F5F5F5F5F5F5F5F5F5F5F5F5F5F5F5F5F5F5F5F5F5F5F5F5F5F5F5F5F5F5F5F5F5F5F5F5F50000000000000000000000000000000000000000000000
310
00000000000000000000000000000000000000000000000000000000000000000000000000000000000000000000000000000000000000000000000000000000000000000000000000000000000000000000000000000000000000000000000000000000000000000000000000000000000000000000000000000000000000
310
000000000000000000000000000000000000000000F500F500000000000000000000000000000000000000000000000000000000000000000000000000000000F5F5F5F5F5F5F5F5F5F5F5F5F5F5F5F5F5F5F5F5F5F5F5F5F5F5F5F5F5F5F5F5F5F5F5F5F5F5F5F5F5F5F50000000000000000000000000000000000000000
310
00000000000000000000000000000000000000000000000000000000000000000000000000000000000000000000000000000000000000000000000000000000000000000000000000000000000000000000000000000000000000000000000000000000000000000000000000000000000000000000000000000000000000
310
0000000000000000000000000000000000000000000000F5F5F500000000000000000000000000000000000000000000000000000000000000000000000000000000F500000000000000000000000000000000000000000000000000000000000000000000000000000000F5F5000000000000000000000000000000000000
310
00000000000000000000000000000000000000000000000000000000000000000000000000000000000000000000000000000000000000000000000000000000000000000000000000000000000000000000000000000000000000000000000000000000000000000000000000000000000000000000000000000000000000
310
000000000000000000000000000000000000000000000000F5F500F50000000000000000000000F5F5000000000000000000000000000000000000000000000000000000F5000000000000000000000000000000F5F5F5F5F5F5F5F5F5F5000000000000000000000000000000F5F500000000000000000000000000000000
310
00000000000000000000000000000000000000000000000000000000000000000000000000000000000000000000000000000000000000000000000000000000000000000000000000000000000000000000000000000000000000000000000000000000000000000000000000000000000000000000000000000000000000
310
0000000000000000000000000000000000000000000000000000F5F500F50000000000000000000000F5F5000000000000000000000000000000000000000000000000000000F50000000000000000000000000000F5F50000000000000000F5F50000000000000000000000000000F5F50000000000000000000000000000
310
00000000000000000000000000000000000000000000000000000000000000000000000000000000000000000000000000000000000000000000000000000000000000000000000000000000000000000000000000000000000000000000000000000000000000000000000000000000000000000000000000000000000000
310
00000000000000000000000000000000000000000000000000000000F5F500F50000000000000000000000F5F5000000000000000000000000000000000000000000000000000000F50000000000000000000000000000F500000000000000000000F50000000000000000000000000000F5F5000000000000000000000000
310
00000000000000000000000000000000000000000000000000000000000000000000000000000000000000000000000000000000000000000000000000000000000000000000000000000000000000000000000000000000000000000000000000000000000000000000000000000000000000000000000000000000000000
310
000000000000000000000000000000000000000000000000000000000000F5F500F50000000000000000000000F5F5000000000000000000000000000000000000000000000000000000F50000000000000000000000000000F500000000000000000000F50000000000000000000000000000F5F500000000000000000000
310
00000000000000000000000000000000000000000000000000000000000000000000000000000000000000000000000000000000000000000000000000000000000000000000000000000000000000000000000000000000000000000000000000000000000000000000000000000000000000000000000000000000000000
310
0000000000000000000000000000000000000000000000000000000000000000F5F500F50000000000000000000000F5F5000000000000000000000000000000000000000000000000000000F50000000000000000000000000000F500000000000000000000F50000000000000000000000000000F5F50000000000000000
310
00000000000000000000000000000000000000000000000000000000000000000000000000000000000000000000000000000000000000000000000000000000000000000000000000000000000000000000000000000000000000000000000000000000000000000000000000000000000000000000000000000000000000
310
00000000000000000000000000000000000000000000000000000000000000000000F5F500F500000000000000000000F5F5F5000000000000000000000000000000000000000000000000000000F50000000000000000000000000000F500000000000000000000F50000000000000000000000000000F5F5000000000000
310
00000000000000000000000000000000000000000000000000000000000000000000000000000000000000000000000000000000000000000000000000000000000000000000000000000000000000000000000000000000000000000000000000000000000000000000000000000000000000000000000000000000000000
310
000000000000000000000000000000000000000000000000000000000000000000000000F5F500F500000000000000000000F5F5F5000000000000000000000000000000000000000000000000000000F50000000000000000000000000000F500000000000000000000F50000000000000000000000000000F5F500000000
310
00000000000000000000000000000000000000000000000000000000000000000000000000000000000000000000000000000000000000000000000000000000000000000000000000000000000000000000000000000000000000000000000000000000000000000000000000000000000000000000000000000000000000
310
0000000000000000000000000000000000000000000000000000000000000000000000000000F5F500F500000000000000000000F5F5F5000000000000000000000000000000000000000000000000000000F50000000000000000000000000000F500000000000000000000F50000000000000000000000000000F5F50000
310
00000000000000000000000000000000000000000000000000000000000000000000000000000000000000000000000000000000000000000000000000000000000000000000000000000000000000000000000000000000000000000000000000000000000000000000000000000000000000000000000000000000000000
310
00000000000000000000000000000000000000000000000000000000000000000000000000000000F5F500F500000000000000000000F5F5F5000000000000000000000000000000000000000000000000000000F50000000000000000000000000000F500000000000000000000F50000000000000000000000000000F5F5
310
00000000000000000000000000000000000000000000000000000000000000000000000000000000000000000000000000000000000000000000000000000000000000000000000000000000000000000000000000000000000000000000000000000000000000000000000000000000000000000000000000000000000000
310
000000000000000000000000000000000000000000000000000000000000000000000000F5F5F5F5F5F5F5F500F500000000000000000000F5F5F5000000000000000000000000000000000000000000000000000000F50000000000000000000000000000F500000000000000000000F50000000000000000000000000000
310
F5F50000000000000000000000000000000000000000000000000000000000000000000000000000000000000000000000000000000000000000000000000000000000000000000000000000000000000000000000000000000000000000000000000000000000000000000000000000000000000000000000000000000000
310
0000000000000000000000000000000000000000000000000000000000000000000000000000F5F5F5F5F5F5F5F500F500000000000000000000F5F5F5000000000000000000000000000000000000000000000000000000F50000000000000000000000000000F500000000000000000000F5000000000000000000000000
310
0000F5F5000000000000000000000000000000000000000000000000000000000000000000000000000000000000000000000000000000000000000000000000000000000000000000000000000000000000000000000000000000000000000000000000000000000000000000000000000000000000000000000000000000
310
00000000000000000000000000000000000000000000000000000000000000000000000000000000000000F5F5F5F5F500F5000000000000000000F5F5F5F5000000000000000000000000000000000000000000000000000000F50000000000000000000000000000F500000000000000000000F500000000000000000000
310
00000000F5F500000000000000000000000000000000000000000000000000000000000000000000000000000000000000000000000000000000000000000000000000000000000000000000000000000000000000000000000000000000000000000000000000000000000000000000000000000000000000000000000000
310
000000000000000000000000000000000000000000000000000000000000000000000000000000000000000000F5F5F5F5F500F50000000000000000F5F500F5F5000000000000000000000000000000000000000000000000000000F50000000000000000000000000000F500000000000000000000F50000000000000000
310
000000000000F5F50000000000000000000000000000000000000000000000000000000000000000000000000000000000000000000000000000000000000000000000000000000000000000000000000000000000000000000000000000000000000000000000000000000000000000000000000000000000000000000000
310
00000000000000000000000000000000000000000000000000F5F5F5F5F5F5F5F5F5F5F5F5F5F5F5F5F5F5F5F5F5F5F5F5F5F5F500F5F5F5F5F5F5F5F5F5F50000F5F5000000000000000000000000000000000000000000000000000000F50000000000000000000000000000F50000F5F5F5F5F5F50000F5000000000000
310
0000000000000000F5F5000000000000000000000000000000000000000000000000000000000000000000000000000000000000000000000000000000000000000000000000000000000000000000000000000000000000000000000000000000000000000000000000000000000000000000000000000000000000000000
310
000000000000000000000000000000000000000000000000000000F5F5F5F5F5F5F5F5F5F5F5F5F5F5F5F5F5F5F5F5F5F5F5F5F5F5F500F5000000F5F5000000000000F5F5000000000000000000000000000000000000000000000000000000F50000000000000000000000000000F500F5F5F5000000F5F5F5F500000000
310
00000000000000000000F5F500000000000000000000000000000000000000000000000000000000000000000000000000000000000000000000000000000000000000000000000000000000000000000000000000000000000000000000000000000000000000000000000000000000000000000000000000000000000000
310
000000000000000000000000000000000000000000000000000000000000000000000000000000000000000000000000000000F5F5F5F5F500F5000000F5F5000000000000F5F5000000000000000000000000000000000000000000000000000000F50000000000000000000000000000F5F5F5000000000000F5F5F50000
310
000000000000000000000000F5F50000000000000000000000000000000000000000000000000000000000000000000000000000000000000000000000000000000000000000000000000000000000000000000000000000000000000000000000000000000000000000000000000000000000000000000000000000000000
310
0000000000000000000000000000000000000000000000000000000000000000000000000000000000000000000000000000000000F5F5F5F5F500F5000000F5F5000000000000F5F5000000000000000000000000000000000000000000000000000000F50000000000000000000000000000F5F50000F5F5F5F50000F5F5
310
F500000000000000000000000000F5F5000000000000000000000000000000000000000000000000000000000000000000000000000000000000000000000000000000000000000000000000000000000000000000000000000000000000000000000000000000000000000000000000000000000000000000000000000000
310
00000000000000000000000000000000000000000000000000000000000000000000000000000000000000000000000000000000000000F5F5F5F5F500F5000000F5F5000000000000F5F5000000000000000000000000000000000000000000000000000000F50000000000000000000000000000F5F50000F50000F5F500
310
00F5F500000000000000000000000000F5F500000000000000000000000000000000000000000000000000000000000000000000000000000000000000000000000000000000000000000000000000000000000000000000000000000000000000000000000000000000000000000000000000000000000000000000000000
310
000000000000000000000000000000000000000000000000000000000000000000000000000000000000000000000000000000000000000000F5F5F5F5F500F5000000F5F5000000000000F5F5000000000000000000000000000000000000000000000000000000F500000000000000000000000000F5F5F500F500000000
310
F50000F5F500000000000000000000000000F5F50000000000000000000000000000000000000000000000000000000000000000000000000000000000000000000000000000000000000000000000000000000000000000000000000000000000000000000000000000000000000000000000000000000000000000000000
310
0000000000000000000000000000000000000000000000000000000000000000000000000000000000000000000000000000000000000000000000F5F5F5F5F500F5000000F5F5000000000000F5F5000000000000000000000000000000000000000000000000000000F500000000000000000000000000F5F5F500F5F500
310
0000F50000F5F500000000000000000000000000F5F5000000000000000000000000000000000000000000000000000000000000000000000000000000000000000000000000000000000000000000000000000000000000000000000000000000000000000000000000000000000000000000000000000000000000000000
310
00000000000000000000000000000000000000000000000000000000000000000000000000000000000000000000000000000000000000000000000000F5F5F5F5F500F5000000F5F5000000000000F5F5000000000000000000000000000000000000000000000000000000F50000000000000000000000000000F5F50000
310
F5F5F5F5F500F5F5F500000000000000000000000000F5F500000000000000000000000000000000000000000000000000000000000000000000000000000000000000000000000000000000000000000000000000000000000000000000000000000000000000000000000000000000000000000000000000000000000000
310
000000000000000000000000000000000000000000000000000000000000000000000000000000000000000000000000000000000000000000000000000000F5F5F5F5F500F5000000F5F5000000000000F5F5000000000000000000000000000000000000000000000000000000F50000000000000000000000000000F5F5
310
F50000F5F5000000F5F50000000000000000000000000000F5F50000000000000000000000000000000000000000000000000000000000000000000000000000000000000000000000000000000000000000000000000000000000000000000000000000000000000000000000000000000000000000000000000000000000
310
00000000000000000000000000000000000000000000000000000000000000000000000000000000000000F5F5F5F5F5F5F5F5F5F5F5F5F5F5F5F5F5F5F5F5F5F5F5F5F5F5F500F5000000F5F5000000000000F5F5000000000000000000000000000000000000000000000000000000F50000000000000000000000000000
310
F5F5F5F50000000000F5F5F50000000000000000000000000000F5F5000000000000000000000000000000000000000000000000000000000000000000000000000000000000000000000000000000000000000000000000000000000000000000000000000000000000000000000000000000000000000000000000000000
310
000000000000000000000000000000000000000000000000000000000000000000000000000000000000000000F5F5F5F5F5F5F5F5F5F5F5F5F5F5F5F5F5F5F5F5F5F5F5F5F5F5F500F5000000F5F5000000000000F5F5000000000000000000000000000000000000000000000000000000F5000000000000000000000000
310
000000F5F5F5F5F5F5F5F5F5F5000000000000000000000000000000F5F500000000000000000000000000000000000000000000000000000000000000000000000000000000000000000000000000000000000000000000000000000000000000000000000000000000000000000000000000000000000000000000000000
310
000000000000000000000000000000000000000000000000000000000000000000000000000000000000000000000000000000000000000000000000000000000000000000F5F5F5F5F500F5F5F5F5F5F5F5F5F5F5F5F5F5F5000000000000000000000000000000000000000000000000000000F500000000000000000000
310
000000000000F5F5F5F5F5F5F5F500000000000000000000000000000000F5F50000000000000000000000000000000000000000000000000000000000000000000000000000000000000000000000000000000000000000000000000000000000000000000000000000000000000000000000000000000000000000000000
310
0000000000000000000000000000000000000000000000000000000000000000000000000000000000000000000000000000000000000000000000000000000000000000000000F5F500F5F500F500000000000000000000000000000000000000000000000000000000000000000000000000000000F50000000000000000
310
0000000000000000000000000000000000000000000000000000000000000000F5F5000000000000000000000000000000000000000000000000000000000000000000000000000000000000000000000000000000000000000000000000000000000000000000000000000000000000000000000000000000000000000000
310
00000000000000000000000000000000000000000000000000000000000000000000000000000000000000000000000000000000000000000000000000000000000000000000000000F5F500F5F500F500000000000000000000000000000000000000000000000000000000000000000000000000000000F5000000000000
310
00000000000000000000000000000000000000000000000000000000000000000000F5F500000000000000000000000000000000000000000000000000000000000000000000000000000000000000000000000000000000000000000000000000000000000000000000000000000000000000000000000000000000000000
310
000000000000000000000000000000000000000000000000000000000000000000000000000000000000000000000000000000000000000000000000000000000000000000000000000000F5F500F5F500F500000000000000000000000000000000000000000000000000000000000000000000000000000000F500000000
310
000000000000000000000000000000000000000000000000000000000000000000000000F5F50000000000000000000000000000000000000000000000000000000000000000000000000000000000000000000000000000000000000000000000000000000000000000000000000000000000000000000000000000000000
310
0000000000000000000000000000000000000000000000000000000000000000000000000000000000000000000000000000000000000000000000000000000000000000000000000000000000F5F500F5F500F500000000000000000000000000000000000000000000000000000000000000000000000000000000F50000
310
0000000000000000000000000000000000000000000000000000000000000000000000000000F5F5000000000000000000000000000000000000000000000000000000000000000000000000000000000000000000000000000000000000000000000000000000000000000000000000000000000000000000000000000000
310
00000000000000000000000000000000000000000000000000000000000000000000000000000000000000000000000000000000000000000000000000000000000000000000000000000000000000000000F5F500F500000000000000000000000000000000000000000000000000000000000000000000000000000000F5
310
00000000000000000000000000000000000000000000000000000000000000000000000000000000F5F500000000000000000000000000000000000000000000000000000000000000000000000000000000000000000000000000000000000000000000000000000000000000000000000000000000000000000000000000
310
000000000000000000000000000000000000000000000000000000000000000000000000000000000000000000000000000000000000000000000000000000000000000000000000000000000000000000000000F5F500F5000000000000000000000000000000000000000000000000000000000000000000000000000000
310
00F500000000000000000000000000000000000000000000000000000000000000000000000000000000F5F50000000000000000000000000000000000000000000000000000000000000000000000000000000000000000000000000000000000000000000000000000000000000000000000000000000000000000000000
310
0000000000000000000000000000000000000000000000000000000000000000000000000000000000000000000000000000000000000000000000000000000000000000000000000000000000000000000000000000F5F500F500000000000000000000000000000000000000000000000000000000000000000000000000
310
000000F500000000000000000000000000000000000000000000000000000000000000000000000000000000F5F5000000000000000000000000000000000000000000000000000000000000000000000000000000000000000000000000000000000000000000000000000000000000000000000000000000000000000000
310
00000000000000000000000000000000000000000000000000000000000000000000000000000000000000000000000000000000000000000000000000000000000000000000000000000000000000000000000000000000F5F500F50000000000000000000000000000000000000000000000000000000000000000000000
310
0000000000F500000000000000000000000000000000000000000000000000000000000000000000000000000000F5F500000000000000000000000000000000000000000000000000000000000000000000000000000000000000000000000000000000000000000000000000000000000000000000000000000000000000
310
000000000000000000000000000000000000000000000000000000000000000000000000000000000000000000000000000000000000000000000000000000000000000000000000000000000000000000000000000000000000F5F500F5000000000000000000000000000000000000000000000000000000000000000000
310
00000000000000F500000000000000000000000000000000000000000000000000000000000000000000000000000000F5F50000000000000000000000000000000000000000000000000000000000000000000000000000000000000000000000000000000000000000000000000000000000000000000000000000000000
310
0000000000000000000000000000000000000000000000000000000000000000000000000000000000000000000000000000000000000000000000000000000000000000000000000000000000000000000000000000000000000000F5F500F500000000000000000000000000000000000000000000000000000000000000
310
000000000000000000F500000000000000000000000000000000000000000000000000000000000000000000000000000000F5F5000000000000000000000000000000000000000000000000000000000000000000000000000000000000000000000000000000000000000000000000000000000000000000000000000000
310
00000000000000000000000000000000000000000000000000000000000000000000000000000000000000000000000000000000000000000000000000000000000000000000000000000000000000000000000000000000000000000000F5F500F50000000000000000000000000000000000000000000000000000000000
310
0000000000000000000000F500000000000000000000000000000000000000000000000000000000000000000000000000000000F5F500000000000000000000000000000000000000000000000000000000000000000000000000000000000000000000000000000000000000000000000000000000000000000000000000
310
000000000000000000000000000000000000000000000000000000000000000000000000000000000000000000000000000000000000000000000000000000000000000000000000000000000000000000000000000000000000000000000000F5F500F5000000000000000000000000000000000000000000000000000000
310
00000000000000000000000000F500000000000000000000000000000000000000000000000000000000000000000000000000000000F5F50000000000000000000000000000000000000000000000000000000000000000000000000000000000000000000000000000000000000000000000000000000000000000000000
310
0000000000000000000000000000000000000000000000000000000000000000000000000000000000000000000000000000000000000000000000000000000000000000000000000000000000000000000000000000000000000000000000000000F5F500F500000000000000000000000000000000000000000000000000
310
000000000000000000000000000000F500000000000000000000000000000000000000000000000000000000000000000000000000000000F5F5000000000000000000000000000000000000000000000000000000000000000000000000000000000000000000000000000000000000000000000000000000000000000000
310
00000000000000000000000000000000000000000000000000000000000000000000000000000000000000000000000000000000000000000000000000000000000000000000000000000000000000000000000000000000000000000000000000000000F5F5F5F50000000000000000000000000000000000000000000000
310
0000000000000000000000000000000000F500000000000000000000000000000000000000000000000000000000000000000000000000000000F5F500000000000000000000000000000000000000000000000000000000000000000000000000000000000000000000000000000000000000000000000000000000000000
310
000000000000000000000000000000000000000000000000000000000000000000000000000000000000000000000000000000000000000000000000000000000000000000000000000000000000000000000000000000000000000000000000000000000000F5F5F5F5000000000000000000000000000000000000000000
310
00000000000000000000000000000000000000F5F5F5F5F5F5F5F5F5F5F5F5F5F5F5F5F5F5F5F5F5F5F5F5F5F5F5F5F5F5F5F5F5F5F5F5F5F5F5F5F5F5000000000000000000000000000000000000000000000000000000000000000000000000000000000000000000000000000000000000000000000000000000000000
310
00000000000000000000000000000000000000000000000000000000000000000000000000000000000000000000000000000000000000000000000000000000000000000000000000000000000000000000000000000000000000000000000000000000000000000000000000000000000000000000000000000000000000
310
00000000000000000000000000000000000000000000000000000000000000000000000000000000000000000000000000000000000000000000000000000000000000000000000000000000000000000000000000000000000000000000000000000000000000000000000000000000000000000000000000000000000000
310
00000000000000000000000000000000000000000000000000000000000000000000000000000000000000000000000000000000000000000000000000000000000000000000000000000000000000000000000000000000000000000000000000000000000000000000000000000000000000000000000000000000000000
310
00000000000000000000000000000000000000000000000000000000000000000000000000000000000000000000000000000000000000000000000000000000000000000000000000000000000000000000000000000000000000000000000000000000000000000000000000000000000000000000000000000000000000
310
00000000000000000000000000000000000000000000000000000000000000000000000000000000000000000000000000000000000000000000000000000000000000000000000000000000000000000000000000000000000000000000000000000000000000000000000000000000000000000000000000000000000000
310
00000000000000000000000000000000000000000000000000000000000000000000000000000000000000000000000000000000000000000000000000000000000000000000000000000000000000000000000000000000000000000000000000000000000000000000000000000000000000000000000000000000000000
310
00000000000000000000000000000000000000000000000000000000000000000000000000000000000000000000000000000000000000000000000000000000000000000000000000000000000000000000000000000000000000000000000000000000000000000000000000000000000000000000000000000000000000
310
00000000000000000000000000000000000000000000000000000000000000000000000000000000000000000000000000000000000000000000000000000000000000000000000000000000000000000000000000000000000000000000000000000000000000000000000000000000000000000000000000000000000000
310
00000000000000000000000000000000000000000000000000000000000000000000000000000000000000000000000000000000000000000000000000000000000000000000000000000000000000000000000000000000000000000000000000000000000000000000000000000000000000000000000000000000000000
310
00000000000000000000000000000000000000000000000000000000000000000000000000000000000000000000000000000000000000000000000000000000000000000000000000000000000000000000000000000000000000000000000000000000000000000000000000000000000000000000000000000000000000
310
00000000000000000000000000000000000000000000000000000000000000000000000000000000000000000000000000000000000000000000000000000000000000000000000000000000000000000000000000000000000000000000000000000000000000000000000000000000000000000000000000000000000000
310
00000000000000000000000000000000000000000000000000000000000000000000000000000000000000000000000000000000000000000000000000000000000000000000000000000000000000000000000000000000000000000000000000000000000000000000000000000000000000000000000000000000000000
310
00000000000000000000000000000000000000000000000000000000000000000000000000000000000000000000000000000000000000000000000000000000000000000000000000000000000000000000000000000000000000000000000000000000000000000000000000000000000000000000000000000000000000
310
00000000000000000000000000000000000000000000000000000000000000000000000000000000000000000000000000000000000000000000000000000000000000000000000000000000000000000000000000000000000000000000000000000000000000000000000000000000000000000000000000000000000000
310
00000000000000000000000000000000000000000000000000000000000000000000000000000000000000000000000000000000000000000000000000000000000000000000000000000000000000000000000000000000000000000000000000000000000000000000000000000000000000000000000000000000000000
310
00000000000000000000000000000000000000000000000000000000000000000000000000000000000000000000000000000000000000000000000000000000000000000000000000000000000000000000000000000000000000000000000000000000000000000000000000000000000000000000000000000000000000
310
00000000000000000000000000000000000000000000000000000000000000000000000000000000000000000000000000000000000000000000000000000000000000000000000000000000000000000000000000000000000000000000000000000000000000000000000000000000000000000000000000000000000000
310
00000000000000000000000000000000000000000000000000000000000000000000000000000000000000000000000000000000000000000000000000000000000000000000000000000000000000000000000000000000000000000000000000000000000000000000000000000000000000000000000000000000000000
310
00000000000000000000000000000000000000000000000000000000000000000000000000000000000000000000000000000000000000000000000000000000000000000000000000000000000000000000000000000000000000000000000000000000000000000000000000000000000000000000000000000000000000
310
00000000000000000000000000000000000000000000000000000000000000000000000000000000000000000000000000000000000000000000000000000000000000000000000000000000000000000000000000000000000000000000000000000000000000000000000000000000000000000000000000000000000000
310
00000000000000000000000000000000000000000000000000000000000000000000000000000000000000000000000000000000000000000000000000000000000000000000000000000000000000000000000000000000000000000000000000000000000000000000000000000000000000000000000000000000000000
310
00000000000000000000000000000000000000000000000000000000000000000000000000000000000000000000000000000000000000000000000000000000000000000000000000000000000000000000000000000000000000000000000000000000000000000000000000000000000000000000000000000000000000
310
00000000000000000000000000000000000000000000000000000000000000000000000000000000000000000000000000000000000000000000000000000000000000000000000000000000000000000000000000000000000000000000000000000000000000000000000000000000000000000000000000000000000000
310
00000000000000000000000000000000000000000000000000000000000000000000000000000000000000000000000000000000000000000000000000000000000000000000000000000000000000000000000000000000000000000000000000000000000000000000000000000000000000000000000000000000000000
310
00000000000000000000000000000000000000000000000000000000000000000000000000000000000000000000000000000000000000000000000000000000000000000000000000000000000000000000000000000000000000000000000000000000000000000000000000000000000000000000000000000000000000
310
00000000000000000000000000000000000000000000000000000000000000000000000000000000000000000000000000000000000000000000000000000000000000000000000000000000000000000000000000000000000000000000000000000000000000000000000000000000000000000000000000000000000000
310
00000000000000000000000000000000000000000000000000000000000000000000000000000000000000000000000000000000000000000000000000000000000000000000000000000000000000000000000000000000000000000000000000000000000000000000000000000000000000000000000000000000000000
310
00000000000000000000000000000000000000000000000000000000000000000000000000000000000000000000000000000000000000000000000000000000000000000000000000000000000000000000000000000000000000000000000000000000000000000000000000000000000000000000000000000000000000
310
00000000000000000000000000000000000000000000000000000000000000000000000000000000000000000000000000000000000000000000000000000000000000000000000000000000000000000000000000000000000000000000000000000000000000000000000000000000000000000000000000000000000000
310
00000000000000000000000000000000000000000000000000000000000000000000000000000000000000000000000000000000000000000000000000000000000000000000000000000000000000000000000000000000000000000000000000000000000000000000000000000000000000000000000000000000000000
310
00000000000000000000000000000000000000000000000000000000000000000000000000000000000000000000000000000000000000000000000000000000000000000000000000000000000000000000000000000000000000000000000000000000000000000000000000000000000000000000000000000000000000
310
00000000000000000000000000000000000000000000000000000000000000000000000000000000000000000000000000000000000000000000000000000000000000000000000000000000000000000000000000000000000000000000000000000000000000000000000000000000000000000000000000000000000000
310
00000000000000000000000000000000000000000000000000000000000000000000000000000000000000000000000000000000000000000000000000000000000000000000000000000000000000000000000000000000000000000000000000000000000000000000000000000000000000000000000000000000000000
310
00000000000000000000000000000000000000000000000000000000000000000000000000000000000000000000000000000000000000000000000000000000000000000000000000000000000000000000000000000000000000000000000000000000000000000000000000000000000000000000000000000000000000
310
00000000000000000000000000000000000000000000000000000000000000000000000000000000000000000000000000000000000000000000000000000000000000000000000000000000000000000000000000000000000000000000000000000000000000000000000000000000000000000000000000000000000000
310
00000000000000000000000000000000000000000000000000000000000000000000000000000000000000000000000000000000000000000000000000000000000000000000000000000000000000000000000000000000000000000000000000000000000000000000000000000000000000000000000000000000000000
310
00000000000000000000000000000000000000000000000000000000000000000000000000000000000000000000000000000000000000000000000000000000000000000000000000000000000000000000000000000000000000000000000000000000000000000000000000000000000000000000000000000000000000
310
00000000000000000000000000000000000000000000000000000000000000000000000000000000000000000000000000000000000000000000000000000000000000000000000000000000000000000000000000000000000000000000000000000000000000000000000000000000000000000000000000000000000000
310
00000000000000000000000000000000000000000000000000000000000000000000000000000000000000000000000000000000000000000000000000000000000000000000000000000000000000000000000000000000000000000000000000000000000000000000000000000000000000000000000000000000000000
310
00000000000000000000000000000000000000000000000000000000000000000000000000000000000000000000000000000000000000000000000000000000000000000000000000000000000000000000000000000000000000000000000000000000000000000000000000000000000000000000000000000000000000
310
00000000000000000000000000000000000000000000000000000000000000000000000000000000000000000000000000000000000000000000000000000000000000000000000000000000000000000000000000000000000000000000000000000000000000000000000000000000000000000000000000000000000000
310
00000000000000000000000000000000000000000000000000000000000000000000000000000000000000000000000000000000000000000000000000000000000000000000000000000000000000000000000000000000000000000000000000000000000000000000000000000000000000000000000000000000000000
310
00000000000000000000000000000000000000000000000000000000000000000000000000000000000000000000000000000000000000000000000000000000000000000000000000000000000000000000000000000000000000000000000000000000000000000000000000000000000000000000000000000000000000
310
00000000000000000000000000000000000000000000000000000000000000000000000000000000000000000000000000000000000000000000000000000000000000000000000000000000000000000000000000000000000000000000000000000000000000000000000000000000000000000000000000000000000000
310
00000000000000000000000000000000000000000000000000000000000000000000000000000000000000000000000000000000000000000000000000000000000000000000000000000000000000000000000000000000000000000000000000000000000000000000000000000000000000000000000000000000000000
310
00000000000000000000000000000000000000000000000000000000000000000000000000000000000000000000000000000000000000000000000000000000000000000000000000000000000000000000000000000000000000000000000000000000000000000000000000000000000000000000000000000000000000
310
00000000000000000000000000000000000000000000000000000000000000000000000000000000000000000000000000000000000000000000000000000000000000000000000000000000000000000000000000000000000000000000000000000000000000000000000000000000000000000000000000000000000000
310
00000000000000000000000000000000000000000000000000000000000000000000000000000000000000000000000000000000000000000000000000000000000000000000000000000000000000000000000000000000000000000000000000000000000000000000000000000000000000000000000000000000000000
310
00000000000000000000000000000000000000000000000000000000000000000000000000000000000000000000000000000000000000000000000000000000000000000000000000000000000000000000000000000000000000000000000000000000000000000000000000000000000000000000000000000000000000
310
000000000000000000000000000000000000000000000000000000000000000000000000000000000000000000000000000000000000000000000000000000000000000000000000000000000000000000000000F5F5F5F5F5F5F5F5F5F5F5F500000000000000000000000000000000000000000000000000000000000000
310
00000000000000000000000000000000000000000000000000000000000000000000000000000000000000000000000000000000000000000000000000000000000000000000000000000000000000000000000000000000000000000000000000000000000000000000000000000000000000000000000000000000000000
310
0000000000000000000000000000000000000000000000000000000000000000000000000000000000000000000000000000000000000000000000000000000000000000000000000000000000000000000000000000F500000000000000000000F50000000000000000000000000000000000000000000000000000000000
310
00000000000000000000000000000000000000000000000000000000000000000000000000000000000000000000000000000000000000000000000000000000000000000000000000000000000000000000000000000000000000000000000000000000000000000000000000000000000000000000000000000000000000
310
00000000000000000000000000000000000000000000000000000000000000000000000000000000000000000000000000000000000000000000000000000000000000000000000000000000000000000000000000000000F500000000000000000000F5000000000000000000000000000000000000000000000000000000
310
00000000000000000000000000000000000000000000000000000000000000000000000000000000000000000000000000000000000000000000000000000000000000000000000000000000000000000000000000000000000000000000000000000000000000000000000000000000000000000000000000000000000000
310
000000000000000000000000000000000000000000000000000000000000000000000000000000000000000000000000000000000000000000000000000000000000000000000000000000000000000000000000000000000000F500000000000000000000F500000000000000000000000000000000000000000000000000
310
00000000000000000000000000000000000000000000000000000000000000000000000000000000000000000000000000000000000000000000000000000000000000000000000000000000000000000000000000000000000000000000000000000000000000000000000000000000000000000000000000000000000000
310
0000000000000000000000000000000000000000000000000000000000000000000000000000000000000000000000000000000000000000000000000000000000000000000000000000000000000000000000000000000000000000F500000000000000000000F50000000000000000000000000000000000000000000000
310
00000000000000000000000000000000000000000000000000000000000000000000000000000000000000000000000000000000000000000000000000000000000000000000000000000000000000000000000000000000000000000000000000000000000000000000000000000000000000000000000000000000000000
310
00000000000000000000000000000000000000000000000000000000000000000000000000000000000000000000000000000000000000000000000000000000000000000000000000000000000000000000000000000000000000000000F500000000000000000000F5000000000000000000000000000000000000000000
310
00000000000000000000000000000000000000000000000000000000000000000000000000000000000000000000000000000000000000000000000000000000000000000000000000000000000000000000000000000000000000000000000000000000000000000000000000000000000000000000000000000000000000
310
000000000000000000000000000000000000000000000000000000000000000000000000000000000000000000000000000000000000000000000000000000000000000000000000000000000000000000000000000000000000000000000000F500000000000000000000F500000000000000000000000000000000000000
310
00000000000000000000000000000000000000000000000000000000000000000000000000000000000000000000000000000000000000000000000000000000000000000000000000000000000000000000000000000000000000000000000000000000000000000000000000000000000000000000000000000000000000
310
0000000000000000000000000000000000000000000000000000000000000000000000000000000000000000000000000000000000000000000000000000000000000000000000000000000000000000000000000000000000000000000000000000F5F5F5F5F5F5F5F5F5F5F5F50000000000000000000000000000000000
310
00000000000000000000000000000000000000000000000000000000000000000000000000000000000000000000000000000000000000000000000000000000000000000000000000000000000000000000000000000000000000000000000000000000000000000000000000000000000000000000000000000000000000
310
00000000000000000000000000000000000000000000000000000000000000000000000000000000000000000000000000000000000000000000000000000000000000000000000000000000000000000000000000000000000000000000000000000000F5F5F5F5F5F5F5F5F5F5F5F5000000000000000000000000000000
310
00000000000000000000000000000000000000000000000000000000000000000000000000000000000000000000000000000000000000000000000000000000000000000000000000000000000000000000000000000000000000000000000000000000000000000000000000000000000000000000000000000000000000
310
000000000000000000000000000000000000000000000000000000000000000000000000000000000000000000000000000000000000000000000000000000000000000000000000000000000000000000000000000000000000000000000000000000000000F500000000000000000000F500000000000000000000000000
310
00000000000000000000000000000000000000000000000000000000000000000000000000000000000000000000000000000000000000000000000000000000000000000000000000000000000000000000000000000000000000000000000000000000000000000000000000000000000000000000000000000000000000
310
0000000000000000000000000000000000000000000000000000000000000000000000000000000000000000000000000000000000000000000000000000000000000000000000000000000000000000000000000000000000000000000000000000000000000000F500000000000000000000F50000000000000000000000
310
00000000000000000000000000000000000000000000000000000000000000000000000000000000000000000000000000000000000000000000000000000000000000000000000000000000000000000000000000000000000000000000000000000000000000000000000000000000000000000000000000000000000000
310
00000000000000000000000000000000000000000000000000000000000000000000000000000000000000000000000000000000000000000000000000000000000000000000000000000000000000000000000000000000000000000000000000000000000000000000F500000000000000000000F5000000000000000000
310
00000000000000000000000000000000000000000000000000000000000000000000000000000000000000000000000000000000000000000000000000000000000000000000000000000000000000000000000000000000000000000000000000000000000000000000000000000000000000000000000000000000000000
310
000000000000000000000000000000000000000000000000000000000000000000000000000000000000000000000000000000000000000000000000000000000000000000000000000000000000000000000000000000000000000000F5F5F5F5F5F5F5F5F5F5F5F5F5F5F5F5F5F5F5F5F5F5F5F5F5F5F5F5F5F5F5F5F5F5
310
F5F5F5F5F5F5F5F5F500000000000000000000000000000000000000000000000000000000000000000000000000000000000000000000000000000000000000000000000000000000000000000000000000000000000000000000000000000000000000000000000000000000000000000000000000000000000000000000
310
0000000000000000000000000000000000000000000000000000000000000000000000000000000000000000000000000000000000000000000000000000000000000000000000000000000000000000000000000000000000000000000000F5F5F5F5F5F5F5F5F5F5F5F5F5F5F5F5F5F5F5F5F5F5F5F5F5F5F5F5F5F5F5F5
310
F5F5F5F5F5F5F5F5F5F5F50000000000000000000000000000000000000000000000000000000000000000000000000000000000000000000000000000000000000000000000000000000000000000000000000000000000000000000000000000000000000000000000000000000000000000000000000000000000000000
310
00000000000000000000000000000000000000000000000000000000000000000000000000000000000000000000000000000000000000000000000000000000000000000000000000000000000000000000000000000000000000000000000000F5F5F5F5F5F5F5F5F5F5F5F5F5F5F5F5F5F5F5F5F5F5F5F5F5F5F5F5F5F5
310
F5F5F5F5F5F5F5F5F5F5F5F5F5000000000000000000000000000000000000000000000000000000000000000000000000000000000000000000000000000000000000000000000000000000000000000000000000000000000000000000000000000000000000000000000000000000000000000000000000000000000000
310
000000000000000000000000000000000000000000000000000000000000000000000000000000000000000000000000000000000000000000000000000000000000000000000000000000000000000000000000000000000000000000000000000000F5F5F5F5F5F5F5F5F5F5F5F5F5F5F5F5F5F5F5F5F5F5F5F5F5F5F5F5
310
F5F5F5F5F5F5F5F5F5F5F5F5F5F50000000000000000000000000000000000000000000000000000000000000000000000000000000000000000000000000000000000000000000000000000000000000000000000000000000000000000000000000000000000000000000000000000000000000000000000000000000000
310
000000000000000000000000000000000000000000000000000000000000000000000000000000000000000000000000000000000000000000000000000000000000000000000000000000000000000000000000000000000000000000000000000000000000000000000000000000000000F5F5F5F5F5F5F5F5F5F5F5F5F5
310
F5F5F500000000000000000000000000000000000000000000000000000000000000000000000000000000000000000000000000000000000000000000000000000000000000000000000000000000000000000000000000000000000000000000000000000000000000000000000000000000000000000000000000000000
310
000000000000000000000000000000000000000000000000000000000000000000000000000000000000000000000000000000000000000000000000000000000000000000000000000000000000000000000000000000000000000000000000000000000000000000000000000000000000F5F5F5F5F5F5F5F5F5F5F5F5F5
310
F5F5F5F5F5F500000000000000000000000000000000000000000000000000000000000000000000000000000000000000000000000000000000000000000000000000000000000000000000000000000000000000000000000000000000000000000000000000000000000000000000000000000000000000000000000000
310
0000000000000000000000000000000000000000000000000000000000000000000000000000000000000000000000000000000000000000000000000000000000000000000000000000000000000000000000000000000000000000000000000000000000000000000000000000000000000000F5F5F5F5F5F5F5F5F5F5F5
310
F5F5F5F5F5F5F5F50000000000000000000000000000000000000000000000000000000000000000000000000000000000000000000000000000000000000000000000000000000000000000000000000000000000000000000000000000000000000000000000000000000000000000000000000000000000000000000000
310
00000000000000000000000000000000000000000000000000000000000000000000000000000000000000000000000000000000000000000000000000000000000000000000000000000000000000000000000000000000000000000000000000000000000000000000000000000000000000000000000000F5F500000000
310
00000000000000F50000000000000000000000000000000000000000000000000000000000000000000000000000000000000000000000000000000000000000000000000000000000000000000000000000000000000000000000000000000000000000000000000000000000000000000000000000000000000000000000
310
000000000000000000000000000000000000000000000000000000000000000000000000000000000000000000000000000000000000000000000000000000000000000000000000000000000000000000000000000000000000000000000000000000000000000000000000000000000000000000000000000000F5F50000
310
000000000000000000F5000000000000000000000000000000000000000000000000000000000000000000000000000000000000000000000000000000000000000000000000000000000000000000000000000000000000000000000000000000000000000000000000000000000000000000000000000000000000000000
310
0000000000000000000000000000000000000000000000000000000000000000000000000000000000000000000000000000000000000000000000000000000000000000000000000000000000000000000000000000000000000000000000000000000000000000000000000000000000000000000000000000000000F5F5
310
0000000000000000000000F500000000000000000000000000000000000000000000000000000000000000000000000000000000000000000000000000000000000000000000000000000000000000000000000000000000000000000000000000000000000000000000000000000000000000000000000000000000000000
310
00000000000000000000000000000000000000000000000000000000000000000000000000000000000000000000000000000000000000000000000000000000000000000000000000000000000000000000000000000000000000000000000000000000000000000000000000000000000000000000000000000000000000
310
F5F50000000000000000000000F50000000000000000000000000000000000000000000000000000000000000000000000000000000000000000000000000000000000000000000000000000000000000000000000000000000000000000000000000000000000000000000000000000000000000000000000000000000000
310
00000000000000000000000000000000000000000000000000000000000000000000000000000000000000000000000000000000000000000000000000000000000000000000000000000000000000000000000000000000000000000000000000000000000000000000000000000000000000000000000000000000000000
310
0000F5F50000000000000000000000F5000000000000000000000000000000000000000000000000000000000000000000000000000000000000000000000000000000000000000000000000000000000000000000000000000000000000000000000000000000000000000000000000000000000000000000000000000000
310
00000000000000000000000000000000000000000000000000000000000000000000000000000000000000000000000000000000000000000000000000000000000000000000000000000000000000000000000000000000000000000000000000000000000000000000000000000000000000000000000000000000000000
310
00000000F5F50000000000000000000000F500000000000000000000000000000000000000000000000000000000000000000000000000000000000000000000000000000000000000000000000000000000000000000000000000000000000000000000000000000000000000000000000000000000000000000000000000
310
00000000000000000000000000000000000000000000000000000000000000000000000000000000000000000000000000000000000000000000000000000000000000000000000000000000000000000000000000000000000000000000000000000000000000000000000000000000000000000000000000000000000000
310
000000000000F5F50000000000000000000000F50000000000000000000000000000000000000000000000000000000000000000000000000000000000000000000000000000000000000000000000000000000000000000000000000000000000000000000000000000000000000000000000000000000000000000000000
310
00000000000000000000000000000000000000000000000000000000000000000000000000000000000000000000000000000000000000000000000000000000000000000000000000000000000000000000000000000000000000000000000000000000000000000000000000000000000000000000000000000000000000
310
0000000000000000F5F50000000000000000000000F5000000000000000000000000000000000000000000000000000000000000000000000000000000000000000000000000000000000000000000000000000000000000000000000000000000000000000000000000000000000000000000000000000000000000000000
310
00000000000000000000000000000000000000000000000000000000000000000000000000000000000000000000000000000000000000000000000000000000000000000000000000000000000000000000000000000000000000000000000000000000000000000000000000000000000000000000000000000000000000
310
00000000000000000000F5F50000000000000000000000F500000000000000000000000000000000000000000000000000000000000000000000000000000000000000000000000000000000000000000000000000000000000000000000000000000000000000000000000000000000000000000000000000000000000000
310
00000000000000000000000000000000000000000000000000000000000000000000000000000000000000000000000000000000000000000000000000000000000000000000000000000000000000000000000000000000000000000000000000000000000000000000000000000000000000000000000000000000000000
310
000000000000000000000000F5F50000000000000000000000F50000000000000000000000000000000000000000000000000000000000000000000000000000000000000000000000000000000000000000000000000000000000000000000000000000000000000000000000000000000000000000000000000000000000
310
00000000000000000000000000000000000000000000000000000000000000000000000000000000000000000000000000000000000000000000000000000000000000000000000000000000000000000000000000000000000000000000000000000000000000000000000000000000000000000000000000000000000000
310
0000000000000000000000000000F5F50000000000000000000000F5000000000000000000000000000000000000000000000000000000000000000000000000000000000000000000000000000000000000000000000000000000000000000000000000000000000000000000000000000000000000000000000000000000
310
00000000000000000000000000000000000000000000000000000000000000000000000000000000000000000000000000000000000000000000000000000000000000000000000000000000000000000000000000000000000000000000000000000000000000000000000000000000000000000000000000000000000000
310
00000000000000000000000000000000F5F50000000000000000000000F500000000000000000000000000000000000000000000000000000000000000000000000000000000000000000000000000000000000000000000000000000000000000000000000000000000000000000000000000000000000000000000000000
310
00000000000000000000000000000000000000000000000000000000000000000000000000000000000000000000000000000000000000000000000000000000000000000000000000000000000000000000000000000000000000000000000000000000000000000000000000000000000000000000000000000000000000
310
000000000000000000000000000000000000F5F50000000000000000000000F50000000000000000000000000000000000000000000000000000000000000000000000000000000000000000000000000000000000000000000000000000000000000000000000000000000000000000000000000000000000000000000000
310
00000000000000000000000000000000000000000000000000000000000000000000000000000000000000000000000000000000000000000000000000000000000000000000000000000000000000000000000000000000000000000000000000000000000000000000000000000000000000000000000000000000000000
310
0000000000000000000000000000000000000000F5F50000000000000000000000F5000000000000000000000000000000000000000000000000000000000000000000000000000000000000000000000000000000000000000000000000000000000000000000000000000000000000000000000000000000000000000000
310
00000000000000000000000000000000000000000000000000000000000000000000000000000000000000000000000000000000000000000000000000000000000000000000000000000000000000000000000000000000000000000000000000000000000000000000000000000000000000000000000000000000000000
310
00000000000000000000000000000000000000000000F5F50000000000000000000000F500000000000000000000000000000000000000000000000000000000000000000000000000000000000000000000000000000000000000000000000000000000000000000000000000000000000000000000000000000000000000
310
00000000000000000000000000000000000000000000000000000000000000000000000000000000000000000000000000000000000000000000000000000000000000000000000000000000000000000000000000000000000000000000000000000000000000000000000000000000000000000000000000000000000000
310
000000000000000000000000000000000000000000000000F5F50000000000000000000000F50000000000000000000000000000000000000000000000000000000000000000000000000000000000000000000000000000000000000000000000000000000000000000000000000000000000000000000000000000000000
310
00000000000000000000000000000000000000000000000000000000000000000000000000000000000000000000000000000000000000000000000000000000000000000000000000000000000000000000000000000000000000000000000000000000000000000000000000000000000000000000000000000000000000
310
0000000000000000000000000000000000000000000000000000F5F50000000000000000000000F5000000000000000000000000000000000000000000000000000000000000000000000000000000000000000000000000000000000000000000000000000000000000000000000000000000000000000000000000000000
310
00000000000000000000000000000000000000000000000000000000000000000000000000000000000000000000000000000000000000000000000000000000000000000000000000000000000000000000000000000000000000000000000000000000000000000000000000000000000000000000000000000000000000
310
00000000000000000000000000000000000000000000000000000000F5F50000000000000000000000F500000000000000000000000000000000000000000000000000000000000000000000000000000000000000000000000000000000000000000000000000000000000000000000000000000000000000000000000000
310
00000000000000000000000000000000000000000000000000000000000000000000000000000000000000000000000000000000000000000000000000000000000000000000000000000000000000000000000000000000000000000000000000000000000000000000000000000000000000000000000000000000000000
310
000000000000000000000000000000000000000000000000000000000000F5F50000000000000000000000F50000000000000000000000000000000000000000000000000000000000000000000000000000000000000000000000000000000000000000000000000000000000000000000000000000000000000000000000
310
00000000000000000000000000000000000000000000000000000000000000000000000000000000000000000000000000000000000000000000000000000000000000000000000000000000000000000000000000000000000000000000000000000000000000000000000000000000000000000000000000000000000000
310
0000000000000000000000000000000000000000000000000000000000000000F5F50000000000000000000000F5000000000000000000000000000000000000000000000000000000000000000000000000000000000000000000000000000000000000000000000000000000000000000000000000000000000000000000
310
00000000000000000000000000000000000000000000000000000000000000000000000000000000000000000000000000000000000000000000000000000000000000000000000000000000000000000000000000000000000000000000000000000000000000000000000000000000000000000000000000000000000000
310
00000000000000000000000000000000000000000000000000000000000000000000F5F50000000000000000000000F500000000000000000000000000000000000000000000000000000000000000000000000000000000000000000000000000000000000000000000000000000000000000000000000000000000000000
310
00000000000000000000000000000000000000000000000000000000000000000000000000000000000000000000000000000000000000000000000000000000000000000000000000000000000000000000000000000000000000000000000000000000000000000000000000000000000000000000000000000000000000
310
000000000000000000000000000000000000000000000000000000000000000000000000F5F50000000000000000000000F50000000000000000000000000000000000000000000000000000000000000000000000000000000000000000000000000000000000000000000000000000000000000000000000000000000000
310
00000000000000000000
  0
XRECORD
  5
698
102
{ACAD_REACTORS
330
62F
102
}
330
62F
100
AcDbXrecord
280
     1
102
MATERIAL
148
0.0
149
0.0
149
0.0
 93
        0
 94
      127
282
     0
 72
     0
 77
     0
171
     0
175
     0
179
     0
273
     0
  0
XRECORD
  5
631
102
{ACAD_REACTORS
330
62F
102
}
330
62F
100
AcDbXrecord
280
     1
270
     1
271
     1
  0
XRECORD
  5
630
102
{ACAD_REACTORS
330
62F
102
}
330
62F
100
AcDbXrecord
280
     1
270
     1
271
     1
  0
XRECORD
  5
634
102
{ACAD_REACTORS
330
62F
102
}
330
62F
100
AcDbXrecord
280
     1
270
     1
271
     1
  0
XRECORD
  5
633
102
{ACAD_REACTORS
330
62F
102
}
330
62F
100
AcDbXrecord
280
     1
270
     1
271
     1
  0
XRECORD
  5
635
102
{ACAD_REACTORS
330
62F
102
}
330
62F
100
AcDbXrecord
280
     1
270
     1
271
     1
  0
XRECORD
  5
632
102
{ACAD_REACTORS
330
62F
102
}
330
62F
100
AcDbXrecord
280
     1
270
     1
271
     1
  0
XRECORD
  5
697
102
{ACAD_REACTORS
330
627
102
}
330
627
100
AcDbXrecord
280
     1
102
MATERIAL
148
0.0
149
0.0
149
0.0
 93
        0
 94
      127
282
     0
 72
     0
 77
     0
171
     0
175
     0
179
     0
273
     0
  0
XRECORD
  5
629
102
{ACAD_REACTORS
330
627
102
}
330
627
100
AcDbXrecord
280
     1
270
     1
271
     1
  0
XRECORD
  5
628
102
{ACAD_REACTORS
330
627
102
}
330
627
100
AcDbXrecord
280
     1
270
     1
271
     1
  0
XRECORD
  5
62C
102
{ACAD_REACTORS
330
627
102
}
330
627
100
AcDbXrecord
280
     1
270
     1
271
     1
  0
XRECORD
  5
62B
102
{ACAD_REACTORS
330
627
102
}
330
627
100
AcDbXrecord
280
     1
270
     1
271
     1
  0
XRECORD
  5
62D
102
{ACAD_REACTORS
330
627
102
}
330
627
100
AcDbXrecord
280
     1
270
     1
271
     1
  0
XRECORD
  5
62A
102
{ACAD_REACTORS
330
627
102
}
330
627
100
AcDbXrecord
280
     1
270
     1
271
     1
  0
XRECORD
  5
699
102
{ACAD_REACTORS
330
637
102
}
330
637
100
AcDbXrecord
280
     1
102
MATERIAL
148
0.0
149
0.0
149
0.0
 93
        0
 94
      127
282
     0
 72
     0
 77
     0
171
     0
175
     0
179
     0
273
     0
  0
XRECORD
  5
639
102
{ACAD_REACTORS
330
637
102
}
330
637
100
AcDbXrecord
280
     1
270
     1
271
     1
  0
XRECORD
  5
638
102
{ACAD_REACTORS
330
637
102
}
330
637
100
AcDbXrecord
280
     1
270
     1
271
     1
  0
XRECORD
  5
63C
102
{ACAD_REACTORS
330
637
102
}
330
637
100
AcDbXrecord
280
     1
270
     1
271
     1
  0
XRECORD
  5
63B
102
{ACAD_REACTORS
330
637
102
}
330
637
100
AcDbXrecord
280
     1
270
     1
271
     1
  0
XRECORD
  5
63D
102
{ACAD_REACTORS
330
637
102
}
330
637
100
AcDbXrecord
280
     1
270
     1
271
     1
  0
XRECORD
  5
63A
102
{ACAD_REACTORS
330
637
102
}
330
637
100
AcDbXrecord
280
     1
270
     1
271
     1
  0
XRECORD
  5
6DE
102
{ACAD_REACTORS
330
6DD
102
}
330
6DD
100
AcDbXrecord
280
     1
102
ACAD_ROUNDTRIP_2012_MLEADER_STYLE
298
     1
  0
CELLSTYLEMAP
  5
6DC
102
{ACAD_REACTORS
330
692
102
}
330
692
100
AcDbCellStyleMap
 90
        3
300
CELLSTYLE
  1
TABLEFORMAT_BEGIN
 90
        5
170
     1
 91
        0
 92
    32768
 62
   257
 93
        1
300
CONTENTFORMAT
  1
CONTENTFORMAT_BEGIN
 90
        0
 91
        0
 92
      512
 93
        0
300

 40
0.0
140
1.0
 94
        5
 62
     0
340
11
144
0.25
309
CONTENTFORMAT_END
171
     1
301
MARGIN
  1
CELLMARGIN_BEGIN
 40
0.06
 40
0.06
 40
0.06
 40
0.06
 40
0.18
 40
0.18
309
CELLMARGIN_END
 94
        6
 95
        1
302
GRIDFORMAT
  1
GRIDFORMAT_BEGIN
 90
        0
 91
        1
 62
     0
 92
       -2
340
0
 93
        0
 40
0.045
309
GRIDFORMAT_END
 95
        2
302
GRIDFORMAT
  1
GRIDFORMAT_BEGIN
 90
        0
 91
        1
 62
     0
 92
       -2
340
0
 93
        0
 40
0.045
309
GRIDFORMAT_END
 95
        4
302
GRIDFORMAT
  1
GRIDFORMAT_BEGIN
 90
        0
 91
        1
 62
     0
 92
       -2
340
0
 93
        0
 40
0.045
309
GRIDFORMAT_END
 95
        8
302
GRIDFORMAT
  1
GRIDFORMAT_BEGIN
 90
        0
 91
        1
 62
     0
 92
       -2
340
0
 93
        0
 40
0.045
309
GRIDFORMAT_END
 95
       16
302
GRIDFORMAT
  1
GRIDFORMAT_BEGIN
 90
        0
 91
        1
 62
     0
 92
       -2
340
0
 93
        0
 40
0.045
309
GRIDFORMAT_END
 95
       32
302
GRIDFORMAT
  1
GRIDFORMAT_BEGIN
 90
        0
 91
        1
 62
     0
 92
       -2
340
0
 93
        0
 40
0.045
309
GRIDFORMAT_END
309
TABLEFORMAT_END
  1
CELLSTYLE_BEGIN
 90
        1
 91
        1
300
_TITLE
309
CELLSTYLE_END
300
CELLSTYLE
  1
TABLEFORMAT_BEGIN
 90
        5
170
     1
 91
        0
 92
        0
 62
   257
 93
        1
300
CONTENTFORMAT
  1
CONTENTFORMAT_BEGIN
 90
        0
 91
        0
 92
      512
 93
        0
300

 40
0.0
140
1.0
 94
        5
 62
     0
340
11
144
0.18
309
CONTENTFORMAT_END
171
     1
301
MARGIN
  1
CELLMARGIN_BEGIN
 40
0.06
 40
0.06
 40
0.06
 40
0.06
 40
0.18
 40
0.18
309
CELLMARGIN_END
 94
        6
 95
        1
302
GRIDFORMAT
  1
GRIDFORMAT_BEGIN
 90
        0
 91
        1
 62
     0
 92
       -2
340
0
 93
        0
 40
0.045
309
GRIDFORMAT_END
 95
        2
302
GRIDFORMAT
  1
GRIDFORMAT_BEGIN
 90
        0
 91
        1
 62
     0
 92
       -2
340
0
 93
        0
 40
0.045
309
GRIDFORMAT_END
 95
        4
302
GRIDFORMAT
  1
GRIDFORMAT_BEGIN
 90
        0
 91
        1
 62
     0
 92
       -2
340
0
 93
        0
 40
0.045
309
GRIDFORMAT_END
 95
        8
302
GRIDFORMAT
  1
GRIDFORMAT_BEGIN
 90
        0
 91
        1
 62
     0
 92
       -2
340
0
 93
        0
 40
0.045
309
GRIDFORMAT_END
 95
       16
302
GRIDFORMAT
  1
GRIDFORMAT_BEGIN
 90
        0
 91
        1
 62
     0
 92
       -2
340
0
 93
        0
 40
0.045
309
GRIDFORMAT_END
 95
       32
302
GRIDFORMAT
  1
GRIDFORMAT_BEGIN
 90
        0
 91
        1
 62
     0
 92
       -2
340
0
 93
        0
 40
0.045
309
GRIDFORMAT_END
309
TABLEFORMAT_END
  1
CELLSTYLE_BEGIN
 90
        2
 91
        1
300
_HEADER
309
CELLSTYLE_END
300
CELLSTYLE
  1
TABLEFORMAT_BEGIN
 90
        5
170
     1
 91
        0
 92
        0
 62
   257
 93
        1
300
CONTENTFORMAT
  1
CONTENTFORMAT_BEGIN
 90
        0
 91
        0
 92
      512
 93
        0
300

 40
0.0
140
1.0
 94
        2
 62
     0
340
11
144
0.18
309
CONTENTFORMAT_END
171
     1
301
MARGIN
  1
CELLMARGIN_BEGIN
 40
0.06
 40
0.06
 40
0.06
 40
0.06
 40
0.18
 40
0.18
309
CELLMARGIN_END
 94
        6
 95
        1
302
GRIDFORMAT
  1
GRIDFORMAT_BEGIN
 90
        0
 91
        1
 62
     0
 92
       -2
340
0
 93
        0
 40
0.045
309
GRIDFORMAT_END
 95
        2
302
GRIDFORMAT
  1
GRIDFORMAT_BEGIN
 90
        0
 91
        1
 62
     0
 92
       -2
340
0
 93
        0
 40
0.045
309
GRIDFORMAT_END
 95
        4
302
GRIDFORMAT
  1
GRIDFORMAT_BEGIN
 90
        0
 91
        1
 62
     0
 92
       -2
340
0
 93
        0
 40
0.045
309
GRIDFORMAT_END
 95
        8
302
GRIDFORMAT
  1
GRIDFORMAT_BEGIN
 90
        0
 91
        1
 62
     0
 92
       -2
340
0
 93
        0
 40
0.045
309
GRIDFORMAT_END
 95
       16
302
GRIDFORMAT
  1
GRIDFORMAT_BEGIN
 90
        0
 91
        1
 62
     0
 92
       -2
340
0
 93
        0
 40
0.045
309
GRIDFORMAT_END
 95
       32
302
GRIDFORMAT
  1
GRIDFORMAT_BEGIN
 90
        0
 91
        1
 62
     0
 92
       -2
340
0
 93
        0
 40
0.045
309
GRIDFORMAT_END
309
TABLEFORMAT_END
  1
CELLSTYLE_BEGIN
 90
        3
 91
        2
300
_DATA
309
CELLSTYLE_END
  0
XRECORD
  5
710
102
{ACAD_REACTORS
330
692
102
}
330
692
100
AcDbXrecord
280
     1
102
ACAD_ROUNDTRIP_PRE2007_TABLESTYLE
 90
      512
 91
        0
  1

 92
      512
 93
        0
  2

 94
      512
 95
        0
  3

  0
XRECORD
  5
6EB
102
{ACAD_REACTORS
330
6EA
102
}
330
6EA
100
AcDbXrecord
280
     1
102
RTVSPropertyOp0
 70
     1
102
RTVSPropertyOp1
 70
     1
102
RTVSPropertyOp2
 70
     1
102
RTVSPropertyOp3
 70
     1
102
RTVSPropertyOp4
 70
     1
102
RTVSPropertyOp5
 70
     1
102
RTVSPropertyOp6
 70
     1
102
RTVSPropertyOp7
 70
     1
102
RTVSPropertyOp8
 70
     1
102
RTVSPropertyOp9
 70
     1
102
RTVSPropertyOp10
 70
     1
102
RTVSPropertyOp11
 70
     1
102
RTVSPropertyOp12
 70
     1
102
RTVSPropertyOp13
 70
     1
102
RTVSPropertyOp14
 70
     1
102
RTVSPropertyOp15
 70
     1
102
RTVSPropertyOp16
 70
     1
102
RTVSPropertyOp17
 70
     1
102
RTVSPropertyOp18
 70
     1
102
RTVSPropertyOp19
 70
     1
102
RTVSPropertyOp20
 70
     1
102
RTVSPropertyOp21
 70
     1
102
RTVSPropertyOp22
 70
     1
102
RTVSPropertyOp23
 70
     1
102
RTVSPropertyOp24
 70
     1
102
RTVSPropertyOp25
 70
     1
102
RTVSPropertyOp26
 70
     1
102
RTVSPropertyOp27
 70
     1
102
RTVSPropertyOp28
 70
     1
102
RTVSPropertyOp29
 70
     1
102
RTVSPropertyOp30
 70
     1
102
RTVSPropertyOp31
 70
     1
102
RTVSPropertyOp32
 70
     1
  0
XRECORD
  5
6E9
102
{ACAD_REACTORS
330
6E8
102
}
330
6E8
100
AcDbXrecord
280
     1
102
RTVSPropertyOp0
 70
     1
102
RTVSPropertyOp1
 70
     1
102
RTVSPropertyOp2
 70
     1
102
RTVSPropertyOp3
 70
     1
102
RTVSPropertyOp4
 70
     1
102
RTVSPropertyOp5
 70
     1
102
RTVSPropertyOp6
 70
     1
102
RTVSPropertyOp7
 70
     1
102
RTVSPropertyOp8
 70
     1
102
RTVSPropertyOp9
 70
     1
102
RTVSPropertyOp10
 70
     1
102
RTVSPropertyOp11
 70
     1
102
RTVSPropertyOp12
 70
     1
102
RTVSPropertyOp13
 70
     1
102
RTVSPropertyOp14
 70
     1
102
RTVSPropertyOp15
 70
     1
102
RTVSPropertyOp16
 70
     1
102
RTVSPropertyOp17
 70
     1
102
RTVSPropertyOp18
 70
     1
102
RTVSPropertyOp19
 70
     1
102
RTVSPropertyOp20
 70
     1
102
RTVSPropertyOp21
 70
     1
102
RTVSPropertyOp22
 70
     1
102
RTVSPropertyOp23
 70
     1
102
RTVSPropertyOp24
 70
     1
102
RTVSPropertyOp25
 70
     1
102
RTVSPropertyOp26
 70
     1
102
RTVSPropertyOp27
 70
     1
102
RTVSPropertyOp28
 70
     1
102
RTVSPropertyOp29
 70
     1
102
RTVSPropertyOp30
 70
     1
102
RTVSPropertyOp31
 70
     1
102
RTVSPropertyOp32
 70
     1
  0
XRECORD
  5
6F7
102
{ACAD_REACTORS
330
6F6
102
}
330
6F6
100
AcDbXrecord
280
     1
102
RTVSPropertyOp0
 70
     1
102
RTVSPropertyOp1
 70
     1
102
RTVSPropertyOp2
 70
     1
102
RTVSPropertyOp3
 70
     1
102
RTVSPropertyOp4
 70
     1
102
RTVSPropertyOp5
 70
     1
102
RTVSPropertyOp6
 70
     1
102
RTVSPropertyOp7
 70
     1
102
RTVSPropertyOp8
 70
     1
102
RTVSPropertyOp9
 70
     1
102
RTVSPropertyOp10
 70
     1
102
RTVSPropertyOp11
 70
     1
102
RTVSPropertyOp12
 70
     1
102
RTVSPropertyOp13
 70
     1
102
RTVSPropertyOp14
 70
     1
102
RTVSPropertyOp15
 70
     1
102
RTVSPropertyOp16
 70
     1
102
RTVSPropertyOp17
 70
     1
102
RTVSPropertyOp18
 70
     1
102
RTVSPropertyOp19
 70
     1
102
RTVSPropertyOp20
 70
     1
102
RTVSPropertyOp21
 70
     1
102
RTVSPropertyOp22
 70
     1
102
RTVSPropertyOp23
 70
     1
102
RTVSPropertyOp24
 70
     1
102
RTVSPropertyOp25
 70
     1
102
RTVSPropertyOp26
 70
     1
102
RTVSPropertyOp27
 70
     1
102
RTVSPropertyOp28
 70
     1
102
RTVSPropertyOp29
 70
     1
102
RTVSPropertyOp30
 70
     1
102
RTVSPropertyOp31
 70
     1
102
RTVSPropertyOp32
 70
     1
  0
XRECORD
  5
6FF
102
{ACAD_REACTORS
330
6FE
102
}
330
6FE
100
AcDbXrecord
280
     1
102
RTVSPropertyOp0
 70
     1
102
RTVSPropertyOp1
 70
     1
102
RTVSPropertyOp2
 70
     1
102
RTVSPropertyOp3
 70
     1
102
RTVSPropertyOp4
 70
     1
102
RTVSPropertyOp5
 70
     1
102
RTVSPropertyOp6
 70
     1
102
RTVSPropertyOp7
 70
     1
102
RTVSPropertyOp8
 70
     1
102
RTVSPropertyOp9
 70
     1
102
RTVSPropertyOp10
 70
     1
102
RTVSPropertyOp11
 70
     1
102
RTVSPropertyOp12
 70
     1
102
RTVSPropertyOp13
 70
     1
102
RTVSPropertyOp14
 70
     1
102
RTVSPropertyOp15
 70
     1
102
RTVSPropertyOp16
 70
     1
102
RTVSPropertyOp17
 70
     1
102
RTVSPropertyOp18
 70
     1
102
RTVSPropertyOp19
 70
     1
102
RTVSPropertyOp20
 70
     1
102
RTVSPropertyOp21
 70
     1
102
RTVSPropertyOp22
 70
     1
102
RTVSPropertyOp23
 70
     1
102
RTVSPropertyOp24
 70
     1
102
RTVSPropertyOp25
 70
     1
102
RTVSPropertyOp26
 70
     1
102
RTVSPropertyOp27
 70
     1
102
RTVSPropertyOp28
 70
     1
102
RTVSPropertyOp29
 70
     1
102
RTVSPropertyOp30
 70
     1
102
RTVSPropertyOp31
 70
     1
102
RTVSPropertyOp32
 70
     1
  0
XRECORD
  5
6F1
102
{ACAD_REACTORS
330
6F0
102
}
330
6F0
100
AcDbXrecord
280
     1
102
RTVSPropertyOp0
 70
     1
102
RTVSPropertyOp1
 70
     1
102
RTVSPropertyOp2
 70
     1
102
RTVSPropertyOp3
 70
     1
102
RTVSPropertyOp4
 70
     1
102
RTVSPropertyOp5
 70
     1
102
RTVSPropertyOp6
 70
     1
102
RTVSPropertyOp7
 70
     1
102
RTVSPropertyOp8
 70
     1
102
RTVSPropertyOp9
 70
     1
102
RTVSPropertyOp10
 70
     1
102
RTVSPropertyOp11
 70
     1
102
RTVSPropertyOp12
 70
     1
102
RTVSPropertyOp13
 70
     1
102
RTVSPropertyOp14
 70
     1
102
RTVSPropertyOp15
 70
     1
102
RTVSPropertyOp16
 70
     1
102
RTVSPropertyOp17
 70
     1
102
RTVSPropertyOp18
 70
     1
102
RTVSPropertyOp19
 70
     1
102
RTVSPropertyOp20
 70
     1
102
RTVSPropertyOp21
 70
     1
102
RTVSPropertyOp22
 70
     1
102
RTVSPropertyOp23
 70
     1
102
RTVSPropertyOp24
 70
     1
102
RTVSPropertyOp25
 70
     1
102
RTVSPropertyOp26
 70
     1
102
RTVSPropertyOp27
 70
     1
102
RTVSPropertyOp28
 70
     1
102
RTVSPropertyOp29
 70
     1
102
RTVSPropertyOp30
 70
     1
102
RTVSPropertyOp31
 70
     1
102
RTVSPropertyOp32
 70
     1
  0
XRECORD
  5
6F5
102
{ACAD_REACTORS
330
6F4
102
}
330
6F4
100
AcDbXrecord
280
     1
102
RTVSPropertyOp0
 70
     1
102
RTVSPropertyOp1
 70
     1
102
RTVSPropertyOp2
 70
     1
102
RTVSPropertyOp3
 70
     1
102
RTVSPropertyOp4
 70
     1
102
RTVSPropertyOp5
 70
     1
102
RTVSPropertyOp6
 70
     1
102
RTVSPropertyOp7
 70
     1
102
RTVSPropertyOp8
 70
     1
102
RTVSPropertyOp9
 70
     1
102
RTVSPropertyOp10
 70
     1
102
RTVSPropertyOp11
 70
     1
102
RTVSPropertyOp12
 70
     1
102
RTVSPropertyOp13
 70
     1
102
RTVSPropertyOp14
 70
     1
102
RTVSPropertyOp15
 70
     1
102
RTVSPropertyOp16
 70
     1
102
RTVSPropertyOp17
 70
     1
102
RTVSPropertyOp18
 70
     1
102
RTVSPropertyOp19
 70
     1
102
RTVSPropertyOp20
 70
     1
102
RTVSPropertyOp21
 70
     1
102
RTVSPropertyOp22
 70
     1
102
RTVSPropertyOp23
 70
     1
102
RTVSPropertyOp24
 70
     1
102
RTVSPropertyOp25
 70
     1
102
RTVSPropertyOp26
 70
     1
102
RTVSPropertyOp27
 70
     1
102
RTVSPropertyOp28
 70
     1
102
RTVSPropertyOp29
 70
     1
102
RTVSPropertyOp30
 70
     1
102
RTVSPropertyOp31
 70
     1
102
RTVSPropertyOp32
 70
     1
  0
XRECORD
  5
70F
102
{ACAD_REACTORS
330
70E
102
}
330
70E
100
AcDbXrecord
280
     1
102
RTVSPropertyOp0
 70
     0
102
RTVSPropertyOp1
 70
     0
102
RTVSPropertyOp2
 70
     0
102
RTVSPropertyOp3
 70
     0
102
RTVSPropertyOp4
 70
     0
102
RTVSPropertyOp5
 70
     0
102
RTVSPropertyOp6
 70
     0
102
RTVSPropertyOp7
 70
     0
102
RTVSPropertyOp8
 70
     0
102
RTVSPropertyOp9
 70
     0
102
RTVSPropertyOp10
 70
     0
102
RTVSPropertyOp11
 70
     0
102
RTVSPropertyOp12
 70
     0
102
RTVSPropertyOp13
 70
     0
102
RTVSPropertyOp14
 70
     2
102
RTVSPropertyOp15
 70
     0
102
RTVSPropertyOp16
 70
     0
102
RTVSPropertyOp17
 70
     0
102
RTVSPropertyOp18
 70
     0
102
RTVSPropertyOp19
 70
     0
102
RTVSPropertyOp20
 70
     0
102
RTVSPropertyOp21
 70
     0
102
RTVSPropertyOp22
 70
     0
102
RTVSPropertyOp23
 70
     0
102
RTVSPropertyOp24
 70
     0
102
RTVSPropertyOp25
 70
     0
102
RTVSPropertyOp26
 70
     0
102
RTVSPropertyOp27
 70
     0
102
RTVSPropertyOp28
 70
     0
102
RTVSPropertyOp29
 70
     0
102
RTVSPropertyOp30
 70
     0
102
RTVSPropertyOp31
 70
     0
102
RTVSPropertyOp32
 70
     0
  0
XRECORD
  5
6FD
102
{ACAD_REACTORS
330
6FC
102
}
330
6FC
100
AcDbXrecord
280
     1
102
RTVSPropertyOp0
 70
     1
102
RTVSPropertyOp1
 70
     1
102
RTVSPropertyOp2
 70
     1
102
RTVSPropertyOp3
 70
     1
102
RTVSPropertyOp4
 70
     1
102
RTVSPropertyOp5
 70
     1
102
RTVSPropertyOp6
 70
     1
102
RTVSPropertyOp7
 70
     1
102
RTVSPropertyOp8
 70
     1
102
RTVSPropertyOp9
 70
     1
102
RTVSPropertyOp10
 70
     1
102
RTVSPropertyOp11
 70
     1
102
RTVSPropertyOp12
 70
     1
102
RTVSPropertyOp13
 70
     1
102
RTVSPropertyOp14
 70
     1
102
RTVSPropertyOp15
 70
     1
102
RTVSPropertyOp16
 70
     1
102
RTVSPropertyOp17
 70
     1
102
RTVSPropertyOp18
 70
     1
102
RTVSPropertyOp19
 70
     1
102
RTVSPropertyOp20
 70
     1
102
RTVSPropertyOp21
 70
     1
102
RTVSPropertyOp22
 70
     1
102
RTVSPropertyOp23
 70
     1
102
RTVSPropertyOp24
 70
     1
102
RTVSPropertyOp25
 70
     1
102
RTVSPropertyOp26
 70
     1
102
RTVSPropertyOp27
 70
     1
102
RTVSPropertyOp28
 70
     1
102
RTVSPropertyOp29
 70
     1
102
RTVSPropertyOp30
 70
     1
102
RTVSPropertyOp31
 70
     1
102
RTVSPropertyOp32
 70
     1
  0
XRECORD
  5
6E1
102
{ACAD_REACTORS
330
6E0
102
}
330
6E0
100
AcDbXrecord
280
     1
102
RTVSPropertyOp0
 70
     1
102
RTVSPropertyOp1
 70
     1
102
RTVSPropertyOp2
 70
     1
102
RTVSPropertyOp3
 70
     1
102
RTVSPropertyOp4
 70
     1
102
RTVSPropertyOp5
 70
     1
102
RTVSPropertyOp6
 70
     1
102
RTVSPropertyOp7
 70
     1
102
RTVSPropertyOp8
 70
     1
102
RTVSPropertyOp9
 70
     1
102
RTVSPropertyOp10
 70
     1
102
RTVSPropertyOp11
 70
     1
102
RTVSPropertyOp12
 70
     1
102
RTVSPropertyOp13
 70
     1
102
RTVSPropertyOp14
 70
     1
102
RTVSPropertyOp15
 70
     1
102
RTVSPropertyOp16
 70
     1
102
RTVSPropertyOp17
 70
     1
102
RTVSPropertyOp18
 70
     1
102
RTVSPropertyOp19
 70
     1
102
RTVSPropertyOp20
 70
     1
102
RTVSPropertyOp21
 70
     1
102
RTVSPropertyOp22
 70
     1
102
RTVSPropertyOp23
 70
     1
102
RTVSPropertyOp24
 70
     1
102
RTVSPropertyOp25
 70
     1
102
RTVSPropertyOp26
 70
     1
102
RTVSPropertyOp27
 70
     1
102
RTVSPropertyOp28
 70
     1
102
RTVSPropertyOp29
 70
     1
102
RTVSPropertyOp30
 70
     1
102
RTVSPropertyOp31
 70
     1
102
RTVSPropertyOp32
 70
     1
  0
XRECORD
  5
6E3
102
{ACAD_REACTORS
330
6E2
102
}
330
6E2
100
AcDbXrecord
280
     1
102
RTVSPropertyOp0
 70
     1
102
RTVSPropertyOp1
 70
     1
102
RTVSPropertyOp2
 70
     1
102
RTVSPropertyOp3
 70
     1
102
RTVSPropertyOp4
 70
     1
102
RTVSPropertyOp5
 70
     1
102
RTVSPropertyOp6
 70
     1
102
RTVSPropertyOp7
 70
     1
102
RTVSPropertyOp8
 70
     1
102
RTVSPropertyOp9
 70
     1
102
RTVSPropertyOp10
 70
     1
102
RTVSPropertyOp11
 70
     1
102
RTVSPropertyOp12
 70
     1
102
RTVSPropertyOp13
 70
     1
102
RTVSPropertyOp14
 70
     1
102
RTVSPropertyOp15
 70
     1
102
RTVSPropertyOp16
 70
     1
102
RTVSPropertyOp17
 70
     1
102
RTVSPropertyOp18
 70
     1
102
RTVSPropertyOp19
 70
     1
102
RTVSPropertyOp20
 70
     1
102
RTVSPropertyOp21
 70
     1
102
RTVSPropertyOp22
 70
     1
102
RTVSPropertyOp23
 70
     1
102
RTVSPropertyOp24
 70
     1
102
RTVSPropertyOp25
 70
     1
102
RTVSPropertyOp26
 70
     1
102
RTVSPropertyOp27
 70
     1
102
RTVSPropertyOp28
 70
     1
102
RTVSPropertyOp29
 70
     1
102
RTVSPropertyOp30
 70
     1
102
RTVSPropertyOp31
 70
     1
102
RTVSPropertyOp32
 70
     1
  0
XRECORD
  5
6E5
102
{ACAD_REACTORS
330
6E4
102
}
330
6E4
100
AcDbXrecord
280
     1
102
RTVSPropertyOp0
 70
     1
102
RTVSPropertyOp1
 70
     1
102
RTVSPropertyOp2
 70
     1
102
RTVSPropertyOp3
 70
     1
102
RTVSPropertyOp4
 70
     1
102
RTVSPropertyOp5
 70
     1
102
RTVSPropertyOp6
 70
     1
102
RTVSPropertyOp7
 70
     1
102
RTVSPropertyOp8
 70
     1
102
RTVSPropertyOp9
 70
     1
102
RTVSPropertyOp10
 70
     1
102
RTVSPropertyOp11
 70
     1
102
RTVSPropertyOp12
 70
     1
102
RTVSPropertyOp13
 70
     1
102
RTVSPropertyOp14
 70
     1
102
RTVSPropertyOp15
 70
     1
102
RTVSPropertyOp16
 70
     1
102
RTVSPropertyOp17
 70
     1
102
RTVSPropertyOp18
 70
     1
102
RTVSPropertyOp19
 70
     1
102
RTVSPropertyOp20
 70
     1
102
RTVSPropertyOp21
 70
     1
102
RTVSPropertyOp22
 70
     1
102
RTVSPropertyOp23
 70
     1
102
RTVSPropertyOp24
 70
     1
102
RTVSPropertyOp25
 70
     1
102
RTVSPropertyOp26
 70
     1
102
RTVSPropertyOp27
 70
     1
102
RTVSPropertyOp28
 70
     1
102
RTVSPropertyOp29
 70
     1
102
RTVSPropertyOp30
 70
     1
102
RTVSPropertyOp31
 70
     1
102
RTVSPropertyOp32
 70
     1
  0
XRECORD
  5
6E7
102
{ACAD_REACTORS
330
6E6
102
}
330
6E6
100
AcDbXrecord
280
     1
102
RTVSPropertyOp0
 70
     1
102
RTVSPropertyOp1
 70
     1
102
RTVSPropertyOp2
 70
     1
102
RTVSPropertyOp3
 70
     1
102
RTVSPropertyOp4
 70
     1
102
RTVSPropertyOp5
 70
     1
102
RTVSPropertyOp6
 70
     1
102
RTVSPropertyOp7
 70
     1
102
RTVSPropertyOp8
 70
     1
102
RTVSPropertyOp9
 70
     1
102
RTVSPropertyOp10
 70
     1
102
RTVSPropertyOp11
 70
     1
102
RTVSPropertyOp12
 70
     1
102
RTVSPropertyOp13
 70
     1
102
RTVSPropertyOp14
 70
     1
102
RTVSPropertyOp15
 70
     1
102
RTVSPropertyOp16
 70
     1
102
RTVSPropertyOp17
 70
     1
102
RTVSPropertyOp18
 70
     1
102
RTVSPropertyOp19
 70
     1
102
RTVSPropertyOp20
 70
     1
102
RTVSPropertyOp21
 70
     1
102
RTVSPropertyOp22
 70
     1
102
RTVSPropertyOp23
 70
     1
102
RTVSPropertyOp24
 70
     1
102
RTVSPropertyOp25
 70
     1
102
RTVSPropertyOp26
 70
     1
102
RTVSPropertyOp27
 70
     1
102
RTVSPropertyOp28
 70
     1
102
RTVSPropertyOp29
 70
     1
102
RTVSPropertyOp30
 70
     1
102
RTVSPropertyOp31
 70
     1
102
RTVSPropertyOp32
 70
     1
  0
XRECORD
  5
6EF
102
{ACAD_REACTORS
330
6EE
102
}
330
6EE
100
AcDbXrecord
280
     1
102
RTVSPropertyOp0
 70
     1
102
RTVSPropertyOp1
 70
     1
102
RTVSPropertyOp2
 70
     1
102
RTVSPropertyOp3
 70
     1
102
RTVSPropertyOp4
 70
     1
102
RTVSPropertyOp5
 70
     1
102
RTVSPropertyOp6
 70
     1
102
RTVSPropertyOp7
 70
     1
102
RTVSPropertyOp8
 70
     1
102
RTVSPropertyOp9
 70
     1
102
RTVSPropertyOp10
 70
     1
102
RTVSPropertyOp11
 70
     1
102
RTVSPropertyOp12
 70
     1
102
RTVSPropertyOp13
 70
     1
102
RTVSPropertyOp14
 70
     1
102
RTVSPropertyOp15
 70
     1
102
RTVSPropertyOp16
 70
     1
102
RTVSPropertyOp17
 70
     1
102
RTVSPropertyOp18
 70
     1
102
RTVSPropertyOp19
 70
     1
102
RTVSPropertyOp20
 70
     1
102
RTVSPropertyOp21
 70
     1
102
RTVSPropertyOp22
 70
     1
102
RTVSPropertyOp23
 70
     1
102
RTVSPropertyOp24
 70
     1
102
RTVSPropertyOp25
 70
     1
102
RTVSPropertyOp26
 70
     1
102
RTVSPropertyOp27
 70
     1
102
RTVSPropertyOp28
 70
     1
102
RTVSPropertyOp29
 70
     1
102
RTVSPropertyOp30
 70
     1
102
RTVSPropertyOp31
 70
     1
102
RTVSPropertyOp32
 70
     1
  0
XRECORD
  5
70B
102
{ACAD_REACTORS
330
70A
102
}
330
70A
100
AcDbXrecord
280
     1
102
RTVSPropertyOp0
 70
     0
102
RTVSPropertyOp1
 70
     0
102
RTVSPropertyOp2
 70
     0
102
RTVSPropertyOp3
 70
     0
102
RTVSPropertyOp4
 70
     0
102
RTVSPropertyOp5
 70
     0
102
RTVSPropertyOp6
 70
     0
102
RTVSPropertyOp7
 70
     0
102
RTVSPropertyOp8
 70
     0
102
RTVSPropertyOp9
 70
     0
102
RTVSPropertyOp10
 70
     0
102
RTVSPropertyOp11
 70
     0
102
RTVSPropertyOp12
 70
     0
102
RTVSPropertyOp13
 70
     0
102
RTVSPropertyOp14
 70
     2
102
RTVSPropertyOp15
 70
     0
102
RTVSPropertyOp16
 70
     0
102
RTVSPropertyOp17
 70
     0
102
RTVSPropertyOp18
 70
     0
102
RTVSPropertyOp19
 70
     0
102
RTVSPropertyOp20
 70
     0
102
RTVSPropertyOp21
 70
     0
102
RTVSPropertyOp22
 70
     0
102
RTVSPropertyOp23
 70
     0
102
RTVSPropertyOp24
 70
     0
102
RTVSPropertyOp25
 70
     0
102
RTVSPropertyOp26
 70
     0
102
RTVSPropertyOp27
 70
     0
102
RTVSPropertyOp28
 70
     0
102
RTVSPropertyOp29
 70
     0
102
RTVSPropertyOp30
 70
     0
102
RTVSPropertyOp31
 70
     0
102
RTVSPropertyOp32
 70
     0
  0
XRECORD
  5
6FB
102
{ACAD_REACTORS
330
6FA
102
}
330
6FA
100
AcDbXrecord
280
     1
102
RTVSPropertyOp0
 70
     1
102
RTVSPropertyOp1
 70
     1
102
RTVSPropertyOp2
 70
     1
102
RTVSPropertyOp3
 70
     1
102
RTVSPropertyOp4
 70
     1
102
RTVSPropertyOp5
 70
     1
102
RTVSPropertyOp6
 70
     1
102
RTVSPropertyOp7
 70
     1
102
RTVSPropertyOp8
 70
     1
102
RTVSPropertyOp9
 70
     1
102
RTVSPropertyOp10
 70
     1
102
RTVSPropertyOp11
 70
     1
102
RTVSPropertyOp12
 70
     1
102
RTVSPropertyOp13
 70
     1
102
RTVSPropertyOp14
 70
     1
102
RTVSPropertyOp15
 70
     1
102
RTVSPropertyOp16
 70
     1
102
RTVSPropertyOp17
 70
     1
102
RTVSPropertyOp18
 70
     1
102
RTVSPropertyOp19
 70
     1
102
RTVSPropertyOp20
 70
     1
102
RTVSPropertyOp21
 70
     1
102
RTVSPropertyOp22
 70
     1
102
RTVSPropertyOp23
 70
     1
102
RTVSPropertyOp24
 70
     1
102
RTVSPropertyOp25
 70
     1
102
RTVSPropertyOp26
 70
     1
102
RTVSPropertyOp27
 70
     1
102
RTVSPropertyOp28
 70
     1
102
RTVSPropertyOp29
 70
     1
102
RTVSPropertyOp30
 70
     1
102
RTVSPropertyOp31
 70
     1
102
RTVSPropertyOp32
 70
     1
  0
XRECORD
  5
70D
102
{ACAD_REACTORS
330
70C
102
}
330
70C
100
AcDbXrecord
280
     1
102
RTVSPropertyOp0
 70
     0
102
RTVSPropertyOp1
 70
     0
102
RTVSPropertyOp2
 70
     0
102
RTVSPropertyOp3
 70
     0
102
RTVSPropertyOp4
 70
     0
102
RTVSPropertyOp5
 70
     0
102
RTVSPropertyOp6
 70
     0
102
RTVSPropertyOp7
 70
     0
102
RTVSPropertyOp8
 70
     0
102
RTVSPropertyOp9
 70
     0
102
RTVSPropertyOp10
 70
     0
102
RTVSPropertyOp11
 70
     0
102
RTVSPropertyOp12
 70
     0
102
RTVSPropertyOp13
 70
     0
102
RTVSPropertyOp14
 70
     2
102
RTVSPropertyOp15
 70
     0
102
RTVSPropertyOp16
 70
     0
102
RTVSPropertyOp17
 70
     0
102
RTVSPropertyOp18
 70
     0
102
RTVSPropertyOp19
 70
     0
102
RTVSPropertyOp20
 70
     0
102
RTVSPropertyOp21
 70
     0
102
RTVSPropertyOp22
 70
     0
102
RTVSPropertyOp23
 70
     0
102
RTVSPropertyOp24
 70
     0
102
RTVSPropertyOp25
 70
     0
102
RTVSPropertyOp26
 70
     0
102
RTVSPropertyOp27
 70
     0
102
RTVSPropertyOp28
 70
     0
102
RTVSPropertyOp29
 70
     0
102
RTVSPropertyOp30
 70
     0
102
RTVSPropertyOp31
 70
     0
102
RTVSPropertyOp32
 70
     0
  0
XRECORD
  5
6F3
102
{ACAD_REACTORS
330
6F2
102
}
330
6F2
100
AcDbXrecord
280
     1
102
RTVSPropertyOp0
 70
     1
102
RTVSPropertyOp1
 70
     1
102
RTVSPropertyOp2
 70
     1
102
RTVSPropertyOp3
 70
     1
102
RTVSPropertyOp4
 70
     1
102
RTVSPropertyOp5
 70
     1
102
RTVSPropertyOp6
 70
     1
102
RTVSPropertyOp7
 70
     1
102
RTVSPropertyOp8
 70
     1
102
RTVSPropertyOp9
 70
     1
102
RTVSPropertyOp10
 70
     1
102
RTVSPropertyOp11
 70
     1
102
RTVSPropertyOp12
 70
     1
102
RTVSPropertyOp13
 70
     1
102
RTVSPropertyOp14
 70
     1
102
RTVSPropertyOp15
 70
     1
102
RTVSPropertyOp16
 70
     1
102
RTVSPropertyOp17
 70
     1
102
RTVSPropertyOp18
 70
     1
102
RTVSPropertyOp19
 70
     1
102
RTVSPropertyOp20
 70
     1
102
RTVSPropertyOp21
 70
     1
102
RTVSPropertyOp22
 70
     1
102
RTVSPropertyOp23
 70
     1
102
RTVSPropertyOp24
 70
     1
102
RTVSPropertyOp25
 70
     1
102
RTVSPropertyOp26
 70
     1
102
RTVSPropertyOp27
 70
     1
102
RTVSPropertyOp28
 70
     1
102
RTVSPropertyOp29
 70
     1
102
RTVSPropertyOp30
 70
     1
102
RTVSPropertyOp31
 70
     1
102
RTVSPropertyOp32
 70
     1
  0
XRECORD
  5
709
102
{ACAD_REACTORS
330
708
102
}
330
708
100
AcDbXrecord
280
     1
102
RTVSPropertyOp0
 70
     1
102
RTVSPropertyOp1
 70
     1
102
RTVSPropertyOp2
 70
     1
102
RTVSPropertyOp3
 70
     1
102
RTVSPropertyOp4
 70
     1
102
RTVSPropertyOp5
 70
     1
102
RTVSPropertyOp6
 70
     1
102
RTVSPropertyOp7
 70
     1
102
RTVSPropertyOp8
 70
     1
102
RTVSPropertyOp9
 70
     1
102
RTVSPropertyOp10
 70
     1
102
RTVSPropertyOp11
 70
     1
102
RTVSPropertyOp12
 70
     1
102
RTVSPropertyOp13
 70
     1
102
RTVSPropertyOp14
 70
     1
102
RTVSPropertyOp15
 70
     1
102
RTVSPropertyOp16
 70
     1
102
RTVSPropertyOp17
 70
     1
102
RTVSPropertyOp18
 70
     1
102
RTVSPropertyOp19
 70
     1
102
RTVSPropertyOp20
 70
     1
102
RTVSPropertyOp21
 70
     1
102
RTVSPropertyOp22
 70
     1
102
RTVSPropertyOp23
 70
     1
102
RTVSPropertyOp24
 70
     1
102
RTVSPropertyOp25
 70
     1
102
RTVSPropertyOp26
 70
     1
102
RTVSPropertyOp27
 70
     1
102
RTVSPropertyOp28
 70
     1
102
RTVSPropertyOp29
 70
     1
102
RTVSPropertyOp30
 70
     1
102
RTVSPropertyOp31
 70
     1
102
RTVSPropertyOp32
 70
     1
  0
XRECORD
  5
707
102
{ACAD_REACTORS
330
706
102
}
330
706
100
AcDbXrecord
280
     1
102
RTVSPropertyOp0
 70
     1
102
RTVSPropertyOp1
 70
     1
102
RTVSPropertyOp2
 70
     1
102
RTVSPropertyOp3
 70
     1
102
RTVSPropertyOp4
 70
     1
102
RTVSPropertyOp5
 70
     1
102
RTVSPropertyOp6
 70
     1
102
RTVSPropertyOp7
 70
     1
102
RTVSPropertyOp8
 70
     1
102
RTVSPropertyOp9
 70
     1
102
RTVSPropertyOp10
 70
     1
102
RTVSPropertyOp11
 70
     1
102
RTVSPropertyOp12
 70
     1
102
RTVSPropertyOp13
 70
     1
102
RTVSPropertyOp14
 70
     1
102
RTVSPropertyOp15
 70
     1
102
RTVSPropertyOp16
 70
     1
102
RTVSPropertyOp17
 70
     1
102
RTVSPropertyOp18
 70
     1
102
RTVSPropertyOp19
 70
     1
102
RTVSPropertyOp20
 70
     1
102
RTVSPropertyOp21
 70
     1
102
RTVSPropertyOp22
 70
     1
102
RTVSPropertyOp23
 70
     1
102
RTVSPropertyOp24
 70
     1
102
RTVSPropertyOp25
 70
     1
102
RTVSPropertyOp26
 70
     1
102
RTVSPropertyOp27
 70
     1
102
RTVSPropertyOp28
 70
     1
102
RTVSPropertyOp29
 70
     1
102
RTVSPropertyOp30
 70
     1
102
RTVSPropertyOp31
 70
     1
102
RTVSPropertyOp32
 70
     1
  0
XRECORD
  5
701
102
{ACAD_REACTORS
330
700
102
}
330
700
100
AcDbXrecord
280
     1
102
RTVSPropertyOp0
 70
     1
102
RTVSPropertyOp1
 70
     1
102
RTVSPropertyOp2
 70
     1
102
RTVSPropertyOp3
 70
     1
102
RTVSPropertyOp4
 70
     1
102
RTVSPropertyOp5
 70
     1
102
RTVSPropertyOp6
 70
     1
102
RTVSPropertyOp7
 70
     1
102
RTVSPropertyOp8
 70
     1
102
RTVSPropertyOp9
 70
     1
102
RTVSPropertyOp10
 70
     1
102
RTVSPropertyOp11
 70
     1
102
RTVSPropertyOp12
 70
     1
102
RTVSPropertyOp13
 70
     1
102
RTVSPropertyOp14
 70
     1
102
RTVSPropertyOp15
 70
     1
102
RTVSPropertyOp16
 70
     1
102
RTVSPropertyOp17
 70
     1
102
RTVSPropertyOp18
 70
     1
102
RTVSPropertyOp19
 70
     1
102
RTVSPropertyOp20
 70
     1
102
RTVSPropertyOp21
 70
     1
102
RTVSPropertyOp22
 70
     1
102
RTVSPropertyOp23
 70
     1
102
RTVSPropertyOp24
 70
     1
102
RTVSPropertyOp25
 70
     1
102
RTVSPropertyOp26
 70
     1
102
RTVSPropertyOp27
 70
     1
102
RTVSPropertyOp28
 70
     1
102
RTVSPropertyOp29
 70
     1
102
RTVSPropertyOp30
 70
     1
102
RTVSPropertyOp31
 70
     1
102
RTVSPropertyOp32
 70
     1
  0
XRECORD
  5
703
102
{ACAD_REACTORS
330
702
102
}
330
702
100
AcDbXrecord
280
     1
102
RTVSPropertyOp0
 70
     1
102
RTVSPropertyOp1
 70
     1
102
RTVSPropertyOp2
 70
     1
102
RTVSPropertyOp3
 70
     1
102
RTVSPropertyOp4
 70
     1
102
RTVSPropertyOp5
 70
     1
102
RTVSPropertyOp6
 70
     1
102
RTVSPropertyOp7
 70
     1
102
RTVSPropertyOp8
 70
     1
102
RTVSPropertyOp9
 70
     1
102
RTVSPropertyOp10
 70
     1
102
RTVSPropertyOp11
 70
     1
102
RTVSPropertyOp12
 70
     1
102
RTVSPropertyOp13
 70
     1
102
RTVSPropertyOp14
 70
     1
102
RTVSPropertyOp15
 70
     1
102
RTVSPropertyOp16
 70
     1
102
RTVSPropertyOp17
 70
     1
102
RTVSPropertyOp18
 70
     1
102
RTVSPropertyOp19
 70
     1
102
RTVSPropertyOp20
 70
     1
102
RTVSPropertyOp21
 70
     1
102
RTVSPropertyOp22
 70
     1
102
RTVSPropertyOp23
 70
     1
102
RTVSPropertyOp24
 70
     1
102
RTVSPropertyOp25
 70
     1
102
RTVSPropertyOp26
 70
     1
102
RTVSPropertyOp27
 70
     1
102
RTVSPropertyOp28
 70
     1
102
RTVSPropertyOp29
 70
     1
102
RTVSPropertyOp30
 70
     1
102
RTVSPropertyOp31
 70
     1
102
RTVSPropertyOp32
 70
     1
  0
XRECORD
  5
6F9
102
{ACAD_REACTORS
330
6F8
102
}
330
6F8
100
AcDbXrecord
280
     1
102
RTVSPropertyOp0
 70
     1
102
RTVSPropertyOp1
 70
     1
102
RTVSPropertyOp2
 70
     1
102
RTVSPropertyOp3
 70
     1
102
RTVSPropertyOp4
 70
     1
102
RTVSPropertyOp5
 70
     1
102
RTVSPropertyOp6
 70
     1
102
RTVSPropertyOp7
 70
     1
102
RTVSPropertyOp8
 70
     1
102
RTVSPropertyOp9
 70
     1
102
RTVSPropertyOp10
 70
     1
102
RTVSPropertyOp11
 70
     1
102
RTVSPropertyOp12
 70
     1
102
RTVSPropertyOp13
 70
     1
102
RTVSPropertyOp14
 70
     1
102
RTVSPropertyOp15
 70
     1
102
RTVSPropertyOp16
 70
     1
102
RTVSPropertyOp17
 70
     1
102
RTVSPropertyOp18
 70
     1
102
RTVSPropertyOp19
 70
     1
102
RTVSPropertyOp20
 70
     1
102
RTVSPropertyOp21
 70
     1
102
RTVSPropertyOp22
 70
     1
102
RTVSPropertyOp23
 70
     1
102
RTVSPropertyOp24
 70
     1
102
RTVSPropertyOp25
 70
     1
102
RTVSPropertyOp26
 70
     1
102
RTVSPropertyOp27
 70
     1
102
RTVSPropertyOp28
 70
     1
102
RTVSPropertyOp29
 70
     1
102
RTVSPropertyOp30
 70
     1
102
RTVSPropertyOp31
 70
     1
102
RTVSPropertyOp32
 70
     1
  0
XRECORD
  5
6ED
102
{ACAD_REACTORS
330
6EC
102
}
330
6EC
100
AcDbXrecord
280
     1
102
RTVSPropertyOp0
 70
     1
102
RTVSPropertyOp1
 70
     1
102
RTVSPropertyOp2
 70
     1
102
RTVSPropertyOp3
 70
     1
102
RTVSPropertyOp4
 70
     1
102
RTVSPropertyOp5
 70
     1
102
RTVSPropertyOp6
 70
     1
102
RTVSPropertyOp7
 70
     1
102
RTVSPropertyOp8
 70
     1
102
RTVSPropertyOp9
 70
     1
102
RTVSPropertyOp10
 70
     1
102
RTVSPropertyOp11
 70
     1
102
RTVSPropertyOp12
 70
     1
102
RTVSPropertyOp13
 70
     1
102
RTVSPropertyOp14
 70
     1
102
RTVSPropertyOp15
 70
     1
102
RTVSPropertyOp16
 70
     1
102
RTVSPropertyOp17
 70
     1
102
RTVSPropertyOp18
 70
     1
102
RTVSPropertyOp19
 70
     1
102
RTVSPropertyOp20
 70
     1
102
RTVSPropertyOp21
 70
     1
102
RTVSPropertyOp22
 70
     1
102
RTVSPropertyOp23
 70
     1
102
RTVSPropertyOp24
 70
     1
102
RTVSPropertyOp25
 70
     1
102
RTVSPropertyOp26
 70
     1
102
RTVSPropertyOp27
 70
     1
102
RTVSPropertyOp28
 70
     1
102
RTVSPropertyOp29
 70
     1
102
RTVSPropertyOp30
 70
     1
102
RTVSPropertyOp31
 70
     1
102
RTVSPropertyOp32
 70
     1
  0
XRECORD
  5
705
102
{ACAD_REACTORS
330
704
102
}
330
704
100
AcDbXrecord
280
     1
102
RTVSPropertyOp0
 70
     1
102
RTVSPropertyOp1
 70
     1
102
RTVSPropertyOp2
 70
     1
102
RTVSPropertyOp3
 70
     1
102
RTVSPropertyOp4
 70
     1
102
RTVSPropertyOp5
 70
     1
102
RTVSPropertyOp6
 70
     1
102
RTVSPropertyOp7
 70
     1
102
RTVSPropertyOp8
 70
     1
102
RTVSPropertyOp9
 70
     1
102
RTVSPropertyOp10
 70
     1
102
RTVSPropertyOp11
 70
     1
102
RTVSPropertyOp12
 70
     1
102
RTVSPropertyOp13
 70
     1
102
RTVSPropertyOp14
 70
     1
102
RTVSPropertyOp15
 70
     1
102
RTVSPropertyOp16
 70
     1
102
RTVSPropertyOp17
 70
     1
102
RTVSPropertyOp18
 70
     1
102
RTVSPropertyOp19
 70
     1
102
RTVSPropertyOp20
 70
     1
102
RTVSPropertyOp21
 70
     1
102
RTVSPropertyOp22
 70
     1
102
RTVSPropertyOp23
 70
     1
102
RTVSPropertyOp24
 70
     1
102
RTVSPropertyOp25
 70
     1
102
RTVSPropertyOp26
 70
     1
102
RTVSPropertyOp27
 70
     1
102
RTVSPropertyOp28
 70
     1
102
RTVSPropertyOp29
 70
     1
102
RTVSPropertyOp30
 70
     1
102
RTVSPropertyOp31
 70
     1
102
RTVSPropertyOp32
 70
     1
  0
ENDSEC
  0
EOF
