  0
SECTION
  2
HEADER
  9
$ACADVER
  1
AC1015
  9
$ACADMAINTVER
 70
     6
  9
$DWGCODEPAGE
  3
ANSI_1252
  9
$INSBASE
 10
0.0
 20
0.0
 30
0.0
  9
$EXTMIN
 10
0.0
 20
0.0
 30
0.0
  9
$EXTMAX
 10
482.402
 20
468.339
 30
0.0
  9
$LIMMIN
 10
0.0
 20
0.0
  9
$LIMMAX
 10
482.402
 20
468.339
  9
$ORTHOMODE
 70
     0
  9
$REGENMODE
 70
     1
  9
$FILLMODE
 70
     1
  9
$QTEXTMODE
 70
     0
  9
$MIRRTEXT
 70
     1
  9
$LTSCALE
 40
1.0
  9
$ATTMODE
 70
     1
  9
$TEXTSIZE
 40
2.8222222222
  9
$TRACEWID
 40
1.0
  9
$TEXTSTYLE
  7
Standard
  9
$CLAYER
  8
0
  9
$CELTYPE
  6
ByLayer
  9
$CECOLOR
 62
   256
  9
$CELTSCALE
 40
1.0
  9
$DISPSILH
 70
     0
  9
$DIMSCALE
 40
1.0
  9
$DIMASZ
 40
3.0
  9
$DIMEXO
 40
1.0
  9
$DIMDLI
 40
3.75
  9
$DIMRND
 40
0.0
  9
$DIMDLE
 40
0.0
  9
$DIMEXE
 40
1.0
  9
$DIMTP
 40
0.0
  9
$DIMTM
 40
0.0
  9
$DIMTXT
 40
2.8222222222
  9
$DIMCEN
 40
2.5
  9
$DIMTSZ
 40
0.0
  9
$DIMTOL
 70
     0
  9
$DIMLIM
 70
     0
  9
$DIMTIH
 70
     1
  9
$DIMTOH
 70
     1
  9
$DIMSE1
 70
     0
  9
$DIMSE2
 70
     0
  9
$DIMTAD
 70
     1
  9
$DIMZIN
 70
     0
  9
$DIMBLK
  1

  9
$DIMASO
 70
     1
  9
$DIMSHO
 70
     1
  9
$DIMPOST
  1

  9
$DIMAPOST
  1

  9
$DIMALT
 70
     0
  9
$DIMALTD
 70
     3
  9
$DIMALTF
 40
0.0393700787
  9
$DIMLFAC
 40
5.0
  9
$DIMTOFL
 70
     1
  9
$DIMTVP
 40
0.0
  9
$DIMTIX
 70
     0
  9
$DIMSOXD
 70
     0
  9
$DIMSAH
 70
     0
  9
$DIMBLK1
  1

  9
$DIMBLK2
  1

  9
$DIMSTYLE
  2
ISO-25
  9
$DIMCLRD
 70
     0
  9
$DIMCLRE
 70
     0
  9
$DIMCLRT
 70
     0
  9
$DIMTFAC
 40
1.0
  9
$DIMGAP
 40
1.524
  9
$DIMJUST
 70
     0
  9
$DIMSD1
 70
     0
  9
$DIMSD2
 70
     0
  9
$DIMTOLJ
 70
     0
  9
$DIMTZIN
 70
     0
  9
$DIMALTZ
 70
     0
  9
$DIMALTTZ
 70
     0
  9
$DIMUPT
 70
     0
  9
$DIMDEC
 70
     2
  9
$DIMTDEC
 70
     2
  9
$DIMALTU
 70
     2
  9
$DIMALTTD
 70
     3
  9
$DIMTXSTY
  7
Standard
  9
$DIMAUNIT
 70
     0
  9
$DIMADEC
 70
     2
  9
$DIMALTRND
 40
0.0
  9
$DIMAZIN
 70
     0
  9
$DIMDSEP
 70
    44
  9
$DIMATFIT
 70
     3
  9
$DIMFRAC
 70
     0
  9
$DIMLDRBLK
  1

  9
$DIMLUNIT
 70
     2
  9
$DIMLWD
 70
    -2
  9
$DIMLWE
 70
    -2
  9
$DIMTMOVE
 70
     0
  9
$LUNITS
 70
     2
  9
$LUPREC
 70
     2
  9
$SKETCHINC
 40
1.0
  9
$FILLETRAD
 40
10.0
  9
$AUNITS
 70
     0
  9
$AUPREC
 70
     2
  9
$MENU
  1
.
  9
$ELEVATION
 40
0.0
  9
$PELEVATION
 40
0.0
  9
$THICKNESS
 40
0.0
  9
$LIMCHECK
 70
     0
  9
$CHAMFERA
 40
0.0
  9
$CHAMFERB
 40
0.0
  9
$CHAMFERC
 40
0.0
  9
$CHAMFERD
 40
0.0
  9
$SKPOLY
 70
     0
  9
$TDCREATE
 40
2459125.692271412
  9
$TDUCREATE
 40
2459125.858938079
  9
$TDUPDATE
 40
2459125.69227169
  9
$TDUUPDATE
 40
2459125.858938356
  9
$TDINDWG
 40
0.0000000116
  9
$TDUSRTIMER
 40
0.0000000116
  9
$USRTIMER
 70
     1
  9
$ANGBASE
 50
0.0
  9
$ANGDIR
 70
     0
  9
$PDMODE
 70
     0
  9
$PDSIZE
 40
-1.0
  9
$PLINEWID
 40
0.0
  9
$SPLFRAME
 70
     0
  9
$SPLINETYPE
 70
     6
  9
$SPLINESEGS
 70
     8
  9
$HANDSEED
  5
176
  9
$SURFTAB1
 70
     6
  9
$SURFTAB2
 70
     6
  9
$SURFTYPE
 70
     6
  9
$SURFU
 70
     6
  9
$SURFV
 70
     6
  9
$UCSBASE
  2

  9
$UCSNAME
  2

  9
$UCSORG
 10
0.0
 20
0.0
 30
0.0
  9
$UCSXDIR
 10
1.0
 20
0.0
 30
0.0
  9
$UCSYDIR
 10
0.0
 20
1.0
 30
0.0
  9
$UCSORTHOREF
  2

  9
$UCSORTHOVIEW
 70
     0
  9
$UCSORGTOP
 10
0.0
 20
0.0
 30
0.0
  9
$UCSORGBOTTOM
 10
0.0
 20
0.0
 30
0.0
  9
$UCSORGLEFT
 10
0.0
 20
0.0
 30
0.0
  9
$UCSORGRIGHT
 10
0.0
 20
0.0
 30
0.0
  9
$UCSORGFRONT
 10
0.0
 20
0.0
 30
0.0
  9
$UCSORGBACK
 10
0.0
 20
0.0
 30
0.0
  9
$PUCSBASE
  2

  9
$PUCSNAME
  2

  9
$PUCSORG
 10
0.0
 20
0.0
 30
0.0
  9
$PUCSXDIR
 10
1.0
 20
0.0
 30
0.0
  9
$PUCSYDIR
 10
0.0
 20
1.0
 30
0.0
  9
$PUCSORTHOREF
  2

  9
$PUCSORTHOVIEW
 70
     0
  9
$PUCSORGTOP
 10
0.0
 20
0.0
 30
0.0
  9
$PUCSORGBOTTOM
 10
0.0
 20
0.0
 30
0.0
  9
$PUCSORGLEFT
 10
0.0
 20
0.0
 30
0.0
  9
$PUCSORGRIGHT
 10
0.0
 20
0.0
 30
0.0
  9
$PUCSORGFRONT
 10
0.0
 20
0.0
 30
0.0
  9
$PUCSORGBACK
 10
0.0
 20
0.0
 30
0.0
  9
$USERI1
 70
     0
  9
$USERI2
 70
     0
  9
$USERI3
 70
     0
  9
$USERI4
 70
     0
  9
$USERI5
 70
     0
  9
$USERR1
 40
0.0
  9
$USERR2
 40
0.0
  9
$USERR3
 40
0.0
  9
$USERR4
 40
0.0
  9
$USERR5
 40
0.0
  9
$WORLDVIEW
 70
     1
  9
$SHADEDGE
 70
     3
  9
$SHADEDIF
 70
    70
  9
$TILEMODE
 70
     1
  9
$MAXACTVP
 70
    64
  9
$PINSBASE
 10
0.0
 20
0.0
 30
0.0
  9
$PLIMCHECK
 70
     0
  9
$PEXTMIN
 10
1.0000000000E+20
 20
1.0000000000E+20
 30
1.0000000000E+20
  9
$PEXTMAX
 10
-1.0000000000E+20
 20
-1.0000000000E+20
 30
-1.0000000000E+20
  9
$PLIMMIN
 10
0.0
 20
0.0
  9
$PLIMMAX
 10
420.0
 20
297.0
  9
$UNITMODE
 70
     0
  9
$VISRETAIN
 70
     1
  9
$PLINEGEN
 70
     0
  9
$PSLTSCALE
 70
     1
  9
$TREEDEPTH
 70
  3020
  9
$CMLSTYLE
  2
Standard
  9
$CMLJUST
 70
     0
  9
$CMLSCALE
 40
20.0
  9
$PROXYGRAPHICS
 70
     1
  9
$MEASUREMENT
 70
     1
  9
$CELWEIGHT
370
    -1
  9
$ENDCAPS
280
     0
  9
$JOINSTYLE
280
     0
  9
$LWDISPLAY
290
     1
  9
$INSUNITS
 70
     4
  9
$HYPERLINKBASE
  1

  9
$STYLESHEET
  1

  9
$XEDIT
290
     1
  9
$CEPSNTYPE
380
     0
  9
$PSTYLEMODE
290
     1
  9
$FINGERPRINTGUID
  2
{45963580-DE82-4538-9AC8-1D3D1F968221}
  9
$VERSIONGUID
  2
{FAEB1C32-E019-11D5-929B-00C0DF256EC4}
  9
$EXTNAMES
290
     1
  9
$PSVPSCALE
 40
0.0
  9
$OLESTARTUP
290
     0
  0
ENDSEC
  0
SECTION
  2
CLASSES
  0
CLASS
  1
ACDBDICTIONARYWDFLT
  2
AcDbDictionaryWithDefault
  3
ObjectDBX Classes
 90
        0
280
     0
281
     0
  0
CLASS
  1
VISUALSTYLE
  2
AcDbVisualStyle
  3
ObjectDBX Classes
 90
     4095
280
     0
281
     0
  0
CLASS
  1
MATERIAL
  2
AcDbMaterial
  3
ObjectDBX Classes
 90
     1153
280
     0
281
     0
  0
CLASS
  1
SCALE
  2
AcDbScale
  3
ObjectDBX Classes
 90
     1153
280
     0
281
     0
  0
CLASS
  1
TABLESTYLE
  2
AcDbTableStyle
  3
ObjectDBX Classes
 90
     4095
280
     0
281
     0
  0
CLASS
  1
MLEADERSTYLE
  2
AcDbMLeaderStyle
  3
ACDB_MLEADERSTYLE_CLASS
 90
     4095
280
     0
281
     0
  0
CLASS
  1
SUN
  2
AcDbSun
  3
SCENEOE
 90
     1153
280
     0
281
     0
  0
CLASS
  1
ACDBPLACEHOLDER
  2
AcDbPlaceHolder
  3
ObjectDBX Classes
 90
        0
280
     0
281
     0
  0
CLASS
  1
LAYOUT
  2
AcDbLayout
  3
ObjectDBX Classes
 90
        0
280
     0
281
     0
  0
ENDSEC
  0
SECTION
  2
TABLES
  0
TABLE
  2
VPORT
  5
8
330
0
100
AcDbSymbolTable
 70
     1
  0
VPORT
  5
29
330
8
100
AcDbSymbolTableRecord
100
AcDbViewportTableRecord
  2
*Active
 70
     0
 10
0.0
 20
0.0
 11
1.0
 21
1.0
 12
241.201
 22
234.1695
 13
0.0
 23
0.0
 14
10.0
 24
10.0
 15
10.0
 25
10.0
 16
0.0
 26
0.0
 36
1.0
 17
0.0
 27
0.0
 37
0.0
 40
468.339
 41
1.0300273947
 42
50.0
 43
0.0
 44
0.0
 50
0.0
 51
0.0
 71
     0
 72
  2000
 73
     1
 74
     3
 75
     0
 76
     0
 77
     0
 78
     0
281
     0
 65
     1
110
0.0
120
0.0
130
0.0
111
1.0
121
0.0
131
0.0
112
0.0
122
1.0
132
0.0
 79
     0
146
0.0
  0
ENDTAB
  0
TABLE
  2
LTYPE
  5
5
330
0
100
AcDbSymbolTable
 70
     6
  0
LTYPE
  5
14
330
5
100
AcDbSymbolTableRecord
100
AcDbLinetypeTableRecord
  2
ByBlock
 70
     0
  3

 72
    65
 73
     0
 40
0.0
  0
LTYPE
  5
15
330
5
100
AcDbSymbolTableRecord
100
AcDbLinetypeTableRecord
  2
ByLayer
 70
     0
  3

 72
    65
 73
     0
 40
0.0
  0
LTYPE
  5
16
330
5
100
AcDbSymbolTableRecord
100
AcDbLinetypeTableRecord
  2
Continuous
 70
     0
  3
Solid line
 72
    65
 73
     0
 40
0.0
  0
LTYPE
  5
6E
330
5
100
AcDbSymbolTableRecord
100
AcDbLinetypeTableRecord
  2
HIDDEN
 70
     0
  3
Hidden __ __ __ __ __ __ __ __ __ __ __ __ __ __
 72
    65
 73
     2
 40
1.905
 49
1.27
 74
     0
 49
-0.635
 74
     0
  0
LTYPE
  5
6F
330
5
100
AcDbSymbolTableRecord
100
AcDbLinetypeTableRecord
  2
PHANTOM
 70
     0
  3
Phantom ______  __  __  ______  __  __  ______
 72
    65
 73
     6
 40
12.7
 49
6.35
 74
     0
 49
-1.27
 74
     0
 49
1.27
 74
     0
 49
-1.27
 74
     0
 49
1.27
 74
     0
 49
-1.27
 74
     0
  0
LTYPE
  5
70
330
5
100
AcDbSymbolTableRecord
100
AcDbLinetypeTableRecord
  2
CENTER
 70
     0
  3
Center ____ _ ____ _ ____ _ ____ _ ____ _ ____
 72
    65
 73
     4
 40
10.16
 49
6.35
 74
     0
 49
-1.27
 74
     0
 49
1.27
 74
     0
 49
-1.27
 74
     0
  0
LTYPE
  5
71
330
5
100
AcDbSymbolTableRecord
100
AcDbLinetypeTableRecord
  2
CENTERX2
 70
     0
  3
Center (2x) ________  __  ________  __  _____
 72
    65
 73
     4
 40
20.32
 49
12.7
 74
     0
 49
-2.54
 74
     0
 49
2.54
 74
     0
 49
-2.54
 74
     0
  0
LTYPE
  5
72
330
5
100
AcDbSymbolTableRecord
100
AcDbLinetypeTableRecord
  2
DOT2
 70
     0
  3
Dot (.5x) ........................................
 72
    65
 73
     2
 40
0.635
 49
0.0
 74
     0
 49
-0.635
 74
     0
  0
ENDTAB
  0
TABLE
  2
LAYER
  5
2
330
0
100
AcDbSymbolTable
 70
     2
  0
LAYER
  5
10
330
2
100
AcDbSymbolTableRecord
100
AcDbLayerTableRecord
  2
0
 70
     0
 62
     7
  6
Continuous
370
    -3
390
F
  0
LAYER
  5
73
330
2
100
AcDbSymbolTableRecord
100
AcDbLayerTableRecord
  2
FORMAT
 70
     0
 62
     7
  6
Continuous
370
    -3
390
F
  0
ENDTAB
  0
TABLE
  2
STYLE
  5
3
330
0
100
AcDbSymbolTable
 70
     1
  0
STYLE
  5
11
330
3
100
AcDbSymbolTableRecord
100
AcDbTextStyleTableRecord
  2
Standard
 70
     0
 40
0.0
 41
1.0
 50
0.0
 71
     0
 42
2.8222222222
  3
txt
  4

  0
ENDTAB
  0
TABLE
  2
VIEW
  5
6
330
0
100
AcDbSymbolTable
 70
     0
  0
ENDTAB
  0
TABLE
  2
UCS
  5
7
330
0
100
AcDbSymbolTable
 70
     0
  0
ENDTAB
  0
TABLE
  2
APPID
  5
9
330
0
100
AcDbSymbolTable
 70
     1
  0
APPID
  5
12
330
9
100
AcDbSymbolTableRecord
100
AcDbRegAppTableRecord
  2
ACAD
 70
     0
  0
ENDTAB
  0
TABLE
  2
DIMSTYLE
  5
A
330
0
100
AcDbSymbolTable
 70
     1
100
AcDbDimStyleTable
  0
DIMSTYLE
105
27
330
A
100
AcDbSymbolTableRecord
100
AcDbDimStyleTableRecord
  2
ISO-25
 70
     0
 41
2.5
 42
0.625
 43
3.75
 44
1.25
 73
     0
 74
     0
 77
     1
 78
     8
140
2.5
141
2.5
143
0.0393700787
147
0.625
171
     3
172
     1
178
     0
271
     2
272
     2
274
     3
278
    44
283
     0
284
     8
340
11
  0
ENDTAB
  0
TABLE
  2
BLOCK_RECORD
  5
1
330
0
100
AcDbSymbolTable
 70
     1
  0
BLOCK_RECORD
  5
1F
330
1
100
AcDbSymbolTableRecord
100
AcDbBlockTableRecord
  2
*Model_Space
340
22
  0
BLOCK_RECORD
  5
1B
330
1
100
AcDbSymbolTableRecord
100
AcDbBlockTableRecord
  2
*Paper_Space
340
1E
  0
BLOCK_RECORD
  5
23
330
1
100
AcDbSymbolTableRecord
100
AcDbBlockTableRecord
  2
*Paper_Space0
340
26
  0
ENDTAB
  0
ENDSEC
  0
SECTION
  2
BLOCKS
  0
BLOCK
  5
20
330
1F
100
AcDbEntity
  8
0
100
AcDbBlockBegin
  2
*Model_Space
 70
     0
 10
0.0
 20
0.0
 30
0.0
  3
*Model_Space
  1

  0
ENDBLK
  5
21
330
1F
100
AcDbEntity
  8
0
100
AcDbBlockEnd
  0
BLOCK
  5
1C
330
1B
100
AcDbEntity
 67
     1
  8
0
100
AcDbBlockBegin
  2
*Paper_Space
 70
     0
 10
0.0
 20
0.0
 30
0.0
  3
*Paper_Space
  1

  0
ENDBLK
  5
1D
330
1B
100
AcDbEntity
 67
     1
  8
0
100
AcDbBlockEnd
  0
BLOCK
  5
24
330
23
100
AcDbEntity
  8
0
100
AcDbBlockBegin
  2
*Paper_Space0
 70
     0
 10
0.0
 20
0.0
 30
0.0
  3
*Paper_Space0
  1

  0
ENDBLK
  5
25
330
23
100
AcDbEntity
  8
0
100
AcDbBlockEnd
  0
ENDSEC
  0
SECTION
  2
ENTITIES
  0
SPLINE
  5
74
330
1F
100
AcDbEntity
  8
0
  6
Continuous
 62
     7
370
    25
100
AcDbSpline
210
0.0
220
0.0
230
1.0
 70
     8
 71
     3
 72
    17
 73
    13
 74
     0
 42
0.000000001
 43
0.00000001
 40
0.0
 40
0.0
 40
0.0
 40
0.0
 40
0.0553411331897739
 40
0.2885325130895571
 40
0.4807827424265096
 40
0.6433103798800309
 40
0.777253023419292
 40
0.8812056107345597
 40
0.9526996726256104
 40
0.9797070304074875
 40
0.9940770179195739
 40
1.0
 40
1.0
 40
1.0
 40
1.0
 10
362.5392930028158
 20
113.3147394320418
 30
0.0
 10
362.5352403777503
 20
113.3386313588901
 30
0.0
 10
362.5141111737141
 20
113.4631968908684
 30
0.0
 10
362.5815759270885
 20
113.6729003065502
 30
0.0
 10
362.6983354316079
 20
113.9003749685194
 30
0.0
 10
362.8424988639323
 20
114.0607980439676
 30
0.0
 10
362.98215402124
 20
114.1668342885738
 30
0.0
 10
363.1012799329868
 20
114.2308244634517
 30
0.0
 10
363.1836212990879
 20
114.263534588059
 30
0.0
 10
363.2293092555248
 20
114.2783339063183
 30
0.0
 10
363.2448897221971
 20
114.2829792869988
 30
0.0
 10
363.2487709429174
 20
114.284091196033
 30
0.0
 10
363.2499037687796
 20
114.2844157329251
 30
0.0
  0
SPLINE
  5
75
330
1F
100
AcDbEntity
  8
0
  6
Continuous
 62
     7
370
    25
100
AcDbSpline
210
0.0
220
0.0
230
1.0
 70
     8
 71
     3
 72
    10
 73
     6
 74
     0
 42
0.000000001
 43
0.00000001
 40
0.0
 40
0.0
 40
0.0
 40
0.0
 40
0.0193187764018979
 40
0.4269476668199552
 40
1.0
 40
1.0
 40
1.0
 40
1.0
 10
363.2671341677326
 20
114.2892232200553
 30
0.0
 10
363.2673199803887
 20
114.2892734808636
 30
0.0
 10
363.2714264661371
 20
114.2903842517734
 30
0.0
 10
363.2415772801
 20
114.2824368911661
 30
0.0
 10
363.1593387440806
 20
114.2615611608358
 30
0.0
 10
363.1112833884674
 20
114.2493626138618
 30
0.0
  0
SPLINE
  5
76
330
1F
100
AcDbEntity
  8
0
  6
Continuous
 62
     7
370
    25
100
AcDbSpline
210
0.0
220
0.0
230
1.0
 70
     8
 71
     3
 72
    10
 73
     6
 74
     0
 42
0.000000001
 43
0.00000001
 40
0.0
 40
0.0
 40
0.0
 40
0.0
 40
0.5102580851409734
 40
0.9135894972443144
 40
1.0
 40
1.0
 40
1.0
 40
1.0
 10
351.0302740526515
 20
114.2280055245807
 30
0.0
 10
350.9622782717985
 20
114.245020889169
 30
0.0
 10
350.8405355046514
 20
114.2754859789585
 30
0.0
 10
350.7826712197488
 20
114.29094943999
 30
0.0
 10
350.7940760552463
 20
114.2877879974952
 30
0.0
 10
350.7960883346516
 20
114.2872301897456
 30
0.0
  0
SPLINE
  5
77
330
1F
100
AcDbEntity
  8
0
  6
Continuous
 62
     7
370
    25
100
AcDbSpline
210
0.0
220
0.0
230
1.0
 70
     8
 71
     3
 72
    15
 73
    11
 74
     0
 42
0.000000001
 43
0.00000001
 40
0.0
 40
0.0
 40
0.0
 40
0.0
 40
0.0146897840024547
 40
0.0293596024308717
 40
0.0617791835902631
 40
0.1566226280537649
 40
0.3795885092415396
 40
0.6304771552733038
 40
0.9042725523585341
 40
1.0
 40
1.0
 40
1.0
 40
1.0
 10
350.8016753387767
 20
114.2856692931106
 30
0.0
 10
350.8042206955833
 20
114.2849435724584
 30
0.0
 10
350.8093079496828
 20
114.2834931175151
 30
0.0
 10
350.8295460976385
 20
114.2774483933311
 30
0.0
 10
350.8889098582266
 20
114.2579020835419
 30
0.0
 10
351.030216294297
 20
114.1975122538158
 30
0.0
 10
351.239849477957
 20
114.0511114447368
 30
0.0
 10
351.4344275888822
 20
113.7833555146709
 30
0.0
 10
351.5357481902475
 20
113.5153583081692
 30
0.0
 10
351.5180052463799
 20
113.3528710368172
 30
0.0
 10
351.5134088141042
 20
113.3107775858094
 30
0.0
  0
ARC
  5
78
330
1F
100
AcDbEntity
  8
0
  6
Continuous
 62
     7
370
    25
100
AcDbCircle
 10
361.7279388134
 20
58.9883984467
 30
0.0
 40
0.8000000000000114
100
AcDbArc
 50
270.0
 51
0.0
  0
ARC
  5
79
330
1F
100
AcDbEntity
  8
0
  6
Continuous
 62
     7
370
    25
100
AcDbCircle
 10
352.3279388134
 20
58.9883984467
 30
0.0
 40
0.8000000000000114
100
AcDbArc
 50
180.0
 51
270.0
  0
LINE
  5
7A
330
1F
100
AcDbEntity
  8
0
  6
Continuous
 62
     7
370
    25
100
AcDbLine
 10
351.5279388433
 20
113.3056012949
 30
0.0
 11
351.5279388433
 21
58.9883988759
 31
0.0
  0
LINE
  5
7B
330
1F
100
AcDbEntity
  8
0
  6
Continuous
 62
     7
370
    25
100
AcDbLine
 10
362.5279387836
 20
58.9883988759
 30
0.0
 11
362.5279387836
 21
113.3041707835
 31
0.0
  0
CIRCLE
  5
7C
330
1F
100
AcDbEntity
  8
0
  6
Continuous
 62
     7
370
    25
100
AcDbCircle
 10
357.0279388134
 20
138.1883984467
 30
0.0
 40
23.89999999999998
  0
CIRCLE
  5
7D
330
1F
100
AcDbEntity
  8
0
  6
Continuous
 62
     7
370
    25
100
AcDbCircle
 10
357.0279388134
 20
138.1883984467
 30
0.0
 40
24.69999999999999
  0
LINE
  5
7E
330
1F
100
AcDbEntity
  8
0
  6
Continuous
 62
     7
370
    25
100
AcDbLine
 10
361.7279387456
 20
58.1884002349
 30
0.0
 11
352.3279388813
 21
58.1884002349
 31
0.0
  0
CIRCLE
  5
7F
330
1F
100
AcDbEntity
  8
0
  6
Continuous
 62
     7
370
    25
100
AcDbCircle
 10
357.0279388134
 20
138.1883984467
 30
0.0
 40
90.0
  0
CIRCLE
  5
80
330
1F
100
AcDbEntity
  8
0
  6
Continuous
 62
     7
370
    25
100
AcDbCircle
 10
357.0279388134
 20
138.1883984467
 30
0.0
 40
88.5
  0
SPLINE
  5
81
330
1F
100
AcDbEntity
  8
0
  6
Continuous
 62
     7
370
    25
100
AcDbSpline
210
0.0
220
0.0
230
1.0
 70
     8
 71
     3
 72
     9
 73
     5
 74
     0
 42
0.000000001
 43
0.00000001
 40
0.0
 40
0.0
 40
0.0
 40
0.0
 40
0.5647675346356198
 40
1.0
 40
1.0
 40
1.0
 40
1.0
 10
414.3973907833117
 20
99.51272141546508
 30
0.0
 10
414.1363994896971
 20
99.30535997097302
 30
0.0
 10
413.6742778598072
 20
98.93819749831806
 30
0.0
 10
413.0902577170201
 20
98.89106811256751
 30
0.0
 10
412.8360731904525
 20
98.87055587381622
 30
0.0
  0
SPLINE
  5
82
330
1F
100
AcDbEntity
  8
0
  6
Continuous
 62
     7
370
    25
100
AcDbSpline
210
0.0
220
0.0
230
1.0
 70
     8
 71
     3
 72
    11
 73
     7
 74
     0
 42
0.000000001
 43
0.00000001
 40
0.0
 40
0.0
 40
0.0
 40
0.0
 40
0.2835929313701409
 40
0.5578440205431269
 40
0.7750088978852782
 40
1.0
 40
1.0
 40
1.0
 40
1.0
 10
412.8360731904525
 20
98.87055587381622
 30
0.0
 10
412.5536282398146
 20
98.90718576859682
 30
0.0
 10
411.9980423650727
 20
98.97923893183246
 30
0.0
 10
411.3812444411993
 20
99.48583884085524
 30
0.0
 10
411.0073275033628
 20
100.1048481543693
 30
0.0
 10
410.9626348419473
 20
100.5439753564774
 30
0.0
 10
410.9398929779547
 20
100.7674252650191
 30
0.0
  0
SPLINE
  5
83
330
1F
100
AcDbEntity
  8
0
  6
Continuous
 62
     7
370
    25
100
AcDbSpline
210
0.0
220
0.0
230
1.0
 70
     8
 71
     3
 72
    11
 73
     7
 74
     0
 42
0.000000001
 43
0.00000001
 40
0.0
 40
0.0
 40
0.0
 40
0.0
 40
0.2836422228493435
 40
0.5583858260190899
 40
0.7755299894202102
 40
1.0
 40
1.0
 40
1.0
 40
1.0
 10
410.9398929779547
 20
100.7674252650191
 30
0.0
 10
410.9766351722901
 20
101.0504479880485
 30
0.0
 10
411.0489668594684
 20
101.6076142498039
 30
0.0
 10
411.5545570091573
 20
102.227513437644
 30
0.0
 10
412.1731156190683
 20
102.6054792004729
 30
0.0
 10
412.6126568468251
 20
102.6508708413399
 30
0.0
 10
412.8360731904525
 20
102.6739431580951
 30
0.0
  0
SPLINE
  5
84
330
1F
100
AcDbEntity
  8
0
  6
Continuous
 62
     7
370
    25
100
AcDbSpline
210
0.0
220
0.0
230
1.0
 70
     8
 71
     3
 72
    10
 73
     6
 74
     0
 42
0.000000001
 43
0.00000001
 40
0.0
 40
0.0
 40
0.0
 40
0.0
 40
0.2935582614741456
 40
0.5672941253818576
 40
1.0
 40
1.0
 40
1.0
 40
1.0
 10
412.8360731904525
 20
102.6739431580951
 30
0.0
 10
413.005730822542
 20
102.6631901878158
 30
0.0
 10
413.3335900268012
 20
102.6424103370318
 30
0.0
 10
413.8832896709558
 20
102.4373403599678
 30
0.0
 10
414.2021091807368
 20
102.1794199506507
 30
0.0
 10
414.3973907833117
 20
102.021439935868
 30
0.0
  0
LINE
  5
85
330
1F
100
AcDbEntity
  8
0
  6
Continuous
 62
     7
370
    25
100
AcDbLine
 10
414.3973907833
 20
102.0214399359
 30
0.0
 11
415.5625237529
 21
102.7724733612
 31
0.0
  0
SPLINE
  5
86
330
1F
100
AcDbEntity
  8
0
  6
Continuous
 62
     7
370
    25
100
AcDbSpline
210
0.0
220
0.0
230
1.0
 70
     8
 71
     3
 72
    10
 73
     6
 74
     0
 42
0.000000001
 43
0.00000001
 40
0.0
 40
0.0
 40
0.0
 40
0.0
 40
0.2754425307498748
 40
0.5525315103265728
 40
0.9999999999999999
 40
0.9999999999999999
 40
0.9999999999999999
 40
0.9999999999999999
 10
415.5625237529296
 20
102.7724733611991
 30
0.0
 10
415.3732965162336
 20
102.9932469496645
 30
0.0
 10
414.9937109431489
 20
103.4361137935861
 30
0.0
 10
414.0766765457802
 20
104.0043059204608
 30
0.0
 10
413.3097238851881
 20
104.0976732998157
 30
0.0
 10
412.8360731904525
 20
104.1553346476009
 30
0.0
  0
SPLINE
  5
87
330
1F
100
AcDbEntity
  8
0
  6
Continuous
 62
     7
370
    25
100
AcDbSpline
210
0.0
220
0.0
230
1.0
 70
     8
 71
     3
 72
    11
 73
     7
 74
     0
 42
0.000000001
 43
0.00000001
 40
0.0
 40
0.0
 40
0.0
 40
0.0
 40
0.2834809261326222
 40
0.557740764708897
 40
0.7750144658633719
 40
1.0
 40
1.0
 40
1.0
 40
1.0
 10
412.8360731904525
 20
104.1553346476009
 30
0.0
 10
412.3325018370036
 20
104.0897133751027
 30
0.0
 10
411.3417393346028
 20
103.960605363486
 30
0.0
 10
410.2436279012484
 20
103.0542876066003
 30
0.0
 10
409.5785724734211
 20
101.9492528811285
 30
0.0
 10
409.498987732667
 20
101.1659208840943
 30
0.0
 10
409.458501488449
 20
100.7674252650191
 30
0.0
  0
SPLINE
  5
88
330
1F
100
AcDbEntity
  8
0
  6
Continuous
 62
     7
370
    25
100
AcDbSpline
210
0.0
220
0.0
230
1.0
 70
     8
 71
     3
 72
    11
 73
     7
 74
     0
 42
0.000000001
 43
0.00000001
 40
0.0
 40
0.0
 40
0.0
 40
0.0
 40
0.2838110710071189
 40
0.5579423885261875
 40
0.774989113936384
 40
1.0
 40
1.0
 40
1.0
 40
1.0
 10
409.458501488449
 20
100.7674252650191
 30
0.0
 10
409.5235431960145
 20
100.2638571026036
 30
0.0
 10
409.6514082773313
 20
99.2738956387085
 30
0.0
 10
410.5531918125833
 20
98.17451179625012
 30
0.0
 10
411.6558704966806
 20
97.50897725140219
 30
0.0
 10
412.4379754615976
 20
97.42957882373557
 30
0.0
 10
412.8360731904525
 20
97.38916438431045
 30
0.0
  0
SPLINE
  5
89
330
1F
100
AcDbEntity
  8
0
  6
Continuous
 62
     7
370
    25
100
AcDbSpline
210
0.0
220
0.0
230
1.0
 70
     8
 71
     3
 72
    10
 73
     6
 74
     0
 42
0.000000001
 43
0.00000001
 40
0.0
 40
0.0
 40
0.0
 40
0.0
 40
0.2891454769884729
 40
0.5687584471792131
 40
1.0
 40
1.0
 40
1.0
 40
1.0
 10
412.8360731904525
 20
97.38916438431045
 30
0.0
 10
413.1401231049441
 20
97.41311944294053
 30
0.0
 10
413.7381990597623
 20
97.46023981324836
 30
0.0
 10
414.7335520757136
 20
97.87365542239567
 30
0.0
 10
415.2495141551455
 20
98.4268089921049
 30
0.0
 10
415.5625237529296
 20
98.76238089412948
 30
0.0
  0
LINE
  5
8A
330
1F
100
AcDbEntity
  8
0
  6
Continuous
 62
     7
370
    25
100
AcDbLine
 10
415.5625237529
 20
98.7623808941
 30
0.0
 11
414.3973907833
 21
99.5127214155
 31
0.0
  0
LINE
  5
8B
330
1F
100
AcDbEntity
  8
0
  6
Continuous
 62
     7
370
    25
100
AcDbLine
 10
351.5279388433
 20
72.725041773
 30
0.0
 11
350.0276768957
 21
72.725041773
 31
0.0
  0
LINE
  5
8C
330
1F
100
AcDbEntity
  8
0
  6
Continuous
 62
     7
370
    25
100
AcDbLine
 10
350.0276768957
 20
72.725041773
 30
0.0
 11
350.0276768957
 21
71.621230807
 31
0.0
  0
LINE
  5
8D
330
1F
100
AcDbEntity
  8
0
  6
Continuous
 62
     7
370
    25
100
AcDbLine
 10
350.0276768957
 20
71.621230807
 30
0.0
 11
350.4204179538
 21
71.621230807
 31
0.0
  0
LINE
  5
8E
330
1F
100
AcDbEntity
  8
0
  6
Continuous
 62
     7
370
    25
100
AcDbLine
 10
350.4204179538
 20
71.621230807
 30
0.0
 11
350.4204179538
 21
71.7424964568
 31
0.0
  0
SPLINE
  5
8F
330
1F
100
AcDbEntity
  8
0
  6
Continuous
 62
     7
370
    25
100
AcDbSpline
210
0.0
220
0.0
230
1.0
 70
     8
 71
     3
 72
    13
 73
     9
 74
     0
 42
0.000000001
 43
0.00000001
 40
0.0
 40
0.0
 40
0.0
 40
0.0
 40
0.2038970695867554
 40
0.3758801262368862
 40
0.5257765963431176
 40
0.6604939807109018
 40
0.8474526215629059
 40
0.9999999999999999
 40
0.9999999999999999
 40
0.9999999999999999
 40
0.9999999999999999
 10
350.4204179537612
 20
71.74249645680686
 30
0.0
 10
350.423418016404
 20
71.80248332387892
 30
0.0
 10
350.4289485712433
 20
71.9130679007603
 30
0.0
 10
350.4786018783477
 20
72.06109720729208
 30
0.0
 10
350.5504656418399
 20
72.17578579878887
 30
0.0
 10
350.6512374487119
 20
72.27167876169327
 30
0.0
 10
350.7762460621447
 20
72.34131773077209
 30
0.0
 10
350.8758786659016
 20
72.35268168462734
 30
0.0
 10
350.9206457440871
 20
72.35778775424262
 30
0.0
  0
LINE
  5
90
330
1F
100
AcDbEntity
  8
0
  6
Continuous
 62
     7
370
    25
100
AcDbLine
 10
350.9206457441
 20
72.3577877542
 30
0.0
 11
351.255509295
 21
72.3577877542
 31
0.0
  0
LINE
  5
91
330
1F
100
AcDbEntity
  8
0
  6
Continuous
 62
     7
370
    25
100
AcDbLine
 10
351.255509295
 20
72.3577877542
 30
0.0
 11
351.255509295
 21
70.3430986068
 31
0.0
  0
SPLINE
  5
92
330
1F
100
AcDbEntity
  8
0
  6
Continuous
 62
     7
370
    25
100
AcDbSpline
210
0.0
220
0.0
230
1.0
 70
     8
 71
     3
 72
    11
 73
     7
 74
     0
 42
0.000000001
 43
0.00000001
 40
0.0
 40
0.0
 40
0.0
 40
0.0
 40
0.2836828474745836
 40
0.5589879854497095
 40
0.7763412327528163
 40
1.0
 40
1.0
 40
1.0
 40
1.0
 10
351.2555092950481
 20
70.34309860677024
 30
0.0
 10
351.2516537247675
 20
70.31383320612763
 30
0.0
 10
351.24405644674
 20
70.25616666937988
 30
0.0
 10
351.1914655405142
 20
70.19222090073637
 30
0.0
 10
351.1275282775366
 20
70.15317106578715
 30
0.0
 10
351.0821513785551
 20
70.1484383780438
 30
0.0
 10
351.0591385332066
 20
70.1460382005622
 30
0.0
  0
LINE
  5
93
330
1F
100
AcDbEntity
  8
0
  6
Continuous
 62
     7
370
    25
100
AcDbLine
 10
351.0591385332
 20
70.1460382006
 30
0.0
 11
350.6415930954
 21
70.1460382006
 31
0.0
  0
LINE
  5
94
330
1F
100
AcDbEntity
  8
0
  6
Continuous
 62
     7
370
    25
100
AcDbLine
 10
350.6415930954
 20
70.1460382006
 30
0.0
 11
350.6415930954
 21
69.7787916324
 31
0.0
  0
LINE
  5
95
330
1F
100
AcDbEntity
  8
0
  6
Continuous
 62
     7
370
    25
100
AcDbLine
 10
350.6415930954
 20
69.7787916324
 30
0.0
 11
351.5279388433
 21
69.7787916324
 31
0.0
  0
SPLINE
  5
96
330
1F
100
AcDbEntity
  8
0
  6
Continuous
 62
     7
370
    25
100
AcDbSpline
210
0.0
220
0.0
230
1.0
 70
     8
 71
     3
 72
     9
 73
     5
 74
     0
 42
0.000000001
 43
0.00000001
 40
0.0
 40
0.0
 40
0.0
 40
0.0
 40
0.4915697563119005
 40
1.0
 40
1.0
 40
1.0
 40
1.0
 10
362.5279387836474
 20
69.69474908322593
 30
0.0
 10
362.7047010246685
 20
69.70948300432488
 30
0.0
 10
363.0642883238289
 20
69.73945620936799
 30
0.0
 10
363.3620913715366
 20
69.9436787875545
 30
0.0
 10
363.5135034476536
 20
70.04751172274848
 30
0.0
  0
SPLINE
  5
97
330
1F
100
AcDbEntity
  8
0
  6
Continuous
 62
     7
370
    25
100
AcDbSpline
210
0.0
220
0.0
230
1.0
 70
     8
 71
     3
 72
     9
 73
     5
 74
     0
 42
0.000000001
 43
0.00000001
 40
0.0
 40
0.0
 40
0.0
 40
0.0
 40
0.5432657852073506
 40
1.0
 40
1.0
 40
1.0
 40
1.0
 10
363.5135034476536
 20
70.04751172274848
 30
0.0
 10
363.6717935281277
 20
70.22168556938415
 30
0.0
 10
363.963161187907
 20
70.54229078947765
 30
0.0
 10
364.0078086895532
 20
70.97077415581958
 30
0.0
 10
364.02820073116
 20
71.16647716969749
 30
0.0
  0
LINE
  5
98
330
1F
100
AcDbEntity
  8
0
  6
Continuous
 62
     7
370
    25
100
AcDbLine
 10
364.0282007312
 20
71.1664771697
 30
0.0
 11
364.0282007312
 21
71.3387345931
 31
0.0
  0
SPLINE
  5
99
330
1F
100
AcDbEntity
  8
0
  6
Continuous
 62
     7
370
    25
100
AcDbSpline
210
0.0
220
0.0
230
1.0
 70
     8
 71
     3
 72
    10
 73
     6
 74
     0
 42
0.000000001
 43
0.00000001
 40
0.0
 40
0.0
 40
0.0
 40
0.0
 40
0.2950996882865468
 40
0.5769052453600417
 40
1.0
 40
1.0
 40
1.0
 40
1.0
 10
364.02820073116
 20
71.33873459309837
 30
0.0
 10
364.0187970000611
 20
71.4632471483701
 30
0.0
 10
364.0004131724522
 20
71.7066630146034
 30
0.0
 10
363.8432828173599
 20
72.10784795259303
 30
0.0
 10
363.6371989545518
 20
72.32604253925324
 30
0.0
 10
363.5135034476536
 20
72.45700713605186
 30
0.0
  0
SPLINE
  5
9A
330
1F
100
AcDbEntity
  8
0
  6
Continuous
 62
     7
370
    25
100
AcDbSpline
210
0.0
220
0.0
230
1.0
 70
     8
 71
     3
 72
     9
 73
     5
 74
     0
 42
0.000000001
 43
0.00000001
 40
0.0
 40
0.0
 40
0.0
 40
0.0
 40
0.6513044445870407
 40
1.0
 40
1.0
 40
1.0
 40
1.0
 10
363.5135034476536
 20
72.45700713605186
 30
0.0
 10
363.3153418766465
 20
72.5868619315301
 30
0.0
 10
363.0110885084189
 20
72.78623842367209
 30
0.0
 10
362.6528536771166
 20
72.81142543877144
 30
0.0
 10
362.5279387836474
 20
72.8202080389907
 30
0.0
  0
LINE
  5
9B
330
1F
100
AcDbEntity
  8
0
  6
Continuous
 62
     7
370
    25
100
AcDbLine
 10
416.4541123812
 20
110.091921877
 30
0.0
 11
417.1017913525
 21
109.7859973124
 31
0.0
  0
LINE
  5
9C
330
1F
100
AcDbEntity
  8
0
  6
Continuous
 62
     7
370
    25
100
AcDbLine
 10
417.1017913525
 20
109.7859973124
 30
0.0
 11
417.1203954523
 21
109.8252711853
 31
0.0
  0
SPLINE
  5
9D
330
1F
100
AcDbEntity
  8
0
  6
Continuous
 62
     7
370
    25
100
AcDbSpline
210
0.0
220
0.0
230
1.0
 70
     8
 71
     3
 72
    11
 73
     7
 74
     0
 42
0.000000001
 43
0.00000001
 40
0.0
 40
0.0
 40
0.0
 40
0.0
 40
0.2802273542716256
 40
0.5586210088805977
 40
0.7781626843798328
 40
0.9999999999999999
 40
0.9999999999999999
 40
0.9999999999999999
 40
0.9999999999999999
 10
417.1203954522628
 20
109.8252711853435
 30
0.0
 10
418.2058717561334
 20
112.3409305229039
 30
0.0
 10
420.369721425843
 20
117.3557876941483
 30
0.0
 10
422.23825143216
 20
124.7489828467836
 30
0.0
 10
423.2958901001518
 20
131.7094103010242
 30
0.0
 10
423.4120228185532
 20
136.0212603296984
 30
0.0
 10
423.4703911845702
 20
138.1883984467437
 30
0.0
  0
SPLINE
  5
9E
330
1F
100
AcDbEntity
  8
0
  6
Continuous
 62
     7
370
    25
100
AcDbSpline
210
0.0
220
0.0
230
1.0
 70
     8
 71
     3
 72
    11
 73
     7
 74
     0
 42
0.000000001
 43
0.00000001
 40
0.0
 40
0.0
 40
0.0
 40
0.0
 40
0.2818323263750892
 40
0.5605528079409798
 40
0.7794849023814083
 40
0.9999999999999999
 40
0.9999999999999999
 40
0.9999999999999999
 40
0.9999999999999999
 10
423.4703911845702
 20
138.1883984467437
 30
0.0
 10
423.3748216493029
 20
140.9616442316031
 30
0.0
 10
423.1847378074785
 20
146.4775150751221
 30
0.0
 10
421.7021283962648
 20
154.0255167538495
 30
0.0
 10
419.6672428369026
 20
160.8010807822914
 30
0.0
 10
417.912653910615
 20
164.7539878724666
 30
0.0
 10
417.0321992044467
 20
166.7375611177137
 30
0.0
  0
LINE
  5
9F
330
1F
100
AcDbEntity
  8
0
  6
Continuous
 62
     7
370
    25
100
AcDbLine
 10
417.0321992044
 20
166.7375611177
 30
0.0
 11
417.0129096513
 21
166.7773509434
 31
0.0
  0
LINE
  5
A0
330
1F
100
AcDbEntity
  8
0
  6
Continuous
 62
     7
370
    25
100
AcDbLine
 10
417.0129096513
 20
166.7773509434
 30
0.0
 11
416.3666090374
 21
166.4690142533
 31
0.0
  0
LINE
  5
A1
330
1F
100
AcDbEntity
  8
0
  6
Continuous
 62
     7
370
    25
100
AcDbLine
 10
416.3666090374
 20
166.4690142533
 30
0.0
 11
416.3859023159
 21
166.4292244276
 31
0.0
  0
SPLINE
  5
A2
330
1F
100
AcDbEntity
  8
0
  6
Continuous
 62
     7
370
    25
100
AcDbSpline
210
0.0
220
0.0
230
1.0
 70
     8
 71
     3
 72
    11
 73
     7
 74
     0
 42
0.000000001
 43
0.00000001
 40
0.0
 40
0.0
 40
0.0
 40
0.0
 40
0.280253231356665
 40
0.5586181403172779
 40
0.7781422521156436
 40
1.0
 40
1.0
 40
1.0
 40
1.0
 10
416.3859023158568
 20
166.4292244276454
 30
0.0
 10
417.4745341995001
 20
163.9261069046998
 30
0.0
 10
419.644462857903
 20
158.9367376514193
 30
0.0
 10
421.5188363610172
 20
151.5751380154854
 30
0.0
 10
422.5795390020278
 20
144.6426945759417
 30
0.0
 10
422.6959758942557
 20
140.3474003927452
 30
0.0
 10
422.7545021479148
 20
138.1883984467437
 30
0.0
  0
SPLINE
  5
A3
330
1F
100
AcDbEntity
  8
0
  6
Continuous
 62
     7
370
    25
100
AcDbSpline
210
0.0
220
0.0
230
1.0
 70
     8
 71
     3
 72
    11
 73
     7
 74
     0
 42
0.000000001
 43
0.00000001
 40
0.0
 40
0.0
 40
0.0
 40
0.0
 40
0.2818097731490496
 40
0.560552701163908
 40
0.7794993829773728
 40
1.0
 40
1.0
 40
1.0
 40
1.0
 10
422.7545021479148
 20
138.1883984467437
 30
0.0
 10
422.6612534405583
 20
135.4644977903106
 30
0.0
 10
422.4757708215397
 20
130.0463398123114
 30
0.0
 10
421.0293653280946
 20
122.6302679665168
 30
0.0
 10
419.0441259992622
 20
115.9705390887406
 30
0.0
 10
417.3318712290603
 20
112.0826856114674
 30
0.0
 10
416.4727164809722
 20
110.1318849286487
 30
0.0
  0
LINE
  5
A4
330
1F
100
AcDbEntity
  8
0
  6
Continuous
 62
     7
370
    25
100
AcDbLine
 10
416.472716481
 20
110.1318849286
 30
0.0
 11
416.4541123812
 21
110.091921877
 31
0.0
  0
LINE
  5
A5
330
1F
100
AcDbEntity
  8
0
  6
Continuous
 62
     7
370
    25
100
AcDbLine
 10
413.9474613969
 20
176.2306941709
 30
0.0
 11
411.1424668138
 21
176.2306941709
 31
0.0
  0
LINE
  5
A6
330
1F
100
AcDbEntity
  8
0
  6
Continuous
 62
     7
370
    25
100
AcDbLine
 10
411.1424668138
 20
176.2306941709
 30
0.0
 11
411.1424668138
 21
178.9173511824
 31
0.0
  0
LINE
  5
A7
330
1F
100
AcDbEntity
  8
0
  6
Continuous
 62
     7
370
    25
100
AcDbLine
 10
411.1424668138
 20
178.9173511824
 30
0.0
 11
409.6011279528
 21
178.9173511824
 31
0.0
  0
LINE
  5
A8
330
1F
100
AcDbEntity
  8
0
  6
Continuous
 62
     7
370
    25
100
AcDbLine
 10
409.6011279528
 20
178.9173511824
 30
0.0
 11
409.6011279528
 21
172.4968990347
 31
0.0
  0
LINE
  5
A9
330
1F
100
AcDbEntity
  8
0
  6
Continuous
 62
     7
370
    25
100
AcDbLine
 10
409.6011279528
 20
172.4968990347
 30
0.0
 11
411.1424668138
 21
172.4968990347
 31
0.0
  0
LINE
  5
AA
330
1F
100
AcDbEntity
  8
0
  6
Continuous
 62
     7
370
    25
100
AcDbLine
 10
411.1424668138
 20
172.4968990347
 30
0.0
 11
411.1424668138
 21
174.8478328845
 31
0.0
  0
LINE
  5
AB
330
1F
100
AcDbEntity
  8
0
  6
Continuous
 62
     7
370
    25
100
AcDbLine
 10
411.1424668138
 20
174.8478328845
 30
0.0
 11
413.9474613969
 21
174.8478328845
 31
0.0
  0
LINE
  5
AC
330
1F
100
AcDbEntity
  8
0
  6
Continuous
 62
     7
370
    25
100
AcDbLine
 10
413.9474613969
 20
174.8478328845
 30
0.0
 11
413.9474613969
 21
172.4968990347
 31
0.0
  0
LINE
  5
AD
330
1F
100
AcDbEntity
  8
0
  6
Continuous
 62
     7
370
    25
100
AcDbLine
 10
413.9474613969
 20
172.4968990347
 30
0.0
 11
415.4887965326
 21
172.4968990347
 31
0.0
  0
LINE
  5
AE
330
1F
100
AcDbEntity
  8
0
  6
Continuous
 62
     7
370
    25
100
AcDbLine
 10
415.4887965326
 20
172.4968990347
 30
0.0
 11
415.4887965326
 21
178.9173511824
 31
0.0
  0
LINE
  5
AF
330
1F
100
AcDbEntity
  8
0
  6
Continuous
 62
     7
370
    25
100
AcDbLine
 10
415.4887965326
 20
178.9173511824
 30
0.0
 11
413.9474613969
 21
178.9173511824
 31
0.0
  0
LINE
  5
B0
330
1F
100
AcDbEntity
  8
0
  6
Continuous
 62
     7
370
    25
100
AcDbLine
 10
413.9474613969
 20
178.9173511824
 30
0.0
 11
413.9474613969
 21
176.2306941709
 31
0.0
  0
ARC
  5
B1
330
1F
100
AcDbEntity
  8
0
  6
Continuous
 62
     7
370
    25
100
AcDbCircle
 10
357.0279388134
 20
138.1883984467
 30
0.0
 40
25.75000000000001
100
AcDbArc
 50
180.0
 51
257.6670501893
  0
ARC
  5
B2
330
1F
100
AcDbEntity
  8
0
  6
Continuous
 62
     7
370
    25
100
AcDbCircle
 10
357.0279388134
 20
138.1883984467
 30
0.0
 40
25.75000000000001
100
AcDbArc
 50
282.3329498107
 51
180.0
  0
SPLINE
  5
B3
330
1F
100
AcDbEntity
  8
0
  6
Continuous
 62
     7
370
    25
100
AcDbSpline
210
0.0
220
0.0
230
1.0
 70
     8
 71
     3
 72
     9
 73
     5
 74
     0
 42
0.000000001
 43
0.00000001
 40
0.0
 40
0.0
 40
0.0
 40
0.0
 40
0.5677354170513821
 40
1.0
 40
1.0
 40
1.0
 40
1.0
 10
362.9485077601987
 20
72.16417696685096
 30
0.0
 10
362.8799831511938
 20
72.23261269632818
 30
0.0
 10
362.7592850109212
 20
72.3531542856351
 30
0.0
 10
362.5977602270035
 20
72.40532417182257
 30
0.0
 10
362.5279387836474
 20
72.42787536591788
 30
0.0
  0
SPLINE
  5
B4
330
1F
100
AcDbEntity
  8
0
  6
Continuous
 62
     7
370
    25
100
AcDbSpline
210
0.0
220
0.0
230
1.0
 70
     8
 71
     3
 72
     9
 73
     5
 74
     0
 42
0.000000001
 43
0.00000001
 40
0.0
 40
0.0
 40
0.0
 40
0.0
 40
0.645215919731934
 40
1.0
 40
1.0
 40
1.0
 40
1.0
 10
363.1944872816223
 20
71.2911924383094
 30
0.0
 10
363.1866006973833
 20
71.494211094071
 30
0.0
 10
363.1743775268167
 20
71.80886336713638
 30
0.0
 10
363.0076574052064
 20
72.07112921812295
 30
0.0
 10
362.9485077601987
 20
72.16417696685095
 30
0.0
  0
LINE
  5
B5
330
1F
100
AcDbEntity
  8
0
  6
Continuous
 62
     7
370
    25
100
AcDbLine
 10
363.1944872816
 20
71.2147122285
 30
0.0
 11
363.1944872816
 21
71.2911924383
 31
0.0
  0
SPLINE
  5
B6
330
1F
100
AcDbEntity
  8
0
  6
Continuous
 62
     7
370
    25
100
AcDbSpline
210
0.0
220
0.0
230
1.0
 70
     8
 71
     3
 72
    10
 73
     6
 74
     0
 42
0.000000001
 43
0.00000001
 40
0.0
 40
0.0
 40
0.0
 40
0.0
 40
0.2135146719208917
 40
0.4716515128217855
 40
1.0
 40
1.0
 40
1.0
 40
1.0
 10
362.9485077601987
 20
70.34309860677024
 30
0.0
 10
362.9866503953826
 20
70.39672739772156
 30
0.0
 10
363.0709070482189
 20
70.51519279476166
 30
0.0
 10
363.1733476424724
 20
70.80946853093275
 30
0.0
 10
363.1859925986938
 20
71.0518704365733
 30
0.0
 10
363.1944872816223
 20
71.21471222848197
 30
0.0
  0
SPLINE
  5
B7
330
1F
100
AcDbEntity
  8
0
  6
Continuous
 62
     7
370
    25
100
AcDbSpline
210
0.0
220
0.0
230
1.0
 70
     8
 71
     3
 72
    10
 73
     6
 74
     0
 42
0.000000001
 43
0.00000001
 40
0.0
 40
0.0
 40
0.0
 40
0.0
 40
0.1570781390438663
 40
0.5410070387187572
 40
1.0
 40
1.0
 40
1.0
 40
1.0
 10
362.5279387836474
 20
70.0818439981391
 30
0.0
 10
362.5537765812989
 20
70.08727104408284
 30
0.0
 10
362.6427668792457
 20
70.10596282431962
 30
0.0
 10
362.7942617838634
 20
70.18752668930529
 30
0.0
 10
362.8941279987623
 20
70.28825138184447
 30
0.0
 10
362.9485077601987
 20
70.34309860677023
 30
0.0
  0
SPLINE
  5
B8
330
1F
100
AcDbEntity
  8
0
  6
Continuous
 62
     7
370
    25
100
AcDbSpline
210
0.0
220
0.0
230
1.0
 70
     8
 71
     3
 72
    12
 73
     8
 74
     0
 42
0.000000001
 43
0.00000001
 40
0.0
 40
0.0
 40
0.0
 40
0.0
 40
0.2111240466149125
 40
0.4281545480550077
 40
0.6405817531511863
 40
0.847809882994987
 40
0.9999999999999999
 40
0.9999999999999999
 40
0.9999999999999999
 40
0.9999999999999999
 10
357.0279388134497
 20
112.4883992633273
 30
0.0
 10
356.4161972128321
 20
112.506668547539
 30
0.0
 10
355.1755997880555
 20
112.5437182216542
 30
0.0
 10
353.5359910529611
 20
112.8045833396155
 30
0.0
 10
352.3197703901369
 20
113.0877638702841
 30
0.0
 10
351.6092625026501
 20
113.2984324395986
 30
0.0
 10
351.5940141414129
 20
113.3035786666183
 30
0.0
 10
351.5875574578661
 20
113.3057577571323
 30
0.0
  0
SPLINE
  5
B9
330
1F
100
AcDbEntity
  8
0
  6
Continuous
 62
     7
370
    25
100
AcDbSpline
210
0.0
220
0.0
230
1.0
 70
     8
 71
     3
 72
    12
 73
     8
 74
     0
 42
0.000000001
 43
0.00000001
 40
0.0
 40
0.0
 40
0.0
 40
0.0
 40
0.1492801526678472
 40
0.3663133438679807
 40
0.5804720939278806
 40
0.7889324115871081
 40
1.0
 40
1.0
 40
1.0
 40
1.0
 10
362.4636058141607
 20
113.3043086192062
 30
0.0
 10
362.4599649845067
 20
113.3030127016157
 30
0.0
 10
362.4510308799981
 20
113.29983269478
 30
0.0
 10
361.7189249005361
 20
113.0822682809573
 30
0.0
 10
360.4806987763446
 20
112.7972644572219
 30
0.0
 10
358.8550680614401
 20
112.5428422746719
 30
0.0
 10
357.6395000559019
 20
112.5066219674394
 30
0.0
 10
357.0279388134497
 20
112.4883992633273
 30
0.0
  0
LINE
  5
BA
330
1F
100
AcDbEntity
  8
0
  6
Continuous
 62
     7
370
    25
100
AcDbLine
 10
351.5279388433
 20
58.9883988759
 30
0.0
 11
362.5279387836
 21
58.9883988759
 31
0.0
  0
ARC
  5
BB
330
1F
100
AcDbEntity
  8
0
  6
Continuous
 62
     7
370
    25
100
AcDbCircle
 10
357.0279388134
 20
138.1883984467
 30
0.0
 40
26.75000000000001
100
AcDbArc
 50
281.8650624575
 51
180.0
  0
ARC
  5
BC
330
1F
100
AcDbEntity
  8
0
  6
Continuous
 62
     7
370
    25
100
AcDbCircle
 10
357.0279388134
 20
138.1883984467
 30
0.0
 40
26.75000000000001
100
AcDbArc
 50
180.0
 51
258.1349375425
  0
LINE
  5
BD
330
1F
100
AcDbEntity
  8
0
  6
Continuous
 62
     7
370
    25
100
AcDbLine
 10
268.7779425089
 20
333.9556749285
 30
0.0
 11
268.7779425089
 21
331.4556735874
 31
0.0
  0
LINE
  5
BE
330
1F
100
AcDbEntity
  8
0
  6
Continuous
 62
     7
370
    25
100
AcDbLine
 10
445.277935118
 20
331.4556735874
 30
0.0
 11
445.277935118
 21
333.9556749285
 31
0.0
  0
LINE
  5
BF
330
1F
100
AcDbEntity
  8
0
  6
Continuous
 62
     7
370
    25
100
AcDbLine
 10
336.1491637682
 20
416.5108590693
 30
0.0
 11
336.1491637682
 21
361.4356755585
 31
0.0
  0
LINE
  5
C0
330
1F
100
AcDbEntity
  8
0
  6
Continuous
 62
     7
370
    25
100
AcDbLine
 10
339.6491652732
 20
361.4356755585
 30
0.0
 11
339.6491652732
 21
416.5108590693
 31
0.0
  0
ARC
  5
C1
330
1F
100
AcDbEntity
  8
0
  6
Continuous
 62
     7
370
    25
100
AcDbCircle
 10
388.0242867873
 20
353.3208585639
 30
0.0
 40
0.3100000000000023
100
AcDbArc
 50
270.0
 51
41.0
  0
ARC
  5
C2
330
1F
100
AcDbEntity
  8
0
  6
Continuous
 62
     7
370
    25
100
AcDbCircle
 10
380.6690321937
 20
353.3208585639
 30
0.0
 40
0.3100000000000023
100
AcDbArc
 50
139.0
 51
270.0
  0
LINE
  5
C3
330
1F
100
AcDbEntity
  8
0
  6
Continuous
 62
     7
370
    25
100
AcDbLine
 10
388.2582469289
 20
353.5242355735
 30
0.0
 11
386.5966594224
 21
355.4356745751
 31
0.0
  0
LINE
  5
C4
330
1F
100
AcDbEntity
  8
0
  6
Continuous
 62
     7
370
    25
100
AcDbLine
 10
382.0966596161
 20
355.4356745751
 30
0.0
 11
380.4350721096
 21
353.5242355735
 31
0.0
  0
LINE
  5
C5
330
1F
100
AcDbEntity
  8
0
  6
Continuous
 62
     7
370
    25
100
AcDbLine
 10
382.5966587667
 20
416.5108590693
 30
0.0
 11
382.5966587667
 21
361.4356755585
 31
0.0
  0
LINE
  5
C6
330
1F
100
AcDbEntity
  8
0
  6
Continuous
 62
     7
370
    25
100
AcDbLine
 10
386.0966602718
 20
361.4356755585
 30
0.0
 11
386.0966602718
 21
416.5108590693
 31
0.0
  0
ARC
  5
C7
330
1F
100
AcDbEntity
  8
0
  6
Continuous
 62
     7
370
    25
100
AcDbCircle
 10
381.2279388134
 20
313.8437414361
 30
0.0
 40
0.5
100
AcDbArc
 50
0.0
 51
90.0
  0
ARC
  5
C8
330
1F
100
AcDbEntity
  8
0
  6
Continuous
 62
     7
370
    25
100
AcDbCircle
 10
332.8279388134
 20
313.8437414361
 30
0.0
 40
0.5
100
AcDbArc
 50
90.0
 51
180.0
  0
LINE
  5
C9
330
1F
100
AcDbEntity
  8
0
  6
Continuous
 62
     7
370
    25
100
AcDbLine
 10
332.3279379313
 20
313.8437414615
 30
0.0
 11
332.3279379313
 21
283.143741575
 31
0.0
  0
LINE
  5
CA
330
1F
100
AcDbEntity
  8
0
  6
Continuous
 62
     7
370
    25
100
AcDbLine
 10
381.7279396956
 20
283.143741575
 30
0.0
 11
381.7279396956
 21
313.8437414615
 31
0.0
  0
ARC
  5
CB
330
1F
100
AcDbEntity
  8
0
  6
Continuous
 62
     7
370
    25
100
AcDbCircle
 10
380.9279388134
 20
283.1437414361
 30
0.0
 40
0.8000000000000114
100
AcDbArc
 50
270.0
 51
0.0
  0
ARC
  5
CC
330
1F
100
AcDbEntity
  8
0
  6
Continuous
 62
     7
370
    25
100
AcDbCircle
 10
333.1279388134
 20
283.1437414361
 30
0.0
 40
0.8000000000000114
100
AcDbArc
 50
180.0
 51
270.0
  0
LINE
  5
CD
330
1F
100
AcDbEntity
  8
0
  6
Continuous
 62
     7
370
    25
100
AcDbLine
 10
267.0279352372
 20
331.4556735874
 30
0.0
 11
267.0279352372
 21
323.9556742207
 31
0.0
  0
LINE
  5
CE
330
1F
100
AcDbEntity
  8
0
  6
Continuous
 62
     7
370
    25
100
AcDbLine
 10
447.0279423897
 20
323.9556742207
 30
0.0
 11
447.0279423897
 21
331.4556735874
 31
0.0
  0
ARC
  5
CF
330
1F
100
AcDbEntity
  8
0
  6
Continuous
 62
     7
370
    25
100
AcDbCircle
 10
268.5279388134
 20
323.9556743603
 30
0.0
 40
1.500000000000057
100
AcDbArc
 50
180.0
 51
270.0
  0
ARC
  5
D0
330
1F
100
AcDbEntity
  8
0
  6
Continuous
 62
     7
370
    25
100
AcDbCircle
 10
445.5279388134
 20
323.9556743603
 30
0.0
 40
1.500000000000057
100
AcDbArc
 50
270.0
 51
0.0
  0
ARC
  5
D1
330
1F
100
AcDbEntity
  8
0
  6
Continuous
 62
     7
370
    25
100
AcDbCircle
 10
331.3279388134
 20
354.4356743603
 30
0.0
 40
1.0
100
AcDbArc
 50
0.0
 51
90.0
  0
LINE
  5
D2
330
1F
100
AcDbEntity
  8
0
  6
Continuous
 62
     7
370
    25
100
AcDbLine
 10
381.7279396956
 20
317.3356745699
 30
0.0
 11
381.7279396956
 21
322.4556739749
 31
0.0
  0
LINE
  5
D3
330
1F
100
AcDbEntity
  8
0
  6
Continuous
 62
     7
370
    25
100
AcDbLine
 10
381.7279396956
 20
333.9556749285
 30
0.0
 11
381.7279396956
 21
353.0108570428
 31
0.0
  0
LINE
  5
D4
330
1F
100
AcDbEntity
  8
0
  6
Continuous
 62
     7
370
    25
100
AcDbLine
 10
332.3279379313
 20
354.4356725485
 30
0.0
 11
332.3279379313
 21
333.9556749285
 31
0.0
  0
LINE
  5
D5
330
1F
100
AcDbEntity
  8
0
  6
Continuous
 62
     7
370
    25
100
AcDbLine
 10
332.3279379313
 20
322.4556739749
 30
0.0
 11
332.3279379313
 21
317.3356745699
 31
0.0
  0
ARC
  5
D6
330
1F
100
AcDbEntity
  8
0
  6
Continuous
 62
     7
370
    25
100
AcDbCircle
 10
379.8279388134
 20
317.3356743603
 30
0.0
 40
1.899999999999977
100
AcDbArc
 50
270.0
 51
0.0
  0
ARC
  5
D7
330
1F
100
AcDbEntity
  8
0
  6
Continuous
 62
     7
370
    25
100
AcDbCircle
 10
334.2279388134
 20
317.3356743603
 30
0.0
 40
1.899999999999977
100
AcDbArc
 50
180.0
 51
270.0
  0
LINE
  5
D8
330
1F
100
AcDbEntity
  8
0
  6
Continuous
 62
     7
370
    25
100
AcDbLine
 10
321.6676136856
 20
361.4356755585
 30
0.0
 11
321.6676136856
 21
357.3356732101
 31
0.0
  0
ARC
  5
D9
330
1F
100
AcDbEntity
  8
0
  6
Continuous
 62
     7
370
    25
100
AcDbCircle
 10
323.5676142292
 20
357.3356743603
 30
0.0
 40
1.900000000000034
100
AcDbArc
 50
180.0
 51
270.0
  0
LINE
  5
DA
330
1F
100
AcDbEntity
  8
0
  6
Continuous
 62
     7
370
    25
100
AcDbLine
 10
392.3882639413
 20
357.3356732101
 30
0.0
 11
392.3882639413
 21
361.4356755585
 31
0.0
  0
ARC
  5
DB
330
1F
100
AcDbEntity
  8
0
  6
Continuous
 62
     7
370
    25
100
AcDbCircle
 10
390.4882633977
 20
357.3356743603
 30
0.0
 40
1.900000000000034
100
AcDbArc
 50
270.0
 51
0.0
  0
ARC
  5
DC
330
1F
100
AcDbEntity
  8
0
  6
Continuous
 62
     7
370
    25
100
AcDbCircle
 10
375.5279388134
 20
314.4356743603
 30
0.0
 40
1.0
100
AcDbArc
 50
90.0
 51
180.0
  0
ARC
  5
DD
330
1F
100
AcDbEntity
  8
0
  6
Continuous
 62
     7
370
    25
100
AcDbCircle
 10
338.5279388134
 20
314.4356743603
 30
0.0
 40
1.0
100
AcDbArc
 50
0.0
 51
90.0
  0
LINE
  5
DE
330
1F
100
AcDbEntity
  8
0
  6
Continuous
 62
     7
370
    25
100
AcDbLine
 10
374.527938888
 20
314.3437414271
 30
0.0
 11
374.527938888
 21
314.4356743739
 31
0.0
  0
LINE
  5
DF
330
1F
100
AcDbEntity
  8
0
  6
Continuous
 62
     7
370
    25
100
AcDbLine
 10
339.5279387389
 20
314.4356743739
 30
0.0
 11
339.5279387389
 21
314.3437414271
 31
0.0
  0
LINE
  5
E0
330
1F
100
AcDbEntity
  8
0
  6
Continuous
 62
     7
370
    25
100
AcDbLine
 10
445.277935118
 20
333.9556749285
 30
0.0
 11
268.7779425089
 21
333.9556749285
 31
0.0
  0
LINE
  5
E1
330
1F
100
AcDbEntity
  8
0
  6
Continuous
 62
     7
370
    25
100
AcDbLine
 10
336.1491637682
 20
416.5108590693
 30
0.0
 11
339.6491652732
 21
416.5108590693
 31
0.0
  0
LINE
  5
E2
330
1F
100
AcDbEntity
  8
0
  6
Continuous
 62
     7
370
    25
100
AcDbLine
 10
382.739611194
 20
353.0108570428
 30
0.0
 11
380.6690315162
 21
353.0108570428
 31
0.0
  0
LINE
  5
E3
330
1F
100
AcDbEntity
  8
0
  6
Continuous
 62
     7
370
    25
100
AcDbLine
 10
388.0242875223
 20
353.0108570428
 30
0.0
 11
382.739611194
 21
353.0108570428
 31
0.0
  0
LINE
  5
E4
330
1F
100
AcDbEntity
  8
0
  6
Continuous
 62
     7
370
    25
100
AcDbLine
 10
382.5966587667
 20
416.5108590693
 30
0.0
 11
386.0966602718
 21
416.5108590693
 31
0.0
  0
LINE
  5
E5
330
1F
100
AcDbEntity
  8
0
  6
Continuous
 62
     7
370
    25
100
AcDbLine
 10
381.2279386823
 20
314.3437414271
 30
0.0
 11
332.8279389446
 21
314.3437414271
 31
0.0
  0
LINE
  5
E6
330
1F
100
AcDbEntity
  8
0
  6
Continuous
 62
     7
370
    25
100
AcDbLine
 10
380.9279391919
 20
282.3437410713
 30
0.0
 11
333.128106073
 21
282.3437410713
 31
0.0
  0
LINE
  5
E7
330
1F
100
AcDbEntity
  8
0
  6
Continuous
 62
     7
370
    25
100
AcDbLine
 10
267.0279352372
 20
331.4556735874
 30
0.0
 11
447.0279423897
 21
331.4556735874
 31
0.0
  0
LINE
  5
E8
330
1F
100
AcDbEntity
  8
0
  6
Continuous
 62
     7
370
    25
100
AcDbLine
 10
445.5279393499
 20
322.4556739749
 30
0.0
 11
268.527938277
 21
322.4556739749
 31
0.0
  0
LINE
  5
E9
330
1F
100
AcDbEntity
  8
0
  6
Continuous
 62
     7
370
    25
100
AcDbLine
 10
391.17254898
 20
361.4356755585
 30
0.0
 11
322.8833286469
 21
361.4356755585
 31
0.0
  0
LINE
  5
EA
330
1F
100
AcDbEntity
  8
0
  6
Continuous
 62
     7
370
    25
100
AcDbLine
 10
391.17254898
 20
361.4356755585
 30
0.0
 11
391.17254898
 21
357.3356732101
 31
0.0
  0
LINE
  5
EB
330
1F
100
AcDbEntity
  8
0
  6
Continuous
 62
     7
370
    25
100
AcDbLine
 10
322.8833286469
 20
357.3356732101
 30
0.0
 11
391.17254898
 21
357.3356732101
 31
0.0
  0
LINE
  5
EC
330
1F
100
AcDbEntity
  8
0
  6
Continuous
 62
     7
370
    25
100
AcDbLine
 10
322.8833286469
 20
361.4356755585
 30
0.0
 11
322.8833286469
 21
357.3356732101
 31
0.0
  0
LINE
  5
ED
330
1F
100
AcDbEntity
  8
0
  6
Continuous
 62
     7
370
    25
100
AcDbLine
 10
389.6279095118
 20
355.4356745751
 30
0.0
 11
324.4279681151
 21
355.4356745751
 31
0.0
  0
ARC
  5
EE
330
1F
100
AcDbEntity
  8
0
  6
Continuous
 62
     7
370
    25
100
AcDbCircle
 10
324.626080279
 20
357.1746046756
 30
0.0
 40
1.750178940598734
100
AcDbArc
 50
174.719611949
 51
263.5004519533
  0
ARC
  5
EF
330
1F
100
AcDbEntity
  8
0
  6
Continuous
 62
     7
370
    25
100
AcDbCircle
 10
389.4297973479
 20
357.1746046756
 30
0.0
 40
1.750178940598721
100
AcDbArc
 50
276.4995480467
 51
5.280388051
  0
LINE
  5
F0
330
1F
100
AcDbEntity
  8
0
  6
Continuous
 62
     7
370
    25
100
AcDbLine
 10
379.8279391979
 20
315.435674305
 30
0.0
 11
334.227938429
 21
315.435674305
 31
0.0
  0
LINE
  5
F1
330
1F
100
AcDbEntity
  8
0
  6
Continuous
 62
     7
370
    25
100
AcDbLine
 10
321.6676136856
 20
361.4356755585
 30
0.0
 11
322.8833286469
 21
361.4356755585
 31
0.0
  0
LINE
  5
F2
330
1F
100
AcDbEntity
  8
0
  6
Continuous
 62
     7
370
    25
100
AcDbLine
 10
324.4279681151
 20
355.4356745751
 30
0.0
 11
323.567616046
 21
355.4356745751
 31
0.0
  0
LINE
  5
F3
330
1F
100
AcDbEntity
  8
0
  6
Continuous
 62
     7
370
    25
100
AcDbLine
 10
392.3882639413
 20
361.4356755585
 30
0.0
 11
391.17254898
 21
361.4356755585
 31
0.0
  0
LINE
  5
F4
330
1F
100
AcDbEntity
  8
0
  6
Continuous
 62
     7
370
    25
100
AcDbLine
 10
390.4882615809
 20
355.4356745751
 30
0.0
 11
389.6279095118
 21
355.4356745751
 31
0.0
  0
LINE
  5
F5
330
1F
100
AcDbEntity
  8
0
  6
Continuous
 62
     7
370
    25
100
AcDbLine
 10
380.4350721096
 20
353.5242355735
 30
0.0
 11
388.2582469289
 21
353.5242355735
 31
0.0
  0
LINE
  5
F6
330
1F
100
AcDbEntity
  8
0
  6
Continuous
 62
     7
370
    25
100
AcDbLine
 10
381.7279396956
 20
313.8437414615
 30
0.0
 11
332.3279379313
 21
313.8437414615
 31
0.0
  0
LINE
  5
F7
330
1F
100
AcDbEntity
  8
0
  6
Continuous
 62
     7
370
    25
100
AcDbLine
 10
332.3279379313
 20
283.143741575
 30
0.0
 11
381.7279396956
 21
283.143741575
 31
0.0
  0
LINE
  5
F8
330
1F
100
AcDbEntity
  8
0
  6
Continuous
 62
     7
370
    25
100
AcDbLine
 10
267.0279352372
 20
323.9556742207
 30
0.0
 11
447.0279423897
 21
323.9556742207
 31
0.0
  0
LINE
  5
F9
330
1F
100
AcDbEntity
  8
0
  6
Continuous
 62
     7
370
    25
100
AcDbLine
 10
381.2273724382
 20
354.4356725485
 30
0.0
 11
332.3279379313
 21
354.4356725485
 31
0.0
  0
LINE
  5
FA
330
1F
100
AcDbEntity
  8
0
  6
Continuous
 62
     7
370
    25
100
AcDbLine
 10
332.3279379313
 20
317.3356745699
 30
0.0
 11
381.7279396956
 21
317.3356745699
 31
0.0
  0
LINE
  5
FB
330
1F
100
AcDbEntity
  8
0
  6
Continuous
 62
     7
370
    25
100
AcDbLine
 10
321.6676136856
 20
357.3356732101
 30
0.0
 11
322.8833286469
 21
357.3356732101
 31
0.0
  0
LINE
  5
FC
330
1F
100
AcDbEntity
  8
0
  6
Continuous
 62
     7
370
    25
100
AcDbLine
 10
391.17254898
 20
357.3356732101
 30
0.0
 11
392.3882639413
 21
357.3356732101
 31
0.0
  0
LINE
  5
FD
330
1F
100
AcDbEntity
  8
0
  6
Continuous
 62
     7
370
    25
100
AcDbLine
 10
374.527938888
 20
314.4356743739
 30
0.0
 11
339.5279387389
 21
314.4356743739
 31
0.0
  0
LINE
  5
FE
330
1F
100
AcDbEntity
  8
0
  6
Continuous
 62
     7
370
    25
100
AcDbLine
 10
93.490226955
 20
226.4383947513
 30
0.0
 11
90.9902256139
 21
226.4383947513
 31
0.0
  0
LINE
  5
FF
330
1F
100
AcDbEntity
  8
0
  6
Continuous
 62
     7
370
    25
100
AcDbLine
 10
111.9702279724
 20
103.9383998177
 30
0.0
 11
93.490226955
 21
103.9383998177
 31
0.0
  0
LINE
  5
100
330
1F
100
AcDbEntity
  8
0
  6
Continuous
 62
     7
370
    25
100
AcDbLine
 10
93.490226955
 20
99.938399162
 30
0.0
 11
111.9702279724
 21
99.938399162
 31
0.0
  0
ARC
  5
101
330
1F
100
AcDbEntity
  8
0
  6
Continuous
 62
     7
370
    25
100
AcDbCircle
 10
112.8554105903
 20
153.6395453023
 30
0.0
 40
0.3100000000000263
100
AcDbArc
 50
180.0
 51
311.0
  0
ARC
  5
102
330
1F
100
AcDbEntity
  8
0
  6
Continuous
 62
     7
370
    25
100
AcDbCircle
 10
112.8554105903
 20
160.9947998958
 30
0.0
 40
0.3100000000000263
100
AcDbArc
 50
49.0
 51
180.0
  0
LINE
  5
103
330
1F
100
AcDbEntity
  8
0
  6
Continuous
 62
     7
370
    25
100
AcDbLine
 10
113.0587875999
 20
153.4055853298
 30
0.0
 11
114.9702266015
 21
155.0671728364
 31
0.0
  0
LINE
  5
104
330
1F
100
AcDbEntity
  8
0
  6
Continuous
 62
     7
370
    25
100
AcDbLine
 10
114.9702266015
 20
159.5671726427
 30
0.0
 11
113.0587875999
 21
161.2287601492
 31
0.0
  0
LINE
  5
105
330
1F
100
AcDbEntity
  8
0
  6
Continuous
 62
     7
370
    25
100
AcDbLine
 10
176.0454110958
 20
159.067173492
 30
0.0
 11
120.970227585
 21
159.067173492
 31
0.0
  0
LINE
  5
106
330
1F
100
AcDbEntity
  8
0
  6
Continuous
 62
     7
370
    25
100
AcDbLine
 10
120.970227585
 20
155.567171987
 30
0.0
 11
176.0454110958
 21
155.567171987
 31
0.0
  0
ARC
  5
107
330
1F
100
AcDbEntity
  8
0
  6
Continuous
 62
     7
370
    25
100
AcDbCircle
 10
112.8554105903
 20
107.1920504729
 30
0.0
 40
0.3100000000000034
100
AcDbArc
 50
180.0
 51
311.0
  0
LINE
  5
108
330
1F
100
AcDbEntity
  8
0
  6
Continuous
 62
     7
370
    25
100
AcDbLine
 10
113.0587875999
 20
106.9580903313
 30
0.0
 11
114.9702266015
 21
108.6196778378
 31
0.0
  0
LINE
  5
109
330
1F
100
AcDbEntity
  8
0
  6
Continuous
 62
     7
370
    25
100
AcDbLine
 10
176.0454110958
 20
112.6196784934
 30
0.0
 11
120.970227585
 21
112.6196784934
 31
0.0
  0
LINE
  5
10A
330
1F
100
AcDbEntity
  8
0
  6
Continuous
 62
     7
370
    25
100
AcDbLine
 10
120.970227585
 20
109.1196769884
 30
0.0
 11
176.0454110958
 21
109.1196769884
 31
0.0
  0
ARC
  5
10B
330
1F
100
AcDbEntity
  8
0
  6
Continuous
 62
     7
370
    25
100
AcDbCircle
 10
73.3782934626
 20
113.9883984467
 30
0.0
 40
0.5
100
AcDbArc
 50
270.0
 51
0.0
  0
ARC
  5
10C
330
1F
100
AcDbEntity
  8
0
  6
Continuous
 62
     7
370
    25
100
AcDbCircle
 10
73.3782934626
 20
162.3883984467
 30
0.0
 40
0.5
100
AcDbArc
 50
0.0
 51
90.0
  0
LINE
  5
10D
330
1F
100
AcDbEntity
  8
0
  6
Continuous
 62
     7
370
    25
100
AcDbLine
 10
73.378293488
 20
162.8883993289
 30
0.0
 11
42.6782936014
 21
162.8883993289
 31
0.0
  0
LINE
  5
10E
330
1F
100
AcDbEntity
  8
0
  6
Continuous
 62
     7
370
    25
100
AcDbLine
 10
67.6282935932
 20
113.4883975646
 30
0.0
 11
73.378293488
 21
113.4883975646
 31
0.0
  0
LINE
  5
10F
330
1F
100
AcDbEntity
  8
0
  6
Continuous
 62
     7
370
    25
100
AcDbLine
 10
59.8189307533
 20
113.4883975646
 30
0.0
 11
62.1626841061
 21
113.4883975646
 31
0.0
  0
LINE
  5
110
330
1F
100
AcDbEntity
  8
0
  6
Continuous
 62
     7
370
    25
100
AcDbLine
 10
42.6782936014
 20
113.4883975646
 30
0.0
 11
46.8782939173
 21
113.4883975646
 31
0.0
  0
ARC
  5
111
330
1F
100
AcDbEntity
  8
0
  6
Continuous
 62
     7
370
    25
100
AcDbCircle
 10
42.6782934626
 20
114.2883984467
 30
0.0
 40
0.7999999999999972
100
AcDbArc
 50
180.0
 51
270.0
  0
ARC
  5
112
330
1F
100
AcDbEntity
  8
0
  6
Continuous
 62
     7
370
    25
100
AcDbCircle
 10
42.6782934626
 20
162.0883984467
 30
0.0
 40
0.8000000000000114
100
AcDbArc
 50
90.0
 51
180.0
  0
ARC
  5
113
330
1F
100
AcDbEntity
  8
0
  6
Continuous
 62
     7
370
    25
100
AcDbCircle
 10
59.8782934619
 20
112.4883984469
 30
0.0
 40
0.9999999999999962
100
AcDbArc
 50
93.4874383073
 51
179.390174195
  0
SPLINE
  5
114
330
1F
100
AcDbEntity
  8
0
  6
Continuous
 62
     7
370
    25
100
AcDbSpline
210
0.0
220
0.0
230
1.0
 70
     8
 71
     3
 72
    12
 73
     8
 74
     0
 42
0.000000001
 43
0.00000001
 40
0.0
 40
0.0
 40
0.0
 40
0.0
 40
0.1321254830982699
 40
0.3826691638740874
 40
0.6498656490216239
 40
0.9261928225774994
 40
1.0
 40
1.0
 40
1.0
 40
1.0
 10
47.1353892393389
 20
113.4420344641854
 30
0.0
 10
47.19175457907619
 20
113.4287345067389
 30
0.0
 10
47.35500300718382
 20
113.3902144311542
 30
0.0
 10
47.59111792288238
 20
113.2144448559218
 30
0.0
 10
47.79321628916129
 20
112.9330788652475
 30
0.0
 10
47.88731706992343
 20
112.6656691821861
 30
0.0
 10
47.87024711458886
 20
112.5133742042061
 30
0.0
 10
47.86664882376578
 20
112.4812709203412
 30
0.0
  0
LINE
  5
115
330
1F
100
AcDbEntity
  8
0
  6
Continuous
 62
     7
370
    25
100
AcDbLine
 10
47.8782940812
 20
112.4883992633
 30
0.0
 11
47.8782940812
 21
58.9883988759
 31
0.0
  0
LINE
  5
116
330
1F
100
AcDbEntity
  8
0
  6
Continuous
 62
     7
370
    25
100
AcDbLine
 10
58.8782930903
 20
58.9883988759
 30
0.0
 11
58.8782930903
 21
112.5033488533
 31
0.0
  0
ARC
  5
117
330
1F
100
AcDbEntity
  8
0
  6
Continuous
 62
     7
370
    25
100
AcDbCircle
 10
58.0782934626
 20
58.9883984467
 30
0.0
 40
0.8000000000000043
100
AcDbArc
 50
270.0
 51
0.0
  0
ARC
  5
118
330
1F
100
AcDbEntity
  8
0
  6
Continuous
 62
     7
370
    25
100
AcDbCircle
 10
48.6782934626
 20
58.9883984467
 30
0.0
 40
0.7999999999999972
100
AcDbArc
 50
180.0
 51
270.0
  0
LINE
  5
119
330
1F
100
AcDbEntity
  8
0
  6
Continuous
 62
     7
370
    25
100
AcDbLine
 10
90.9902256139
 20
228.188402023
 30
0.0
 11
83.4902262472
 21
228.188402023
 31
0.0
  0
LINE
  5
11A
330
1F
100
AcDbEntity
  8
0
  6
Continuous
 62
     7
370
    25
100
AcDbLine
 10
83.4902262472
 20
48.1883948705
 30
0.0
 11
87.0414141722
 21
48.1883948705
 31
0.0
  0
ARC
  5
11B
330
1F
100
AcDbEntity
  8
0
  6
Continuous
 62
     7
370
    25
100
AcDbCircle
 10
83.4902263867
 20
226.6883984467
 30
0.0
 40
1.500000000000014
100
AcDbArc
 50
90.0
 51
180.0
  0
ARC
  5
11C
330
1F
100
AcDbEntity
  8
0
  6
Continuous
 62
     7
370
    25
100
AcDbCircle
 10
83.4902263867
 20
49.6883984467
 30
0.0
 40
1.5
100
AcDbArc
 50
180.0
 51
270.0
  0
LINE
  5
11D
330
1F
100
AcDbEntity
  8
0
  6
Continuous
 62
     7
370
    25
100
AcDbLine
 10
120.970227585
 20
180.1883978805
 30
0.0
 11
116.8702252366
 21
180.1883978805
 31
0.0
  0
ARC
  5
11E
330
1F
100
AcDbEntity
  8
0
  6
Continuous
 62
     7
370
    25
100
AcDbCircle
 10
116.8702263867
 20
178.2883984467
 30
0.0
 40
1.900000000000006
100
AcDbArc
 50
90.0
 51
180.0
  0
LINE
  5
11F
330
1F
100
AcDbEntity
  8
0
  6
Continuous
 62
     7
370
    25
100
AcDbLine
 10
116.8702252366
 20
96.188399013
 30
0.0
 11
120.970227585
 21
96.188399013
 31
0.0
  0
ARC
  5
120
330
1F
100
AcDbEntity
  8
0
  6
Continuous
 62
     7
370
    25
100
AcDbCircle
 10
116.8702263867
 20
98.0883984467
 30
0.0
 40
1.90000000000002
100
AcDbArc
 50
180.0
 51
270.0
  0
ARC
  5
121
330
1F
100
AcDbEntity
  8
0
  6
Continuous
 62
     7
370
    25
100
AcDbCircle
 10
113.9702263867
 20
112.4883984467
 30
0.0
 40
1.0
100
AcDbArc
 50
0.0
 51
90.0
  0
ARC
  5
122
330
1F
100
AcDbEntity
  8
0
  6
Continuous
 62
     7
370
    25
100
AcDbCircle
 10
113.9702263867
 20
163.8883984467
 30
0.0
 40
1.0
100
AcDbArc
 50
270.0
 51
0.0
  0
LINE
  5
123
330
1F
100
AcDbEntity
  8
0
  6
Continuous
 62
     7
370
    25
100
AcDbLine
 10
76.8702265963
 20
113.4883975646
 30
0.0
 11
81.9902260013
 21
113.4883975646
 31
0.0
  0
LINE
  5
124
330
1F
100
AcDbEntity
  8
0
  6
Continuous
 62
     7
370
    25
100
AcDbLine
 10
93.490226955
 20
113.4883975646
 30
0.0
 11
113.970224575
 21
113.4883975646
 31
0.0
  0
LINE
  5
125
330
1F
100
AcDbEntity
  8
0
  6
Continuous
 62
     7
370
    25
100
AcDbLine
 10
113.970224575
 20
162.8883993289
 30
0.0
 11
93.490226955
 21
162.8883993289
 31
0.0
  0
LINE
  5
126
330
1F
100
AcDbEntity
  8
0
  6
Continuous
 62
     7
370
    25
100
AcDbLine
 10
81.9902260013
 20
162.8883993289
 30
0.0
 11
76.8702265963
 21
162.8883993289
 31
0.0
  0
ARC
  5
127
330
1F
100
AcDbEntity
  8
0
  6
Continuous
 62
     7
370
    25
100
AcDbCircle
 10
76.8702263867
 20
115.3883984467
 30
0.0
 40
1.900000000000006
100
AcDbArc
 50
180.0
 51
270.0
  0
ARC
  5
128
330
1F
100
AcDbEntity
  8
0
  6
Continuous
 62
     7
370
    25
100
AcDbCircle
 10
76.8702263867
 20
160.9883984467
 30
0.0
 40
1.900000000000006
100
AcDbArc
 50
90.0
 51
180.0
  0
ARC
  5
129
330
1F
100
AcDbEntity
  8
0
  6
Continuous
 62
     7
370
    25
100
AcDbCircle
 10
73.9702263867
 20
119.6883984467
 30
0.0
 40
1.0
100
AcDbArc
 50
0.0
 51
90.0
  0
ARC
  5
12A
330
1F
100
AcDbEntity
  8
0
  6
Continuous
 62
     7
370
    25
100
AcDbCircle
 10
73.9702263867
 20
156.6883984467
 30
0.0
 40
1.0
100
AcDbArc
 50
270.0
 51
0.0
  0
LINE
  5
12B
330
1F
100
AcDbEntity
  8
0
  6
Continuous
 62
     7
370
    25
100
AcDbLine
 10
73.8782934535
 20
120.6883983722
 30
0.0
 11
73.9702264003
 21
120.6883983722
 31
0.0
  0
LINE
  5
12C
330
1F
100
AcDbEntity
  8
0
  6
Continuous
 62
     7
370
    25
100
AcDbLine
 10
73.9702264003
 20
155.6883985212
 30
0.0
 11
73.8782934535
 21
155.6883985212
 31
0.0
  0
ARC
  5
12D
330
1F
100
AcDbEntity
  8
0
  6
Continuous
 62
     7
370
    25
100
AcDbCircle
 10
113.9702263867
 20
105.8383984467
 30
0.0
 40
1.0
100
AcDbArc
 50
270.0
 51
360.0
  0
LINE
  5
12E
330
1F
100
AcDbEntity
  8
0
  6
Continuous
 62
     7
370
    25
100
AcDbLine
 10
111.9702279724
 20
99.0383988282
 30
0.0
 11
113.970224575
 21
99.0383988282
 31
0.0
  0
LINE
  5
12F
330
1F
100
AcDbEntity
  8
0
  6
Continuous
 62
     7
370
    25
100
AcDbLine
 10
113.970224575
 20
104.8384001514
 30
0.0
 11
111.9702279724
 21
104.8384001514
 31
0.0
  0
ARC
  5
130
330
1F
100
AcDbEntity
  8
0
  6
Continuous
 62
     7
370
    25
100
AcDbCircle
 10
113.9706574532
 20
98.0383984467
 30
0.0
 40
0.9999999999999969
100
AcDbArc
 50
0.8919624544
 51
90.4407208503
  0
LINE
  5
131
330
1F
100
AcDbEntity
  8
0
  6
Continuous
 62
     7
370
    25
100
AcDbLine
 10
90.9902256139
 20
51.2791117689
 30
0.0
 11
93.490226955
 21
51.2791117689
 31
0.0
  0
LINE
  5
132
330
1F
100
AcDbEntity
  8
0
  6
Continuous
 62
     7
370
    25
100
AcDbLine
 10
93.490226955
 20
51.2791117689
 30
0.0
 11
93.490226955
 21
226.4383947513
 31
0.0
  0
LINE
  5
133
330
1F
100
AcDbEntity
  8
0
  6
Continuous
 62
     7
370
    25
100
AcDbLine
 10
112.5454090692
 20
153.6395456678
 30
0.0
 11
112.5454090692
 21
160.9948007426
 31
0.0
  0
LINE
  5
134
330
1F
100
AcDbEntity
  8
0
  6
Continuous
 62
     7
370
    25
100
AcDbLine
 10
176.0454110958
 20
155.7430969587
 30
0.0
 11
176.0454110958
 21
155.567171987
 31
0.0
  0
LINE
  5
135
330
1F
100
AcDbEntity
  8
0
  6
Continuous
 62
     7
370
    25
100
AcDbLine
 10
176.0454110958
 20
159.067173492
 30
0.0
 11
176.0454110958
 21
155.7430969587
 31
0.0
  0
LINE
  5
136
330
1F
100
AcDbEntity
  8
0
  6
Continuous
 62
     7
370
    25
100
AcDbLine
 10
112.5454090692
 20
107.1920497379
 30
0.0
 11
112.5454090692
 21
113.4883975646
 31
0.0
  0
LINE
  5
137
330
1F
100
AcDbEntity
  8
0
  6
Continuous
 62
     7
370
    25
100
AcDbLine
 10
176.0454110958
 20
112.6196784934
 30
0.0
 11
176.0454110958
 21
109.1196769884
 31
0.0
  0
LINE
  5
138
330
1F
100
AcDbEntity
  8
0
  6
Continuous
 62
     7
370
    25
100
AcDbLine
 10
73.8782934535
 20
138.1883984467
 30
0.0
 11
73.8782934535
 21
113.9883985779
 31
0.0
  0
LINE
  5
139
330
1F
100
AcDbEntity
  8
0
  6
Continuous
 62
     7
370
    25
100
AcDbLine
 10
73.8782934535
 20
162.3883983156
 30
0.0
 11
73.8782934535
 21
138.1883984467
 31
0.0
  0
ARC
  5
13A
330
1F
100
AcDbEntity
  8
0
  6
Continuous
 62
     7
370
    25
100
AcDbCircle
 10
64.8783980199
 20
88.8707173437
 30
0.0
 40
24.7707913705591
100
AcDbArc
 50
83.6262495713
 51
96.2942013573
  0
SPLINE
  5
13B
330
1F
100
AcDbEntity
  8
0
  6
Continuous
 62
     7
370
    25
100
AcDbSpline
210
0.0
220
0.0
230
1.0
 70
     8
 71
     3
 72
    18
 73
    14
 74
     0
 42
0.000000001
 43
0.00000001
 40
0.0
 40
0.0
 40
0.0
 40
0.0
 40
0.0014667903848277
 40
0.1075804888545333
 40
0.2144721363583417
 40
0.3255493570072234
 40
0.4396243702053654
 40
0.5520228856618331
 40
0.6613685223743806
 40
0.770807848108955
 40
0.8820069770760695
 40
0.9923736403276939
 40
1.0
 40
1.0
 40
1.0
 40
1.0
 10
46.878293917326
 20
113.4883975645949
 30
0.0
 10
46.87830860343099
 20
113.4884012445273
 30
0.0
 10
46.879385743267
 20
113.4886711460209
 30
0.0
 10
47.12815851047139
 20
113.5505951203348
 30
0.0
 10
48.17080590486533
 20
113.7835318712282
 30
0.0
 10
49.79118928055932
 20
114.065764544254
 30
0.0
 10
51.82880032108584
 20
114.2755584045584
 30
0.0
 10
54.0267279807886
 20
114.3137218752729
 30
0.0
 10
56.11740133231888
 20
114.1716768389088
 30
0.0
 10
57.93433678899154
 20
113.9083933406741
 30
0.0
 10
59.2175832638295
 20
113.6480622829243
 30
0.0
 10
59.82410224037543
 20
113.5015180585587
 30
0.0
 10
59.81831657095664
 20
113.5029141902929
 30
0.0
 10
59.81794262006667
 20
113.5030044278552
 30
0.0
  0
LINE
  5
13C
330
1F
100
AcDbEntity
  8
0
  6
Continuous
 62
     7
370
    25
100
AcDbLine
 10
41.8782930978
 20
138.1883984467
 30
0.0
 11
41.8782930978
 21
162.0883988252
 31
0.0
  0
LINE
  5
13D
330
1F
100
AcDbEntity
  8
0
  6
Continuous
 62
     7
370
    25
100
AcDbLine
 10
41.8782930978
 20
114.2883980683
 30
0.0
 11
41.8782930978
 21
138.1883984467
 31
0.0
  0
LINE
  5
13E
330
1F
100
AcDbEntity
  8
0
  6
Continuous
 62
     7
370
    25
100
AcDbLine
 10
58.078293518
 20
58.1884002349
 30
0.0
 11
48.6782927223
 21
58.1884002349
 31
0.0
  0
SPLINE
  5
13F
330
1F
100
AcDbEntity
  8
0
  6
Continuous
 62
     7
370
    25
100
AcDbSpline
210
0.0
220
0.0
230
1.0
 70
     8
 71
     3
 72
    13
 73
     9
 74
     0
 42
0.000000001
 43
0.00000001
 40
0.0
 40
0.0
 40
0.0
 40
0.0
 40
0.0738114480807194
 40
0.2882385148197861
 40
0.5027438524804317
 40
0.7174338318787652
 40
0.9321272628734187
 40
0.9999999999999999
 40
0.9999999999999999
 40
0.9999999999999999
 40
0.9999999999999999
 10
87.04141417220022
 20
48.19065239638587
 30
0.0
 10
87.0274017176289
 20
48.19003606234079
 30
0.0
 10
86.97268216937945
 20
48.18762923773014
 30
0.0
 10
87.3435700736981
 20
48.20407458118925
 30
0.0
 10
88.11538356623758
 20
48.23308434308074
 30
0.0
 10
89.24098526225666
 20
48.26309046950001
 30
0.0
 10
90.25918511647224
 20
48.27627323882708
 30
0.0
 10
90.84863825365251
 20
48.27712730364328
 30
0.0
 10
90.99022561386015
 20
48.27733245105048
 30
0.0
  0
LINE
  5
140
330
1F
100
AcDbEntity
  8
0
  6
Continuous
 62
     7
370
    25
100
AcDbLine
 10
90.9902256139
 20
228.188402023
 30
0.0
 11
90.9902256139
 21
48.2773324511
 31
0.0
  0
LINE
  5
141
330
1F
100
AcDbEntity
  8
0
  6
Continuous
 62
     7
370
    25
100
AcDbLine
 10
81.9902260013
 20
49.6883979103
 30
0.0
 11
81.9902260013
 21
226.6883989832
 31
0.0
  0
LINE
  5
142
330
1F
100
AcDbEntity
  8
0
  6
Continuous
 62
     7
370
    25
100
AcDbLine
 10
120.970227585
 20
154.065369632
 30
0.0
 11
120.970227585
 21
162.6454154065
 31
0.0
  0
LINE
  5
143
330
1F
100
AcDbEntity
  8
0
  6
Continuous
 62
     7
370
    25
100
AcDbLine
 10
116.8702252366
 20
154.065369632
 30
0.0
 11
120.970227585
 21
154.065369632
 31
0.0
  0
LINE
  5
144
330
1F
100
AcDbEntity
  8
0
  6
Continuous
 62
     7
370
    25
100
AcDbLine
 10
116.8702252366
 20
162.6454154065
 30
0.0
 11
116.8702252366
 21
154.065369632
 31
0.0
  0
LINE
  5
145
330
1F
100
AcDbEntity
  8
0
  6
Continuous
 62
     7
370
    25
100
AcDbLine
 10
120.970227585
 20
162.6454154065
 30
0.0
 11
116.8702252366
 21
162.6454154065
 31
0.0
  0
LINE
  5
146
330
1F
100
AcDbEntity
  8
0
  6
Continuous
 62
     7
370
    25
100
AcDbLine
 10
114.9702266015
 20
155.4669933429
 30
0.0
 11
114.9702266015
 21
161.5390265396
 31
0.0
  0
LWPOLYLINE
  5
147
330
1F
100
AcDbEntity
  8
0
  6
Continuous
 62
     7
370
    25
100
AcDbPolyline
 90
        9
 70
   128
 43
0.0
 10
114.9702266015
 20
161.5390265396
 10
115.0067344464
 20
161.7548717222
 10
115.1148535468
 20
161.9624225459
 10
115.2904339291
 20
162.1537031642
 10
115.5267216422
 20
162.3213617167
 10
115.8146418788
 20
162.4589553139
 10
116.1431268014
 20
162.5611959061
 10
116.4995551266
 20
162.6241551748
 10
116.8702252366
 20
162.6454154065
  0
ARC
  5
148
330
1F
100
AcDbEntity
  8
0
  6
Continuous
 62
     7
370
    25
100
AcDbCircle
 10
116.6537160326
 20
155.7604784615
 30
0.0
 40
1.708879802546189
100
AcDbArc
 50
189.8890732783
 51
277.2787409379
  0
LINE
  5
149
330
1F
100
AcDbEntity
  8
0
  6
Continuous
 62
     7
370
    25
100
AcDbLine
 10
116.8702252366
 20
113.731381487
 30
0.0
 11
120.970227585
 21
113.731381487
 31
0.0
  0
LINE
  5
14A
330
1F
100
AcDbEntity
  8
0
  6
Continuous
 62
     7
370
    25
100
AcDbLine
 10
116.8702252366
 20
122.3114272615
 30
0.0
 11
116.8702252366
 21
113.731381487
 31
0.0
  0
LINE
  5
14B
330
1F
100
AcDbEntity
  8
0
  6
Continuous
 62
     7
370
    25
100
AcDbLine
 10
120.970227585
 20
122.3114272615
 30
0.0
 11
116.8702252366
 21
122.3114272615
 31
0.0
  0
LINE
  5
14C
330
1F
100
AcDbEntity
  8
0
  6
Continuous
 62
     7
370
    25
100
AcDbLine
 10
120.970227585
 20
113.731381487
 30
0.0
 11
120.970227585
 21
122.3114272615
 31
0.0
  0
LWPOLYLINE
  5
14D
330
1F
100
AcDbEntity
  8
0
  6
Continuous
 62
     7
370
    25
100
AcDbPolyline
 90
        9
 70
   128
 43
0.0
 10
116.8702252366
 20
113.731381487
 10
116.4995551266
 20
113.7526417187
 10
116.1431268014
 20
113.8156009874
 10
115.8146418788
 20
113.9178415796
 10
115.5267216422
 20
114.0554351768
 10
115.2904339291
 20
114.2230937293
 10
115.1148535468
 20
114.4143743476
 10
115.0067344464
 20
114.6219251713
 10
114.9702266015
 20
114.8377703539
  0
LINE
  5
14E
330
1F
100
AcDbEntity
  8
0
  6
Continuous
 62
     7
370
    25
100
AcDbLine
 10
114.9702266015
 20
114.8377703539
 30
0.0
 11
114.9702266015
 21
120.9098035505
 31
0.0
  0
ARC
  5
14F
330
1F
100
AcDbEntity
  8
0
  6
Continuous
 62
     7
370
    25
100
AcDbCircle
 10
116.6537160326
 20
120.6163184319
 30
0.0
 40
1.708879802546161
100
AcDbArc
 50
82.7212590621
 51
170.1109267217
  0
LINE
  5
150
330
1F
100
AcDbEntity
  8
0
  6
Continuous
 62
     7
370
    25
100
AcDbLine
 10
120.970227585
 20
162.6454154065
 30
0.0
 11
120.970227585
 21
180.1883978805
 31
0.0
  0
LINE
  5
151
330
1F
100
AcDbEntity
  8
0
  6
Continuous
 62
     7
370
    25
100
AcDbLine
 10
114.9702266015
 20
161.5390265396
 30
0.0
 11
114.9702266015
 21
178.2883992454
 31
0.0
  0
LINE
  5
152
330
1F
100
AcDbEntity
  8
0
  6
Continuous
 62
     7
370
    25
100
AcDbLine
 10
120.970227585
 20
96.188399013
 30
0.0
 11
120.970227585
 21
113.731381487
 31
0.0
  0
LINE
  5
153
330
1F
100
AcDbEntity
  8
0
  6
Continuous
 62
     7
370
    25
100
AcDbLine
 10
114.9702266015
 20
98.0937434396
 30
0.0
 11
114.9702266015
 21
114.8377703539
 31
0.0
  0
LINE
  5
154
330
1F
100
AcDbEntity
  8
0
  6
Continuous
 62
     7
370
    25
100
AcDbLine
 10
120.970227585
 20
146.6883989087
 30
0.0
 11
116.8702252366
 21
146.6883989087
 31
0.0
  0
LINE
  5
155
330
1F
100
AcDbEntity
  8
0
  6
Continuous
 62
     7
370
    25
100
AcDbLine
 10
116.8702252366
 20
154.065369632
 30
0.0
 11
116.8702252366
 21
146.6883989087
 31
0.0
  0
LINE
  5
156
330
1F
100
AcDbEntity
  8
0
  6
Continuous
 62
     7
370
    25
100
AcDbLine
 10
120.970227585
 20
146.6883989087
 30
0.0
 11
120.970227585
 21
154.065369632
 31
0.0
  0
LINE
  5
157
330
1F
100
AcDbEntity
  8
0
  6
Continuous
 62
     7
370
    25
100
AcDbLine
 10
116.8702252366
 20
146.6883989087
 30
0.0
 11
114.9702266015
 21
146.6883989087
 31
0.0
  0
LINE
  5
158
330
1F
100
AcDbEntity
  8
0
  6
Continuous
 62
     7
370
    25
100
AcDbLine
 10
114.9702266015
 20
146.6883989087
 30
0.0
 11
114.9702266015
 21
155.4669933429
 31
0.0
  0
LINE
  5
159
330
1F
100
AcDbEntity
  8
0
  6
Continuous
 62
     7
370
    25
100
AcDbLine
 10
116.8702252366
 20
129.6883979848
 30
0.0
 11
116.8702252366
 21
122.3114272615
 31
0.0
  0
LINE
  5
15A
330
1F
100
AcDbEntity
  8
0
  6
Continuous
 62
     7
370
    25
100
AcDbLine
 10
120.970227585
 20
129.6883979848
 30
0.0
 11
116.8702252366
 21
129.6883979848
 31
0.0
  0
LINE
  5
15B
330
1F
100
AcDbEntity
  8
0
  6
Continuous
 62
     7
370
    25
100
AcDbLine
 10
120.970227585
 20
122.3114272615
 30
0.0
 11
120.970227585
 21
129.6883979848
 31
0.0
  0
LINE
  5
15C
330
1F
100
AcDbEntity
  8
0
  6
Continuous
 62
     7
370
    25
100
AcDbLine
 10
116.8702252366
 20
129.6883979848
 30
0.0
 11
114.9702266015
 21
129.6883979848
 31
0.0
  0
LINE
  5
15D
330
1F
100
AcDbEntity
  8
0
  6
Continuous
 62
     7
370
    25
100
AcDbLine
 10
114.9702266015
 20
120.9098035505
 30
0.0
 11
114.9702266015
 21
129.6883979848
 31
0.0
  0
LINE
  5
15E
330
1F
100
AcDbEntity
  8
0
  6
Continuous
 62
     7
370
    25
100
AcDbLine
 10
116.8702252366
 20
146.6883989087
 30
0.0
 11
116.8702252366
 21
129.6883979848
 31
0.0
  0
LINE
  5
15F
330
1F
100
AcDbEntity
  8
0
  6
Continuous
 62
     7
370
    25
100
AcDbLine
 10
120.970227585
 20
129.6883979848
 30
0.0
 11
120.970227585
 21
146.6883989087
 31
0.0
  0
LINE
  5
160
330
1F
100
AcDbEntity
  8
0
  6
Continuous
 62
     7
370
    25
100
AcDbLine
 10
114.9702266015
 20
129.6883979848
 30
0.0
 11
114.9702266015
 21
146.6883989087
 31
0.0
  0
LINE
  5
161
330
1F
100
AcDbEntity
  8
0
  6
Continuous
 62
     7
370
    25
100
AcDbLine
 10
74.9702263314
 20
115.3883980623
 30
0.0
 11
74.9702263314
 21
160.9883988312
 31
0.0
  0
ARC
  5
162
330
1F
100
AcDbEntity
  8
0
  6
Continuous
 62
     7
370
    25
100
AcDbCircle
 10
113.9772748634
 20
98.0865997041
 30
0.0
 40
0.9929774353666057
100
AcDbArc
 50
0.412204154
 51
90.406812031
  0
LINE
  5
163
330
1F
100
AcDbEntity
  8
0
  6
Continuous
 62
     7
370
    25
100
AcDbLine
 10
111.9702279724
 20
99.0383988282
 30
0.0
 11
111.9702279724
 21
104.8384001514
 31
0.0
  0
LINE
  5
164
330
1F
100
AcDbEntity
  8
0
  6
Continuous
 62
     7
370
    25
100
AcDbLine
 10
113.0587875999
 20
153.7988111413
 30
0.0
 11
113.0587875999
 21
153.4055853298
 31
0.0
  0
LINE
  5
165
330
1F
100
AcDbEntity
  8
0
  6
Continuous
 62
     7
370
    25
100
AcDbLine
 10
113.0587875999
 20
161.2287601492
 30
0.0
 11
113.0587875999
 21
153.7988111413
 31
0.0
  0
LINE
  5
166
330
1F
100
AcDbEntity
  8
0
  6
Continuous
 62
     7
370
    25
100
AcDbLine
 10
113.0587875999
 20
113.4883975646
 30
0.0
 11
113.0587875999
 21
106.9580903313
 31
0.0
  0
LINE
  5
167
330
1F
100
AcDbEntity
  8
0
  6
Continuous
 62
     7
370
    25
100
AcDbLine
 10
73.378293488
 20
138.1883984467
 30
0.0
 11
73.378293488
 21
162.8883993289
 31
0.0
  0
LINE
  5
168
330
1F
100
AcDbEntity
  8
0
  6
Continuous
 62
     7
370
    25
100
AcDbLine
 10
73.378293488
 20
113.4883975646
 30
0.0
 11
73.378293488
 21
138.1883984467
 31
0.0
  0
LINE
  5
169
330
1F
100
AcDbEntity
  8
0
  6
Continuous
 62
     7
370
    25
100
AcDbLine
 10
42.6782936014
 20
138.1883984467
 30
0.0
 11
42.6782936014
 21
113.4883975646
 31
0.0
  0
LINE
  5
16A
330
1F
100
AcDbEntity
  8
0
  6
Continuous
 62
     7
370
    25
100
AcDbLine
 10
42.6782936014
 20
162.8883993289
 30
0.0
 11
42.6782936014
 21
138.1883984467
 31
0.0
  0
LINE
  5
16B
330
1F
100
AcDbEntity
  8
0
  6
Continuous
 62
     7
370
    25
100
AcDbLine
 10
59.8179426201
 20
113.5030044279
 30
0.0
 11
59.8189307533
 21
113.5027660093
 31
0.0
  0
ARC
  5
16C
330
1F
100
AcDbEntity
  8
0
  6
Continuous
 62
     7
370
    25
100
AcDbCircle
 10
53.3777894235
 20
94.4697792975
 30
0.0
 40
18.83919091923353
100
AcDbArc
 50
73.1836429937
 51
106.9728074071
  0
LINE
  5
16D
330
1F
100
AcDbEntity
  8
0
  6
Continuous
 62
     7
370
    25
100
AcDbLine
 10
47.8782940812
 20
58.9883988759
 30
0.0
 11
58.8782930903
 21
58.9883988759
 31
0.0
  0
LINE
  5
16E
330
1F
100
AcDbEntity
  8
0
  6
Continuous
 62
     7
370
    25
100
AcDbLine
 10
83.4902262472
 20
228.188402023
 30
0.0
 11
83.4902262472
 21
48.1883948705
 31
0.0
  0
LINE
  5
16F
330
1F
100
AcDbEntity
  8
0
  6
Continuous
 62
     7
370
    25
100
AcDbLine
 10
116.8702252366
 20
180.1883978805
 30
0.0
 11
116.8702252366
 21
162.6454154065
 31
0.0
  0
LINE
  5
170
330
1F
100
AcDbEntity
  8
0
  6
Continuous
 62
     7
370
    25
100
AcDbLine
 10
116.8702252366
 20
113.731381487
 30
0.0
 11
116.8702252366
 21
96.188399013
 31
0.0
  0
LINE
  5
171
330
1F
100
AcDbEntity
  8
0
  6
Continuous
 62
     7
370
    25
100
AcDbLine
 10
113.970224575
 20
113.4883975646
 30
0.0
 11
113.970224575
 21
154.1978856584
 31
0.0
  0
LINE
  5
172
330
1F
100
AcDbEntity
  8
0
  6
Continuous
 62
     7
370
    25
100
AcDbLine
 10
113.970224575
 20
160.4364598206
 30
0.0
 11
113.970224575
 21
162.8883993289
 31
0.0
  0
LINE
  5
173
330
1F
100
AcDbEntity
  8
0
  6
Continuous
 62
     7
370
    25
100
AcDbLine
 10
76.8702265963
 20
162.8883993289
 30
0.0
 11
76.8702265963
 21
113.4883975646
 31
0.0
  0
LINE
  5
174
330
1F
100
AcDbEntity
  8
0
  6
Continuous
 62
     7
370
    25
100
AcDbLine
 10
73.9702264003
 20
120.6883983722
 30
0.0
 11
73.9702264003
 21
155.6883985212
 31
0.0
  0
LINE
  5
175
330
1F
100
AcDbEntity
  8
0
  6
Continuous
 62
     7
370
    25
100
AcDbLine
 10
113.970224575
 20
99.0795521101
 30
0.0
 11
113.970224575
 21
104.8384001514
 31
0.0
  0
ENDSEC
  0
SECTION
  2
OBJECTS
  0
DICTIONARY
  5
C
330
0
100
AcDbDictionary
281
     1
  3
ACAD_GROUP
350
D
  3
ACAD_LAYOUT
350
1A
  3
ACAD_MLINESTYLE
350
17
  3
ACAD_PLOTSETTINGS
350
19
  3
ACAD_PLOTSTYLENAME
350
E
  3
ACAD_SCALELIST
350
47
  0
DICTIONARY
  5
D
102
{ACAD_REACTORS
330
C
102
}
330
C
100
AcDbDictionary
281
     1
  0
DICTIONARY
  5
1A
102
{ACAD_REACTORS
330
C
102
}
330
C
100
AcDbDictionary
281
     1
  3
Layout1
350
1E
  3
Layout2
350
26
  3
Model
350
22
  0
DICTIONARY
  5
17
102
{ACAD_REACTORS
330
C
102
}
330
C
100
AcDbDictionary
281
     1
  3
Standard
350
18
  0
DICTIONARY
  5
19
102
{ACAD_REACTORS
330
C
102
}
330
C
100
AcDbDictionary
281
     1
  0
ACDBDICTIONARYWDFLT
  5
E
102
{ACAD_REACTORS
330
C
102
}
330
C
100
AcDbDictionary
281
     1
  3
Normal
350
F
100
AcDbDictionaryWithDefault
340
F
  0
DICTIONARY
  5
47
102
{ACAD_REACTORS
330
C
102
}
330
C
100
AcDbDictionary
281
     1
  3
A0
350
48
  3
A1
350
49
  3
A2
350
4A
  3
A3
350
4B
  3
A4
350
4C
  3
A5
350
4D
  3
A6
350
4E
  3
A7
350
4F
  3
A8
350
50
  3
A9
350
51
  3
B0
350
52
  3
B1
350
53
  3
B2
350
54
  3
B3
350
55
  3
B4
350
56
  3
B5
350
57
  3
B6
350
58
  3
B7
350
59
  3
B8
350
5A
  3
B9
350
5B
  3
C0
350
5C
  3
C1
350
5D
  3
C2
350
5E
  3
C3
350
5F
  3
C4
350
60
  3
C5
350
61
  3
C6
350
62
  3
C7
350
63
  3
C8
350
64
  3
C9
350
65
  3
D0
350
66
  3
D1
350
67
  3
D2
350
68
  0
LAYOUT
  5
1E
102
{ACAD_REACTORS
330
1A
102
}
330
1A
100
AcDbPlotSettings
  1

  2
none_device
  4

  6

 40
0.0
 41
0.0
 42
0.0
 43
0.0
 44
0.0
 45
0.0
 46
0.0
 47
0.0
 48
0.0
 49
0.0
140
0.0
141
0.0
142
1.0
143
1.0
 70
   688
 72
     1
 73
     0
 74
     5
  7

 75
    16
147
1.0
148
0.0
149
0.0
100
AcDbLayout
  1
Layout1
 70
     1
 71
     1
 10
0.0
 20
0.0
 11
420.0
 21
297.0
 12
0.0
 22
0.0
 32
0.0
 14
1.0000000000E+20
 24
1.0000000000E+20
 34
1.0000000000E+20
 15
-1.0000000000E+20
 25
-1.0000000000E+20
 35
-1.0000000000E+20
146
0.0
 13
0.0
 23
0.0
 33
0.0
 16
1.0
 26
0.0
 36
0.0
 17
0.0
 27
1.0
 37
0.0
 76
     0
330
1B
  0
LAYOUT
  5
26
102
{ACAD_REACTORS
330
1A
102
}
330
1A
100
AcDbPlotSettings
  1

  2
none_device
  4

  6

 40
0.0
 41
0.0
 42
0.0
 43
0.0
 44
0.0
 45
0.0
 46
0.0
 47
0.0
 48
0.0
 49
0.0
140
0.0
141
0.0
142
1.0
143
1.0
 70
   688
 72
     1
 73
     0
 74
     5
  7

 75
    16
147
1.0
148
0.0
149
0.0
100
AcDbLayout
  1
Layout2
 70
     1
 71
     2
 10
0.0
 20
0.0
 11
0.0
 21
0.0
 12
0.0
 22
0.0
 32
0.0
 14
0.0
 24
0.0
 34
0.0
 15
0.0
 25
0.0
 35
0.0
146
0.0
 13
0.0
 23
0.0
 33
0.0
 16
1.0
 26
0.0
 36
0.0
 17
0.0
 27
1.0
 37
0.0
 76
     0
330
23
  0
LAYOUT
  5
22
102
{ACAD_REACTORS
330
1A
102
}
330
1A
100
AcDbPlotSettings
  1

  2
none_device
  4
Letter_(8.50_x_11.00_Inches)
  6

 40
6.35
 41
6.35
 42
6.35000508
 43
6.35000508
 44
215.9
 45
279.4
 46
0.0
 47
0.0
 48
0.0
 49
0.0
140
0.0
141
0.0
142
1.0
143
1.0
 70
  1712
 72
     1
 73
     0
 74
     0
  7

 75
     0
147
1.0
148
0.0
149
0.0
100
AcDbLayout
  1
Model
 70
     1
 71
     0
 10
0.0
 20
0.0
 11
482.402
 21
468.339
 12
0.0
 22
0.0
 32
0.0
 14
0.0
 24
0.0
 34
0.0
 15
482.402
 25
468.339
 35
0.0
146
0.0
 13
0.0
 23
0.0
 33
0.0
 16
1.0
 26
0.0
 36
0.0
 17
0.0
 27
1.0
 37
0.0
 76
     0
330
1F
331
29
  0
MLINESTYLE
  5
18
102
{ACAD_REACTORS
330
17
102
}
330
17
100
AcDbMlineStyle
  2
Standard
 70
     0
  3

 62
   256
 51
90.0
 52
90.0
 71
     2
 49
0.5
 62
   256
  6
BYLAYER
 49
-0.5
 62
   256
  6
BYLAYER
  0
ACDBPLACEHOLDER
  5
F
102
{ACAD_REACTORS
330
E
102
}
330
E
  0
SCALE
  5
48
102
{ACAD_REACTORS
330
47
102
}
330
47
100
AcDbScale
 70
     0
300
1:1
140
1.0
141
1.0
290
     1
  0
SCALE
  5
49
102
{ACAD_REACTORS
330
47
102
}
330
47
100
AcDbScale
 70
     0
300
1:2
140
1.0
141
2.0
290
     0
  0
SCALE
  5
4A
102
{ACAD_REACTORS
330
47
102
}
330
47
100
AcDbScale
 70
     0
300
1:4
140
1.0
141
4.0
290
     0
  0
SCALE
  5
4B
102
{ACAD_REACTORS
330
47
102
}
330
47
100
AcDbScale
 70
     0
300
1:5
140
1.0
141
5.0
290
     0
  0
SCALE
  5
4C
102
{ACAD_REACTORS
330
47
102
}
330
47
100
AcDbScale
 70
     0
300
1:8
140
1.0
141
8.0
290
     0
  0
SCALE
  5
4D
102
{ACAD_REACTORS
330
47
102
}
330
47
100
AcDbScale
 70
     0
300
1:10
140
1.0
141
10.0
290
     0
  0
SCALE
  5
4E
102
{ACAD_REACTORS
330
47
102
}
330
47
100
AcDbScale
 70
     0
300
1:16
140
1.0
141
16.0
290
     0
  0
SCALE
  5
4F
102
{ACAD_REACTORS
330
47
102
}
330
47
100
AcDbScale
 70
     0
300
1:20
140
1.0
141
20.0
290
     0
  0
SCALE
  5
50
102
{ACAD_REACTORS
330
47
102
}
330
47
100
AcDbScale
 70
     0
300
1:30
140
1.0
141
30.0
290
     0
  0
SCALE
  5
51
102
{ACAD_REACTORS
330
47
102
}
330
47
100
AcDbScale
 70
     0
300
1:40
140
1.0
141
40.0
290
     0
  0
SCALE
  5
52
102
{ACAD_REACTORS
330
47
102
}
330
47
100
AcDbScale
 70
     0
300
1:50
140
1.0
141
50.0
290
     0
  0
SCALE
  5
53
102
{ACAD_REACTORS
330
47
102
}
330
47
100
AcDbScale
 70
     0
300
1:100
140
1.0
141
100.0
290
     0
  0
SCALE
  5
54
102
{ACAD_REACTORS
330
47
102
}
330
47
100
AcDbScale
 70
     0
300
2:1
140
2.0
141
1.0
290
     0
  0
SCALE
  5
55
102
{ACAD_REACTORS
330
47
102
}
330
47
100
AcDbScale
 70
     0
300
4:1
140
4.0
141
1.0
290
     0
  0
SCALE
  5
56
102
{ACAD_REACTORS
330
47
102
}
330
47
100
AcDbScale
 70
     0
300
8:1
140
8.0
141
1.0
290
     0
  0
SCALE
  5
57
102
{ACAD_REACTORS
330
47
102
}
330
47
100
AcDbScale
 70
     0
300
10:1
140
10.0
141
1.0
290
     0
  0
SCALE
  5
58
102
{ACAD_REACTORS
330
47
102
}
330
47
100
AcDbScale
 70
     0
300
100:1
140
100.0
141
1.0
290
     0
  0
SCALE
  5
59
102
{ACAD_REACTORS
330
47
102
}
330
47
100
AcDbScale
 70
     0
300
1/128" = 1'-0"
140
0.0078125
141
12.0
290
     0
  0
SCALE
  5
5A
102
{ACAD_REACTORS
330
47
102
}
330
47
100
AcDbScale
 70
     0
300
1/64" = 1'-0"
140
0.015625
141
12.0
290
     0
  0
SCALE
  5
5B
102
{ACAD_REACTORS
330
47
102
}
330
47
100
AcDbScale
 70
     0
300
1/32" = 1'-0"
140
0.03125
141
12.0
290
     0
  0
SCALE
  5
5C
102
{ACAD_REACTORS
330
47
102
}
330
47
100
AcDbScale
 70
     0
300
1/16" = 1'-0"
140
0.0625
141
12.0
290
     0
  0
SCALE
  5
5D
102
{ACAD_REACTORS
330
47
102
}
330
47
100
AcDbScale
 70
     0
300
3/32" = 1'-0"
140
0.09375
141
12.0
290
     0
  0
SCALE
  5
5E
102
{ACAD_REACTORS
330
47
102
}
330
47
100
AcDbScale
 70
     0
300
1/8" = 1'-0"
140
0.125
141
12.0
290
     0
  0
SCALE
  5
5F
102
{ACAD_REACTORS
330
47
102
}
330
47
100
AcDbScale
 70
     0
300
3/16" = 1'-0"
140
0.1875
141
12.0
290
     0
  0
SCALE
  5
60
102
{ACAD_REACTORS
330
47
102
}
330
47
100
AcDbScale
 70
     0
300
1/4" = 1'-0"
140
0.25
141
12.0
290
     0
  0
SCALE
  5
61
102
{ACAD_REACTORS
330
47
102
}
330
47
100
AcDbScale
 70
     0
300
3/8" = 1'-0"
140
0.375
141
12.0
290
     0
  0
SCALE
  5
62
102
{ACAD_REACTORS
330
47
102
}
330
47
100
AcDbScale
 70
     0
300
1/2" = 1'-0"
140
0.5
141
12.0
290
     0
  0
SCALE
  5
63
102
{ACAD_REACTORS
330
47
102
}
330
47
100
AcDbScale
 70
     0
300
3/4" = 1'-0"
140
0.75
141
12.0
290
     0
  0
SCALE
  5
64
102
{ACAD_REACTORS
330
47
102
}
330
47
100
AcDbScale
 70
     0
300
1" = 1'-0"
140
1.0
141
12.0
290
     0
  0
SCALE
  5
65
102
{ACAD_REACTORS
330
47
102
}
330
47
100
AcDbScale
 70
     0
300
1-1/2" = 1'-0"
140
1.5
141
12.0
290
     0
  0
SCALE
  5
66
102
{ACAD_REACTORS
330
47
102
}
330
47
100
AcDbScale
 70
     0
300
3" = 1'-0"
140
3.0
141
12.0
290
     0
  0
SCALE
  5
67
102
{ACAD_REACTORS
330
47
102
}
330
47
100
AcDbScale
 70
     0
300
6" = 1'-0"
140
6.0
141
12.0
290
     0
  0
SCALE
  5
68
102
{ACAD_REACTORS
330
47
102
}
330
47
100
AcDbScale
 70
     0
300
1'-0" = 1'-0"
140
12.0
141
12.0
290
     0
  0
ENDSEC
  0
EOF
