  0
SECTION
  2
HEADER
  9
$ACADVER
  1
AC1015
  9
$ACADMAINTVER
 70
     6
  9
$DWGCODEPAGE
  3
ANSI_1252
  9
$INSBASE
 10
0.0
 20
0.0
 30
0.0
  9
$EXTMIN
 10
0.0
 20
0.0
 30
0.0
  9
$EXTMAX
 10
482.402
 20
468.339
 30
0.0
  9
$LIMMIN
 10
0.0
 20
0.0
  9
$LIMMAX
 10
482.402
 20
468.339
  9
$ORTHOMODE
 70
     0
  9
$REGENMODE
 70
     1
  9
$FILLMODE
 70
     1
  9
$QTEXTMODE
 70
     0
  9
$MIRRTEXT
 70
     1
  9
$LTSCALE
 40
1.0
  9
$ATTMODE
 70
     1
  9
$TEXTSIZE
 40
2.8222222222
  9
$TRACEWID
 40
1.0
  9
$TEXTSTYLE
  7
Standard
  9
$CLAYER
  8
0
  9
$CELTYPE
  6
ByLayer
  9
$CECOLOR
 62
   256
  9
$CELTSCALE
 40
1.0
  9
$DISPSILH
 70
     0
  9
$DIMSCALE
 40
1.0
  9
$DIMASZ
 40
3.0
  9
$DIMEXO
 40
1.0
  9
$DIMDLI
 40
3.75
  9
$DIMRND
 40
0.0
  9
$DIMDLE
 40
0.0
  9
$DIMEXE
 40
1.0
  9
$DIMTP
 40
0.0
  9
$DIMTM
 40
0.0
  9
$DIMTXT
 40
2.8222222222
  9
$DIMCEN
 40
2.5
  9
$DIMTSZ
 40
0.0
  9
$DIMTOL
 70
     0
  9
$DIMLIM
 70
     0
  9
$DIMTIH
 70
     1
  9
$DIMTOH
 70
     1
  9
$DIMSE1
 70
     0
  9
$DIMSE2
 70
     0
  9
$DIMTAD
 70
     1
  9
$DIMZIN
 70
     0
  9
$DIMBLK
  1

  9
$DIMASO
 70
     1
  9
$DIMSHO
 70
     1
  9
$DIMPOST
  1

  9
$DIMAPOST
  1

  9
$DIMALT
 70
     0
  9
$DIMALTD
 70
     3
  9
$DIMALTF
 40
0.0393700787
  9
$DIMLFAC
 40
5.0
  9
$DIMTOFL
 70
     1
  9
$DIMTVP
 40
0.0
  9
$DIMTIX
 70
     0
  9
$DIMSOXD
 70
     0
  9
$DIMSAH
 70
     0
  9
$DIMBLK1
  1

  9
$DIMBLK2
  1

  9
$DIMSTYLE
  2
ISO-25
  9
$DIMCLRD
 70
     0
  9
$DIMCLRE
 70
     0
  9
$DIMCLRT
 70
     0
  9
$DIMTFAC
 40
1.0
  9
$DIMGAP
 40
1.524
  9
$DIMJUST
 70
     0
  9
$DIMSD1
 70
     0
  9
$DIMSD2
 70
     0
  9
$DIMTOLJ
 70
     0
  9
$DIMTZIN
 70
     0
  9
$DIMALTZ
 70
     0
  9
$DIMALTTZ
 70
     0
  9
$DIMUPT
 70
     0
  9
$DIMDEC
 70
     2
  9
$DIMTDEC
 70
     2
  9
$DIMALTU
 70
     2
  9
$DIMALTTD
 70
     3
  9
$DIMTXSTY
  7
Standard
  9
$DIMAUNIT
 70
     0
  9
$DIMADEC
 70
     2
  9
$DIMALTRND
 40
0.0
  9
$DIMAZIN
 70
     0
  9
$DIMDSEP
 70
    44
  9
$DIMATFIT
 70
     3
  9
$DIMFRAC
 70
     0
  9
$DIMLDRBLK
  1

  9
$DIMLUNIT
 70
     2
  9
$DIMLWD
 70
    -2
  9
$DIMLWE
 70
    -2
  9
$DIMTMOVE
 70
     0
  9
$LUNITS
 70
     2
  9
$LUPREC
 70
     2
  9
$SKETCHINC
 40
1.0
  9
$FILLETRAD
 40
10.0
  9
$AUNITS
 70
     0
  9
$AUPREC
 70
     2
  9
$MENU
  1
.
  9
$ELEVATION
 40
0.0
  9
$PELEVATION
 40
0.0
  9
$THICKNESS
 40
0.0
  9
$LIMCHECK
 70
     0
  9
$CHAMFERA
 40
0.0
  9
$CHAMFERB
 40
0.0
  9
$CHAMFERC
 40
0.0
  9
$CHAMFERD
 40
0.0
  9
$SKPOLY
 70
     0
  9
$TDCREATE
 40
2459125.717787905
  9
$TDUCREATE
 40
2459125.884454572
  9
$TDUPDATE
 40
2459125.717788171
  9
$TDUUPDATE
 40
2459125.884454838
  9
$TDINDWG
 40
0.0000000116
  9
$TDUSRTIMER
 40
0.0000000116
  9
$USRTIMER
 70
     1
  9
$ANGBASE
 50
0.0
  9
$ANGDIR
 70
     0
  9
$PDMODE
 70
     0
  9
$PDSIZE
 40
-1.0
  9
$PLINEWID
 40
0.0
  9
$SPLFRAME
 70
     0
  9
$SPLINETYPE
 70
     6
  9
$SPLINESEGS
 70
     8
  9
$HANDSEED
  5
1A6
  9
$SURFTAB1
 70
     6
  9
$SURFTAB2
 70
     6
  9
$SURFTYPE
 70
     6
  9
$SURFU
 70
     6
  9
$SURFV
 70
     6
  9
$UCSBASE
  2

  9
$UCSNAME
  2

  9
$UCSORG
 10
0.0
 20
0.0
 30
0.0
  9
$UCSXDIR
 10
1.0
 20
0.0
 30
0.0
  9
$UCSYDIR
 10
0.0
 20
1.0
 30
0.0
  9
$UCSORTHOREF
  2

  9
$UCSORTHOVIEW
 70
     0
  9
$UCSORGTOP
 10
0.0
 20
0.0
 30
0.0
  9
$UCSORGBOTTOM
 10
0.0
 20
0.0
 30
0.0
  9
$UCSORGLEFT
 10
0.0
 20
0.0
 30
0.0
  9
$UCSORGRIGHT
 10
0.0
 20
0.0
 30
0.0
  9
$UCSORGFRONT
 10
0.0
 20
0.0
 30
0.0
  9
$UCSORGBACK
 10
0.0
 20
0.0
 30
0.0
  9
$PUCSBASE
  2

  9
$PUCSNAME
  2

  9
$PUCSORG
 10
0.0
 20
0.0
 30
0.0
  9
$PUCSXDIR
 10
1.0
 20
0.0
 30
0.0
  9
$PUCSYDIR
 10
0.0
 20
1.0
 30
0.0
  9
$PUCSORTHOREF
  2

  9
$PUCSORTHOVIEW
 70
     0
  9
$PUCSORGTOP
 10
0.0
 20
0.0
 30
0.0
  9
$PUCSORGBOTTOM
 10
0.0
 20
0.0
 30
0.0
  9
$PUCSORGLEFT
 10
0.0
 20
0.0
 30
0.0
  9
$PUCSORGRIGHT
 10
0.0
 20
0.0
 30
0.0
  9
$PUCSORGFRONT
 10
0.0
 20
0.0
 30
0.0
  9
$PUCSORGBACK
 10
0.0
 20
0.0
 30
0.0
  9
$USERI1
 70
     0
  9
$USERI2
 70
     0
  9
$USERI3
 70
     0
  9
$USERI4
 70
     0
  9
$USERI5
 70
     0
  9
$USERR1
 40
0.0
  9
$USERR2
 40
0.0
  9
$USERR3
 40
0.0
  9
$USERR4
 40
0.0
  9
$USERR5
 40
0.0
  9
$WORLDVIEW
 70
     1
  9
$SHADEDGE
 70
     3
  9
$SHADEDIF
 70
    70
  9
$TILEMODE
 70
     1
  9
$MAXACTVP
 70
    64
  9
$PINSBASE
 10
0.0
 20
0.0
 30
0.0
  9
$PLIMCHECK
 70
     0
  9
$PEXTMIN
 10
1.0000000000E+20
 20
1.0000000000E+20
 30
1.0000000000E+20
  9
$PEXTMAX
 10
-1.0000000000E+20
 20
-1.0000000000E+20
 30
-1.0000000000E+20
  9
$PLIMMIN
 10
0.0
 20
0.0
  9
$PLIMMAX
 10
420.0
 20
297.0
  9
$UNITMODE
 70
     0
  9
$VISRETAIN
 70
     1
  9
$PLINEGEN
 70
     0
  9
$PSLTSCALE
 70
     1
  9
$TREEDEPTH
 70
  3020
  9
$CMLSTYLE
  2
Standard
  9
$CMLJUST
 70
     0
  9
$CMLSCALE
 40
20.0
  9
$PROXYGRAPHICS
 70
     1
  9
$MEASUREMENT
 70
     1
  9
$CELWEIGHT
370
    -1
  9
$ENDCAPS
280
     0
  9
$JOINSTYLE
280
     0
  9
$LWDISPLAY
290
     1
  9
$INSUNITS
 70
     4
  9
$HYPERLINKBASE
  1

  9
$STYLESHEET
  1

  9
$XEDIT
290
     1
  9
$CEPSNTYPE
380
     0
  9
$PSTYLEMODE
290
     1
  9
$FINGERPRINTGUID
  2
{DA8BFC7F-280D-48BB-A9C9-025632FF7606}
  9
$VERSIONGUID
  2
{FAEB1C32-E019-11D5-929B-00C0DF256EC4}
  9
$EXTNAMES
290
     1
  9
$PSVPSCALE
 40
0.0
  9
$OLESTARTUP
290
     0
  0
ENDSEC
  0
SECTION
  2
CLASSES
  0
CLASS
  1
ACDBDICTIONARYWDFLT
  2
AcDbDictionaryWithDefault
  3
ObjectDBX Classes
 90
        0
280
     0
281
     0
  0
CLASS
  1
VISUALSTYLE
  2
AcDbVisualStyle
  3
ObjectDBX Classes
 90
     4095
280
     0
281
     0
  0
CLASS
  1
MATERIAL
  2
AcDbMaterial
  3
ObjectDBX Classes
 90
     1153
280
     0
281
     0
  0
CLASS
  1
SCALE
  2
AcDbScale
  3
ObjectDBX Classes
 90
     1153
280
     0
281
     0
  0
CLASS
  1
TABLESTYLE
  2
AcDbTableStyle
  3
ObjectDBX Classes
 90
     4095
280
     0
281
     0
  0
CLASS
  1
MLEADERSTYLE
  2
AcDbMLeaderStyle
  3
ACDB_MLEADERSTYLE_CLASS
 90
     4095
280
     0
281
     0
  0
CLASS
  1
SUN
  2
AcDbSun
  3
SCENEOE
 90
     1153
280
     0
281
     0
  0
CLASS
  1
ACDBPLACEHOLDER
  2
AcDbPlaceHolder
  3
ObjectDBX Classes
 90
        0
280
     0
281
     0
  0
CLASS
  1
LAYOUT
  2
AcDbLayout
  3
ObjectDBX Classes
 90
        0
280
     0
281
     0
  0
ENDSEC
  0
SECTION
  2
TABLES
  0
TABLE
  2
VPORT
  5
8
330
0
100
AcDbSymbolTable
 70
     1
  0
VPORT
  5
29
330
8
100
AcDbSymbolTableRecord
100
AcDbViewportTableRecord
  2
*Active
 70
     0
 10
0.0
 20
0.0
 11
1.0
 21
1.0
 12
241.201
 22
234.1695
 13
0.0
 23
0.0
 14
10.0
 24
10.0
 15
10.0
 25
10.0
 16
0.0
 26
0.0
 36
1.0
 17
0.0
 27
0.0
 37
0.0
 40
468.339
 41
1.0300273947
 42
50.0
 43
0.0
 44
0.0
 50
0.0
 51
0.0
 71
     0
 72
  2000
 73
     1
 74
     3
 75
     0
 76
     0
 77
     0
 78
     0
281
     0
 65
     1
110
0.0
120
0.0
130
0.0
111
1.0
121
0.0
131
0.0
112
0.0
122
1.0
132
0.0
 79
     0
146
0.0
  0
ENDTAB
  0
TABLE
  2
LTYPE
  5
5
330
0
100
AcDbSymbolTable
 70
     6
  0
LTYPE
  5
14
330
5
100
AcDbSymbolTableRecord
100
AcDbLinetypeTableRecord
  2
ByBlock
 70
     0
  3

 72
    65
 73
     0
 40
0.0
  0
LTYPE
  5
15
330
5
100
AcDbSymbolTableRecord
100
AcDbLinetypeTableRecord
  2
ByLayer
 70
     0
  3

 72
    65
 73
     0
 40
0.0
  0
LTYPE
  5
16
330
5
100
AcDbSymbolTableRecord
100
AcDbLinetypeTableRecord
  2
Continuous
 70
     0
  3
Solid line
 72
    65
 73
     0
 40
0.0
  0
LTYPE
  5
6E
330
5
100
AcDbSymbolTableRecord
100
AcDbLinetypeTableRecord
  2
HIDDEN
 70
     0
  3
Hidden __ __ __ __ __ __ __ __ __ __ __ __ __ __
 72
    65
 73
     2
 40
1.905
 49
1.27
 74
     0
 49
-0.635
 74
     0
  0
LTYPE
  5
6F
330
5
100
AcDbSymbolTableRecord
100
AcDbLinetypeTableRecord
  2
PHANTOM
 70
     0
  3
Phantom ______  __  __  ______  __  __  ______
 72
    65
 73
     6
 40
12.7
 49
6.35
 74
     0
 49
-1.27
 74
     0
 49
1.27
 74
     0
 49
-1.27
 74
     0
 49
1.27
 74
     0
 49
-1.27
 74
     0
  0
LTYPE
  5
70
330
5
100
AcDbSymbolTableRecord
100
AcDbLinetypeTableRecord
  2
CENTER
 70
     0
  3
Center ____ _ ____ _ ____ _ ____ _ ____ _ ____
 72
    65
 73
     4
 40
10.16
 49
6.35
 74
     0
 49
-1.27
 74
     0
 49
1.27
 74
     0
 49
-1.27
 74
     0
  0
LTYPE
  5
71
330
5
100
AcDbSymbolTableRecord
100
AcDbLinetypeTableRecord
  2
CENTERX2
 70
     0
  3
Center (2x) ________  __  ________  __  _____
 72
    65
 73
     4
 40
20.32
 49
12.7
 74
     0
 49
-2.54
 74
     0
 49
2.54
 74
     0
 49
-2.54
 74
     0
  0
LTYPE
  5
72
330
5
100
AcDbSymbolTableRecord
100
AcDbLinetypeTableRecord
  2
DOT2
 70
     0
  3
Dot (.5x) ........................................
 72
    65
 73
     2
 40
0.635
 49
0.0
 74
     0
 49
-0.635
 74
     0
  0
ENDTAB
  0
TABLE
  2
LAYER
  5
2
330
0
100
AcDbSymbolTable
 70
     2
  0
LAYER
  5
10
330
2
100
AcDbSymbolTableRecord
100
AcDbLayerTableRecord
  2
0
 70
     0
 62
     7
  6
Continuous
370
    -3
390
F
  0
LAYER
  5
73
330
2
100
AcDbSymbolTableRecord
100
AcDbLayerTableRecord
  2
FORMAT
 70
     0
 62
     7
  6
Continuous
370
    -3
390
F
  0
ENDTAB
  0
TABLE
  2
STYLE
  5
3
330
0
100
AcDbSymbolTable
 70
     1
  0
STYLE
  5
11
330
3
100
AcDbSymbolTableRecord
100
AcDbTextStyleTableRecord
  2
Standard
 70
     0
 40
0.0
 41
1.0
 50
0.0
 71
     0
 42
2.8222222222
  3
txt
  4

  0
ENDTAB
  0
TABLE
  2
VIEW
  5
6
330
0
100
AcDbSymbolTable
 70
     0
  0
ENDTAB
  0
TABLE
  2
UCS
  5
7
330
0
100
AcDbSymbolTable
 70
     0
  0
ENDTAB
  0
TABLE
  2
APPID
  5
9
330
0
100
AcDbSymbolTable
 70
     1
  0
APPID
  5
12
330
9
100
AcDbSymbolTableRecord
100
AcDbRegAppTableRecord
  2
ACAD
 70
     0
  0
ENDTAB
  0
TABLE
  2
DIMSTYLE
  5
A
330
0
100
AcDbSymbolTable
 70
     1
100
AcDbDimStyleTable
  0
DIMSTYLE
105
27
330
A
100
AcDbSymbolTableRecord
100
AcDbDimStyleTableRecord
  2
ISO-25
 70
     0
 41
2.5
 42
0.625
 43
3.75
 44
1.25
 73
     0
 74
     0
 77
     1
 78
     8
140
2.5
141
2.5
143
0.0393700787
147
0.625
171
     3
172
     1
178
     0
271
     2
272
     2
274
     3
278
    44
283
     0
284
     8
340
11
  0
ENDTAB
  0
TABLE
  2
BLOCK_RECORD
  5
1
330
0
100
AcDbSymbolTable
 70
     1
  0
BLOCK_RECORD
  5
1F
330
1
100
AcDbSymbolTableRecord
100
AcDbBlockTableRecord
  2
*Model_Space
340
22
  0
BLOCK_RECORD
  5
1B
330
1
100
AcDbSymbolTableRecord
100
AcDbBlockTableRecord
  2
*Paper_Space
340
1E
  0
BLOCK_RECORD
  5
23
330
1
100
AcDbSymbolTableRecord
100
AcDbBlockTableRecord
  2
*Paper_Space0
340
26
  0
ENDTAB
  0
ENDSEC
  0
SECTION
  2
BLOCKS
  0
BLOCK
  5
20
330
1F
100
AcDbEntity
  8
0
100
AcDbBlockBegin
  2
*Model_Space
 70
     0
 10
0.0
 20
0.0
 30
0.0
  3
*Model_Space
  1

  0
ENDBLK
  5
21
330
1F
100
AcDbEntity
  8
0
100
AcDbBlockEnd
  0
BLOCK
  5
1C
330
1B
100
AcDbEntity
 67
     1
  8
0
100
AcDbBlockBegin
  2
*Paper_Space
 70
     0
 10
0.0
 20
0.0
 30
0.0
  3
*Paper_Space
  1

  0
ENDBLK
  5
1D
330
1B
100
AcDbEntity
 67
     1
  8
0
100
AcDbBlockEnd
  0
BLOCK
  5
24
330
23
100
AcDbEntity
  8
0
100
AcDbBlockBegin
  2
*Paper_Space0
 70
     0
 10
0.0
 20
0.0
 30
0.0
  3
*Paper_Space0
  1

  0
ENDBLK
  5
25
330
23
100
AcDbEntity
  8
0
100
AcDbBlockEnd
  0
ENDSEC
  0
SECTION
  2
ENTITIES
  0
SPLINE
  5
74
330
1F
100
AcDbEntity
  8
0
  6
Continuous
 62
     7
370
    25
100
AcDbSpline
210
0.0
220
0.0
230
1.0
 70
     8
 71
     3
 72
    21
 73
    17
 74
     0
 42
0.000000001
 43
0.00000001
 40
0.0
 40
0.0
 40
0.0
 40
0.0
 40
0.0363400704021496
 40
0.20760227034041
 40
0.3487949184074673
 40
0.4681592570280684
 40
0.5665304310596091
 40
0.6428757737103521
 40
0.6953829759266625
 40
0.7152173508124949
 40
0.7257707118398634
 40
0.7344709637112061
 40
0.7467969789171361
 40
0.7705885787979477
 40
0.8358243650622135
 40
1.0
 40
1.0
 40
1.0
 40
1.0
 10
374.4822979994565
 20
85.8258964098171
 30
0.0
 10
374.4787317912605
 20
85.8472595843163
 30
0.0
 10
374.4583588830682
 20
85.9693023728589
 30
0.0
 10
374.5258368616579
 20
86.17646816229932
 30
0.0
 10
374.6423393555327
 20
86.40393436863938
 30
0.0
 10
374.7865800443704
 20
86.56436596402806
 30
0.0
 10
374.9261514901041
 20
86.67038132816496
 30
0.0
 10
375.0454642439024
 20
86.73442831898589
 30
0.0
 10
375.1274307271682
 20
86.76702312155982
 30
0.0
 10
375.1736170618044
 20
86.78197602295448
 30
0.0
 10
375.1904440874318
 20
86.78698366030443
 30
0.0
 10
375.1990004011984
 20
86.78943734331645
 30
0.0
 10
375.2058572322397
 20
86.79134874253864
 30
0.0
 10
375.2119383090925
 20
86.79299503503863
 30
0.0
 10
375.2132298990223
 20
86.79331427121622
 30
0.0
 10
375.2018386653195
 20
86.79035843220862
 30
0.0
 10
375.1936866604364
 20
86.78824312014915
 30
0.0
  0
SPLINE
  5
75
330
1F
100
AcDbEntity
  8
0
  6
Continuous
 62
     7
370
    25
100
AcDbSpline
210
0.0
220
0.0
230
1.0
 70
     8
 71
     3
 72
    18
 73
    14
 74
     0
 42
0.000000001
 43
0.00000001
 40
0.0
 40
0.0
 40
0.0
 40
0.0
 40
0.3096435799493537
 40
0.5023662868029923
 40
0.591716530817766
 40
0.5977578485108224
 40
0.6037906136845661
 40
0.6171232852737613
 40
0.6561274438354817
 40
0.7478212204631036
 40
0.8509985248548495
 40
0.9635961273986131
 40
0.9999999999999999
 40
0.9999999999999999
 40
0.9999999999999999
 40
0.9999999999999999
 10
363.0236009066267
 20
86.71916083231412
 30
0.0
 10
362.9290745240074
 20
86.74305799402966
 30
0.0
 10
362.7757147551753
 20
86.78182879108006
 30
0.0
 10
362.7556884559522
 20
86.78615659632702
 30
0.0
 10
362.7090719234266
 20
86.79968630841134
 30
0.0
 10
362.7534197559218
 20
86.78703938606141
 30
0.0
 10
362.7735613485013
 20
86.78102235390703
 30
0.0
 10
362.8330025825348
 20
86.76145116504422
 30
0.0
 10
362.9742256649698
 20
86.70108594976506
 30
0.0
 10
363.1839724621456
 20
86.55467272690875
 30
0.0
 10
363.3782411886462
 20
86.28691112540385
 30
0.0
 10
363.4793031096817
 20
86.02205919095347
 30
0.0
 10
363.4622670454011
 20
85.86275419383608
 30
0.0
 10
363.4581048133621
 20
85.82383297635029
 30
0.0
  0
LINE
  5
76
330
1F
100
AcDbEntity
  8
0
  6
Continuous
 62
     7
370
    25
100
AcDbLine
 10
363.4719913844
 20
85.8215980363
 30
0.0
 11
363.4719913844
 21
31.4919612956
 31
0.0
  0
LINE
  5
77
330
1F
100
AcDbEntity
  8
0
  6
Continuous
 62
     7
370
    25
100
AcDbLine
 10
374.4719913844
 20
31.4919612956
 30
0.0
 11
374.4719913844
 21
85.8220336834
 31
0.0
  0
ARC
  5
78
330
1F
100
AcDbEntity
  8
0
  6
Continuous
 62
     7
370
    25
100
AcDbCircle
 10
373.6719913844
 20
31.4919612956
 30
0.0
 40
0.7999999999999972
100
AcDbArc
 50
270.0
 51
0.0
  0
ARC
  5
79
330
1F
100
AcDbEntity
  8
0
  6
Continuous
 62
     7
370
    25
100
AcDbCircle
 10
364.2719913844
 20
31.4919612956
 30
0.0
 40
0.8000000000000114
100
AcDbArc
 50
180.0
 51
270.0
  0
CIRCLE
  5
7A
330
1F
100
AcDbEntity
  8
0
  6
Continuous
 62
     7
370
    25
100
AcDbCircle
 10
368.9719913844
 20
110.6919612956
 30
0.0
 40
23.90000000000003
  0
CIRCLE
  5
7B
330
1F
100
AcDbEntity
  8
0
  6
Continuous
 62
     7
370
    25
100
AcDbCircle
 10
368.9719913844
 20
110.6919612956
 30
0.0
 40
24.69999999999999
  0
LINE
  5
7C
330
1F
100
AcDbEntity
  8
0
  6
Continuous
 62
     7
370
    25
100
AcDbLine
 10
373.6719913844
 20
30.6919612956
 30
0.0
 11
364.2719913844
 21
30.6919612956
 31
0.0
  0
ARC
  5
7D
330
1F
100
AcDbEntity
  8
0
  6
Continuous
 62
     7
370
    25
100
AcDbCircle
 10
283.9719913844
 20
194.6421813364
 30
0.0
 40
3.5
100
AcDbArc
 50
90.0
 51
180.0
  0
LINE
  5
7E
330
1F
100
AcDbEntity
  8
0
  6
Continuous
 62
     7
370
    25
100
AcDbLine
 10
280.4719913844
 20
194.6421813364
 30
0.0
 11
278.9719913844
 21
194.6421813364
 31
0.0
  0
ARC
  5
7F
330
1F
100
AcDbEntity
  8
0
  6
Continuous
 62
     7
370
    25
100
AcDbCircle
 10
283.9719913844
 20
194.6421813364
 30
0.0
 40
5.0
100
AcDbArc
 50
90.0
 51
180.0
  0
LINE
  5
80
330
1F
100
AcDbEntity
  8
0
  6
Continuous
 62
     7
370
    25
100
AcDbLine
 10
283.9719913844
 20
198.1421813364
 30
0.0
 11
283.9719913844
 21
199.6421813364
 31
0.0
  0
LINE
  5
81
330
1F
100
AcDbEntity
  8
0
  6
Continuous
 62
     7
370
    25
100
AcDbLine
 10
283.9719913844
 20
199.6421813364
 30
0.0
 11
453.9719913844
 21
199.6421813364
 31
0.0
  0
LINE
  5
82
330
1F
100
AcDbEntity
  8
0
  6
Continuous
 62
     7
370
    25
100
AcDbLine
 10
453.9719913844
 20
198.1421813364
 30
0.0
 11
453.9719913844
 21
199.6421813364
 31
0.0
  0
LINE
  5
83
330
1F
100
AcDbEntity
  8
0
  6
Continuous
 62
     7
370
    25
100
AcDbLine
 10
453.9719913844
 20
198.1421813364
 30
0.0
 11
283.9719913844
 21
198.1421813364
 31
0.0
  0
ARC
  5
84
330
1F
100
AcDbEntity
  8
0
  6
Continuous
 62
     7
370
    25
100
AcDbCircle
 10
453.9719913844
 20
194.6421813364
 30
0.0
 40
5.0
100
AcDbArc
 50
0.0
 51
90.0
  0
LINE
  5
85
330
1F
100
AcDbEntity
  8
0
  6
Continuous
 62
     7
370
    25
100
AcDbLine
 10
457.4719913844
 20
194.6421813364
 30
0.0
 11
458.9719913844
 21
194.6421813364
 31
0.0
  0
ARC
  5
86
330
1F
100
AcDbEntity
  8
0
  6
Continuous
 62
     7
370
    25
100
AcDbCircle
 10
453.9719913844
 20
194.6421813364
 30
0.0
 40
3.5
100
AcDbArc
 50
0.0
 51
90.0
  0
LINE
  5
87
330
1F
100
AcDbEntity
  8
0
  6
Continuous
 62
     7
370
    25
100
AcDbLine
 10
458.9719913844
 20
24.6421813364
 30
0.0
 11
458.9719913844
 21
194.6421813364
 31
0.0
  0
LINE
  5
88
330
1F
100
AcDbEntity
  8
0
  6
Continuous
 62
     7
370
    25
100
AcDbLine
 10
457.4719913844
 20
24.6421813364
 30
0.0
 11
458.9719913844
 21
24.6421813364
 31
0.0
  0
LINE
  5
89
330
1F
100
AcDbEntity
  8
0
  6
Continuous
 62
     7
370
    25
100
AcDbLine
 10
457.4719913844
 20
194.6421813364
 30
0.0
 11
457.4719913844
 21
24.6421813364
 31
0.0
  0
LINE
  5
8A
330
1F
100
AcDbEntity
  8
0
  6
Continuous
 62
     7
370
    25
100
AcDbLine
 10
280.4719913844
 20
194.6421813364
 30
0.0
 11
280.4719913844
 21
24.6421813364
 31
0.0
  0
LINE
  5
8B
330
1F
100
AcDbEntity
  8
0
  6
Continuous
 62
     7
370
    25
100
AcDbLine
 10
280.4719913844
 20
24.6421813364
 30
0.0
 11
278.9719913844
 21
24.6421813364
 31
0.0
  0
LINE
  5
8C
330
1F
100
AcDbEntity
  8
0
  6
Continuous
 62
     7
370
    25
100
AcDbLine
 10
278.9719913844
 20
24.6421813364
 30
0.0
 11
278.9719913844
 21
194.6421813364
 31
0.0
  0
ARC
  5
8D
330
1F
100
AcDbEntity
  8
0
  6
Continuous
 62
     7
370
    25
100
AcDbCircle
 10
283.9719913844
 20
24.6421813364
 30
0.0
 40
3.500000000000004
100
AcDbArc
 50
180.0
 51
270.0
  0
ARC
  5
8E
330
1F
100
AcDbEntity
  8
0
  6
Continuous
 62
     7
370
    25
100
AcDbCircle
 10
453.9719913844
 20
24.6421813364
 30
0.0
 40
3.500000000000004
100
AcDbArc
 50
270.0
 51
0.0
  0
LINE
  5
8F
330
1F
100
AcDbEntity
  8
0
  6
Continuous
 62
     7
370
    25
100
AcDbLine
 10
283.9719913844
 20
21.1421813364
 30
0.0
 11
453.9719913844
 21
21.1421813364
 31
0.0
  0
SPLINE
  5
90
330
1F
100
AcDbEntity
  8
0
  6
Continuous
 62
     7
370
    25
100
AcDbSpline
210
0.0
220
0.0
230
1.0
 70
     8
 71
     3
 72
     9
 73
     5
 74
     0
 42
0.000000001
 43
0.00000001
 40
0.0
 40
0.0
 40
0.0
 40
0.0
 40
0.5647693287324518
 40
1.0
 40
1.0
 40
1.0
 40
1.0
 10
426.3414439669004
 20
70.96650588070233
 30
0.0
 10
426.0804521690255
 20
70.75914282071864
 30
0.0
 10
425.6183311142922
 20
70.39197865397986
 30
0.0
 10
425.0343104140119
 20
70.3448513362303
 30
0.0
 10
424.7801266925948
 20
70.32434008209113
 30
0.0
  0
SPLINE
  5
91
330
1F
100
AcDbEntity
  8
0
  6
Continuous
 62
     7
370
    25
100
AcDbSpline
210
0.0
220
0.0
230
1.0
 70
     8
 71
     3
 72
    11
 73
     7
 74
     0
 42
0.000000001
 43
0.00000001
 40
0.0
 40
0.0
 40
0.0
 40
0.0
 40
0.2835932590148276
 40
0.5578446460012882
 40
0.7750085629910383
 40
1.0
 40
1.0
 40
1.0
 40
1.0
 10
424.7801266925948
 20
70.32434008209113
 30
0.0
 10
424.4976813540247
 20
70.36096991288404
 30
0.0
 10
423.9420947351582
 20
70.43302294779303
 30
0.0
 10
423.3252951257712
 20
70.93962171939611
 30
0.0
 10
422.9513814251832
 20
71.55863286139379
 30
0.0
 10
422.9066883020157
 20
71.99775942461511
 30
0.0
 10
422.8839461370392
 20
72.22120965674387
 30
0.0
  0
SPLINE
  5
92
330
1F
100
AcDbEntity
  8
0
  6
Continuous
 62
     7
370
    25
100
AcDbSpline
210
0.0
220
0.0
230
1.0
 70
     8
 71
     3
 72
    11
 73
     7
 74
     0
 42
0.000000001
 43
0.00000001
 40
0.0
 40
0.0
 40
0.0
 40
0.0
 40
0.2836412193606428
 40
0.5583849873983812
 40
0.7755297406093652
 40
0.9999999999999999
 40
0.9999999999999999
 40
0.9999999999999999
 40
0.9999999999999999
 10
422.8839461370392
 20
72.22120965674387
 30
0.0
 10
422.9206885133029
 20
72.50423109931403
 30
0.0
 10
422.993020705899
 20
73.06139597471278
 30
0.0
 10
423.4986084819864
 20
73.68129628766113
 30
0.0
 10
424.117168323455
 20
74.05926192433895
 30
0.0
 10
424.5567101972249
 20
74.1046533232349
 30
0.0
 10
424.7801266925948
 20
74.12772549875777
 30
0.0
  0
SPLINE
  5
93
330
1F
100
AcDbEntity
  8
0
  6
Continuous
 62
     7
370
    25
100
AcDbSpline
210
0.0
220
0.0
230
1.0
 70
     8
 71
     3
 72
    10
 73
     6
 74
     0
 42
0.000000001
 43
0.00000001
 40
0.0
 40
0.0
 40
0.0
 40
0.0
 40
0.2935580292969946
 40
0.5672934587325916
 40
1.0
 40
1.0
 40
1.0
 40
1.0
 10
424.7801266925948
 20
74.12772549875777
 30
0.0
 10
424.9497841085611
 20
74.11697288529184
 30
0.0
 10
425.2776427691934
 20
74.09619373202494
 30
0.0
 10
425.8273406464568
 20
73.8911211025568
 30
0.0
 10
426.1461613788044
 20
73.63320312838081
 30
0.0
 10
426.3414439669004
 20
73.47522441368845
 30
0.0
  0
LINE
  5
94
330
1F
100
AcDbEntity
  8
0
  6
Continuous
 62
     7
370
    25
100
AcDbLine
 10
426.3414439669
 20
73.4752244137
 30
0.0
 11
427.5065752603
 21
74.2262552297
 31
0.0
  0
SPLINE
  5
95
330
1F
100
AcDbEntity
  8
0
  6
Continuous
 62
     7
370
    25
100
AcDbSpline
210
0.0
220
0.0
230
1.0
 70
     8
 71
     3
 72
    10
 73
     6
 74
     0
 42
0.000000001
 43
0.00000001
 40
0.0
 40
0.0
 40
0.0
 40
0.0
 40
0.2754425198515866
 40
0.5525321742237441
 40
1.0
 40
1.0
 40
1.0
 40
1.0
 10
427.5065752603031
 20
74.22625522966067
 30
0.0
 10
427.3173481127933
 20
74.44702863966975
 30
0.0
 10
426.9377622475026
 20
74.88989567526336
 30
0.0
 10
426.0207288614873
 20
75.458088510442
 30
0.0
 10
425.2537764955141
 20
75.55145552296449
 30
0.0
 10
424.7801266925948
 20
75.60911655778553
 30
0.0
  0
SPLINE
  5
96
330
1F
100
AcDbEntity
  8
0
  6
Continuous
 62
     7
370
    25
100
AcDbSpline
210
0.0
220
0.0
230
1.0
 70
     8
 71
     3
 72
    11
 73
     7
 74
     0
 42
0.000000001
 43
0.00000001
 40
0.0
 40
0.0
 40
0.0
 40
0.0
 40
0.283481077461926
 40
0.5577411148757043
 40
0.7750145679831371
 40
1.0
 40
1.0
 40
1.0
 40
1.0
 10
424.7801266925948
 20
75.60911655778553
 30
0.0
 10
424.2765548147584
 20
75.5434963377184
 30
0.0
 10
423.2857911875026
 20
75.41439038459333
 30
0.0
 10
422.1876834098513
 20
74.508068444804
 30
0.0
 10
421.5226255724497
 20
73.40303646012866
 30
0.0
 10
421.4430411658951
 20
72.61970509102177
 30
0.0
 10
421.4025550780115
 20
72.22120965674385
 30
0.0
  0
SPLINE
  5
97
330
1F
100
AcDbEntity
  8
0
  6
Continuous
 62
     7
370
    25
100
AcDbSpline
210
0.0
220
0.0
230
1.0
 70
     8
 71
     3
 72
    11
 73
     7
 74
     0
 42
0.000000001
 43
0.00000001
 40
0.0
 40
0.0
 40
0.0
 40
0.0
 40
0.2838110767989286
 40
0.5579422044458788
 40
0.7749891564475739
 40
1.0
 40
1.0
 40
1.0
 40
1.0
 10
421.4025550780115
 20
72.22120965674385
 30
0.0
 10
421.4675965344185
 20
71.71764142652984
 30
0.0
 10
421.5954610771892
 20
70.72768017616761
 30
0.0
 10
422.4972436716452
 20
69.62829482789043
 30
0.0
 10
423.5999238258634
 20
68.9627622624587
 30
0.0
 10
424.3820290650974
 20
68.88336357185878
 30
0.0
 10
424.7801266925948
 20
68.84294902306331
 30
0.0
  0
SPLINE
  5
98
330
1F
100
AcDbEntity
  8
0
  6
Continuous
 62
     7
370
    25
100
AcDbSpline
210
0.0
220
0.0
230
1.0
 70
     8
 71
     3
 72
    10
 73
     6
 74
     0
 42
0.000000001
 43
0.00000001
 40
0.0
 40
0.0
 40
0.0
 40
0.0
 40
0.2891456872297414
 40
0.5687584119173879
 40
1.0
 40
1.0
 40
1.0
 40
1.0
 10
424.7801266925948
 20
68.84294902306331
 30
0.0
 10
425.0841767149507
 20
68.86690357993403
 30
0.0
 10
425.6822524099937
 20
68.91402292608274
 30
0.0
 10
426.6776048713471
 20
69.32743860581137
 30
0.0
 10
427.1935660754003
 20
69.88059210057892
 30
0.0
 10
427.5065752603032
 20
70.21616408382734
 30
0.0
  0
LINE
  5
99
330
1F
100
AcDbEntity
  8
0
  6
Continuous
 62
     7
370
    25
100
AcDbLine
 10
427.5065752603
 20
70.2161640838
 30
0.0
 11
426.3414439669
 21
70.9665058807
 31
0.0
  0
LINE
  5
9A
330
1F
100
AcDbEntity
  8
0
  6
Continuous
 62
     7
370
    25
100
AcDbLine
 10
363.4719913844
 20
44.1788214189
 30
0.0
 11
361.9717296114
 21
44.1788214189
 31
0.0
  0
LINE
  5
9B
330
1F
100
AcDbEntity
  8
0
  6
Continuous
 62
     7
370
    25
100
AcDbLine
 10
361.9717296114
 20
44.1788214189
 30
0.0
 11
361.9717296114
 21
43.0750128251
 31
0.0
  0
LINE
  5
9C
330
1F
100
AcDbEntity
  8
0
  6
Continuous
 62
     7
370
    25
100
AcDbLine
 10
361.9717296114
 20
43.0750128251
 30
0.0
 11
362.3644704968
 21
43.0750128251
 31
0.0
  0
LINE
  5
9D
330
1F
100
AcDbEntity
  8
0
  6
Continuous
 62
     7
370
    25
100
AcDbLine
 10
362.3644704968
 20
43.0750128251
 30
0.0
 11
362.3644704968
 21
43.1962801863
 31
0.0
  0
SPLINE
  5
9E
330
1F
100
AcDbEntity
  8
0
  6
Continuous
 62
     7
370
    25
100
AcDbSpline
210
0.0
220
0.0
230
1.0
 70
     8
 71
     3
 72
    13
 73
     9
 74
     0
 42
0.000000001
 43
0.00000001
 40
0.0
 40
0.0
 40
0.0
 40
0.0
 40
0.2038941221625685
 40
0.3758799226279085
 40
0.5257788957168941
 40
0.6604943258002448
 40
0.8474514235922215
 40
1.0
 40
1.0
 40
1.0
 40
1.0
 10
362.3644704968476
 20
43.19628018625791
 30
0.0
 10
362.3674707780278
 20
43.25626614641861
 30
0.0
 10
362.3730018126937
 20
43.36685059007405
 30
0.0
 10
362.4226547300379
 20
43.51488040790652
 30
0.0
 10
362.4945166794145
 20
43.62957142026715
 30
0.0
 10
362.59529083475
 20
43.72546226874913
 30
0.0
 10
362.7202999161868
 20
43.79509627714344
 30
0.0
 10
362.8199313926866
 20
43.80646567779061
 30
0.0
 10
362.864698361431
 20
43.81157424007731
 30
0.0
  0
LINE
  5
9F
330
1F
100
AcDbEntity
  8
0
  6
Continuous
 62
     7
370
    25
100
AcDbLine
 10
362.8646983614
 20
43.8115742401
 30
0.0
 11
363.1995616427
 21
43.8115742401
 31
0.0
  0
LINE
  5
A0
330
1F
100
AcDbEntity
  8
0
  6
Continuous
 62
     7
370
    25
100
AcDbLine
 10
363.1995616427
 20
43.8115742401
 30
0.0
 11
363.1995616427
 21
41.7968823998
 31
0.0
  0
SPLINE
  5
A1
330
1F
100
AcDbEntity
  8
0
  6
Continuous
 62
     7
370
    25
100
AcDbSpline
210
0.0
220
0.0
230
1.0
 70
     8
 71
     3
 72
    11
 73
     7
 74
     0
 42
0.000000001
 43
0.00000001
 40
0.0
 40
0.0
 40
0.0
 40
0.0
 40
0.2836835533494558
 40
0.558983120766161
 40
0.7763425020145875
 40
1.0
 40
1.0
 40
1.0
 40
1.0
 10
363.199561642681
 20
41.79688239979957
 30
0.0
 10
363.1957062845692
 20
41.76761677194676
 30
0.0
 10
363.1881095096292
 20
41.70995043283332
 30
0.0
 10
363.1355165732387
 20
41.64600723630343
 30
0.0
 10
363.071582025159
 20
41.60695286677463
 30
0.0
 10
363.0262041539402
 20
41.60222210078191
 30
0.0
 10
363.0031911999726
 20
41.59982293799402
 30
0.0
  0
LINE
  5
A2
330
1F
100
AcDbEntity
  8
0
  6
Continuous
 62
     7
370
    25
100
AcDbLine
 10
363.0031912
 20
41.599822938
 30
0.0
 11
362.5856456271
 21
41.599822938
 31
0.0
  0
LINE
  5
A3
330
1F
100
AcDbEntity
  8
0
  6
Continuous
 62
     7
370
    25
100
AcDbLine
 10
362.5856456271
 20
41.599822938
 30
0.0
 11
362.5856456271
 21
41.2325757592
 31
0.0
  0
LINE
  5
A4
330
1F
100
AcDbEntity
  8
0
  6
Continuous
 62
     7
370
    25
100
AcDbLine
 10
362.5856456271
 20
41.2325757592
 30
0.0
 11
363.4719913844
 21
41.2325757592
 31
0.0
  0
SPLINE
  5
A5
330
1F
100
AcDbEntity
  8
0
  6
Continuous
 62
     7
370
    25
100
AcDbSpline
210
0.0
220
0.0
230
1.0
 70
     8
 71
     3
 72
     9
 73
     5
 74
     0
 42
0.000000001
 43
0.00000001
 40
0.0
 40
0.0
 40
0.0
 40
0.0
 40
0.4915706161021638
 40
1.0
 40
1.0
 40
1.0
 40
1.0
 10
374.4719913844343
 20
41.14853220148241
 30
0.0
 10
374.6487535085913
 20
41.16326686622588
 30
0.0
 10
375.0083399410732
 20
41.19324153163673
 30
0.0
 10
375.3061437067219
 20
41.39746168190885
 30
0.0
 10
375.457555891813
 20
41.50129320709124
 30
0.0
  0
SPLINE
  5
A6
330
1F
100
AcDbEntity
  8
0
  6
Continuous
 62
     7
370
    25
100
AcDbSpline
210
0.0
220
0.0
230
1.0
 70
     8
 71
     3
 72
     9
 73
     5
 74
     0
 42
0.000000001
 43
0.00000001
 40
0.0
 40
0.0
 40
0.0
 40
0.0
 40
0.5432639785550778
 40
1.0
 40
1.0
 40
1.0
 40
1.0
 10
375.457555891813
 20
41.50129320709124
 30
0.0
 10
375.6158460541516
 20
41.67546648221241
 30
0.0
 10
375.907214833579
 20
41.99607171649357
 30
0.0
 10
375.9518614427804
 20
42.42455600966528
 30
0.0
 10
375.972253157438
 20
42.62026022098015
 30
0.0
  0
LINE
  5
A7
330
1F
100
AcDbEntity
  8
0
  6
Continuous
 62
     7
370
    25
100
AcDbLine
 10
375.9722531574
 20
42.620260221
 30
0.0
 11
375.9722531574
 21
42.7925149953
 31
0.0
  0
SPLINE
  5
A8
330
1F
100
AcDbEntity
  8
0
  6
Continuous
 62
     7
370
    25
100
AcDbSpline
210
0.0
220
0.0
230
1.0
 70
     8
 71
     3
 72
    10
 73
     6
 74
     0
 42
0.000000001
 43
0.00000001
 40
0.0
 40
0.0
 40
0.0
 40
0.0
 40
0.2951008203722909
 40
0.5769026304014522
 40
0.9999999999999999
 40
0.9999999999999999
 40
0.9999999999999999
 40
0.9999999999999999
 10
375.972253157438
 20
42.79251499528567
 30
0.0
 10
375.9628497516466
 20
42.91702857234051
 30
0.0
 10
375.9444667138464
 20
43.16044439894858
 30
0.0
 10
375.7873327920343
 20
43.56162913240036
 30
0.0
 10
375.5812510743326
 20
43.77982600277285
 30
0.0
 10
375.457555891813
 20
43.91079299007733
 30
0.0
  0
SPLINE
  5
A9
330
1F
100
AcDbEntity
  8
0
  6
Continuous
 62
     7
370
    25
100
AcDbSpline
210
0.0
220
0.0
230
1.0
 70
     8
 71
     3
 72
     9
 73
     5
 74
     0
 42
0.000000001
 43
0.00000001
 40
0.0
 40
0.0
 40
0.0
 40
0.0
 40
0.651303525203925
 40
1.0
 40
1.0
 40
1.0
 40
1.0
 10
375.457555891813
 20
43.91079299007734
 30
0.0
 10
375.2593940904889
 20
44.04064535583382
 30
0.0
 10
374.9551399391513
 20
44.24001839886443
 30
0.0
 10
374.5969062195962
 20
44.26520934808573
 30
0.0
 10
374.4719913844343
 20
44.27399334327598
 30
0.0
  0
LINE
  5
AA
330
1F
100
AcDbEntity
  8
0
  6
Continuous
 62
     7
370
    25
100
AcDbLine
 10
428.3981659721
 20
81.5457050995
 30
0.0
 11
429.0458439235
 21
81.2397806203
 31
0.0
  0
LINE
  5
AB
330
1F
100
AcDbEntity
  8
0
  6
Continuous
 62
     7
370
    25
100
AcDbLine
 10
429.0458439235
 20
81.2397806203
 30
0.0
 11
429.0644474391
 21
81.2790547088
 31
0.0
  0
SPLINE
  5
AC
330
1F
100
AcDbEntity
  8
0
  6
Continuous
 62
     7
370
    25
100
AcDbSpline
210
0.0
220
0.0
230
1.0
 70
     8
 71
     3
 72
    11
 73
     7
 74
     0
 42
0.000000001
 43
0.00000001
 40
0.0
 40
0.0
 40
0.0
 40
0.0
 40
0.2802273667636434
 40
0.5586210056264025
 40
0.7781626790385988
 40
1.0
 40
1.0
 40
1.0
 40
1.0
 10
429.0644474391226
 20
81.27905470882735
 30
0.0
 10
430.1499251590644
 20
83.7947136696267
 30
0.0
 10
432.3137775425839
 20
88.80956983704772
 30
0.0
 10
434.1823063566331
 20
96.20276560419178
 30
0.0
 10
435.2399443147936
 20
103.1631930619471
 30
0.0
 10
435.3560783901329
 20
107.4750431522239
 30
0.0
 10
435.4144474391226
 20
109.6421813364315
 30
0.0
  0
SPLINE
  5
AD
330
1F
100
AcDbEntity
  8
0
  6
Continuous
 62
     7
370
    25
100
AcDbSpline
210
0.0
220
0.0
230
1.0
 70
     8
 71
     3
 72
    11
 73
     7
 74
     0
 42
0.000000001
 43
0.00000001
 40
0.0
 40
0.0
 40
0.0
 40
0.0
 40
0.2818323504152825
 40
0.5605528532218315
 40
0.7794849863786784
 40
0.9999999999999999
 40
0.9999999999999999
 40
0.9999999999999999
 40
0.9999999999999999
 10
435.4144474391226
 20
109.6421813364315
 30
0.0
 10
435.3188772266636
 20
112.4154272445213
 30
0.0
 10
435.1287920387923
 20
117.9312983082045
 30
0.0
 10
433.6461765313382
 20
125.4792991510094
 30
0.0
 10
431.6112937453979
 20
132.2548632188897
 30
0.0
 10
429.8567065750561
 20
136.2077703870753
 30
0.0
 10
428.9762529946781
 20
138.1913431202857
 30
0.0
  0
LINE
  5
AE
330
1F
100
AcDbEntity
  8
0
  6
Continuous
 62
     7
370
    25
100
AcDbLine
 10
428.9762529947
 20
138.1913431203
 30
0.0
 11
428.95696046
 21
138.2311339732
 31
0.0
  0
LINE
  5
AF
330
1F
100
AcDbEntity
  8
0
  6
Continuous
 62
     7
370
    25
100
AcDbLine
 10
428.95696046
 20
138.2311339732
 30
0.0
 11
428.3106605468
 21
137.9227979271
 31
0.0
  0
LINE
  5
B0
330
1F
100
AcDbEntity
  8
0
  6
Continuous
 62
     7
370
    25
100
AcDbLine
 10
428.3106605468
 20
137.9227979271
 30
0.0
 11
428.3299530815
 21
137.8830070743
 31
0.0
  0
SPLINE
  5
B1
330
1F
100
AcDbEntity
  8
0
  6
Continuous
 62
     7
370
    25
100
AcDbSpline
210
0.0
220
0.0
230
1.0
 70
     8
 71
     3
 72
    11
 73
     7
 74
     0
 42
0.000000001
 43
0.00000001
 40
0.0
 40
0.0
 40
0.0
 40
0.0
 40
0.2802532497782825
 40
0.5586181357883907
 40
0.7781422590033306
 40
0.9999999999999999
 40
0.9999999999999999
 40
0.9999999999999999
 40
0.9999999999999999
 10
428.3299530814837
 20
137.8830070742787
 30
0.0
 10
429.4185870484092
 20
135.3798900303065
 30
0.0
 10
431.5885196991132
 20
130.3905221001569
 30
0.0
 10
433.4628835210376
 20
123.0289197871726
 30
0.0
 10
434.5235943686174
 20
116.0964778138779
 30
0.0
 10
434.6400306519329
 20
111.8011833395754
 30
0.0
 10
434.6985565971087
 20
109.6421813364315
 30
0.0
  0
SPLINE
  5
B2
330
1F
100
AcDbEntity
  8
0
  6
Continuous
 62
     7
370
    25
100
AcDbSpline
210
0.0
220
0.0
230
1.0
 70
     8
 71
     3
 72
    11
 73
     7
 74
     0
 42
0.000000001
 43
0.00000001
 40
0.0
 40
0.0
 40
0.0
 40
0.0
 40
0.2818097945463544
 40
0.5605527069120352
 40
0.7794993898803745
 40
0.9999999999999999
 40
0.9999999999999999
 40
0.9999999999999999
 40
0.9999999999999999
 10
434.6985565971087
 20
109.6421813364315
 30
0.0
 10
434.6053057748697
 20
106.9182807031378
 30
0.0
 10
434.4198189612835
 20
101.5001231269962
 30
0.0
 10
432.9734151800751
 20
94.08405149342998
 30
0.0
 10
430.9881781236609
 20
87.4243223586351
 30
0.0
 10
429.2759239305814
 20
83.53646886337872
 30
0.0
 10
428.4167694877337
 20
81.58566820709126
 30
0.0
  0
LINE
  5
B3
330
1F
100
AcDbEntity
  8
0
  6
Continuous
 62
     7
370
    25
100
AcDbLine
 10
428.4167694877
 20
81.5856682071
 30
0.0
 11
428.3981659721
 21
81.5457050995
 31
0.0
  0
LINE
  5
B4
330
1F
100
AcDbEntity
  8
0
  6
Continuous
 62
     7
370
    25
100
AcDbLine
 10
425.8915144964
 20
147.684475987
 30
0.0
 11
423.0865177516
 21
147.684475987
 31
0.0
  0
LINE
  5
B5
330
1F
100
AcDbEntity
  8
0
  6
Continuous
 62
     7
370
    25
100
AcDbLine
 10
423.0865177516
 20
147.684475987
 30
0.0
 11
423.0865177516
 21
150.3711337019
 31
0.0
  0
LINE
  5
B6
330
1F
100
AcDbEntity
  8
0
  6
Continuous
 62
     7
370
    25
100
AcDbLine
 10
423.0865177516
 20
150.3711337019
 30
0.0
 11
421.5451820311
 21
150.3711337019
 31
0.0
  0
LINE
  5
B7
330
1F
100
AcDbEntity
  8
0
  6
Continuous
 62
     7
370
    25
100
AcDbLine
 10
421.5451820311
 20
150.3711337019
 30
0.0
 11
421.5451820311
 21
143.9506814992
 31
0.0
  0
LINE
  5
B8
330
1F
100
AcDbEntity
  8
0
  6
Continuous
 62
     7
370
    25
100
AcDbLine
 10
421.5451820311
 20
143.9506814992
 30
0.0
 11
423.0865177516
 21
143.9506814992
 31
0.0
  0
LINE
  5
B9
330
1F
100
AcDbEntity
  8
0
  6
Continuous
 62
     7
370
    25
100
AcDbLine
 10
423.0865177516
 20
143.9506814992
 30
0.0
 11
423.0865177516
 21
146.3016146589
 31
0.0
  0
LINE
  5
BA
330
1F
100
AcDbEntity
  8
0
  6
Continuous
 62
     7
370
    25
100
AcDbLine
 10
423.0865177516
 20
146.3016146589
 30
0.0
 11
425.8915144964
 21
146.3016146589
 31
0.0
  0
LINE
  5
BB
330
1F
100
AcDbEntity
  8
0
  6
Continuous
 62
     7
370
    25
100
AcDbLine
 10
425.8915144964
 20
146.3016146589
 30
0.0
 11
425.8915144964
 21
143.9506814992
 31
0.0
  0
LINE
  5
BC
330
1F
100
AcDbEntity
  8
0
  6
Continuous
 62
     7
370
    25
100
AcDbLine
 10
425.8915144964
 20
143.9506814992
 30
0.0
 11
427.4328502169
 21
143.9506814992
 31
0.0
  0
LINE
  5
BD
330
1F
100
AcDbEntity
  8
0
  6
Continuous
 62
     7
370
    25
100
AcDbLine
 10
427.4328502169
 20
143.9506814992
 30
0.0
 11
427.4328502169
 21
150.3711337019
 31
0.0
  0
LINE
  5
BE
330
1F
100
AcDbEntity
  8
0
  6
Continuous
 62
     7
370
    25
100
AcDbLine
 10
427.4328502169
 20
150.3711337019
 30
0.0
 11
425.8915144964
 21
150.3711337019
 31
0.0
  0
LINE
  5
BF
330
1F
100
AcDbEntity
  8
0
  6
Continuous
 62
     7
370
    25
100
AcDbLine
 10
425.8915144964
 20
150.3711337019
 30
0.0
 11
425.8915144964
 21
147.684475987
 31
0.0
  0
ARC
  5
C0
330
1F
100
AcDbEntity
  8
0
  6
Continuous
 62
     7
370
    25
100
AcDbCircle
 10
368.9719913844
 20
109.6421813364
 30
0.0
 40
25.74999999999999
100
AcDbArc
 50
90.0
 51
257.6670501893
  0
ARC
  5
C1
330
1F
100
AcDbEntity
  8
0
  6
Continuous
 62
     7
370
    25
100
AcDbCircle
 10
368.9719913844
 20
109.6421813364
 30
0.0
 40
25.74999999999999
100
AcDbArc
 50
282.3329498107
 51
90.0
  0
SPLINE
  5
C2
330
1F
100
AcDbEntity
  8
0
  6
Continuous
 62
     7
370
    25
100
AcDbSpline
210
0.0
220
0.0
230
1.0
 70
     8
 71
     3
 72
     9
 73
     5
 74
     0
 42
0.000000001
 43
0.00000001
 40
0.0
 40
0.0
 40
0.0
 40
0.0
 40
0.5677374538580953
 40
1.0
 40
1.0
 40
1.0
 40
1.0
 10
374.8925602320908
 20
43.61795987375786
 30
0.0
 10
374.8240358372894
 20
43.68639631457633
 30
0.0
 10
374.7033385073252
 20
43.8069387243705
 30
0.0
 10
374.5418128683883
 20
43.85910561721477
 30
0.0
 10
374.4719913844343
 20
43.88165541113995
 30
0.0
  0
SPLINE
  5
C3
330
1F
100
AcDbEntity
  8
0
  6
Continuous
 62
     7
370
    25
100
AcDbSpline
210
0.0
220
0.0
230
1.0
 70
     8
 71
     3
 72
     9
 73
     5
 74
     0
 42
0.000000001
 43
0.00000001
 40
0.0
 40
0.0
 40
0.0
 40
0.0
 40
0.645220591032363
 40
0.9999999999999999
 40
0.9999999999999999
 40
0.9999999999999999
 40
0.9999999999999999
 10
375.1385400497991
 20
42.74497267757733
 30
0.0
 10
375.1306541339628
 20
42.94799375409254
 30
0.0
 10
375.1184320878194
 20
43.26264750094578
 30
0.0
 10
374.9517098493254
 20
43.52491335061855
 30
0.0
 10
374.8925602320908
 20
43.61795987375786
 30
0.0
  0
LINE
  5
C4
330
1F
100
AcDbEntity
  8
0
  6
Continuous
 62
     7
370
    25
100
AcDbLine
 10
375.1385400498
 20
42.6684915578
 30
0.0
 11
375.1385400498
 21
42.7449726776
 31
0.0
  0
SPLINE
  5
C5
330
1F
100
AcDbEntity
  8
0
  6
Continuous
 62
     7
370
    25
100
AcDbSpline
210
0.0
220
0.0
230
1.0
 70
     8
 71
     3
 72
    10
 73
     6
 74
     0
 42
0.000000001
 43
0.00000001
 40
0.0
 40
0.0
 40
0.0
 40
0.0
 40
0.2135147504161425
 40
0.471649298579785
 40
1.0
 40
1.0
 40
1.0
 40
1.0
 10
374.8925602320908
 20
41.79688239979957
 30
0.0
 10
374.9307027919751
 20
41.85051090055561
 30
0.0
 10
375.014958851945
 20
41.96897505685475
 30
0.0
 10
375.1174011614605
 20
42.26324869737483
 30
0.0
 10
375.1300456467731
 20
42.50564968433363
 30
0.0
 10
375.1385400497991
 20
42.66849155778566
 30
0.0
  0
SPLINE
  5
C6
330
1F
100
AcDbEntity
  8
0
  6
Continuous
 62
     7
370
    25
100
AcDbSpline
210
0.0
220
0.0
230
1.0
 70
     8
 71
     3
 72
    10
 73
     6
 74
     0
 42
0.000000001
 43
0.00000001
 40
0.0
 40
0.0
 40
0.0
 40
0.0
 40
0.1570788217394003
 40
0.5410086538628758
 40
1.0
 40
1.0
 40
1.0
 40
1.0
 10
374.4719913844343
 20
41.53562544516921
 30
0.0
 10
374.4978292605264
 20
41.54105283797961
 30
0.0
 10
374.5868197075422
 20
41.55974578745441
 30
0.0
 10
374.7383134609223
 20
41.64131174108194
 30
0.0
 10
374.8381802858124
 20
41.74203571484485
 30
0.0
 10
374.8925602320908
 20
41.79688239979957
 30
0.0
  0
LINE
  5
C7
330
1F
100
AcDbEntity
  8
0
  6
Continuous
 62
     7
370
    25
100
AcDbLine
 10
283.9719913844
 20
21.1421813364
 30
0.0
 11
283.9719913844
 21
19.6421813364
 31
0.0
  0
ARC
  5
C8
330
1F
100
AcDbEntity
  8
0
  6
Continuous
 62
     7
370
    25
100
AcDbCircle
 10
283.9719913844
 20
24.6421813364
 30
0.0
 40
5.000000000000004
100
AcDbArc
 50
180.0
 51
270.0
  0
ARC
  5
C9
330
1F
100
AcDbEntity
  8
0
  6
Continuous
 62
     7
370
    25
100
AcDbCircle
 10
453.9719913844
 20
24.6421813364
 30
0.0
 40
5.000000000000004
100
AcDbArc
 50
270.0
 51
0.0
  0
LINE
  5
CA
330
1F
100
AcDbEntity
  8
0
  6
Continuous
 62
     7
370
    25
100
AcDbLine
 10
453.9719913844
 20
21.1421813364
 30
0.0
 11
453.9719913844
 21
19.6421813364
 31
0.0
  0
LINE
  5
CB
330
1F
100
AcDbEntity
  8
0
  6
Continuous
 62
     7
370
    25
100
AcDbLine
 10
453.9719913844
 20
19.6421813364
 30
0.0
 11
283.9719913844
 21
19.6421813364
 31
0.0
  0
ARC
  5
CC
330
1F
100
AcDbEntity
  8
0
  6
Continuous
 62
     7
370
    25
100
AcDbCircle
 10
368.9719913844
 20
109.6421813364
 30
0.0
 40
24.69999999999999
100
AcDbArc
 50
178.7823382789
 51
257.1339751411
  0
ARC
  5
CD
330
1F
100
AcDbEntity
  8
0
  6
Continuous
 62
     7
370
    25
100
AcDbCircle
 10
368.9719913844
 20
109.6421813364
 30
0.0
 40
24.69999999999999
100
AcDbArc
 50
282.8660248589
 51
1.2176617211
  0
SPLINE
  5
CE
330
1F
100
AcDbEntity
  8
0
  6
Continuous
 62
     7
370
    25
100
AcDbSpline
210
0.0
220
0.0
230
1.0
 70
     8
 71
     3
 72
    17
 73
    13
 74
     0
 42
0.000000001
 43
0.00000001
 40
0.0
 40
0.0
 40
0.0
 40
0.0
 40
0.1040179611698602
 40
0.2112203747675665
 40
0.3181682403206634
 40
0.4283330480273064
 40
0.5331165596065316
 40
0.6407799022435264
 40
0.7429961505582685
 40
0.8480354342709644
 40
0.9512196279683741
 40
1.0
 40
1.0
 40
1.0
 40
1.0
 10
368.9719913844343
 20
84.99196129564041
 30
0.0
 10
368.6705194052954
 20
84.99628778121976
 30
0.0
 10
368.0583460488913
 20
85.00507320534484
 30
0.0
 10
367.1635170456837
 20
85.0744630342281
 30
0.0
 10
366.3067059748831
 20
85.17926888046951
 30
0.0
 10
365.5351291651887
 20
85.31006725675347
 30
0.0
 10
364.8603885932965
 20
85.45191879614433
 30
0.0
 10
364.3137430254515
 20
85.58624026987428
 30
0.0
 10
363.8887620286687
 20
85.70277476989999
 30
0.0
 10
363.6109637024588
 20
85.7847099605992
 30
0.0
 10
363.473192438648
 20
85.82715181980299
 30
0.0
 10
363.4868784563668
 20
85.82293682748914
 30
0.0
 10
363.491271645218
 20
85.8215838219895
 30
0.0
  0
SPLINE
  5
CF
330
1F
100
AcDbEntity
  8
0
  6
Continuous
 62
     7
370
    25
100
AcDbSpline
210
0.0
220
0.0
230
1.0
 70
     8
 71
     3
 72
    17
 73
    13
 74
     0
 42
0.000000001
 43
0.00000001
 40
0.0
 40
0.0
 40
0.0
 40
0.0
 40
0.0412723132175199
 40
0.1490685320472284
 40
0.255983516427598
 40
0.3661933156353815
 40
0.4718054689118881
 40
0.5803743559361426
 40
0.6832037927813294
 40
0.7888458516466446
 40
0.8928460088977574
 40
1.0
 40
1.0
 40
1.0
 40
1.0
 10
374.4540648018704
 20
85.82200211472832
 30
0.0
 10
374.4586747556325
 20
85.82342282043484
 30
0.0
 10
374.4753251196793
 20
85.82855416630893
 30
0.0
 10
374.3415370427668
 20
85.7872619344491
 30
0.0
 10
374.0541451843073
 20
85.70237687136664
 30
0.0
 10
373.6141176381783
 20
85.58183884308207
 30
0.0
 10
373.0439587955186
 20
85.442836120316
 30
0.0
 10
372.373947437167
 20
85.30354302281651
 30
0.0
 10
371.6105099005643
 20
85.17588595787528
 30
0.0
 10
370.7845963142918
 20
85.07516128112778
 30
0.0
 10
369.8945969211713
 20
85.00555857256036
 30
0.0
 10
369.282573657459
 20
84.99653862907769
 30
0.0
 10
368.9719913844343
 20
84.99196129564041
 30
0.0
  0
LINE
  5
D0
330
1F
100
AcDbEntity
  8
0
  6
Continuous
 62
     7
370
    25
100
AcDbLine
 10
363.4719913844
 20
31.4919612956
 30
0.0
 11
374.4719913844
 21
31.4919612956
 31
0.0
  0
ARC
  5
D1
330
1F
100
AcDbEntity
  8
0
  6
Continuous
 62
     7
370
    25
100
AcDbCircle
 10
368.9719913844
 20
109.6421813364
 30
0.0
 40
26.74999999999999
100
AcDbArc
 50
281.8650624575
 51
90.0
  0
ARC
  5
D2
330
1F
100
AcDbEntity
  8
0
  6
Continuous
 62
     7
370
    25
100
AcDbCircle
 10
368.9719913844
 20
109.6421813364
 30
0.0
 40
26.75
100
AcDbArc
 50
90.0
 51
258.1349375425
  0
LINE
  5
D3
330
1F
100
AcDbEntity
  8
0
  6
Continuous
 62
     7
370
    25
100
AcDbLine
 10
348.0932172321
 20
444.8803075164
 30
0.0
 11
348.0932172321
 21
389.8051233128
 31
0.0
  0
LINE
  5
D4
330
1F
100
AcDbEntity
  8
0
  6
Continuous
 62
     7
370
    25
100
AcDbLine
 10
351.5932172321
 20
389.8051233128
 30
0.0
 11
351.5932172321
 21
444.8803075164
 31
0.0
  0
ARC
  5
D5
330
1F
100
AcDbEntity
  8
0
  6
Continuous
 62
     7
370
    25
100
AcDbCircle
 10
399.9683393583
 20
381.6903075164
 30
0.0
 40
0.3100000000000114
100
AcDbArc
 50
270.0
 51
41.0
  0
ARC
  5
D6
330
1F
100
AcDbEntity
  8
0
  6
Continuous
 62
     7
370
    25
100
AcDbCircle
 10
392.6130847647
 20
381.6903075164
 30
0.0
 40
0.3100000000000114
100
AcDbArc
 50
139.0
 51
270.0
  0
LINE
  5
D7
330
1F
100
AcDbEntity
  8
0
  6
Continuous
 62
     7
370
    25
100
AcDbLine
 10
400.2022993281
 20
381.8936858154
 30
0.0
 11
398.5407120615
 21
383.8051233128
 31
0.0
  0
LINE
  5
D8
330
1F
100
AcDbEntity
  8
0
  6
Continuous
 62
     7
370
    25
100
AcDbLine
 10
394.0407120615
 20
383.8051233128
 30
0.0
 11
392.3791247948
 21
381.8936858154
 31
0.0
  0
LINE
  5
D9
330
1F
100
AcDbEntity
  8
0
  6
Continuous
 62
     7
370
    25
100
AcDbLine
 10
394.5407120615
 20
444.8803075164
 30
0.0
 11
394.5407120615
 21
389.8051233128
 31
0.0
  0
LINE
  5
DA
330
1F
100
AcDbEntity
  8
0
  6
Continuous
 62
     7
370
    25
100
AcDbLine
 10
398.0407120615
 20
389.8051233128
 30
0.0
 11
398.0407120615
 21
444.8803075164
 31
0.0
  0
LINE
  5
DB
330
1F
100
AcDbEntity
  8
0
  6
Continuous
 62
     7
370
    25
100
AcDbLine
 10
344.2719913844
 20
342.2131903887
 30
0.0
 11
344.2719913844
 21
311.5131903887
 31
0.0
  0
LINE
  5
DC
330
1F
100
AcDbEntity
  8
0
  6
Continuous
 62
     7
370
    25
100
AcDbLine
 10
393.6719913844
 20
311.5131903887
 30
0.0
 11
393.6719913844
 21
342.2131903887
 31
0.0
  0
ARC
  5
DD
330
1F
100
AcDbEntity
  8
0
  6
Continuous
 62
     7
370
    25
100
AcDbCircle
 10
393.1719913844
 20
342.2131903887
 30
0.0
 40
0.5000000000000568
100
AcDbArc
 50
0.0
 51
90.0
  0
ARC
  5
DE
330
1F
100
AcDbEntity
  8
0
  6
Continuous
 62
     7
370
    25
100
AcDbCircle
 10
344.7719913844
 20
342.2131903887
 30
0.0
 40
0.5000000000000568
100
AcDbArc
 50
90.0
 51
180.0
  0
ARC
  5
DF
330
1F
100
AcDbEntity
  8
0
  6
Continuous
 62
     7
370
    25
100
AcDbCircle
 10
392.8719913844
 20
311.5131903887
 30
0.0
 40
0.8000000000000114
100
AcDbArc
 50
270.0
 51
0.0
  0
ARC
  5
E0
330
1F
100
AcDbEntity
  8
0
  6
Continuous
 62
     7
370
    25
100
AcDbCircle
 10
345.0719913844
 20
311.5131903887
 30
0.0
 40
0.8000000000000114
100
AcDbArc
 50
180.0
 51
270.0
  0
ARC
  5
E1
330
1F
100
AcDbEntity
  8
0
  6
Continuous
 62
     7
370
    25
100
AcDbCircle
 10
343.2719913844
 20
382.8051233128
 30
0.0
 40
1.0
100
AcDbArc
 50
0.0
 51
90.0
  0
LINE
  5
E2
330
1F
100
AcDbEntity
  8
0
  6
Continuous
 62
     7
370
    25
100
AcDbLine
 10
393.6719913844
 20
345.7051233128
 30
0.0
 11
393.6719913844
 21
350.8251233128
 31
0.0
  0
LINE
  5
E3
330
1F
100
AcDbEntity
  8
0
  6
Continuous
 62
     7
370
    25
100
AcDbLine
 10
393.6719913844
 20
362.3251233128
 30
0.0
 11
393.6719913844
 21
381.3803075164
 31
0.0
  0
LINE
  5
E4
330
1F
100
AcDbEntity
  8
0
  6
Continuous
 62
     7
370
    25
100
AcDbLine
 10
344.2719913844
 20
382.8051233128
 30
0.0
 11
344.2719913844
 21
362.3251233128
 31
0.0
  0
LINE
  5
E5
330
1F
100
AcDbEntity
  8
0
  6
Continuous
 62
     7
370
    25
100
AcDbLine
 10
344.2719913844
 20
350.8251233128
 30
0.0
 11
344.2719913844
 21
345.7051233128
 31
0.0
  0
ARC
  5
E6
330
1F
100
AcDbEntity
  8
0
  6
Continuous
 62
     7
370
    25
100
AcDbCircle
 10
391.7719913844
 20
345.7051233128
 30
0.0
 40
1.899999999999977
100
AcDbArc
 50
270.0
 51
0.0
  0
ARC
  5
E7
330
1F
100
AcDbEntity
  8
0
  6
Continuous
 62
     7
370
    25
100
AcDbCircle
 10
346.1719913844
 20
345.7051233128
 30
0.0
 40
1.899999999999977
100
AcDbArc
 50
180.0
 51
270.0
  0
LINE
  5
E8
330
1F
100
AcDbEntity
  8
0
  6
Continuous
 62
     7
370
    25
100
AcDbLine
 10
333.6116668002
 20
389.8051233128
 30
0.0
 11
333.6116668002
 21
385.7051233128
 31
0.0
  0
ARC
  5
E9
330
1F
100
AcDbEntity
  8
0
  6
Continuous
 62
     7
370
    25
100
AcDbCircle
 10
335.5116668002
 20
385.7051233128
 30
0.0
 40
1.900000000000034
100
AcDbArc
 50
180.0
 51
270.0
  0
LINE
  5
EA
330
1F
100
AcDbEntity
  8
0
  6
Continuous
 62
     7
370
    25
100
AcDbLine
 10
404.3323159687
 20
385.7051233128
 30
0.0
 11
404.3323159687
 21
389.8051233128
 31
0.0
  0
ARC
  5
EB
330
1F
100
AcDbEntity
  8
0
  6
Continuous
 62
     7
370
    25
100
AcDbCircle
 10
402.4323159687
 20
385.7051233128
 30
0.0
 40
1.900000000000034
100
AcDbArc
 50
270.0
 51
0.0
  0
ARC
  5
EC
330
1F
100
AcDbEntity
  8
0
  6
Continuous
 62
     7
370
    25
100
AcDbCircle
 10
387.4719913844
 20
342.8051233128
 30
0.0
 40
1.0
100
AcDbArc
 50
90.0
 51
180.0
  0
ARC
  5
ED
330
1F
100
AcDbEntity
  8
0
  6
Continuous
 62
     7
370
    25
100
AcDbCircle
 10
350.4719913844
 20
342.8051233128
 30
0.0
 40
1.0
100
AcDbArc
 50
0.0
 51
90.0
  0
LINE
  5
EE
330
1F
100
AcDbEntity
  8
0
  6
Continuous
 62
     7
370
    25
100
AcDbLine
 10
386.4719913844
 20
342.7131903887
 30
0.0
 11
386.4719913844
 21
342.8051233128
 31
0.0
  0
LINE
  5
EF
330
1F
100
AcDbEntity
  8
0
  6
Continuous
 62
     7
370
    25
100
AcDbLine
 10
351.4719913844
 20
342.8051233128
 30
0.0
 11
351.4719913844
 21
342.7131903887
 31
0.0
  0
LINE
  5
F0
330
1F
100
AcDbEntity
  8
0
  6
Continuous
 62
     7
370
    25
100
AcDbLine
 10
452.9719913844
 20
362.3251233128
 30
0.0
 11
456.9719913844
 21
362.3251233128
 31
0.0
  0
LINE
  5
F1
330
1F
100
AcDbEntity
  8
0
  6
Continuous
 62
     7
370
    25
100
AcDbLine
 10
456.9719913844
 20
362.3251233128
 30
0.0
 11
456.9719913844
 21
359.8251233128
 31
0.0
  0
LINE
  5
F2
330
1F
100
AcDbEntity
  8
0
  6
Continuous
 62
     7
370
    25
100
AcDbLine
 10
280.4719913844
 20
359.8251233128
 30
0.0
 11
280.4719913844
 21
362.3251233128
 31
0.0
  0
LINE
  5
F3
330
1F
100
AcDbEntity
  8
0
  6
Continuous
 62
     7
370
    25
100
AcDbLine
 10
280.4719913844
 20
362.3251233128
 30
0.0
 11
284.4719913844
 21
362.3251233128
 31
0.0
  0
LINE
  5
F4
330
1F
100
AcDbEntity
  8
0
  6
Continuous
 62
     7
370
    25
100
AcDbLine
 10
452.9719913844
 20
362.3251233128
 30
0.0
 11
284.4719913844
 21
362.3251233128
 31
0.0
  0
LINE
  5
F5
330
1F
100
AcDbEntity
  8
0
  6
Continuous
 62
     7
370
    25
100
AcDbLine
 10
348.0932172321
 20
444.8803075164
 30
0.0
 11
351.5932172321
 21
444.8803075164
 31
0.0
  0
LINE
  5
F6
330
1F
100
AcDbEntity
  8
0
  6
Continuous
 62
     7
370
    25
100
AcDbLine
 10
394.6836645983
 20
381.3803075164
 30
0.0
 11
392.6130847647
 21
381.3803075164
 31
0.0
  0
LINE
  5
F7
330
1F
100
AcDbEntity
  8
0
  6
Continuous
 62
     7
370
    25
100
AcDbLine
 10
399.9683393583
 20
381.3803075164
 30
0.0
 11
394.6836645983
 21
381.3803075164
 31
0.0
  0
LINE
  5
F8
330
1F
100
AcDbEntity
  8
0
  6
Continuous
 62
     7
370
    25
100
AcDbLine
 10
394.5407120615
 20
444.8803075164
 30
0.0
 11
398.0407120615
 21
444.8803075164
 31
0.0
  0
LINE
  5
F9
330
1F
100
AcDbEntity
  8
0
  6
Continuous
 62
     7
370
    25
100
AcDbLine
 10
393.1719913844
 20
342.7131903887
 30
0.0
 11
344.7719913844
 21
342.7131903887
 31
0.0
  0
LINE
  5
FA
330
1F
100
AcDbEntity
  8
0
  6
Continuous
 62
     7
370
    25
100
AcDbLine
 10
392.8719913844
 20
310.7131903887
 30
0.0
 11
345.0721591296
 21
310.7131903887
 31
0.0
  0
LINE
  5
FB
330
1F
100
AcDbEntity
  8
0
  6
Continuous
 62
     7
370
    25
100
AcDbLine
 10
458.9719913844
 20
352.3251233128
 30
0.0
 11
453.9719913844
 21
352.3251233128
 31
0.0
  0
LINE
  5
FC
330
1F
100
AcDbEntity
  8
0
  6
Continuous
 62
     7
370
    25
100
AcDbLine
 10
453.9719913844
 20
359.8251233128
 30
0.0
 11
453.9719913844
 21
352.3251233128
 31
0.0
  0
LINE
  5
FD
330
1F
100
AcDbEntity
  8
0
  6
Continuous
 62
     7
370
    25
100
AcDbLine
 10
458.9719913844
 20
359.8251233128
 30
0.0
 11
453.9719913844
 21
359.8251233128
 31
0.0
  0
LINE
  5
FE
330
1F
100
AcDbEntity
  8
0
  6
Continuous
 62
     7
370
    25
100
AcDbLine
 10
458.9719913844
 20
352.3251233128
 30
0.0
 11
458.9719913844
 21
359.8251233128
 31
0.0
  0
LINE
  5
FF
330
1F
100
AcDbEntity
  8
0
  6
Continuous
 62
     7
370
    25
100
AcDbLine
 10
283.9719913844
 20
359.8251233128
 30
0.0
 11
453.9719913844
 21
359.8251233128
 31
0.0
  0
LINE
  5
100
330
1F
100
AcDbEntity
  8
0
  6
Continuous
 62
     7
370
    25
100
AcDbLine
 10
283.9719913844
 20
352.3251233128
 30
0.0
 11
453.9719913844
 21
352.3251233128
 31
0.0
  0
LINE
  5
101
330
1F
100
AcDbEntity
  8
0
  6
Continuous
 62
     7
370
    25
100
AcDbLine
 10
283.9719913844
 20
359.8251233128
 30
0.0
 11
283.9719913844
 21
352.3251233128
 31
0.0
  0
ARC
  5
102
330
1F
100
AcDbEntity
  8
0
  6
Continuous
 62
     7
370
    25
100
AcDbCircle
 10
457.4719913844
 20
352.3251233128
 30
0.0
 40
1.5
100
AcDbArc
 50
270.0
 51
0.0
  0
LINE
  5
103
330
1F
100
AcDbEntity
  8
0
  6
Continuous
 62
     7
370
    25
100
AcDbLine
 10
453.9719913844
 20
350.8251233128
 30
0.0
 11
457.4719913844
 21
350.8251233128
 31
0.0
  0
LINE
  5
104
330
1F
100
AcDbEntity
  8
0
  6
Continuous
 62
     7
370
    25
100
AcDbLine
 10
453.9719913844
 20
350.8251233128
 30
0.0
 11
453.9719913844
 21
352.3251233128
 31
0.0
  0
LINE
  5
105
330
1F
100
AcDbEntity
  8
0
  6
Continuous
 62
     7
370
    25
100
AcDbLine
 10
283.9719913844
 20
350.8251233128
 30
0.0
 11
283.9719913844
 21
352.3251233128
 31
0.0
  0
LINE
  5
106
330
1F
100
AcDbEntity
  8
0
  6
Continuous
 62
     7
370
    25
100
AcDbLine
 10
453.9719913844
 20
350.8251233128
 30
0.0
 11
283.9719913844
 21
350.8251233128
 31
0.0
  0
LINE
  5
107
330
1F
100
AcDbEntity
  8
0
  6
Continuous
 62
     7
370
    25
100
AcDbLine
 10
278.9719913844
 20
352.3251233128
 30
0.0
 11
283.9719913844
 21
352.3251233128
 31
0.0
  0
LINE
  5
108
330
1F
100
AcDbEntity
  8
0
  6
Continuous
 62
     7
370
    25
100
AcDbLine
 10
278.9719913844
 20
352.3251233128
 30
0.0
 11
278.9719913844
 21
359.8251233128
 31
0.0
  0
LINE
  5
109
330
1F
100
AcDbEntity
  8
0
  6
Continuous
 62
     7
370
    25
100
AcDbLine
 10
278.9719913844
 20
359.8251233128
 30
0.0
 11
283.9719913844
 21
359.8251233128
 31
0.0
  0
LINE
  5
10A
330
1F
100
AcDbEntity
  8
0
  6
Continuous
 62
     7
370
    25
100
AcDbLine
 10
283.9719913844
 20
350.8251233128
 30
0.0
 11
280.4719913844
 21
350.8251233128
 31
0.0
  0
ARC
  5
10B
330
1F
100
AcDbEntity
  8
0
  6
Continuous
 62
     7
370
    25
100
AcDbCircle
 10
280.4719913844
 20
352.3251233128
 30
0.0
 40
1.5
100
AcDbArc
 50
180.0
 51
270.0
  0
LINE
  5
10C
330
1F
100
AcDbEntity
  8
0
  6
Continuous
 62
     7
370
    25
100
AcDbLine
 10
403.1166007517
 20
389.8051233128
 30
0.0
 11
334.8273820172
 21
389.8051233128
 31
0.0
  0
LINE
  5
10D
330
1F
100
AcDbEntity
  8
0
  6
Continuous
 62
     7
370
    25
100
AcDbLine
 10
403.1166007517
 20
389.8051233128
 30
0.0
 11
403.1166007517
 21
385.7051233128
 31
0.0
  0
LINE
  5
10E
330
1F
100
AcDbEntity
  8
0
  6
Continuous
 62
     7
370
    25
100
AcDbLine
 10
334.8273820172
 20
385.7051233128
 30
0.0
 11
403.1166007517
 21
385.7051233128
 31
0.0
  0
LINE
  5
10F
330
1F
100
AcDbEntity
  8
0
  6
Continuous
 62
     7
370
    25
100
AcDbLine
 10
334.8273820172
 20
389.8051233128
 30
0.0
 11
334.8273820172
 21
385.7051233128
 31
0.0
  0
LINE
  5
110
330
1F
100
AcDbEntity
  8
0
  6
Continuous
 62
     7
370
    25
100
AcDbLine
 10
401.5719636613
 20
383.8051233128
 30
0.0
 11
336.3720191076
 21
383.8051233128
 31
0.0
  0
ARC
  5
111
330
1F
100
AcDbEntity
  8
0
  6
Continuous
 62
     7
370
    25
100
AcDbCircle
 10
336.570139473
 20
385.5440580156
 30
0.0
 40
1.750184441623249
100
AcDbArc
 50
174.7197350233
 51
263.5002022432
  0
ARC
  5
112
330
1F
100
AcDbEntity
  8
0
  6
Continuous
 62
     7
370
    25
100
AcDbCircle
 10
401.3738432959
 20
385.5440580156
 30
0.0
 40
1.750184441623425
100
AcDbArc
 50
276.4997977568
 51
5.2802649767
  0
LINE
  5
113
330
1F
100
AcDbEntity
  8
0
  6
Continuous
 62
     7
370
    25
100
AcDbLine
 10
391.7719913844
 20
343.8051233128
 30
0.0
 11
346.1719913844
 21
343.8051233128
 31
0.0
  0
LINE
  5
114
330
1F
100
AcDbEntity
  8
0
  6
Continuous
 62
     7
370
    25
100
AcDbLine
 10
333.6116668002
 20
389.8051233128
 30
0.0
 11
334.8273820172
 21
389.8051233128
 31
0.0
  0
LINE
  5
115
330
1F
100
AcDbEntity
  8
0
  6
Continuous
 62
     7
370
    25
100
AcDbLine
 10
336.3720191076
 20
383.8051233128
 30
0.0
 11
335.5116668002
 21
383.8051233128
 31
0.0
  0
LINE
  5
116
330
1F
100
AcDbEntity
  8
0
  6
Continuous
 62
     7
370
    25
100
AcDbLine
 10
404.3323159687
 20
389.8051233128
 30
0.0
 11
403.1166007517
 21
389.8051233128
 31
0.0
  0
LINE
  5
117
330
1F
100
AcDbEntity
  8
0
  6
Continuous
 62
     7
370
    25
100
AcDbLine
 10
402.4323159687
 20
383.8051233128
 30
0.0
 11
401.5719636613
 21
383.8051233128
 31
0.0
  0
LINE
  5
118
330
1F
100
AcDbEntity
  8
0
  6
Continuous
 62
     7
370
    25
100
AcDbLine
 10
452.9719913844
 20
359.8251233128
 30
0.0
 11
452.9719913844
 21
362.3251233128
 31
0.0
  0
LINE
  5
119
330
1F
100
AcDbEntity
  8
0
  6
Continuous
 62
     7
370
    25
100
AcDbLine
 10
284.4719913844
 20
362.3251233128
 30
0.0
 11
284.4719913844
 21
359.8251233128
 31
0.0
  0
LINE
  5
11A
330
1F
100
AcDbEntity
  8
0
  6
Continuous
 62
     7
370
    25
100
AcDbLine
 10
392.3791247948
 20
381.8936858154
 30
0.0
 11
400.2022993281
 21
381.8936858154
 31
0.0
  0
LINE
  5
11B
330
1F
100
AcDbEntity
  8
0
  6
Continuous
 62
     7
370
    25
100
AcDbLine
 10
344.2719913844
 20
311.5131903887
 30
0.0
 11
393.6719913844
 21
311.5131903887
 31
0.0
  0
LINE
  5
11C
330
1F
100
AcDbEntity
  8
0
  6
Continuous
 62
     7
370
    25
100
AcDbLine
 10
393.6719913844
 20
342.2131903887
 30
0.0
 11
344.2719913844
 21
342.2131903887
 31
0.0
  0
LINE
  5
11D
330
1F
100
AcDbEntity
  8
0
  6
Continuous
 62
     7
370
    25
100
AcDbLine
 10
393.1714253237
 20
382.8051233128
 30
0.0
 11
344.2719913844
 21
382.8051233128
 31
0.0
  0
LINE
  5
11E
330
1F
100
AcDbEntity
  8
0
  6
Continuous
 62
     7
370
    25
100
AcDbLine
 10
344.2719913844
 20
345.7051233128
 30
0.0
 11
393.6719913844
 21
345.7051233128
 31
0.0
  0
LINE
  5
11F
330
1F
100
AcDbEntity
  8
0
  6
Continuous
 62
     7
370
    25
100
AcDbLine
 10
333.6116668002
 20
385.7051233128
 30
0.0
 11
334.8273820172
 21
385.7051233128
 31
0.0
  0
LINE
  5
120
330
1F
100
AcDbEntity
  8
0
  6
Continuous
 62
     7
370
    25
100
AcDbLine
 10
403.1166007517
 20
385.7051233128
 30
0.0
 11
404.3323159687
 21
385.7051233128
 31
0.0
  0
LINE
  5
121
330
1F
100
AcDbEntity
  8
0
  6
Continuous
 62
     7
370
    25
100
AcDbLine
 10
386.4719913844
 20
342.8051233128
 30
0.0
 11
351.4719913844
 21
342.8051233128
 31
0.0
  0
LINE
  5
122
330
1F
100
AcDbEntity
  8
0
  6
Continuous
 62
     7
370
    25
100
AcDbLine
 10
102.7967739173
 20
75.3921813364
 30
0.0
 11
84.3167739173
 21
75.3921813364
 31
0.0
  0
LINE
  5
123
330
1F
100
AcDbEntity
  8
0
  6
Continuous
 62
     7
370
    25
100
AcDbLine
 10
84.3167739173
 20
71.3921813364
 30
0.0
 11
102.7967739173
 21
71.3921813364
 31
0.0
  0
ARC
  5
124
330
1F
100
AcDbEntity
  8
0
  6
Continuous
 62
     7
370
    25
100
AcDbCircle
 10
103.6819581209
 20
78.6458333626
 30
0.0
 40
0.3100000000000034
100
AcDbArc
 50
180.0
 51
311.0
  0
LINE
  5
125
330
1F
100
AcDbEntity
  8
0
  6
Continuous
 62
     7
370
    25
100
AcDbLine
 10
103.8853364199
 20
78.4118733927
 30
0.0
 11
105.7967739173
 21
80.0734606594
 31
0.0
  0
LINE
  5
126
330
1F
100
AcDbEntity
  8
0
  6
Continuous
 62
     7
370
    25
100
AcDbLine
 10
166.8719581209
 20
84.0734606594
 30
0.0
 11
111.7967739173
 21
84.0734606594
 31
0.0
  0
LINE
  5
127
330
1F
100
AcDbEntity
  8
0
  6
Continuous
 62
     7
370
    25
100
AcDbLine
 10
111.7967739173
 20
80.5734606594
 30
0.0
 11
166.8719581209
 21
80.5734606594
 31
0.0
  0
ARC
  5
128
330
1F
100
AcDbEntity
  8
0
  6
Continuous
 62
     7
370
    25
100
AcDbCircle
 10
103.6819581209
 20
125.093328192
 30
0.0
 40
0.3100000000000165
100
AcDbArc
 50
180.0
 51
311.0
  0
ARC
  5
129
330
1F
100
AcDbEntity
  8
0
  6
Continuous
 62
     7
370
    25
100
AcDbCircle
 10
103.6819581209
 20
132.4485827855
 30
0.0
 40
0.3100000000000165
100
AcDbArc
 50
49.0
 51
180.0
  0
LINE
  5
12A
330
1F
100
AcDbEntity
  8
0
  6
Continuous
 62
     7
370
    25
100
AcDbLine
 10
103.8853364199
 20
124.8593682221
 30
0.0
 11
105.7967739173
 21
126.5209554887
 31
0.0
  0
LINE
  5
12B
330
1F
100
AcDbEntity
  8
0
  6
Continuous
 62
     7
370
    25
100
AcDbLine
 10
105.7967739173
 20
131.0209554887
 30
0.0
 11
103.8853364199
 21
132.6825427554
 31
0.0
  0
LINE
  5
12C
330
1F
100
AcDbEntity
  8
0
  6
Continuous
 62
     7
370
    25
100
AcDbLine
 10
166.8719581209
 20
130.5209554887
 30
0.0
 11
111.7967739173
 21
130.5209554887
 31
0.0
  0
LINE
  5
12D
330
1F
100
AcDbEntity
  8
0
  6
Continuous
 62
     7
370
    25
100
AcDbLine
 10
111.7967739173
 20
127.0209554887
 30
0.0
 11
166.8719581209
 21
127.0209554887
 31
0.0
  0
ARC
  5
12E
330
1F
100
AcDbEntity
  8
0
  6
Continuous
 62
     7
370
    25
100
AcDbCircle
 10
64.2048409932
 20
86.4919612956
 30
0.0
 40
0.5
100
AcDbArc
 50
270.0
 51
0.0
  0
ARC
  5
12F
330
1F
100
AcDbEntity
  8
0
  6
Continuous
 62
     7
370
    25
100
AcDbCircle
 10
64.2048409932
 20
134.8919612956
 30
0.0
 40
0.5
100
AcDbArc
 50
0.0
 51
90.0
  0
LINE
  5
130
330
1F
100
AcDbEntity
  8
0
  6
Continuous
 62
     7
370
    25
100
AcDbLine
 10
64.2048409932
 20
135.3919612956
 30
0.0
 11
33.5048409932
 21
135.3919612956
 31
0.0
  0
LINE
  5
131
330
1F
100
AcDbEntity
  8
0
  6
Continuous
 62
     7
370
    25
100
AcDbLine
 10
58.4548409932
 20
85.9919612956
 30
0.0
 11
64.2048409932
 21
85.9919612956
 31
0.0
  0
LINE
  5
132
330
1F
100
AcDbEntity
  8
0
  6
Continuous
 62
     7
370
    25
100
AcDbLine
 10
50.7036315429
 20
85.9919612956
 30
0.0
 11
52.9631650277
 21
85.9919612956
 31
0.0
  0
LINE
  5
133
330
1F
100
AcDbEntity
  8
0
  6
Continuous
 62
     7
370
    25
100
AcDbLine
 10
33.5048409932
 20
85.9919612956
 30
0.0
 11
37.7048409932
 21
85.9919612956
 31
0.0
  0
ARC
  5
134
330
1F
100
AcDbEntity
  8
0
  6
Continuous
 62
     7
370
    25
100
AcDbCircle
 10
33.5048409932
 20
86.7919612956
 30
0.0
 40
0.7999999999999972
100
AcDbArc
 50
180.0
 51
270.0
  0
ARC
  5
135
330
1F
100
AcDbEntity
  8
0
  6
Continuous
 62
     7
370
    25
100
AcDbCircle
 10
33.5048409932
 20
134.5919612956
 30
0.0
 40
0.8000000000000398
100
AcDbArc
 50
90.0
 51
180.0
  0
ARC
  5
136
330
1F
100
AcDbEntity
  8
0
  6
Continuous
 62
     7
370
    25
100
AcDbCircle
 10
50.7048409925
 20
84.9919612958
 30
0.0
 40
1.000000000000001
100
AcDbArc
 50
90.0870748481
 51
180.0435909919
  0
SPLINE
  5
137
330
1F
100
AcDbEntity
  8
0
  6
Continuous
 62
     7
370
    25
100
AcDbSpline
210
0.0
220
0.0
230
1.0
 70
     8
 71
     3
 72
    12
 73
     8
 74
     0
 42
0.000000001
 43
0.00000001
 40
0.0
 40
0.0
 40
0.0
 40
0.0
 40
0.1321584976370972
 40
0.3827636695287329
 40
0.6500269397349584
 40
0.9264231743926029
 40
1.0
 40
1.0
 40
1.0
 40
1.0
 10
37.9619370821918
 20
85.94559796359094
 30
0.0
 10
38.01830232138329
 20
85.93229749732967
 30
0.0
 10
38.18154998364139
 20
85.89377606008856
 30
0.0
 10
38.41766698046511
 20
85.7180071398899
 30
0.0
 10
38.6197569020129
 20
85.43664210467678
 30
0.0
 10
38.71384941695767
 20
85.16933939977228
 30
0.0
 10
38.69680600144069
 20
85.01715238012373
 30
0.0
 10
38.69322286732661
 20
84.98515723799504
 30
0.0
  0
ARC
  5
138
330
1F
100
AcDbEntity
  8
0
  6
Continuous
 62
     7
370
    25
100
AcDbCircle
 10
48.9048409932
 20
31.4919612956
 30
0.0
 40
0.8000000000000043
100
AcDbArc
 50
270.0
 51
0.0
  0
ARC
  5
139
330
1F
100
AcDbEntity
  8
0
  6
Continuous
 62
     7
370
    25
100
AcDbCircle
 10
39.5048409932
 20
31.4919612956
 30
0.0
 40
0.7999999999999972
100
AcDbArc
 50
180.0
 51
270.0
  0
LINE
  5
13A
330
1F
100
AcDbEntity
  8
0
  6
Continuous
 62
     7
370
    25
100
AcDbLine
 10
38.7048409932
 20
84.9919612956
 30
0.0
 11
38.7048409932
 21
31.4919612956
 31
0.0
  0
LINE
  5
13B
330
1F
100
AcDbEntity
  8
0
  6
Continuous
 62
     7
370
    25
100
AcDbLine
 10
49.7048409932
 20
31.4919612956
 30
0.0
 11
49.7048409932
 21
84.9919614443
 31
0.0
  0
LINE
  5
13C
330
1F
100
AcDbEntity
  8
0
  6
Continuous
 62
     7
370
    25
100
AcDbLine
 10
111.7967739173
 20
151.6421813364
 30
0.0
 11
107.6967739173
 21
151.6421813364
 31
0.0
  0
ARC
  5
13D
330
1F
100
AcDbEntity
  8
0
  6
Continuous
 62
     7
370
    25
100
AcDbCircle
 10
107.6967739173
 20
149.7421813364
 30
0.0
 40
1.900000000000006
100
AcDbArc
 50
90.0
 51
180.0
  0
LINE
  5
13E
330
1F
100
AcDbEntity
  8
0
  6
Continuous
 62
     7
370
    25
100
AcDbLine
 10
107.6967739173
 20
67.6421813364
 30
0.0
 11
111.7967739173
 21
67.6421813364
 31
0.0
  0
ARC
  5
13F
330
1F
100
AcDbEntity
  8
0
  6
Continuous
 62
     7
370
    25
100
AcDbCircle
 10
107.6967739173
 20
69.5421813364
 30
0.0
 40
1.90000000000002
100
AcDbArc
 50
180.0
 51
270.0
  0
ARC
  5
140
330
1F
100
AcDbEntity
  8
0
  6
Continuous
 62
     7
370
    25
100
AcDbCircle
 10
104.7967739173
 20
83.9421813364
 30
0.0
 40
1.0
100
AcDbArc
 50
0.0
 51
90.0
  0
ARC
  5
141
330
1F
100
AcDbEntity
  8
0
  6
Continuous
 62
     7
370
    25
100
AcDbCircle
 10
104.7967739173
 20
135.3421813364
 30
0.0
 40
1.0
100
AcDbArc
 50
270.0
 51
0.0
  0
LINE
  5
142
330
1F
100
AcDbEntity
  8
0
  6
Continuous
 62
     7
370
    25
100
AcDbLine
 10
67.6967739173
 20
84.9421813364
 30
0.0
 11
72.8167739173
 21
84.9421813364
 31
0.0
  0
LINE
  5
143
330
1F
100
AcDbEntity
  8
0
  6
Continuous
 62
     7
370
    25
100
AcDbLine
 10
84.3167739173
 20
84.9421813364
 30
0.0
 11
104.7967739173
 21
84.9421813364
 31
0.0
  0
LINE
  5
144
330
1F
100
AcDbEntity
  8
0
  6
Continuous
 62
     7
370
    25
100
AcDbLine
 10
104.7967739173
 20
134.3421813364
 30
0.0
 11
84.3167739173
 21
134.3421813364
 31
0.0
  0
LINE
  5
145
330
1F
100
AcDbEntity
  8
0
  6
Continuous
 62
     7
370
    25
100
AcDbLine
 10
72.8167739173
 20
134.3421813364
 30
0.0
 11
67.6967739173
 21
134.3421813364
 31
0.0
  0
ARC
  5
146
330
1F
100
AcDbEntity
  8
0
  6
Continuous
 62
     7
370
    25
100
AcDbCircle
 10
67.6967739173
 20
86.8421813364
 30
0.0
 40
1.90000000000002
100
AcDbArc
 50
180.0
 51
270.0
  0
ARC
  5
147
330
1F
100
AcDbEntity
  8
0
  6
Continuous
 62
     7
370
    25
100
AcDbCircle
 10
67.6967739173
 20
132.4421813364
 30
0.0
 40
1.900000000000006
100
AcDbArc
 50
90.0
 51
180.0
  0
ARC
  5
148
330
1F
100
AcDbEntity
  8
0
  6
Continuous
 62
     7
370
    25
100
AcDbCircle
 10
64.7967739173
 20
91.1421813364
 30
0.0
 40
1.0
100
AcDbArc
 50
0.0
 51
90.0
  0
ARC
  5
149
330
1F
100
AcDbEntity
  8
0
  6
Continuous
 62
     7
370
    25
100
AcDbCircle
 10
64.7967739173
 20
128.1421813364
 30
0.0
 40
1.0
100
AcDbArc
 50
270.0
 51
0.0
  0
LINE
  5
14A
330
1F
100
AcDbEntity
  8
0
  6
Continuous
 62
     7
370
    25
100
AcDbLine
 10
64.7048409932
 20
92.1421813364
 30
0.0
 11
64.7967739173
 21
92.1421813364
 31
0.0
  0
LINE
  5
14B
330
1F
100
AcDbEntity
  8
0
  6
Continuous
 62
     7
370
    25
100
AcDbLine
 10
64.7967739173
 20
127.1421813364
 30
0.0
 11
64.7048409932
 21
127.1421813364
 31
0.0
  0
ARC
  5
14C
330
1F
100
AcDbEntity
  8
0
  6
Continuous
 62
     7
370
    25
100
AcDbCircle
 10
104.7967739173
 20
77.2921813364
 30
0.0
 40
1.0
100
AcDbArc
 50
270.0
 51
360.0
  0
LINE
  5
14D
330
1F
100
AcDbEntity
  8
0
  6
Continuous
 62
     7
370
    25
100
AcDbLine
 10
102.7967739173
 20
70.4921813364
 30
0.0
 11
104.7967739173
 21
70.4921813364
 31
0.0
  0
LINE
  5
14E
330
1F
100
AcDbEntity
  8
0
  6
Continuous
 62
     7
370
    25
100
AcDbLine
 10
104.7967739173
 20
76.2921813364
 30
0.0
 11
102.7967739173
 21
76.2921813364
 31
0.0
  0
ARC
  5
14F
330
1F
100
AcDbEntity
  8
0
  6
Continuous
 62
     7
370
    25
100
AcDbCircle
 10
104.7972049838
 20
69.4921813364
 30
0.0
 40
1.000000000000011
100
AcDbArc
 50
0.8919624544
 51
90.4407208503
  0
LINE
  5
150
330
1F
100
AcDbEntity
  8
0
  6
Continuous
 62
     7
370
    25
100
AcDbLine
 10
84.3167739173
 20
21.1421813364
 30
0.0
 11
81.8167739173
 21
21.1421813364
 31
0.0
  0
LINE
  5
151
330
1F
100
AcDbEntity
  8
0
  6
Continuous
 62
     7
370
    25
100
AcDbLine
 10
84.3167739173
 20
25.1421813364
 30
0.0
 11
84.3167739173
 21
21.1421813364
 31
0.0
  0
LINE
  5
152
330
1F
100
AcDbEntity
  8
0
  6
Continuous
 62
     7
370
    25
100
AcDbLine
 10
84.3167739173
 20
25.1421813364
 30
0.0
 11
84.3167739173
 21
193.6421813364
 31
0.0
  0
LINE
  5
153
330
1F
100
AcDbEntity
  8
0
  6
Continuous
 62
     7
370
    25
100
AcDbLine
 10
81.8167739173
 20
197.6421813364
 30
0.0
 11
84.3167739173
 21
197.6421813364
 31
0.0
  0
LINE
  5
154
330
1F
100
AcDbEntity
  8
0
  6
Continuous
 62
     7
370
    25
100
AcDbLine
 10
84.3167739173
 20
197.6421813364
 30
0.0
 11
84.3167739173
 21
193.6421813364
 31
0.0
  0
LINE
  5
155
330
1F
100
AcDbEntity
  8
0
  6
Continuous
 62
     7
370
    25
100
AcDbLine
 10
103.3719581209
 20
78.6458333626
 30
0.0
 11
103.3719581209
 21
84.9421813364
 31
0.0
  0
LINE
  5
156
330
1F
100
AcDbEntity
  8
0
  6
Continuous
 62
     7
370
    25
100
AcDbLine
 10
166.8719581209
 20
84.0734606594
 30
0.0
 11
166.8719581209
 21
80.5734606594
 31
0.0
  0
LINE
  5
157
330
1F
100
AcDbEntity
  8
0
  6
Continuous
 62
     7
370
    25
100
AcDbLine
 10
103.3719581209
 20
125.093328192
 30
0.0
 11
103.3719581209
 21
132.4485827855
 31
0.0
  0
LINE
  5
158
330
1F
100
AcDbEntity
  8
0
  6
Continuous
 62
     7
370
    25
100
AcDbLine
 10
166.8719581209
 20
127.1968803614
 30
0.0
 11
166.8719581209
 21
127.0209554887
 31
0.0
  0
LINE
  5
159
330
1F
100
AcDbEntity
  8
0
  6
Continuous
 62
     7
370
    25
100
AcDbLine
 10
166.8719581209
 20
130.5209554887
 30
0.0
 11
166.8719581209
 21
127.1968803614
 31
0.0
  0
LINE
  5
15A
330
1F
100
AcDbEntity
  8
0
  6
Continuous
 62
     7
370
    25
100
AcDbLine
 10
64.7048409932
 20
110.6919612956
 30
0.0
 11
64.7048409932
 21
86.4919612956
 31
0.0
  0
LINE
  5
15B
330
1F
100
AcDbEntity
  8
0
  6
Continuous
 62
     7
370
    25
100
AcDbLine
 10
64.7048409932
 20
134.8919612956
 30
0.0
 11
64.7048409932
 21
110.6919612956
 31
0.0
  0
SPLINE
  5
15C
330
1F
100
AcDbEntity
  8
0
  6
Continuous
 62
     7
370
    25
100
AcDbSpline
210
0.0
220
0.0
230
1.0
 70
     8
 71
     3
 72
    26
 73
    22
 74
     0
 42
0.000000001
 43
0.00000001
 40
0.0
 40
0.0
 40
0.0
 40
0.0
 40
0.0173221633002308
 40
0.071570538900954
 40
0.1241560747673409
 40
0.1782547272242259
 40
0.2310598680538295
 40
0.2853826545939496
 40
0.3384153972645145
 40
0.3929919680668129
 40
0.4459043431279802
 40
0.5003678612746947
 40
0.5529967606016083
 40
0.6071532076708337
 40
0.6597790038429081
 40
0.7139151797705787
 40
0.7668214930350721
 40
0.8212537090523718
 40
0.874288162757291
 40
0.9288728110340115
 40
1.0
 40
1.0
 40
1.0
 40
1.0
 10
52.96316502771926
 20
85.99288593543822
 30
0.0
 10
52.960857554207
 20
85.99262966586377
 30
0.0
 10
52.95132369172628
 20
85.99157082862564
 30
0.0
 10
53.01375075944792
 20
85.99852245400868
 30
0.0
 10
53.15034948055599
 20
86.0131577166088
 30
0.0
 10
53.36232357934118
 20
86.0344094805885
 30
0.0
 10
53.64113034424328
 20
86.05955876286828
 30
0.0
 10
53.97657954696239
 20
86.08564920305525
 30
0.0
 10
54.36479730836777
 20
86.11009703229297
 30
0.0
 10
54.78800648148058
 20
86.1297237186805
 30
0.0
 10
55.24119972271691
 20
86.14258042422193
 30
0.0
 10
55.70241191063229
 20
86.1469950434887
 30
0.0
 10
56.16702486029778
 20
86.14259445087015
 30
0.0
 10
56.61347359064918
 20
86.13000952860398
 30
0.0
 10
57.03806525424395
 20
86.11045957916875
 30
0.0
 10
57.42210604472013
 20
86.08641443878868
 30
0.0
 10
57.76151017084779
 20
86.06016624181636
 30
0.0
 10
58.0412356224084
 20
86.03498629463951
 30
0.0
 10
58.2554849173369
 20
86.01358369152004
 30
0.0
 10
58.41862931680844
 20
85.99604639676024
 30
0.0
 10
58.44175601302484
 20
85.99343743462
 30
0.0
 10
58.45484099315099
 20
85.99196129564041
 30
0.0
  0
SPLINE
  5
15D
330
1F
100
AcDbEntity
  8
0
  6
Continuous
 62
     7
370
    25
100
AcDbSpline
210
0.0
220
0.0
230
1.0
 70
     8
 71
     3
 72
    28
 73
    24
 74
     0
 42
0.000000001
 43
0.00000001
 40
0.0
 40
0.0
 40
0.0
 40
0.0
 40
0.0014102737535744
 40
0.0518286483798238
 40
0.1038263001338249
 40
0.1546595286777073
 40
0.2069608767348397
 40
0.259800834772488
 40
0.3141250608816392
 40
0.3683802940267156
 40
0.4241917985434539
 40
0.4776593437033637
 40
0.532634933485841
 40
0.5846829403210289
 40
0.6381100116928077
 40
0.6902044871088899
 40
0.7436756075660157
 40
0.7965558639042967
 40
0.8509765256105171
 40
0.9033988354824664
 40
0.9575157385280323
 40
0.9991345443704166
 40
1.0
 40
1.0
 40
1.0
 40
1.0
 10
37.70484099315098
 20
85.99196129564041
 30
0.0
 10
37.70485567656564
 20
85.9919648541892
 30
0.0
 10
37.70539530338127
 20
85.99209563360324
 30
0.0
 10
37.76799801082981
 20
86.0073983943043
 30
0.0
 10
38.03260946787692
 20
86.07045034336885
 30
0.0
 10
38.46530752169955
 20
86.16812719160153
 30
0.0
 10
39.05072623118129
 20
86.2896401909945
 30
0.0
 10
39.78621180549218
 20
86.42456190897168
 30
0.0
 10
40.6499113627133
 20
86.55733835067808
 30
0.0
 10
41.6274854016953
 20
86.67359834615715
 30
0.0
 10
42.67236804020662
 20
86.75706408719635
 30
0.0
 10
43.76416386322762
 20
86.79895328007822
 30
0.0
 10
44.84351496160988
 20
86.79457714694166
 30
0.0
 10
45.90453725455374
 20
86.74602294947817
 30
0.0
 10
46.90282821597399
 20
86.66071325199079
 30
0.0
 10
47.83964360985502
 20
86.54597078871723
 30
0.0
 10
48.67950196449232
 20
86.41494986427115
 30
0.0
 10
49.41278341066262
 20
86.2791143296228
 30
0.0
 10
49.99848651288804
 20
86.15640120139709
 30
0.0
 10
50.43120062629463
 20
86.05778430307834
 30
0.0
 10
50.64579110799404
 20
86.00634050305833
 30
0.0
 10
50.72378123409642
 20
85.98737642781148
 30
0.0
 10
50.7040338214888
 20
85.9921566979438
 30
0.0
 10
50.70363154288447
 20
85.99225407781
 30
0.0
  0
LINE
  5
15E
330
1F
100
AcDbEntity
  8
0
  6
Continuous
 62
     7
370
    25
100
AcDbLine
 10
32.7048409932
 20
110.6919612956
 30
0.0
 11
32.7048409932
 21
134.5919612956
 31
0.0
  0
LINE
  5
15F
330
1F
100
AcDbEntity
  8
0
  6
Continuous
 62
     7
370
    25
100
AcDbLine
 10
32.7048409932
 20
86.7919612956
 30
0.0
 11
32.7048409932
 21
110.6919612956
 31
0.0
  0
LINE
  5
160
330
1F
100
AcDbEntity
  8
0
  6
Continuous
 62
     7
370
    25
100
AcDbLine
 10
48.9048409932
 20
30.6919612956
 30
0.0
 11
39.5048409932
 21
30.6919612956
 31
0.0
  0
LINE
  5
161
330
1F
100
AcDbEntity
  8
0
  6
Continuous
 62
     7
370
    25
100
AcDbLine
 10
74.3167739173
 20
19.6421813364
 30
0.0
 11
74.3167739173
 21
24.6421813364
 31
0.0
  0
LINE
  5
162
330
1F
100
AcDbEntity
  8
0
  6
Continuous
 62
     7
370
    25
100
AcDbLine
 10
81.8167739173
 20
24.6421813364
 30
0.0
 11
74.3167739173
 21
24.6421813364
 31
0.0
  0
LINE
  5
163
330
1F
100
AcDbEntity
  8
0
  6
Continuous
 62
     7
370
    25
100
AcDbLine
 10
74.3167739173
 20
19.6421813364
 30
0.0
 11
81.8167739173
 21
19.6421813364
 31
0.0
  0
LINE
  5
164
330
1F
100
AcDbEntity
  8
0
  6
Continuous
 62
     7
370
    25
100
AcDbLine
 10
81.8167739173
 20
19.6421813364
 30
0.0
 11
81.8167739173
 21
24.6421813364
 31
0.0
  0
ARC
  5
165
330
1F
100
AcDbEntity
  8
0
  6
Continuous
 62
     7
370
    25
100
AcDbCircle
 10
74.3167739173
 20
21.1421813364
 30
0.0
 40
1.5
100
AcDbArc
 50
180.0
 51
270.0
  0
LINE
  5
166
330
1F
100
AcDbEntity
  8
0
  6
Continuous
 62
     7
370
    25
100
AcDbLine
 10
72.8167739173
 20
24.6421813364
 30
0.0
 11
72.8167739173
 21
21.1421813364
 31
0.0
  0
LINE
  5
167
330
1F
100
AcDbEntity
  8
0
  6
Continuous
 62
     7
370
    25
100
AcDbLine
 10
72.8167739173
 20
24.6421813364
 30
0.0
 11
74.3167739173
 21
24.6421813364
 31
0.0
  0
LINE
  5
168
330
1F
100
AcDbEntity
  8
0
  6
Continuous
 62
     7
370
    25
100
AcDbLine
 10
74.3167739173
 20
24.6421813364
 30
0.0
 11
74.3167739173
 21
194.6421813364
 31
0.0
  0
LINE
  5
169
330
1F
100
AcDbEntity
  8
0
  6
Continuous
 62
     7
370
    25
100
AcDbLine
 10
74.3167739173
 20
194.6421813364
 30
0.0
 11
81.8167739173
 21
194.6421813364
 31
0.0
  0
LINE
  5
16A
330
1F
100
AcDbEntity
  8
0
  6
Continuous
 62
     7
370
    25
100
AcDbLine
 10
81.8167739173
 20
24.6421813364
 30
0.0
 11
81.8167739173
 21
194.6421813364
 31
0.0
  0
LINE
  5
16B
330
1F
100
AcDbEntity
  8
0
  6
Continuous
 62
     7
370
    25
100
AcDbLine
 10
72.8167739173
 20
194.6421813364
 30
0.0
 11
72.8167739173
 21
24.6421813364
 31
0.0
  0
LINE
  5
16C
330
1F
100
AcDbEntity
  8
0
  6
Continuous
 62
     7
370
    25
100
AcDbLine
 10
72.8167739173
 20
194.6421813364
 30
0.0
 11
74.3167739173
 21
194.6421813364
 31
0.0
  0
LINE
  5
16D
330
1F
100
AcDbEntity
  8
0
  6
Continuous
 62
     7
370
    25
100
AcDbLine
 10
74.3167739173
 20
194.6421813364
 30
0.0
 11
74.3167739173
 21
199.6421813364
 31
0.0
  0
LINE
  5
16E
330
1F
100
AcDbEntity
  8
0
  6
Continuous
 62
     7
370
    25
100
AcDbLine
 10
81.8167739173
 20
199.6421813364
 30
0.0
 11
74.3167739173
 21
199.6421813364
 31
0.0
  0
LINE
  5
16F
330
1F
100
AcDbEntity
  8
0
  6
Continuous
 62
     7
370
    25
100
AcDbLine
 10
81.8167739173
 20
194.6421813364
 30
0.0
 11
81.8167739173
 21
199.6421813364
 31
0.0
  0
LINE
  5
170
330
1F
100
AcDbEntity
  8
0
  6
Continuous
 62
     7
370
    25
100
AcDbLine
 10
72.8167739173
 20
198.1421813364
 30
0.0
 11
72.8167739173
 21
194.6421813364
 31
0.0
  0
ARC
  5
171
330
1F
100
AcDbEntity
  8
0
  6
Continuous
 62
     7
370
    25
100
AcDbCircle
 10
74.3167739173
 20
198.1421813364
 30
0.0
 40
1.5
100
AcDbArc
 50
90.0
 51
180.0
  0
LINE
  5
172
330
1F
100
AcDbEntity
  8
0
  6
Continuous
 62
     7
370
    25
100
AcDbLine
 10
111.7967739173
 20
125.5191522192
 30
0.0
 11
111.7967739173
 21
134.0991977358
 31
0.0
  0
LINE
  5
173
330
1F
100
AcDbEntity
  8
0
  6
Continuous
 62
     7
370
    25
100
AcDbLine
 10
107.6967739173
 20
125.5191522192
 30
0.0
 11
111.7967739173
 21
125.5191522192
 31
0.0
  0
LINE
  5
174
330
1F
100
AcDbEntity
  8
0
  6
Continuous
 62
     7
370
    25
100
AcDbLine
 10
107.6967739173
 20
134.0991977358
 30
0.0
 11
107.6967739173
 21
125.5191522192
 31
0.0
  0
LINE
  5
175
330
1F
100
AcDbEntity
  8
0
  6
Continuous
 62
     7
370
    25
100
AcDbLine
 10
111.7967739173
 20
134.0991977358
 30
0.0
 11
107.6967739173
 21
134.0991977358
 31
0.0
  0
LINE
  5
176
330
1F
100
AcDbEntity
  8
0
  6
Continuous
 62
     7
370
    25
100
AcDbLine
 10
105.7967739173
 20
126.9207766869
 30
0.0
 11
105.7967739173
 21
132.9928088987
 31
0.0
  0
LWPOLYLINE
  5
177
330
1F
100
AcDbEntity
  8
0
  6
Continuous
 62
     7
370
    25
100
AcDbPolyline
 90
        9
 70
   128
 43
0.0
 10
105.7967739173
 20
132.9928088987
 10
105.8332818845
 20
133.2086546532
 10
105.9414028055
 20
133.4162055764
 10
106.1169816539
 20
133.6074856027
 10
106.353271033
 20
133.775143948
 10
106.6411904745
 20
133.9127375961
 10
106.9696753958
 20
134.0149789003
 10
107.3261023054
 20
134.0779387845
 10
107.6967739173
 20
134.0991977358
  0
ARC
  5
178
330
1F
100
AcDbEntity
  8
0
  6
Continuous
 62
     7
370
    25
100
AcDbCircle
 10
107.4802674895
 20
127.214266293
 30
0.0
 40
1.708884652753691
100
AcDbArc
 50
189.8891976539
 51
277.2786263335
  0
LINE
  5
179
330
1F
100
AcDbEntity
  8
0
  6
Continuous
 62
     7
370
    25
100
AcDbLine
 10
107.6967739173
 20
85.1851649371
 30
0.0
 11
111.7967739173
 21
85.1851649371
 31
0.0
  0
LINE
  5
17A
330
1F
100
AcDbEntity
  8
0
  6
Continuous
 62
     7
370
    25
100
AcDbLine
 10
107.6967739173
 20
93.7652104537
 30
0.0
 11
107.6967739173
 21
85.1851649371
 31
0.0
  0
LINE
  5
17B
330
1F
100
AcDbEntity
  8
0
  6
Continuous
 62
     7
370
    25
100
AcDbLine
 10
111.7967739173
 20
93.7652104537
 30
0.0
 11
107.6967739173
 21
93.7652104537
 31
0.0
  0
LINE
  5
17C
330
1F
100
AcDbEntity
  8
0
  6
Continuous
 62
     7
370
    25
100
AcDbLine
 10
111.7967739173
 20
85.1851649371
 30
0.0
 11
111.7967739173
 21
93.7652104537
 31
0.0
  0
LWPOLYLINE
  5
17D
330
1F
100
AcDbEntity
  8
0
  6
Continuous
 62
     7
370
    25
100
AcDbPolyline
 90
        9
 70
   128
 43
0.0
 10
107.6967739173
 20
85.1851649371
 10
107.3261023054
 20
85.2064238884
 10
106.9696753958
 20
85.2693837726
 10
106.6411904745
 20
85.3716250768
 10
106.353271033
 20
85.5092187248
 10
106.1169816539
 20
85.6768770702
 10
105.9414028055
 20
85.8681570965
 10
105.8332818845
 20
86.0757080197
 10
105.7967739173
 20
86.2915537742
  0
LINE
  5
17E
330
1F
100
AcDbEntity
  8
0
  6
Continuous
 62
     7
370
    25
100
AcDbLine
 10
105.7967739173
 20
86.2915537742
 30
0.0
 11
105.7967739173
 21
92.3635859859
 31
0.0
  0
ARC
  5
17F
330
1F
100
AcDbEntity
  8
0
  6
Continuous
 62
     7
370
    25
100
AcDbCircle
 10
107.4802674895
 20
92.0700963799
 30
0.0
 40
1.708884652753745
100
AcDbArc
 50
82.7213736665
 51
170.1108023461
  0
LINE
  5
180
330
1F
100
AcDbEntity
  8
0
  6
Continuous
 62
     7
370
    25
100
AcDbLine
 10
111.7967739173
 20
134.0991977358
 30
0.0
 11
111.7967739173
 21
151.6421813364
 31
0.0
  0
LINE
  5
181
330
1F
100
AcDbEntity
  8
0
  6
Continuous
 62
     7
370
    25
100
AcDbLine
 10
105.7967739173
 20
132.9928088987
 30
0.0
 11
105.7967739173
 21
149.7421813364
 31
0.0
  0
LINE
  5
182
330
1F
100
AcDbEntity
  8
0
  6
Continuous
 62
     7
370
    25
100
AcDbLine
 10
111.7967739173
 20
67.6421813364
 30
0.0
 11
111.7967739173
 21
85.1851649371
 31
0.0
  0
LINE
  5
183
330
1F
100
AcDbEntity
  8
0
  6
Continuous
 62
     7
370
    25
100
AcDbLine
 10
105.7967739173
 20
69.547526164
 30
0.0
 11
105.7967739173
 21
86.2915537742
 31
0.0
  0
LINE
  5
184
330
1F
100
AcDbEntity
  8
0
  6
Continuous
 62
     7
370
    25
100
AcDbLine
 10
111.7967739173
 20
118.1421813364
 30
0.0
 11
107.6967739173
 21
118.1421813364
 31
0.0
  0
LINE
  5
185
330
1F
100
AcDbEntity
  8
0
  6
Continuous
 62
     7
370
    25
100
AcDbLine
 10
107.6967739173
 20
125.5191522192
 30
0.0
 11
107.6967739173
 21
118.1421813364
 31
0.0
  0
LINE
  5
186
330
1F
100
AcDbEntity
  8
0
  6
Continuous
 62
     7
370
    25
100
AcDbLine
 10
111.7967739173
 20
118.1421813364
 30
0.0
 11
111.7967739173
 21
125.5191522192
 31
0.0
  0
LINE
  5
187
330
1F
100
AcDbEntity
  8
0
  6
Continuous
 62
     7
370
    25
100
AcDbLine
 10
107.6967739173
 20
118.1421813364
 30
0.0
 11
105.7967739173
 21
118.1421813364
 31
0.0
  0
LINE
  5
188
330
1F
100
AcDbEntity
  8
0
  6
Continuous
 62
     7
370
    25
100
AcDbLine
 10
105.7967739173
 20
118.1421813364
 30
0.0
 11
105.7967739173
 21
126.9207766869
 31
0.0
  0
LINE
  5
189
330
1F
100
AcDbEntity
  8
0
  6
Continuous
 62
     7
370
    25
100
AcDbLine
 10
107.6967739173
 20
101.1421813364
 30
0.0
 11
107.6967739173
 21
93.7652104537
 31
0.0
  0
LINE
  5
18A
330
1F
100
AcDbEntity
  8
0
  6
Continuous
 62
     7
370
    25
100
AcDbLine
 10
111.7967739173
 20
101.1421813364
 30
0.0
 11
107.6967739173
 21
101.1421813364
 31
0.0
  0
LINE
  5
18B
330
1F
100
AcDbEntity
  8
0
  6
Continuous
 62
     7
370
    25
100
AcDbLine
 10
111.7967739173
 20
93.7652104537
 30
0.0
 11
111.7967739173
 21
101.1421813364
 31
0.0
  0
LINE
  5
18C
330
1F
100
AcDbEntity
  8
0
  6
Continuous
 62
     7
370
    25
100
AcDbLine
 10
107.6967739173
 20
101.1421813364
 30
0.0
 11
105.7967739173
 21
101.1421813364
 31
0.0
  0
LINE
  5
18D
330
1F
100
AcDbEntity
  8
0
  6
Continuous
 62
     7
370
    25
100
AcDbLine
 10
105.7967739173
 20
92.3635859859
 30
0.0
 11
105.7967739173
 21
101.1421813364
 31
0.0
  0
LINE
  5
18E
330
1F
100
AcDbEntity
  8
0
  6
Continuous
 62
     7
370
    25
100
AcDbLine
 10
107.6967739173
 20
118.1421813364
 30
0.0
 11
107.6967739173
 21
101.1421813364
 31
0.0
  0
LINE
  5
18F
330
1F
100
AcDbEntity
  8
0
  6
Continuous
 62
     7
370
    25
100
AcDbLine
 10
111.7967739173
 20
101.1421813364
 30
0.0
 11
111.7967739173
 21
118.1421813364
 31
0.0
  0
LINE
  5
190
330
1F
100
AcDbEntity
  8
0
  6
Continuous
 62
     7
370
    25
100
AcDbLine
 10
105.7967739173
 20
101.1421813364
 30
0.0
 11
105.7967739173
 21
118.1421813364
 31
0.0
  0
LINE
  5
191
330
1F
100
AcDbEntity
  8
0
  6
Continuous
 62
     7
370
    25
100
AcDbLine
 10
65.7967739173
 20
86.8421813364
 30
0.0
 11
65.7967739173
 21
132.4421813364
 31
0.0
  0
ARC
  5
192
330
1F
100
AcDbEntity
  8
0
  6
Continuous
 62
     7
370
    25
100
AcDbCircle
 10
104.803819062
 20
69.5403796026
 30
0.0
 40
0.992980572795675
100
AcDbArc
 50
0.4123659166
 51
90.4065139406
  0
LINE
  5
193
330
1F
100
AcDbEntity
  8
0
  6
Continuous
 62
     7
370
    25
100
AcDbLine
 10
102.7967739173
 20
70.4921813364
 30
0.0
 11
102.7967739173
 21
76.2921813364
 31
0.0
  0
LINE
  5
194
330
1F
100
AcDbEntity
  8
0
  6
Continuous
 62
     7
370
    25
100
AcDbLine
 10
81.8167739173
 20
25.1421813364
 30
0.0
 11
84.3167739173
 21
25.1421813364
 31
0.0
  0
LINE
  5
195
330
1F
100
AcDbEntity
  8
0
  6
Continuous
 62
     7
370
    25
100
AcDbLine
 10
84.3167739173
 20
193.6421813364
 30
0.0
 11
81.8167739173
 21
193.6421813364
 31
0.0
  0
LINE
  5
196
330
1F
100
AcDbEntity
  8
0
  6
Continuous
 62
     7
370
    25
100
AcDbLine
 10
103.8853364199
 20
84.9421813364
 30
0.0
 11
103.8853364199
 21
78.4118733927
 31
0.0
  0
LINE
  5
197
330
1F
100
AcDbEntity
  8
0
  6
Continuous
 62
     7
370
    25
100
AcDbLine
 10
103.8853364199
 20
125.2525942174
 30
0.0
 11
103.8853364199
 21
124.8593682221
 31
0.0
  0
LINE
  5
198
330
1F
100
AcDbEntity
  8
0
  6
Continuous
 62
     7
370
    25
100
AcDbLine
 10
103.8853364199
 20
132.6825427554
 30
0.0
 11
103.8853364199
 21
125.2525942174
 31
0.0
  0
LINE
  5
199
330
1F
100
AcDbEntity
  8
0
  6
Continuous
 62
     7
370
    25
100
AcDbLine
 10
64.2048409932
 20
110.6919612956
 30
0.0
 11
64.2048409932
 21
135.3919612956
 31
0.0
  0
LINE
  5
19A
330
1F
100
AcDbEntity
  8
0
  6
Continuous
 62
     7
370
    25
100
AcDbLine
 10
64.2048409932
 20
85.9919612956
 30
0.0
 11
64.2048409932
 21
110.6919612956
 31
0.0
  0
LINE
  5
19B
330
1F
100
AcDbEntity
  8
0
  6
Continuous
 62
     7
370
    25
100
AcDbLine
 10
33.5048409932
 20
110.6919612956
 30
0.0
 11
33.5048409932
 21
85.9919612956
 31
0.0
  0
LINE
  5
19C
330
1F
100
AcDbEntity
  8
0
  6
Continuous
 62
     7
370
    25
100
AcDbLine
 10
33.5048409932
 20
135.3919612956
 30
0.0
 11
33.5048409932
 21
110.6919612956
 31
0.0
  0
LWPOLYLINE
  5
19D
330
1F
100
AcDbEntity
  8
0
  6
Continuous
 62
     7
370
    25
100
AcDbPolyline
 90
       22
 70
   128
 43
0.0
 10
49.7048363869
 20
84.9919626667
 10
49.7048409931
 20
84.9919612956
 10
49.6535996181
 20
85.007210695
 10
49.4517062281
 20
85.0659895914
 10
49.0904029338
 20
85.1659491351
 10
48.6035480585
 20
85.2899119493
 10
47.9769181884
 20
85.431063522
 10
47.2830306206
 20
85.5628142988
 10
46.4847488365
 20
85.6819635292
 10
45.6547483397
 20
85.7685551417
 10
44.7592281615
 20
85.8188982119
 10
43.8517550738
 20
85.8240276179
 10
42.9270183386
 20
85.7817110913
 10
42.0489480735
 20
85.6973286894
 10
41.2108424291
 20
85.5770253966
 10
40.4930324069
 20
85.4435358667
 10
39.8608642409
 20
85.3030698857
 10
39.3762394962
 20
85.1810915789
 10
39.0075244814
 20
85.0800960317
 10
38.7835079297
 20
85.015317566
 10
38.7048409932
 20
84.9919612956
 10
38.7048409932
 20
84.9919612956
  0
LINE
  5
19E
330
1F
100
AcDbEntity
  8
0
  6
Continuous
 62
     7
370
    25
100
AcDbLine
 10
38.7048409932
 20
31.4919612956
 30
0.0
 11
49.7048409932
 21
31.4919612956
 31
0.0
  0
LINE
  5
19F
330
1F
100
AcDbEntity
  8
0
  6
Continuous
 62
     7
370
    25
100
AcDbLine
 10
107.6967739173
 20
151.6421813364
 30
0.0
 11
107.6967739173
 21
134.0991977358
 31
0.0
  0
LINE
  5
1A0
330
1F
100
AcDbEntity
  8
0
  6
Continuous
 62
     7
370
    25
100
AcDbLine
 10
107.6967739173
 20
85.1851649371
 30
0.0
 11
107.6967739173
 21
67.6421813364
 31
0.0
  0
LINE
  5
1A1
330
1F
100
AcDbEntity
  8
0
  6
Continuous
 62
     7
370
    25
100
AcDbLine
 10
104.7967739173
 20
84.9421813364
 30
0.0
 11
104.7967739173
 21
125.6516687509
 31
0.0
  0
LINE
  5
1A2
330
1F
100
AcDbEntity
  8
0
  6
Continuous
 62
     7
370
    25
100
AcDbLine
 10
104.7967739173
 20
131.8902422266
 30
0.0
 11
104.7967739173
 21
134.3421813364
 31
0.0
  0
LINE
  5
1A3
330
1F
100
AcDbEntity
  8
0
  6
Continuous
 62
     7
370
    25
100
AcDbLine
 10
67.6967739173
 20
134.3421813364
 30
0.0
 11
67.6967739173
 21
84.9421813364
 31
0.0
  0
LINE
  5
1A4
330
1F
100
AcDbEntity
  8
0
  6
Continuous
 62
     7
370
    25
100
AcDbLine
 10
64.7967739173
 20
92.1421813364
 30
0.0
 11
64.7967739173
 21
127.1421813364
 31
0.0
  0
LINE
  5
1A5
330
1F
100
AcDbEntity
  8
0
  6
Continuous
 62
     7
370
    25
100
AcDbLine
 10
104.7967739173
 20
70.5333351826
 30
0.0
 11
104.7967739173
 21
76.2921813364
 31
0.0
  0
ENDSEC
  0
SECTION
  2
OBJECTS
  0
DICTIONARY
  5
C
330
0
100
AcDbDictionary
281
     1
  3
ACAD_GROUP
350
D
  3
ACAD_LAYOUT
350
1A
  3
ACAD_MLINESTYLE
350
17
  3
ACAD_PLOTSETTINGS
350
19
  3
ACAD_PLOTSTYLENAME
350
E
  3
ACAD_SCALELIST
350
47
  0
DICTIONARY
  5
D
102
{ACAD_REACTORS
330
C
102
}
330
C
100
AcDbDictionary
281
     1
  0
DICTIONARY
  5
1A
102
{ACAD_REACTORS
330
C
102
}
330
C
100
AcDbDictionary
281
     1
  3
Layout1
350
1E
  3
Layout2
350
26
  3
Model
350
22
  0
DICTIONARY
  5
17
102
{ACAD_REACTORS
330
C
102
}
330
C
100
AcDbDictionary
281
     1
  3
Standard
350
18
  0
DICTIONARY
  5
19
102
{ACAD_REACTORS
330
C
102
}
330
C
100
AcDbDictionary
281
     1
  0
ACDBDICTIONARYWDFLT
  5
E
102
{ACAD_REACTORS
330
C
102
}
330
C
100
AcDbDictionary
281
     1
  3
Normal
350
F
100
AcDbDictionaryWithDefault
340
F
  0
DICTIONARY
  5
47
102
{ACAD_REACTORS
330
C
102
}
330
C
100
AcDbDictionary
281
     1
  3
A0
350
48
  3
A1
350
49
  3
A2
350
4A
  3
A3
350
4B
  3
A4
350
4C
  3
A5
350
4D
  3
A6
350
4E
  3
A7
350
4F
  3
A8
350
50
  3
A9
350
51
  3
B0
350
52
  3
B1
350
53
  3
B2
350
54
  3
B3
350
55
  3
B4
350
56
  3
B5
350
57
  3
B6
350
58
  3
B7
350
59
  3
B8
350
5A
  3
B9
350
5B
  3
C0
350
5C
  3
C1
350
5D
  3
C2
350
5E
  3
C3
350
5F
  3
C4
350
60
  3
C5
350
61
  3
C6
350
62
  3
C7
350
63
  3
C8
350
64
  3
C9
350
65
  3
D0
350
66
  3
D1
350
67
  3
D2
350
68
  0
LAYOUT
  5
1E
102
{ACAD_REACTORS
330
1A
102
}
330
1A
100
AcDbPlotSettings
  1

  2
none_device
  4

  6

 40
0.0
 41
0.0
 42
0.0
 43
0.0
 44
0.0
 45
0.0
 46
0.0
 47
0.0
 48
0.0
 49
0.0
140
0.0
141
0.0
142
1.0
143
1.0
 70
   688
 72
     1
 73
     0
 74
     5
  7

 75
    16
147
1.0
148
0.0
149
0.0
100
AcDbLayout
  1
Layout1
 70
     1
 71
     1
 10
0.0
 20
0.0
 11
420.0
 21
297.0
 12
0.0
 22
0.0
 32
0.0
 14
1.0000000000E+20
 24
1.0000000000E+20
 34
1.0000000000E+20
 15
-1.0000000000E+20
 25
-1.0000000000E+20
 35
-1.0000000000E+20
146
0.0
 13
0.0
 23
0.0
 33
0.0
 16
1.0
 26
0.0
 36
0.0
 17
0.0
 27
1.0
 37
0.0
 76
     0
330
1B
  0
LAYOUT
  5
26
102
{ACAD_REACTORS
330
1A
102
}
330
1A
100
AcDbPlotSettings
  1

  2
none_device
  4

  6

 40
0.0
 41
0.0
 42
0.0
 43
0.0
 44
0.0
 45
0.0
 46
0.0
 47
0.0
 48
0.0
 49
0.0
140
0.0
141
0.0
142
1.0
143
1.0
 70
   688
 72
     1
 73
     0
 74
     5
  7

 75
    16
147
1.0
148
0.0
149
0.0
100
AcDbLayout
  1
Layout2
 70
     1
 71
     2
 10
0.0
 20
0.0
 11
0.0
 21
0.0
 12
0.0
 22
0.0
 32
0.0
 14
0.0
 24
0.0
 34
0.0
 15
0.0
 25
0.0
 35
0.0
146
0.0
 13
0.0
 23
0.0
 33
0.0
 16
1.0
 26
0.0
 36
0.0
 17
0.0
 27
1.0
 37
0.0
 76
     0
330
23
  0
LAYOUT
  5
22
102
{ACAD_REACTORS
330
1A
102
}
330
1A
100
AcDbPlotSettings
  1

  2
none_device
  4
Letter_(8.50_x_11.00_Inches)
  6

 40
6.35
 41
6.35
 42
6.35000508
 43
6.35000508
 44
215.9
 45
279.4
 46
0.0
 47
0.0
 48
0.0
 49
0.0
140
0.0
141
0.0
142
1.0
143
1.0
 70
  1712
 72
     1
 73
     0
 74
     0
  7

 75
     0
147
1.0
148
0.0
149
0.0
100
AcDbLayout
  1
Model
 70
     1
 71
     0
 10
0.0
 20
0.0
 11
482.402
 21
468.339
 12
0.0
 22
0.0
 32
0.0
 14
0.0
 24
0.0
 34
0.0
 15
482.402
 25
468.339
 35
0.0
146
0.0
 13
0.0
 23
0.0
 33
0.0
 16
1.0
 26
0.0
 36
0.0
 17
0.0
 27
1.0
 37
0.0
 76
     0
330
1F
331
29
  0
MLINESTYLE
  5
18
102
{ACAD_REACTORS
330
17
102
}
330
17
100
AcDbMlineStyle
  2
Standard
 70
     0
  3

 62
   256
 51
90.0
 52
90.0
 71
     2
 49
0.5
 62
   256
  6
BYLAYER
 49
-0.5
 62
   256
  6
BYLAYER
  0
ACDBPLACEHOLDER
  5
F
102
{ACAD_REACTORS
330
E
102
}
330
E
  0
SCALE
  5
48
102
{ACAD_REACTORS
330
47
102
}
330
47
100
AcDbScale
 70
     0
300
1:1
140
1.0
141
1.0
290
     1
  0
SCALE
  5
49
102
{ACAD_REACTORS
330
47
102
}
330
47
100
AcDbScale
 70
     0
300
1:2
140
1.0
141
2.0
290
     0
  0
SCALE
  5
4A
102
{ACAD_REACTORS
330
47
102
}
330
47
100
AcDbScale
 70
     0
300
1:4
140
1.0
141
4.0
290
     0
  0
SCALE
  5
4B
102
{ACAD_REACTORS
330
47
102
}
330
47
100
AcDbScale
 70
     0
300
1:5
140
1.0
141
5.0
290
     0
  0
SCALE
  5
4C
102
{ACAD_REACTORS
330
47
102
}
330
47
100
AcDbScale
 70
     0
300
1:8
140
1.0
141
8.0
290
     0
  0
SCALE
  5
4D
102
{ACAD_REACTORS
330
47
102
}
330
47
100
AcDbScale
 70
     0
300
1:10
140
1.0
141
10.0
290
     0
  0
SCALE
  5
4E
102
{ACAD_REACTORS
330
47
102
}
330
47
100
AcDbScale
 70
     0
300
1:16
140
1.0
141
16.0
290
     0
  0
SCALE
  5
4F
102
{ACAD_REACTORS
330
47
102
}
330
47
100
AcDbScale
 70
     0
300
1:20
140
1.0
141
20.0
290
     0
  0
SCALE
  5
50
102
{ACAD_REACTORS
330
47
102
}
330
47
100
AcDbScale
 70
     0
300
1:30
140
1.0
141
30.0
290
     0
  0
SCALE
  5
51
102
{ACAD_REACTORS
330
47
102
}
330
47
100
AcDbScale
 70
     0
300
1:40
140
1.0
141
40.0
290
     0
  0
SCALE
  5
52
102
{ACAD_REACTORS
330
47
102
}
330
47
100
AcDbScale
 70
     0
300
1:50
140
1.0
141
50.0
290
     0
  0
SCALE
  5
53
102
{ACAD_REACTORS
330
47
102
}
330
47
100
AcDbScale
 70
     0
300
1:100
140
1.0
141
100.0
290
     0
  0
SCALE
  5
54
102
{ACAD_REACTORS
330
47
102
}
330
47
100
AcDbScale
 70
     0
300
2:1
140
2.0
141
1.0
290
     0
  0
SCALE
  5
55
102
{ACAD_REACTORS
330
47
102
}
330
47
100
AcDbScale
 70
     0
300
4:1
140
4.0
141
1.0
290
     0
  0
SCALE
  5
56
102
{ACAD_REACTORS
330
47
102
}
330
47
100
AcDbScale
 70
     0
300
8:1
140
8.0
141
1.0
290
     0
  0
SCALE
  5
57
102
{ACAD_REACTORS
330
47
102
}
330
47
100
AcDbScale
 70
     0
300
10:1
140
10.0
141
1.0
290
     0
  0
SCALE
  5
58
102
{ACAD_REACTORS
330
47
102
}
330
47
100
AcDbScale
 70
     0
300
100:1
140
100.0
141
1.0
290
     0
  0
SCALE
  5
59
102
{ACAD_REACTORS
330
47
102
}
330
47
100
AcDbScale
 70
     0
300
1/128" = 1'-0"
140
0.0078125
141
12.0
290
     0
  0
SCALE
  5
5A
102
{ACAD_REACTORS
330
47
102
}
330
47
100
AcDbScale
 70
     0
300
1/64" = 1'-0"
140
0.015625
141
12.0
290
     0
  0
SCALE
  5
5B
102
{ACAD_REACTORS
330
47
102
}
330
47
100
AcDbScale
 70
     0
300
1/32" = 1'-0"
140
0.03125
141
12.0
290
     0
  0
SCALE
  5
5C
102
{ACAD_REACTORS
330
47
102
}
330
47
100
AcDbScale
 70
     0
300
1/16" = 1'-0"
140
0.0625
141
12.0
290
     0
  0
SCALE
  5
5D
102
{ACAD_REACTORS
330
47
102
}
330
47
100
AcDbScale
 70
     0
300
3/32" = 1'-0"
140
0.09375
141
12.0
290
     0
  0
SCALE
  5
5E
102
{ACAD_REACTORS
330
47
102
}
330
47
100
AcDbScale
 70
     0
300
1/8" = 1'-0"
140
0.125
141
12.0
290
     0
  0
SCALE
  5
5F
102
{ACAD_REACTORS
330
47
102
}
330
47
100
AcDbScale
 70
     0
300
3/16" = 1'-0"
140
0.1875
141
12.0
290
     0
  0
SCALE
  5
60
102
{ACAD_REACTORS
330
47
102
}
330
47
100
AcDbScale
 70
     0
300
1/4" = 1'-0"
140
0.25
141
12.0
290
     0
  0
SCALE
  5
61
102
{ACAD_REACTORS
330
47
102
}
330
47
100
AcDbScale
 70
     0
300
3/8" = 1'-0"
140
0.375
141
12.0
290
     0
  0
SCALE
  5
62
102
{ACAD_REACTORS
330
47
102
}
330
47
100
AcDbScale
 70
     0
300
1/2" = 1'-0"
140
0.5
141
12.0
290
     0
  0
SCALE
  5
63
102
{ACAD_REACTORS
330
47
102
}
330
47
100
AcDbScale
 70
     0
300
3/4" = 1'-0"
140
0.75
141
12.0
290
     0
  0
SCALE
  5
64
102
{ACAD_REACTORS
330
47
102
}
330
47
100
AcDbScale
 70
     0
300
1" = 1'-0"
140
1.0
141
12.0
290
     0
  0
SCALE
  5
65
102
{ACAD_REACTORS
330
47
102
}
330
47
100
AcDbScale
 70
     0
300
1-1/2" = 1'-0"
140
1.5
141
12.0
290
     0
  0
SCALE
  5
66
102
{ACAD_REACTORS
330
47
102
}
330
47
100
AcDbScale
 70
     0
300
3" = 1'-0"
140
3.0
141
12.0
290
     0
  0
SCALE
  5
67
102
{ACAD_REACTORS
330
47
102
}
330
47
100
AcDbScale
 70
     0
300
6" = 1'-0"
140
6.0
141
12.0
290
     0
  0
SCALE
  5
68
102
{ACAD_REACTORS
330
47
102
}
330
47
100
AcDbScale
 70
     0
300
1'-0" = 1'-0"
140
12.0
141
12.0
290
     0
  0
ENDSEC
  0
EOF
