  0
SECTION
  2
HEADER
  9
$ACADVER
  1
AC1015
  9
$ACADMAINTVER
 70
     6
  9
$DWGCODEPAGE
  3
ANSI_1252
  9
$INSBASE
 10
0.0
 20
0.0
 30
0.0
  9
$EXTMIN
 10
0.0
 20
0.0
 30
0.0
  9
$EXTMAX
 10
18.9922047244
 20
18.4385433071
 30
0.0
  9
$LIMMIN
 10
0.0
 20
0.0
  9
$LIMMAX
 10
18.9922047244
 20
18.4385433071
  9
$ORTHOMODE
 70
     0
  9
$REGENMODE
 70
     1
  9
$FILLMODE
 70
     1
  9
$QTEXTMODE
 70
     0
  9
$MIRRTEXT
 70
     1
  9
$LTSCALE
 40
1.0
  9
$ATTMODE
 70
     1
  9
$TEXTSIZE
 40
0.1377952756
  9
$TRACEWID
 40
0.05
  9
$TEXTSTYLE
  7
Standard
  9
$CLAYER
  8
0
  9
$CELTYPE
  6
ByLayer
  9
$CECOLOR
 62
   256
  9
$CELTSCALE
 40
1.0
  9
$DISPSILH
 70
     0
  9
$DIMSCALE
 40
1.0
  9
$DIMASZ
 40
0.13
  9
$DIMEXO
 40
0.0393700787
  9
$DIMDLI
 40
0.38
  9
$DIMRND
 40
0.0
  9
$DIMDLE
 40
0.0
  9
$DIMEXE
 40
0.0393700787
  9
$DIMTP
 40
0.0
  9
$DIMTM
 40
0.0
  9
$DIMTXT
 40
0.1377952756
  9
$DIMCEN
 40
0.09
  9
$DIMTSZ
 40
0.0
  9
$DIMTOL
 70
     0
  9
$DIMLIM
 70
     0
  9
$DIMTIH
 70
     1
  9
$DIMTOH
 70
     1
  9
$DIMSE1
 70
     0
  9
$DIMSE2
 70
     0
  9
$DIMTAD
 70
     1
  9
$DIMZIN
 70
     0
  9
$DIMBLK
  1

  9
$DIMASO
 70
     1
  9
$DIMSHO
 70
     1
  9
$DIMPOST
  1

  9
$DIMAPOST
  1

  9
$DIMALT
 70
     0
  9
$DIMALTD
 70
     2
  9
$DIMALTF
 40
25.4
  9
$DIMLFAC
 40
2.0
  9
$DIMTOFL
 70
     0
  9
$DIMTVP
 40
0.0
  9
$DIMTIX
 70
     0
  9
$DIMSOXD
 70
     0
  9
$DIMSAH
 70
     0
  9
$DIMBLK1
  1

  9
$DIMBLK2
  1

  9
$DIMSTYLE
  2
Standard
  9
$DIMCLRD
 70
     0
  9
$DIMCLRE
 70
     0
  9
$DIMCLRT
 70
     0
  9
$DIMTFAC
 40
1.0
  9
$DIMGAP
 40
0.06
  9
$DIMJUST
 70
     0
  9
$DIMSD1
 70
     0
  9
$DIMSD2
 70
     0
  9
$DIMTOLJ
 70
     1
  9
$DIMTZIN
 70
     0
  9
$DIMALTZ
 70
     0
  9
$DIMALTTZ
 70
     0
  9
$DIMUPT
 70
     0
  9
$DIMDEC
 70
     2
  9
$DIMTDEC
 70
     2
  9
$DIMALTU
 70
     2
  9
$DIMALTTD
 70
     2
  9
$DIMTXSTY
  7
Standard
  9
$DIMAUNIT
 70
     0
  9
$DIMADEC
 70
     2
  9
$DIMALTRND
 40
0.0
  9
$DIMAZIN
 70
     0
  9
$DIMDSEP
 70
    46
  9
$DIMATFIT
 70
     3
  9
$DIMFRAC
 70
     0
  9
$DIMLDRBLK
  1

  9
$DIMLUNIT
 70
     2
  9
$DIMLWD
 70
    -2
  9
$DIMLWE
 70
    -2
  9
$DIMTMOVE
 70
     0
  9
$LUNITS
 70
     2
  9
$LUPREC
 70
     2
  9
$SKETCHINC
 40
0.1
  9
$FILLETRAD
 40
0.5
  9
$AUNITS
 70
     0
  9
$AUPREC
 70
     2
  9
$MENU
  1
.
  9
$ELEVATION
 40
0.0
  9
$PELEVATION
 40
0.0
  9
$THICKNESS
 40
0.0
  9
$LIMCHECK
 70
     0
  9
$CHAMFERA
 40
0.0
  9
$CHAMFERB
 40
0.0
  9
$CHAMFERC
 40
0.0
  9
$CHAMFERD
 40
0.0
  9
$SKPOLY
 70
     0
  9
$TDCREATE
 40
2459125.757020139
  9
$TDUCREATE
 40
2459125.923686806
  9
$TDUPDATE
 40
2459125.757021099
  9
$TDUUPDATE
 40
2459125.923687766
  9
$TDINDWG
 40
0.0000000116
  9
$TDUSRTIMER
 40
0.0000000116
  9
$USRTIMER
 70
     1
  9
$ANGBASE
 50
0.0
  9
$ANGDIR
 70
     0
  9
$PDMODE
 70
     0
  9
$PDSIZE
 40
-1.0
  9
$PLINEWID
 40
0.0
  9
$SPLFRAME
 70
     0
  9
$SPLINETYPE
 70
     6
  9
$SPLINESEGS
 70
     8
  9
$HANDSEED
  5
1CE
  9
$SURFTAB1
 70
     6
  9
$SURFTAB2
 70
     6
  9
$SURFTYPE
 70
     6
  9
$SURFU
 70
     6
  9
$SURFV
 70
     6
  9
$UCSBASE
  2

  9
$UCSNAME
  2

  9
$UCSORG
 10
0.0
 20
0.0
 30
0.0
  9
$UCSXDIR
 10
1.0
 20
0.0
 30
0.0
  9
$UCSYDIR
 10
0.0
 20
1.0
 30
0.0
  9
$UCSORTHOREF
  2

  9
$UCSORTHOVIEW
 70
     0
  9
$UCSORGTOP
 10
0.0
 20
0.0
 30
0.0
  9
$UCSORGBOTTOM
 10
0.0
 20
0.0
 30
0.0
  9
$UCSORGLEFT
 10
0.0
 20
0.0
 30
0.0
  9
$UCSORGRIGHT
 10
0.0
 20
0.0
 30
0.0
  9
$UCSORGFRONT
 10
0.0
 20
0.0
 30
0.0
  9
$UCSORGBACK
 10
0.0
 20
0.0
 30
0.0
  9
$PUCSBASE
  2

  9
$PUCSNAME
  2

  9
$PUCSORG
 10
0.0
 20
0.0
 30
0.0
  9
$PUCSXDIR
 10
1.0
 20
0.0
 30
0.0
  9
$PUCSYDIR
 10
0.0
 20
1.0
 30
0.0
  9
$PUCSORTHOREF
  2

  9
$PUCSORTHOVIEW
 70
     0
  9
$PUCSORGTOP
 10
0.0
 20
0.0
 30
0.0
  9
$PUCSORGBOTTOM
 10
0.0
 20
0.0
 30
0.0
  9
$PUCSORGLEFT
 10
0.0
 20
0.0
 30
0.0
  9
$PUCSORGRIGHT
 10
0.0
 20
0.0
 30
0.0
  9
$PUCSORGFRONT
 10
0.0
 20
0.0
 30
0.0
  9
$PUCSORGBACK
 10
0.0
 20
0.0
 30
0.0
  9
$USERI1
 70
     0
  9
$USERI2
 70
     0
  9
$USERI3
 70
     0
  9
$USERI4
 70
     0
  9
$USERI5
 70
     0
  9
$USERR1
 40
0.0
  9
$USERR2
 40
0.0
  9
$USERR3
 40
0.0
  9
$USERR4
 40
0.0
  9
$USERR5
 40
0.0
  9
$WORLDVIEW
 70
     1
  9
$SHADEDGE
 70
     3
  9
$SHADEDIF
 70
    70
  9
$TILEMODE
 70
     1
  9
$MAXACTVP
 70
    64
  9
$PINSBASE
 10
0.0
 20
0.0
 30
0.0
  9
$PLIMCHECK
 70
     0
  9
$PEXTMIN
 10
1.0000000000E+20
 20
1.0000000000E+20
 30
1.0000000000E+20
  9
$PEXTMAX
 10
-1.0000000000E+20
 20
-1.0000000000E+20
 30
-1.0000000000E+20
  9
$PLIMMIN
 10
0.0
 20
0.0
  9
$PLIMMAX
 10
12.0
 20
9.0
  9
$UNITMODE
 70
     0
  9
$VISRETAIN
 70
     1
  9
$PLINEGEN
 70
     0
  9
$PSLTSCALE
 70
     1
  9
$TREEDEPTH
 70
  3020
  9
$CMLSTYLE
  2
Standard
  9
$CMLJUST
 70
     0
  9
$CMLSCALE
 40
1.0
  9
$PROXYGRAPHICS
 70
     1
  9
$MEASUREMENT
 70
     0
  9
$CELWEIGHT
370
    -1
  9
$ENDCAPS
280
     0
  9
$JOINSTYLE
280
     0
  9
$LWDISPLAY
290
     1
  9
$INSUNITS
 70
     1
  9
$HYPERLINKBASE
  1

  9
$STYLESHEET
  1

  9
$XEDIT
290
     1
  9
$CEPSNTYPE
380
     0
  9
$PSTYLEMODE
290
     1
  9
$FINGERPRINTGUID
  2
{0D100D77-2E3D-47AE-A3C5-FAD10F31605B}
  9
$VERSIONGUID
  2
{FAEB1C32-E019-11D5-929B-00C0DF256EC4}
  9
$EXTNAMES
290
     1
  9
$PSVPSCALE
 40
0.0
  9
$OLESTARTUP
290
     0
  0
ENDSEC
  0
SECTION
  2
CLASSES
  0
CLASS
  1
ACDBDICTIONARYWDFLT
  2
AcDbDictionaryWithDefault
  3
ObjectDBX Classes
 90
        0
280
     0
281
     0
  0
CLASS
  1
VISUALSTYLE
  2
AcDbVisualStyle
  3
ObjectDBX Classes
 90
     4095
280
     0
281
     0
  0
CLASS
  1
MATERIAL
  2
AcDbMaterial
  3
ObjectDBX Classes
 90
     1153
280
     0
281
     0
  0
CLASS
  1
SCALE
  2
AcDbScale
  3
ObjectDBX Classes
 90
     1153
280
     0
281
     0
  0
CLASS
  1
TABLESTYLE
  2
AcDbTableStyle
  3
ObjectDBX Classes
 90
     4095
280
     0
281
     0
  0
CLASS
  1
MLEADERSTYLE
  2
AcDbMLeaderStyle
  3
ACDB_MLEADERSTYLE_CLASS
 90
     4095
280
     0
281
     0
  0
CLASS
  1
SUN
  2
AcDbSun
  3
SCENEOE
 90
     1153
280
     0
281
     0
  0
CLASS
  1
ACDBPLACEHOLDER
  2
AcDbPlaceHolder
  3
ObjectDBX Classes
 90
        0
280
     0
281
     0
  0
CLASS
  1
LAYOUT
  2
AcDbLayout
  3
ObjectDBX Classes
 90
        0
280
     0
281
     0
  0
ENDSEC
  0
SECTION
  2
TABLES
  0
TABLE
  2
VPORT
  5
8
330
0
100
AcDbSymbolTable
 70
     1
  0
VPORT
  5
29
330
8
100
AcDbSymbolTableRecord
100
AcDbViewportTableRecord
  2
*Active
 70
     0
 10
0.0
 20
0.0
 11
1.0
 21
1.0
 12
9.4961023622
 22
9.2192716535
 13
0.0
 23
0.0
 14
0.5
 24
0.5
 15
0.5
 25
0.5
 16
0.0
 26
0.0
 36
1.0
 17
0.0
 27
0.0
 37
0.0
 40
18.4385433071
 41
1.0300273947
 42
50.0
 43
0.0
 44
0.0
 50
0.0
 51
0.0
 71
     0
 72
  2000
 73
     1
 74
     3
 75
     0
 76
     0
 77
     0
 78
     0
281
     0
 65
     1
110
0.0
120
0.0
130
0.0
111
1.0
121
0.0
131
0.0
112
0.0
122
1.0
132
0.0
 79
     0
146
0.0
  0
ENDTAB
  0
TABLE
  2
LTYPE
  5
5
330
0
100
AcDbSymbolTable
 70
     6
  0
LTYPE
  5
14
330
5
100
AcDbSymbolTableRecord
100
AcDbLinetypeTableRecord
  2
ByBlock
 70
     0
  3

 72
    65
 73
     0
 40
0.0
  0
LTYPE
  5
15
330
5
100
AcDbSymbolTableRecord
100
AcDbLinetypeTableRecord
  2
ByLayer
 70
     0
  3

 72
    65
 73
     0
 40
0.0
  0
LTYPE
  5
16
330
5
100
AcDbSymbolTableRecord
100
AcDbLinetypeTableRecord
  2
Continuous
 70
     0
  3
Solid line
 72
    65
 73
     0
 40
0.0
  0
LTYPE
  5
6E
330
5
100
AcDbSymbolTableRecord
100
AcDbLinetypeTableRecord
  2
HIDDEN
 70
     0
  3
Hidden __ __ __ __ __ __ __ __ __ __ __ __ __ __
 72
    65
 73
     2
 40
0.075
 49
0.05
 74
     0
 49
-0.025
 74
     0
  0
LTYPE
  5
6F
330
5
100
AcDbSymbolTableRecord
100
AcDbLinetypeTableRecord
  2
PHANTOM
 70
     0
  3
Phantom ______  __  __  ______  __  __  ______
 72
    65
 73
     6
 40
0.5
 49
0.25
 74
     0
 49
-0.05
 74
     0
 49
0.05
 74
     0
 49
-0.05
 74
     0
 49
0.05
 74
     0
 49
-0.05
 74
     0
  0
LTYPE
  5
70
330
5
100
AcDbSymbolTableRecord
100
AcDbLinetypeTableRecord
  2
CENTER
 70
     0
  3
Center ____ _ ____ _ ____ _ ____ _ ____ _ ____
 72
    65
 73
     4
 40
0.4
 49
0.25
 74
     0
 49
-0.05
 74
     0
 49
0.05
 74
     0
 49
-0.05
 74
     0
  0
LTYPE
  5
71
330
5
100
AcDbSymbolTableRecord
100
AcDbLinetypeTableRecord
  2
CENTERX2
 70
     0
  3
Center (2x) ________  __  ________  __  _____
 72
    65
 73
     4
 40
0.8
 49
0.5
 74
     0
 49
-0.1
 74
     0
 49
0.1
 74
     0
 49
-0.1
 74
     0
  0
LTYPE
  5
72
330
5
100
AcDbSymbolTableRecord
100
AcDbLinetypeTableRecord
  2
DOT2
 70
     0
  3
Dot (.5x) ........................................
 72
    65
 73
     2
 40
0.025
 49
0.0
 74
     0
 49
-0.025
 74
     0
  0
ENDTAB
  0
TABLE
  2
LAYER
  5
2
330
0
100
AcDbSymbolTable
 70
     1
  0
LAYER
  5
10
330
2
100
AcDbSymbolTableRecord
100
AcDbLayerTableRecord
  2
0
 70
     0
 62
     7
  6
Continuous
370
    -3
390
F
  0
ENDTAB
  0
TABLE
  2
STYLE
  5
3
330
0
100
AcDbSymbolTable
 70
     1
  0
STYLE
  5
11
330
3
100
AcDbSymbolTableRecord
100
AcDbTextStyleTableRecord
  2
Standard
 70
     0
 40
0.0
 41
1.0
 50
0.0
 71
     0
 42
0.1377952756
  3
txt
  4

  0
ENDTAB
  0
TABLE
  2
VIEW
  5
6
330
0
100
AcDbSymbolTable
 70
     0
  0
ENDTAB
  0
TABLE
  2
UCS
  5
7
330
0
100
AcDbSymbolTable
 70
     0
  0
ENDTAB
  0
TABLE
  2
APPID
  5
9
330
0
100
AcDbSymbolTable
 70
     1
  0
APPID
  5
12
330
9
100
AcDbSymbolTableRecord
100
AcDbRegAppTableRecord
  2
ACAD
 70
     0
  0
ENDTAB
  0
TABLE
  2
DIMSTYLE
  5
A
330
0
100
AcDbSymbolTable
 70
     1
100
AcDbDimStyleTable
  0
DIMSTYLE
105
27
330
A
100
AcDbSymbolTableRecord
100
AcDbDimStyleTableRecord
  2
Standard
 70
     0
178
     0
340
11
  0
ENDTAB
  0
TABLE
  2
BLOCK_RECORD
  5
1
330
0
100
AcDbSymbolTable
 70
     1
  0
BLOCK_RECORD
  5
1F
330
1
100
AcDbSymbolTableRecord
100
AcDbBlockTableRecord
  2
*Model_Space
340
22
  0
BLOCK_RECORD
  5
1B
330
1
100
AcDbSymbolTableRecord
100
AcDbBlockTableRecord
  2
*Paper_Space
340
1E
  0
BLOCK_RECORD
  5
23
330
1
100
AcDbSymbolTableRecord
100
AcDbBlockTableRecord
  2
*Paper_Space0
340
26
  0
ENDTAB
  0
ENDSEC
  0
SECTION
  2
BLOCKS
  0
BLOCK
  5
20
330
1F
100
AcDbEntity
  8
0
100
AcDbBlockBegin
  2
*Model_Space
 70
     0
 10
0.0
 20
0.0
 30
0.0
  3
*Model_Space
  1

  0
ENDBLK
  5
21
330
1F
100
AcDbEntity
  8
0
100
AcDbBlockEnd
  0
BLOCK
  5
1C
330
1B
100
AcDbEntity
 67
     1
  8
0
100
AcDbBlockBegin
  2
*Paper_Space
 70
     0
 10
0.0
 20
0.0
 30
0.0
  3
*Paper_Space
  1

  0
ENDBLK
  5
1D
330
1B
100
AcDbEntity
 67
     1
  8
0
100
AcDbBlockEnd
  0
BLOCK
  5
24
330
23
100
AcDbEntity
  8
0
100
AcDbBlockBegin
  2
*Paper_Space0
 70
     0
 10
0.0
 20
0.0
 30
0.0
  3
*Paper_Space0
  1

  0
ENDBLK
  5
25
330
23
100
AcDbEntity
  8
0
100
AcDbBlockEnd
  0
ENDSEC
  0
SECTION
  2
ENTITIES
  0
LWPOLYLINE
  5
73
330
1F
100
AcDbEntity
  8
0
  6
Continuous
 62
     7
370
    25
100
AcDbPolyline
 90
        9
 70
   128
 43
0.0
 10
15.3392951429
 20
3.2470948882
 10
15.3469759142
 20
3.2467571188
 10
15.3543614489
 20
3.2457568637
 10
15.3611680236
 20
3.2441324758
 10
15.3671340613
 20
3.2419465077
 10
15.3720301781
 20
3.2392827785
 10
15.3756684228
 20
3.2362438069
 10
15.3779088035
 20
3.2329463383
 10
15.3786653015
 20
3.2295170913
  0
SPLINE
  5
74
330
1F
100
AcDbEntity
  8
0
  6
Continuous
 62
     7
370
    25
100
AcDbSpline
210
0.0
220
0.0
230
1.0
 70
     8
 71
     3
 72
    22
 73
    18
 74
     0
 42
0.000000001
 43
0.00000001
 40
0.0
 40
0.0
 40
0.0
 40
0.0
 40
0.044204447385297
 40
0.0851700482467344
 40
0.1228966537557124
 40
0.1573841594579071
 40
0.188632515873277
 40
0.2166417452241434
 40
0.2414119690984507
 40
0.3705201174162465
 40
0.4867251186250139
 40
0.577178621121018
 40
0.665572701567354
 40
0.7519758985259011
 40
0.8364616080717202
 40
0.919108347153495
 40
0.9999999999999999
 40
0.9999999999999999
 40
0.9999999999999999
 40
0.9999999999999999
 10
15.3786652662722
 20
3.229517103338557
 30
0.0
 10
15.37863005207947
 20
3.227722670524633
 30
0.0
 10
15.3785622038273
 20
3.224265282447697
 30
0.0
 10
15.37804470084535
 20
3.219296983828393
 30
0.0
 10
15.37731204863593
 20
3.214756689647039
 30
0.0
 10
15.37640602627543
 20
3.210648778878372
 30
0.0
 10
15.37539750845542
 20
3.206971563065834
 30
0.0
 10
15.37434217572067
 20
3.203718409264561
 30
0.0
 10
15.37177064854946
 20
3.196771756383385
 30
0.0
 10
15.3666994531371
 20
3.186882065109166
 30
0.0
 10
15.35814356670527
 20
3.175987052319656
 30
0.0
 10
15.34914990217894
 20
3.167725617609715
 30
0.0
 10
15.34006310114539
 20
3.161484365668555
 30
0.0
 10
15.33039083216778
 20
3.156642697025157
 30
0.0
 10
15.32035250067959
 20
3.153248670617127
 30
0.0
 10
15.31015628951785
 20
3.151159255795593
 30
0.0
 10
15.30331101464588
 20
3.150903467467973
 30
0.0
 10
15.29992510879188
 20
3.15077694585824
 30
0.0
  0
LINE
  5
75
330
1F
100
AcDbEntity
  8
0
  6
Continuous
 62
     7
370
    25
100
AcDbLine
 10
15.2999251311
 20
3.1507769209
 30
0.0
 11
15.2999251311
 21
3.20770119
 31
0.0
  0
SPLINE
  5
76
330
1F
100
AcDbEntity
  8
0
  6
Continuous
 62
     7
370
    25
100
AcDbSpline
210
0.0
220
0.0
230
1.0
 70
     8
 71
     3
 72
    18
 73
    14
 74
     0
 42
0.000000001
 43
0.00000001
 40
0.0
 40
0.0
 40
0.0
 40
0.0
 40
0.0502068899071328
 40
0.0999607703817711
 40
0.1496906486647461
 40
0.1998242911792255
 40
0.2507765608705285
 40
0.3743546669898278
 40
0.5004458969616249
 40
0.6241582649030034
 40
0.7500752806935688
 40
0.8745988559876966
 40
1.0
 40
1.0
 40
1.0
 40
1.0
 10
15.29992510879188
 20
3.207701197076428
 30
0.0
 10
15.30102126814342
 20
3.207726560268091
 30
0.0
 10
15.30320369636084
 20
3.207777057803045
 30
0.0
 10
15.30644456027052
 20
3.208193264285217
 30
0.0
 10
15.30962769708761
 20
3.20885958672066
 30
0.0
 10
15.31275272683995
 20
3.209799684983337
 30
0.0
 10
15.31724648579199
 20
3.211565309160852
 30
0.0
 10
15.32284474059547
 20
3.214721755392499
 30
0.0
 10
15.32870488370252
 20
3.219858033997032
 30
0.0
 10
15.33342491538745
 20
3.225913443951326
 30
0.0
 10
15.33676879412966
 20
3.232615355737972
 30
0.0
 10
15.33891031613401
 20
3.239755086962547
 30
0.0
 10
15.3391665883472
 20
3.244642567829391
 30
0.0
 10
15.33929517438223
 20
3.247094889047322
 30
0.0
  0
SPLINE
  5
77
330
1F
100
AcDbEntity
  8
0
  6
Continuous
 62
     7
370
    25
100
AcDbSpline
210
0.0
220
0.0
230
1.0
 70
     8
 71
     3
 72
    23
 73
    19
 74
     0
 42
0.000000001
 43
0.00000001
 40
0.0
 40
0.0
 40
0.0
 40
0.0
 40
0.0439255157547467
 40
0.0883621395516996
 40
0.1333241039932515
 40
0.178825148403716
 40
0.2248785293259736
 40
0.2714970318096116
 40
0.3186929813398972
 40
0.3664782562694144
 40
0.4148643006268152
 40
0.4638621371894922
 40
0.5134823807191115
 40
0.6296646481410443
 40
0.7587573193279857
 40
0.8215612655731408
 40
0.9019794726272844
 40
1.0
 40
1.0
 40
1.0
 40
1.0
 10
13.68575188044542
 20
3.15077694585824
 30
0.0
 10
13.68391392868084
 20
3.150814152181255
 30
0.0
 10
13.68021663913239
 20
3.150888997752217
 30
0.0
 10
13.67466736878156
 20
3.151498557269058
 30
0.0
 10
13.6691125207223
 20
3.152484190076597
 30
0.0
 10
13.66358292559448
 20
3.153889999055641
 30
0.0
 10
13.65811089338857
 20
3.155711920144227
 30
0.0
 10
13.65273005246199
 20
3.157955854354679
 30
0.0
 10
13.64747517420185
 20
3.160621548046366
 30
0.0
 10
13.6423819376098
 20
3.163706795326887
 30
0.0
 10
13.63748680154222
 20
3.167205896344148
 30
0.0
 10
13.63282634815259
 20
3.171110519709464
 30
0.0
 10
13.62649531306853
 20
3.177309495222887
 30
0.0
 10
13.61897828776426
 20
3.186883574067418
 30
0.0
 10
13.61318728806225
 20
3.198161841619777
 30
0.0
 10
13.6096629181518
 20
3.208677544544667
 30
0.0
 10
13.60749719132823
 20
3.218283134371676
 30
0.0
 10
13.60718384910284
 20
3.225534022592936
 30
0.0
 10
13.6070117229651
 20
3.229517103338556
 30
0.0
  0
LWPOLYLINE
  5
78
330
1F
100
AcDbEntity
  8
0
  6
Continuous
 62
     7
370
    25
100
AcDbPolyline
 90
        9
 70
   128
 43
0.0
 10
13.6463818463
 20
3.2470948882
 10
13.638701075
 20
3.2467571188
 10
13.6313155403
 20
3.2457568637
 10
13.6245089656
 20
3.2441324758
 10
13.6185429279
 20
3.2419465077
 10
13.6136468111
 20
3.2392827785
 10
13.6100085665
 20
3.2362438069
 10
13.6077681857
 20
3.2329463383
 10
13.6070116878
 20
3.2295170913
  0
SPLINE
  5
79
330
1F
100
AcDbEntity
  8
0
  6
Continuous
 62
     7
370
    25
100
AcDbSpline
210
0.0
220
0.0
230
1.0
 70
     8
 71
     3
 72
    12
 73
     8
 74
     0
 42
0.000000001
 43
0.00000001
 40
0.0
 40
0.0
 40
0.0
 40
0.0
 40
0.2499999999999948
 40
0.2499999999999948
 40
0.4999999999999895
 40
0.4999999999999895
 40
1.0
 40
1.0
 40
1.0
 40
1.0
 10
13.68575188044542
 20
3.207701214767891
 30
0.0
 10
13.68022636227733
 20
3.207701215062693
 30
0.0
 10
13.67483272359437
 20
3.208865047220895
 30
0.0
 10
13.66497467711523
 20
3.213202607862865
 30
0.0
 10
13.66069284250684
 20
3.216272054942391
 30
0.0
 10
13.65001667429393
 20
3.2275789076893
 30
0.0
 10
13.64638182601995
 20
3.237242530626586
 30
0.0
 10
13.6463818236216
 20
3.247094889047321
 30
0.0
  0
LINE
  5
7A
330
1F
100
AcDbEntity
  8
0
  6
Continuous
 62
     7
370
    25
100
AcDbLine
 10
13.6857518582
 20
3.20770119
 30
0.0
 11
13.6857518582
 21
3.1507769209
 31
0.0
  0
LINE
  5
7B
330
1F
100
AcDbEntity
  8
0
  6
Continuous
 62
     7
370
    25
100
AcDbLine
 10
13.6857518582
 20
3.1507769209
 30
0.0
 11
15.2999251311
 21
3.1507769209
 31
0.0
  0
LINE
  5
7C
330
1F
100
AcDbEntity
  8
0
  6
Continuous
 62
     7
370
    25
100
AcDbLine
 10
13.6857518582
 20
3.20770119
 30
0.0
 11
15.2999251311
 21
3.20770119
 31
0.0
  0
LINE
  5
7D
330
1F
100
AcDbEntity
  8
0
  6
Continuous
 62
     7
370
    25
100
AcDbLine
 10
13.646381993
 20
4.5272075936
 30
0.0
 11
15.3392952163
 21
4.5272075936
 31
0.0
  0
SPLINE
  5
7E
330
1F
100
AcDbEntity
  8
0
  6
Continuous
 62
     7
370
    25
100
AcDbSpline
210
0.0
220
0.0
230
1.0
 70
    24
 71
     3
 72
    34
 73
    30
 74
     0
 42
0.000000001
 43
0.00000001
 40
0.0
 40
0.0
 40
0.0
 40
0.0
 40
2.87951667768327
 40
2.87951667768327
 40
6.150923332440172
 40
6.150923332440172
 40
7.786626659818673
 40
7.786626659818673
 40
9.422329987197074
 40
9.422329987197074
 40
11.05803331457557
 40
11.05803331457557
 40
11.87588497826467
 40
11.87588497826467
 40
12.69373664195387
 40
12.69373664195387
 40
19.23654995146737
 40
19.23654995146737
 40
25.77936326098087
 40
25.77936326098087
 40
29.05076991573767
 40
29.05076991573767
 40
32.32217657049437
 40
32.32217657049437
 40
38.86498988000807
 40
38.86498988000807
 40
45.40780318952168
 40
45.40780318952168
 40
51.95061649908947
 40
51.95061649908947
 40
51.95061649908947
 40
51.95061649908947
 10
15.33929517438223
 20
3.247094889047094
 30
0.0
 10
15.33929517438223
 20
3.444995445717902
 30
0.0
 10
15.33929517438223
 20
3.599409017559694
 30
0.0
 10
15.33929517438223
 20
3.858337603714091
 30
0.0
 10
15.33929517438223
 20
3.953229522845891
 30
0.0
 10
15.33929517438223
 20
4.053285606421757
 30
0.0
 10
15.33929517438223
 20
4.079571787139868
 30
0.0
 10
15.33929517438223
 20
4.121644407709554
 30
0.0
 10
15.33929517438223
 20
4.137393157471718
 30
0.0
 10
15.33929517438223
 20
4.162630521494513
 30
0.0
 10
15.33929517438223
 20
4.172138764734316
 30
0.0
 10
15.33929517438223
 20
4.186004629473214
 30
0.0
 10
15.33929517438223
 20
4.190613323387545
 30
0.0
 10
15.33929517438223
 20
4.200145861308923
 30
0.0
 10
15.33929517438223
 20
4.20485946327093
 30
0.0
 10
15.33929517438223
 20
4.246805946568057
 30
0.0
 10
15.33929517438223
 20
4.28069421523152
 30
0.0
 10
15.33929517438223
 20
4.341637720643726
 30
0.0
 10
15.33929517438223
 20
4.368703388174395
 30
0.0
 10
15.33929517438223
 20
4.404303828906717
 30
0.0
 10
15.33929517438223
 20
4.415338031374237
 30
0.0
 10
15.33929517438223
 20
4.435742945073412
 30
0.0
 10
15.33929517438223
 20
4.445094127638489
 30
0.0
 10
15.33929517438223
 20
4.470746880670655
 30
0.0
 10
15.33929517438223
 20
4.484785410533018
 30
0.0
 10
15.33929517438223
 20
4.506709821894631
 30
0.0
 10
15.33929517438223
 20
4.514612680129552
 30
0.0
 10
15.33929517438223
 20
4.524860116490852
 30
0.0
 10
15.33929517438223
 20
4.527207598734553
 30
0.0
 10
15.33929517438223
 20
4.527207602385538
 30
0.0
  0
SPLINE
  5
7F
330
1F
100
AcDbEntity
  8
0
  6
Continuous
 62
     7
370
    25
100
AcDbSpline
210
0.0
220
0.0
230
1.0
 70
    24
 71
     3
 72
    34
 73
    30
 74
     0
 42
0.000000001
 43
0.00000001
 40
0.0
 40
0.0
 40
0.0
 40
0.0
 40
6.54281330956779
 40
6.54281330956779
 40
13.0856266190814
 40
13.0856266190814
 40
19.6284399285951
 40
19.6284399285951
 40
22.8998465833518
 40
22.8998465833518
 40
26.1712532381086
 40
26.1712532381086
 40
32.7140665476221
 40
32.7140665476221
 40
39.2568798571356
 40
39.2568798571356
 40
40.0747315208248
 40
40.0747315208248
 40
40.8925831845139
 40
40.8925831845139
 40
42.5282865118924
 40
42.5282865118924
 40
44.1639898392708
 40
44.1639898392708
 40
45.7996931666493
 40
45.7996931666493
 40
49.0710998214062
 40
49.0710998214062
 40
51.95061649908946
 40
51.95061649908946
 40
51.95061649908946
 40
51.95061649908946
 10
13.64638180170526
 20
4.527207602385538
 30
0.0
 10
13.64638180170526
 20
4.527207598734553
 30
0.0
 10
13.64638180170526
 20
4.524860116490851
 30
0.0
 10
13.64638180170526
 20
4.514612680129552
 30
0.0
 10
13.64638180170526
 20
4.506709821894631
 30
0.0
 10
13.64638180170526
 20
4.484785410533017
 30
0.0
 10
13.64638180170526
 20
4.470746880670656
 30
0.0
 10
13.64638180170526
 20
4.445094127638489
 30
0.0
 10
13.64638180170526
 20
4.435742945073411
 30
0.0
 10
13.64638180170526
 20
4.415338031374238
 30
0.0
 10
13.64638180170526
 20
4.404303828906717
 30
0.0
 10
13.64638180170526
 20
4.368703388174395
 30
0.0
 10
13.64638180170527
 20
4.341637720643726
 30
0.0
 10
13.64638180170526
 20
4.280694215231521
 30
0.0
 10
13.64638180170526
 20
4.246805946568057
 30
0.0
 10
13.64638180170526
 20
4.204859463270931
 30
0.0
 10
13.64638180170526
 20
4.200145861308923
 30
0.0
 10
13.64638180170526
 20
4.190613323387544
 30
0.0
 10
13.64638180170526
 20
4.186004629473214
 30
0.0
 10
13.64638180170526
 20
4.172138764734316
 30
0.0
 10
13.64638180170526
 20
4.162630521494513
 30
0.0
 10
13.64638180170526
 20
4.137393157471719
 30
0.0
 10
13.64638180170526
 20
4.121644407709552
 30
0.0
 10
13.64638180170526
 20
4.079571787139868
 30
0.0
 10
13.64638180170526
 20
4.053285606421757
 30
0.0
 10
13.64638180170526
 20
3.953229522845891
 30
0.0
 10
13.64638180170526
 20
3.858337603714092
 30
0.0
 10
13.64638180170526
 20
3.599409017559694
 30
0.0
 10
13.64638180170526
 20
3.444995445717902
 30
0.0
 10
13.64638180170526
 20
3.247094889047096
 30
0.0
  0
ARC
  5
80
330
1F
100
AcDbEntity
  8
0
  6
Continuous
 62
     7
370
    25
100
AcDbCircle
 10
15.3392951875
 20
4.4878375236
 30
0.0
 40
0.0393700787401469
100
AcDbArc
 50
360.0
 51
90.0
  0
SPLINE
  5
81
330
1F
100
AcDbEntity
  8
0
  6
Continuous
 62
     7
370
    25
100
AcDbSpline
210
0.0
220
0.0
230
1.0
 70
    24
 71
     3
 72
    35
 73
    31
 74
     0
 42
0.000000001
 43
0.00000001
 40
0.0
 40
0.0
 40
0.0
 40
0.0
 40
0.0122784948461744
 40
0.0246489707164836
 40
0.037114798989696
 40
0.0496792742881489
 40
0.0623456142576334
 40
0.0935789389187146
 40
0.1243469243951982
 40
0.1560334241104923
 40
0.1864346291582245
 40
0.2489876255014319
 40
0.3108647927252993
 40
0.373006166872295
 40
0.4034700477975496
 40
0.4354423964448645
 40
0.4509653954178495
 40
0.4595268771076499
 40
0.466474629086697
 40
0.4811114897050248
 40
0.497563150203732
 40
0.5254152457897058
 40
0.5603308484534752
 40
0.5896146592687795
 40
0.6231558355956324
 40
0.6808218335911579
 40
0.7487641724423896
 40
0.8743765640595462
 40
0.9330788700059288
 40
1.0
 40
1.0
 40
1.0
 40
1.0
 10
15.37866526627219
 20
4.487837523645371
 30
0.0
 10
15.37866526627219
 20
4.487798186353266
 30
0.0
 10
15.37866526627219
 20
4.487719217084369
 30
0.0
 10
15.37866526627219
 20
4.487085846295527
 30
0.0
 10
15.37866526627219
 20
4.486076602080452
 30
0.0
 10
15.37866526627219
 20
4.484653365706444
 30
0.0
 10
15.37866526627219
 20
4.481940809900941
 30
0.0
 10
15.37866526627219
 20
4.477024939678008
 30
0.0
 10
15.37866526627219
 20
4.468392901675968
 30
0.0
 10
15.37866526627219
 20
4.457274221685515
 30
0.0
 10
15.37866526627219
 20
4.438501240214695
 30
0.0
 10
15.37866526627219
 20
4.407112972155908
 30
0.0
 10
15.37866526627219
 20
4.351443472887969
 30
0.0
 10
15.37866526627219
 20
4.292120605442613
 30
0.0
 10
15.3786652662722
 20
4.238297707146281
 30
0.0
 10
15.37866526627219
 20
4.202513410896418
 30
0.0
 10
15.37866526627219
 20
4.175848317866318
 30
0.0
 10
15.37866526627219
 20
4.160854453393097
 30
0.0
 10
15.37866526627219
 20
4.146060073219272
 30
0.0
 10
15.37866526627219
 20
4.126537045895136
 30
0.0
 10
15.37866526627219
 20
4.09500664718032
 30
0.0
 10
15.37866526627219
 20
4.051147764482828
 30
0.0
 10
15.37866526627219
 20
3.99920022782072
 30
0.0
 10
15.37866526627219
 20
3.943440361039656
 30
0.0
 10
15.37866526627219
 20
3.874249454615751
 30
0.0
 10
15.3786652662722
 20
3.782278994697177
 30
0.0
 10
15.37866526627219
 20
3.63637475686078
 30
0.0
 10
15.37866526627219
 20
3.489211615860243
 30
0.0
 10
15.37866526627219
 20
3.342283840819991
 30
0.0
 10
15.37866526627219
 20
3.268710510129214
 30
0.0
 10
15.37866526627219
 20
3.229517103338557
 30
0.0
  0
SPLINE
  5
82
330
1F
100
AcDbEntity
  8
0
  6
Continuous
 62
     7
370
    25
100
AcDbSpline
210
0.0
220
0.0
230
1.0
 70
    24
 71
     3
 72
    33
 73
    29
 74
     0
 42
0.000000001
 43
0.00000001
 40
0.0
 40
0.0
 40
0.0
 40
0.0
 40
0.0669165937454735
 40
0.1256235886351108
 40
0.2512361329586157
 40
0.3191700642718773
 40
0.3768446223188547
 40
0.4103765674289985
 40
0.4396696855305362
 40
0.4745750025391481
 40
0.502437456510001
 40
0.5188831047891479
 40
0.5335260199254233
 40
0.5404692899350767
 40
0.549035272921422
 40
0.5645582907656816
 40
0.5965247202669174
 40
0.6269945952707007
 40
0.6891360449626974
 40
0.751013287410355
 40
0.8135663597989656
 40
0.8439632794667482
 40
0.8756541398887336
 40
0.9064172850030201
 40
0.9376555251821519
 40
0.9587067276994006
 40
0.9794831334125204
 40
1.0
 40
1.0
 40
1.0
 40
1.0
 10
13.60701172296511
 20
3.229517103338556
 30
0.0
 10
13.60701172296511
 20
3.268707801667999
 30
0.0
 10
13.60701172296511
 20
3.3422811246615
 30
0.0
 10
13.60701172296511
 20
3.489208927380505
 30
0.0
 10
13.60701172296511
 20
3.636369822855448
 30
0.0
 10
13.60701172296511
 20
3.782274034677665
 30
0.0
 10
13.60701172296511
 20
3.874239247769634
 30
0.0
 10
13.60701172296511
 20
3.943435000800946
 30
0.0
 10
13.60701172296511
 20
3.999189145692208
 30
0.0
 10
13.60701172296511
 20
4.051141824549692
 30
0.0
 10
13.60701172296511
 20
4.094997706663349
 30
0.0
 10
13.60701172296511
 20
4.126534041341023
 30
0.0
 10
13.60701172296511
 20
4.146054765942154
 30
0.0
 10
13.60701172296511
 20
4.160852328483826
 30
0.0
 10
13.60701172296511
 20
4.175846150941581
 30
0.0
 10
13.60701172296511
 20
4.202510603387082
 30
0.0
 10
13.60701172296511
 20
4.238294991509499
 30
0.0
 10
13.60701172296511
 20
4.292118342383545
 30
0.0
 10
13.60701172296511
 20
4.351443470884759
 30
0.0
 10
13.60701172296511
 20
4.407112950413073
 30
0.0
 10
13.60701172296511
 20
4.438500434886038
 30
0.0
 10
13.60701172296511
 20
4.457273525979732
 30
0.0
 10
13.60701172296511
 20
4.468392329133767
 30
0.0
 10
13.60701172296511
 20
4.477023083727158
 30
0.0
 10
13.60701172296511
 20
4.482497379110829
 30
0.0
 10
13.60701172296511
 20
4.485742988427582
 30
0.0
 10
13.60701172296511
 20
4.487506620200894
 30
0.0
 10
13.60701172296511
 20
4.487727685648793
 30
0.0
 10
13.60701172296511
 20
4.487837523645371
 30
0.0
  0
ARC
  5
83
330
1F
100
AcDbEntity
  8
0
  6
Continuous
 62
     7
370
    25
100
AcDbCircle
 10
13.6463818017
 20
4.4878375236
 30
0.0
 40
0.0393700787401478
100
AcDbArc
 50
89.9999986048
 51
179.9999999999
  0
LINE
  5
84
330
1F
100
AcDbEntity
  8
0
  6
Continuous
 62
     7
370
    25
100
AcDbLine
 10
13.646381993
 20
4.5272075203
 30
0.0
 11
14.4928384946
 21
4.5272075936
 31
0.0
  0
SPLINE
  5
85
330
1F
100
AcDbEntity
  8
0
  6
Continuous
 62
     7
370
    25
100
AcDbSpline
210
0.0
220
0.0
230
1.0
 70
     8
 71
     3
 72
    23
 73
    19
 74
     0
 42
0.000000001
 43
0.00000001
 40
0.0
 40
0.0
 40
0.0
 40
0.0
 40
0.0470632203154054
 40
0.0936066682930638
 40
0.1396848779092543
 40
0.1853491539075356
 40
0.2306492123581523
 40
0.2756349732871724
 40
0.3203584182506483
 40
0.3648754197531784
 40
0.4092474475192221
 40
0.4535430591571609
 40
0.4978390902652713
 40
0.5798652662535908
 40
0.6712557724292176
 40
0.7719720372525055
 40
0.8817111258443012
 40
0.9999999999999999
 40
0.9999999999999999
 40
0.9999999999999999
 40
0.9999999999999999
 10
13.09046552152141
 20
5.517993618684884
 30
0.0
 10
13.08880608716841
 20
5.517955841931229
 30
0.0
 10
13.08550554547163
 20
5.517880705635311
 30
0.0
 10
13.08061125360417
 20
5.517273499796971
 30
0.0
 10
13.07582862955405
 20
5.516309525850425
 30
0.0
 10
13.07118334850374
 20
5.514962593992339
 30
0.0
 10
13.06670080101699
 20
5.513252646306441
 30
0.0
 10
13.06240559700318
 20
5.511190274551031
 30
0.0
 10
13.05832111664212
 20
5.508791072819285
 30
0.0
 10
13.05446912028121
 20
5.506071427543046
 30
0.0
 10
13.05086931651052
 20
5.503049328235135
 30
0.0
 10
13.04753936004344
 20
5.499743248971543
 30
0.0
 10
13.04363132270289
 20
5.495163126559667
 30
0.0
 10
13.03935479871814
 20
5.488757908510422
 30
0.0
 10
13.03511416575874
 20
5.480042029264688
 30
0.0
 10
13.03176847133823
 20
5.469915403202131
 30
0.0
 10
13.02948701205131
 20
5.458505313728021
 30
0.0
 10
13.02920156436171
 20
5.450461040285046
 30
0.0
 10
13.02905348916327
 20
5.446288095714981
 30
0.0
  0
SPLINE
  5
86
330
1F
100
AcDbEntity
  8
0
  6
Continuous
 62
     7
370
    25
100
AcDbSpline
210
0.0
220
0.0
230
1.0
 70
     8
 71
     3
 72
    55
 73
    51
 74
     0
 42
0.000000001
 43
0.00000001
 40
0.0
 40
0.0
 40
0.0
 40
0.0
 40
0.0087639382338513
 40
0.0177477074237412
 40
0.0269537870305024
 40
0.0363845532085546
 40
0.0460422764111103
 40
0.0559291190494241
 40
0.0660471332103115
 40
0.0763982584368773
 40
0.0869843195780634
 40
0.0978070247133381
 40
0.1088679631595356
 40
0.1201686035675501
 40
0.1317102921173148
 40
0.1434942508202373
 40
0.1555215759390192
 40
0.1677932365355887
 40
0.1803100731587184
 40
0.1930727966837567
 40
0.2060819873178533
 40
0.219338093785007
 40
0.2328414327063302
 40
0.2465921881920013
 40
0.2605904116625649
 40
0.2748360219184697
 40
0.2893288054780775
 40
0.3040684172057714
 40
0.3190543812533134
 40
0.3342860923391919
 40
0.3497628173924122
 40
0.3654836975889945
 40
0.3814477508113719
 40
0.3976538745629237
 40
0.4141008493720519
 40
0.4307873427224912
 40
0.4477119135489657
 40
0.5068882386485439
 40
0.5722502355188103
 40
0.6180550642606264
 40
0.7296583355932799
 40
0.7682029606197551
 40
0.8047098268502187
 40
0.8391297667885151
 40
0.871422703455904
 40
0.9015557249902609
 40
0.929501483289795
 40
0.9552369017237451
 40
0.9787421701805507
 40
0.9999999999999999
 40
0.9999999999999999
 40
0.9999999999999999
 40
0.9999999999999999
 10
13.09046552176249
 20
5.517992145408261
 30
0.0
 10
13.09380036990122
 20
5.512426260333559
 30
0.0
 10
13.10055371611264
 20
5.501154877854113
 30
0.0
 10
13.11061308135439
 20
5.484278611365057
 30
0.0
 10
13.12077724752906
 20
5.467165570320671
 30
0.0
 10
13.13102875779098
 20
5.44983896153926
 30
0.0
 10
13.14136891529284
 20
5.432299420965102
 30
0.0
 10
13.15179354332765
 20
5.414554374153761
 30
0.0
 10
13.16229971214445
 20
5.3966098927071
 30
0.0
 10
13.17288386325933
 20
5.378472969265978
 30
0.0
 10
13.18354232217819
 20
5.360150899854216
 30
0.0
 10
13.19427114815593
 20
5.341651469121575
 30
0.0
 10
13.20506616771135
 20
5.322982913013461
 30
0.0
 10
13.21592295705762
 20
5.304153943282366
 30
0.0
 10
13.22683683854607
 20
5.28517375499797
 30
0.0
 10
13.23780287308385
 20
5.266052038901273
 30
0.0
 10
13.24881585351877
 20
5.246798992553085
 30
0.0
 10
13.25987029760626
 20
5.227425331951463
 30
0.0
 10
13.27096044093921
 20
5.207942303154886
 30
0.0
 10
13.28208022973242
 20
5.188361694039306
 30
0.0
 10
13.29322331348907
 20
5.16869584615377
 30
0.0
 10
13.30438303753854
 20
5.148957666684397
 30
0.0
 10
13.31555243544599
 20
5.129160640524185
 30
0.0
 10
13.32672422129037
 20
5.109318842449353
 30
0.0
 10
13.33789078180903
 20
5.089446949402294
 30
0.0
 10
13.34904416840656
 20
5.069560252880944
 30
0.0
 10
13.36017608902481
 20
5.049674671435853
 30
0.0
 10
13.37127789987401
 20
5.029806763270793
 30
0.0
 10
13.38234059701407
 20
5.009973738963618
 30
0.0
 10
13.39335480781563
 20
4.990193474244333
 30
0.0
 10
13.40431078217527
 20
4.970484523072484
 30
0.0
 10
13.41519838395327
 20
4.950866130089614
 30
0.0
 10
13.42600708083089
 20
4.931358245979735
 30
0.0
 10
13.43672593946127
 20
4.911981532245903
 30
0.0
 10
13.44734359965729
 20
4.892757406911838
 30
0.0
 10
13.45784832779753
 20
4.873707934596196
 30
0.0
 10
13.47681700953904
 20
4.839256126870123
 30
0.0
 10
13.50400395905342
 20
4.789699440634156
 30
0.0
 10
13.53333342970373
 20
4.736005192609851
 30
0.0
 10
13.56756686555679
 20
4.673002017324453
 30
0.0
 10
13.59263672584049
 20
4.626777159447588
 30
0.0
 10
13.61153203677547
 20
4.591798165820347
 30
0.0
 10
13.62113672964272
 20
4.574008074221143
 30
0.0
 10
13.62883423724476
 20
4.559730877504393
 30
0.0
 10
13.63482973276191
 20
4.548595827643849
 30
0.0
 10
13.63932799397058
 20
4.540231039450292
 30
0.0
 10
13.64254201049059
 20
4.534250675205537
 30
0.0
 10
13.64465783877441
 20
4.530322083824401
 30
0.0
 10
13.645934395394
 20
4.527969142553007
 30
0.0
 10
13.64623788055897
 20
4.527452807833986
 30
0.0
 10
13.6463820045414
 20
4.527207602385537
 30
0.0
  0
SPLINE
  5
87
330
1F
100
AcDbEntity
  8
0
  6
Continuous
 62
     7
370
    25
100
AcDbSpline
210
0.0
220
0.0
230
1.0
 70
     8
 71
     3
 72
    24
 73
    20
 74
     0
 42
0.000000001
 43
0.00000001
 40
0.0
 40
0.0
 40
0.0
 40
0.0
 40
0.125
 40
0.125
 40
0.25
 40
0.25
 40
0.5000000000000002
 40
0.5000000000000002
 40
0.7500000000000003
 40
0.7500000000000003
 40
0.8750000000000004
 40
0.8750000000000004
 40
0.9375000000000004
 40
0.9375000000000004
 40
0.9687500000000002
 40
0.9687500000000002
 40
0.9843750000000001
 40
0.9843750000000001
 40
1.0
 40
1.0
 40
1.0
 40
1.0
 10
13.02905348916327
 20
5.446288095714972
 30
0.0
 10
13.06313654769901
 20
5.388007557580717
 30
0.0
 10
13.09771859908972
 20
5.329510459305554
 30
0.0
 10
13.16645885955736
 20
5.21386911047568
 30
0.0
 10
13.20063434526634
 20
5.156733871954049
 30
0.0
 10
13.30064284689249
 20
4.99021509671169
 30
0.0
 10
13.36395886363875
 20
4.885716712792437
 30
0.0
 10
13.4737454500891
 20
4.705279474667314
 30
0.0
 10
13.52022187395297
 20
4.629345001846107
 30
0.0
 10
13.56977502493575
 20
4.548528366556229
 30
0.0
 10
13.58293407785703
 20
4.527102248681
 30
0.0
 10
13.59668985036896
 20
4.504701038086234
 30
0.0
 10
13.60027824099934
 20
4.498856433015498
 30
0.0
 10
13.60404530485028
 20
4.492711053097601
 30
0.0
 10
13.60503171331661
 20
4.491099563534682
 30
0.0
 10
13.60609231564835
 20
4.48936138303616
 30
0.0
 10
13.60637602050453
 20
4.488895153901749
 30
0.0
 10
13.6068012078158
 20
4.488193051972969
 30
0.0
 10
13.60693654110401
 20
4.487967018875888
 30
0.0
 10
13.60701298021352
 20
4.48783658088045
 30
0.0
  0
SPLINE
  5
88
330
1F
100
AcDbEntity
  8
0
  6
Continuous
 62
     7
370
    25
100
AcDbSpline
210
0.0
220
0.0
230
1.0
 70
     8
 71
     3
 72
    23
 73
    19
 74
     0
 42
0.000000001
 43
0.00000001
 40
0.0
 40
0.0
 40
0.0
 40
0.0
 40
0.0470632203143661
 40
0.0936066682911757
 40
0.139684877906712
 40
0.185349153904552
 40
0.2306492123549401
 40
0.2756349732839561
 40
0.3203584182476367
 40
0.3648754197505957
 40
0.4092474475172675
 40
0.453543059156026
 40
0.4978390902651231
 40
0.5798652662505022
 40
0.6712557724246658
 40
0.7719720372480031
 40
0.8817111258413519
 40
1.0
 40
1.0
 40
1.0
 40
1.0
 10
15.89521146771589
 20
2.749020011282963
 30
0.0
 10
15.89687090206886
 20
2.749057788036617
 30
0.0
 10
15.90017144376556
 20
2.749132924332534
 30
0.0
 10
15.90506573563293
 20
2.749740130170858
 30
0.0
 10
15.90984835968299
 20
2.750704104117387
 30
0.0
 10
15.91449364073325
 20
2.752051035975452
 30
0.0
 10
15.91897618821998
 20
2.753760983661332
 30
0.0
 10
15.9232713922338
 20
2.755823355416728
 30
0.0
 10
15.92735587259489
 20
2.75822255714847
 30
0.0
 10
15.93120786895585
 20
2.760942202424714
 30
0.0
 10
15.93480767272661
 20
2.763964301732643
 30
0.0
 10
15.93813762919377
 20
2.767270380996269
 30
0.0
 10
15.94204566653434
 20
2.77185050340807
 30
0.0
 10
15.94632219051908
 20
2.778255721457181
 30
0.0
 10
15.95056282347845
 20
2.786971600702758
 30
0.0
 10
15.95390851789899
 20
2.797098226765306
 30
0.0
 10
15.95618997718597
 20
2.808508316239564
 30
0.0
 10
15.95647542487558
 20
2.816552589682698
 30
0.0
 10
15.95662350007403
 20
2.820725534252866
 30
0.0
  0
SPLINE
  5
89
330
1F
100
AcDbEntity
  8
0
  6
Continuous
 62
     7
370
    25
100
AcDbSpline
210
0.0
220
0.0
230
1.0
 70
     8
 71
     3
 72
    24
 73
    20
 74
     0
 42
0.000000001
 43
0.00000001
 40
0.0
 40
0.0
 40
0.0
 40
0.0
 40
0.125
 40
0.125
 40
0.25
 40
0.25
 40
0.5
 40
0.5
 40
0.75
 40
0.75
 40
0.875
 40
0.875
 40
0.9374999999999998
 40
0.9374999999999998
 40
0.9687499999999997
 40
0.9687499999999997
 40
0.9843749999999999
 40
0.9843749999999999
 40
1.0
 40
1.0
 40
1.0
 40
1.0
 10
15.95662350007403
 20
2.820725534252874
 30
0.0
 10
15.92254044153829
 20
2.879006072387131
 30
0.0
 10
15.88795839014759
 20
2.937503170662296
 30
0.0
 10
15.81921812967994
 20
3.053144519492172
 30
0.0
 10
15.78504264397097
 20
3.110279758013803
 30
0.0
 10
15.68503414234481
 20
3.276798533256165
 30
0.0
 10
15.62171812559855
 20
3.381296917175421
 30
0.0
 10
15.5119315391482
 20
3.561734155300545
 30
0.0
 10
15.46545511528433
 20
3.637668628121753
 30
0.0
 10
15.41590196430155
 20
3.718485263411632
 30
0.0
 10
15.40274291138027
 20
3.739911381286862
 30
0.0
 10
15.38898713886834
 20
3.762312591881629
 30
0.0
 10
15.38539874823796
 20
3.768157196952365
 30
0.0
 10
15.38163168438703
 20
3.774302576870262
 30
0.0
 10
15.38064527592069
 20
3.775914066433181
 30
0.0
 10
15.37958467358895
 20
3.777652246931703
 30
0.0
 10
15.37930096873277
 20
3.778118476066114
 30
0.0
 10
15.3788757814215
 20
3.778820577994894
 30
0.0
 10
15.37874044813329
 20
3.779046611091976
 30
0.0
 10
15.37866400902378
 20
3.779177049087413
 30
0.0
  0
SPLINE
  5
8A
330
1F
100
AcDbEntity
  8
0
  6
Continuous
 62
     7
370
    25
100
AcDbSpline
210
0.0
220
0.0
230
1.0
 70
     8
 71
     3
 72
    45
 73
    41
 74
     0
 42
0.000000001
 43
0.00000001
 40
0.0
 40
0.0
 40
0.0
 40
0.0
 40
0.0125029723991962
 40
0.0257013616024943
 40
0.03959222458849
 40
0.0541724078746956
 40
0.0694385148679086
 40
0.0853868659803887
 40
0.1020134509719283
 40
0.1193138730188993
 40
0.1372832840597714
 40
0.1559163110215863
 40
0.1752069725927854
 40
0.1951485862735541
 40
0.215733665504635
 40
0.2369538067483264
 40
0.258799566470209
 40
0.2812603280461601
 40
0.3712320677915011
 40
0.4176156820751075
 40
0.4876465444638549
 40
0.5496706995474817
 40
0.5825640671689771
 40
0.6145464398264607
 40
0.6456081000232616
 40
0.6757410098566128
 40
0.704938905098192
 40
0.7331973634777841
 40
0.7605138506184478
 40
0.7868877466566709
 40
0.8123203562121738
 40
0.8368149040452862
 40
0.8603765184508144
 40
0.8830122041815719
 40
0.9047308064677984
 40
0.9255429674961205
 40
0.9454610765291992
 40
0.964499214680408
 40
0.9826730952024254
 40
1.0
 40
1.0
 40
1.0
 40
1.0
 10
15.3392949846959
 20
4.527207602385537
 30
0.0
 10
15.33936592861753
 20
4.52732664045974
 30
0.0
 10
15.33951176237009
 20
4.527571337519917
 30
0.0
 10
15.33999653786181
 20
4.528449618606297
 30
0.0
 10
15.34072042441814
 20
4.529780124375206
 30
0.0
 10
15.34173705631124
 20
4.531662113943253
 30
0.0
 10
15.34307603305153
 20
4.534148013362588
 30
0.0
 10
15.34477471908661
 20
4.537305339899963
 30
0.0
 10
15.34686887347891
 20
4.541198500609982
 30
0.0
 10
15.34939512967824
 20
4.545893655372885
 30
0.0
 10
15.35239006546176
 20
4.551456943964763
 30
0.0
 10
15.355890237888
 20
4.55795459473123
 30
0.0
 10
15.35993193933692
 20
4.565452481275269
 30
0.0
 10
15.36455100352803
 20
4.574015816228315
 30
0.0
 10
15.36978266901335
 20
4.583708803884094
 30
0.0
 10
15.37566110314796
 20
4.594594233372071
 30
0.0
 10
15.38222024238557
 20
4.606733286635615
 30
0.0
 10
15.3967087851868
 20
4.633543251174054
 30
0.0
 10
15.41699510186524
 20
4.670975062695164
 30
0.0
 10
15.44801687726659
 20
4.728071870564481
 30
0.0
 10
15.47828994148021
 20
4.783524328714988
 30
0.0
 10
15.50977536136455
 20
4.840937426004492
 30
0.0
 10
15.53593778554693
 20
4.888432274102467
 30
0.0
 10
15.55672060633282
 20
4.92604618295681
 30
0.0
 10
15.57785714545465
 20
4.964181424869158
 30
0.0
 10
15.59926687092973
 20
5.002685760955623
 30
0.0
 10
15.62087491741357
 20
5.041416986008486
 30
0.0
 10
15.6426119600045
 20
5.08024284606917
 30
0.0
 10
15.66441393561137
 20
5.119040599435164
 30
0.0
 10
15.68622181522244
 20
5.157696678462091
 30
0.0
 10
15.70798136799362
 20
5.196106326926104
 30
0.0
 10
15.72964295541289
 20
5.234173273375554
 30
0.0
 10
15.75116126239775
 20
5.271809324322441
 30
0.0
 10
15.77249528128663
 20
5.308934261481724
 30
0.0
 10
15.79360743923779
 20
5.345474698072695
 30
0.0
 10
15.81446576158801
 20
5.381366613439265
 30
0.0
 10
15.83503543293458
 20
5.416545032617261
 30
0.0
 10
15.855307445473
 20
5.45097866505126
 30
0.0
 10
15.87519788647121
 20
5.484547717888276
 30
0.0
 10
15.88864723171249
 20
5.507022738826922
 30
0.0
 10
15.89521146747481
 20
5.517992145408261
 30
0.0
  0
SPLINE
  5
8B
330
1F
100
AcDbEntity
  8
0
  6
Continuous
 62
     7
370
    25
100
AcDbSpline
210
0.0
220
0.0
230
1.0
 70
     8
 71
     3
 72
    24
 73
    20
 74
     0
 42
0.000000001
 43
0.00000001
 40
0.0
 40
0.0
 40
0.0
 40
0.0
 40
0.0467
 40
0.0934
 40
0.1401
 40
0.1666666666666667
 40
0.1868
 40
0.3707874999999999
 40
0.4444444444444444
 40
0.554775
 40
0.5555555555555556
 40
0.7387625
 40
0.8333333333333334
 40
0.92275
 40
0.92275
 40
0.9420625
 40
0.961375
 40
0.9806874999999999
 40
0.9999998310491405
 40
0.9999998310491405
 40
0.9999998310491405
 40
0.9999998310491405
 10
15.89521162833605
 20
5.517992985875234
 30
0.0
 10
15.89692452931025
 20
5.517992507042692
 30
0.0
 10
15.90035202801822
 20
5.517858759689592
 30
0.0
 10
15.90544333441384
 20
5.517246035728193
 30
0.0
 10
15.90971093878172
 20
5.5163682146314
 30
0.0
 10
15.91294793369819
 20
5.515472245615177
 30
0.0
 10
15.92078365987097
 20
5.512933658748881
 30
0.0
 10
15.92928236742609
 20
5.508198730214823
 30
0.0
 10
15.93847332412201
 20
5.49967799195556
 30
0.0
 10
15.94234464800509
 20
5.494717551632673
 30
0.0
 10
15.9477925546565
 20
5.486338916905524
 30
0.0
 10
15.95182260798464
 20
5.477661913165212
 30
0.0
 10
15.9550327953294
 20
5.46508256626407
 30
0.0
 10
15.95595590319414
 20
5.458406414694867
 30
0.0
 10
15.95630792115393
 20
5.454355445508787
 30
0.0
 10
15.9564177554359
 20
5.452907817263861
 30
0.0
 10
15.95653598081346
 20
5.450715371320632
 30
0.0
 10
15.95660711385723
 20
5.448507201684348
 30
0.0
 10
15.95662300141763
 20
5.44702829492343
 30
0.0
 10
15.95662309346516
 20
5.44628809534436
 30
0.0
  0
SPLINE
  5
8C
330
1F
100
AcDbEntity
  8
0
  6
Continuous
 62
     7
370
    25
100
AcDbSpline
210
0.0
220
0.0
230
1.0
 70
     8
 71
     3
 72
    33
 73
    29
 74
     0
 42
0.000000001
 43
0.00000001
 40
0.0
 40
0.0
 40
0.0
 40
0.0
 40
0.0126635702602377
 40
0.0253661136312625
 40
0.0381073767791924
 40
0.0508870627362823
 40
0.0637048306872275
 40
0.0765602957614174
 40
0.0894530288303591
 40
0.1023825563095113
 40
0.1153483599638289
 40
0.1283498767163279
 40
0.1413864984590291
 40
0.2039383458130652
 40
0.2804160594600044
 40
0.3488997566126937
 40
0.4164293990656057
 40
0.4766493491918551
 40
0.5482487438413314
 40
0.6658814406840686
 40
0.7929261313255197
 40
0.8489250292562385
 40
0.9021458793719658
 40
0.9253740826433546
 40
0.9466857375831224
 40
0.96616862686695
 40
0.9839109143946485
 40
1.0
 40
1.0
 40
1.0
 40
1.0
 10
15.37866526627219
 20
4.487836580901234
 30
0.0
 10
15.37873556804127
 20
4.487957973344523
 30
0.0
 10
15.37887638793851
 20
4.488201131825675
 30
0.0
 10
15.37936592817408
 20
4.489013623346665
 30
0.0
 10
15.38005941620934
 20
4.49015456731921
 30
0.0
 10
15.38097702274316
 20
4.491656731434187
 30
0.0
 10
15.38211330607243
 20
4.493511782187902
 30
0.0
 10
15.38346963930454
 20
4.495722430958006
 30
0.0
 10
15.38504548077381
 20
4.498288398601898
 30
0.0
 10
15.38684072367041
 20
4.501210182574036
 30
0.0
 10
15.38885505851396
 20
4.504488073327268
 30
0.0
 10
15.39108815909171
 20
4.508122296027186
 30
0.0
 10
15.3966410906253
 20
4.517162977074549
 30
0.0
 10
15.40854753439374
 20
4.536560335727823
 30
0.0
 10
15.43048357651057
 20
4.572304417536268
 30
0.0
 10
15.45869223201976
 20
4.618307107169483
 30
0.0
 10
15.48949827792165
 20
4.668682356189515
 30
0.0
 10
15.52515249576063
 20
4.727089584926495
 30
0.0
 10
15.57523804004714
 20
4.809258775112609
 30
0.0
 10
15.64843699667102
 20
4.929808119459815
 30
0.0
 10
15.72978289580757
 20
5.064591060786355
 30
0.0
 10
15.8009443644296
 20
5.183331562440239
 30
0.0
 10
15.84342456204417
 20
5.254559566561104
 30
0.0
 10
15.87621592181586
 20
5.309773527078247
 30
0.0
 10
15.89825833047706
 20
5.347013379907656
 30
0.0
 10
15.9189199223124
 20
5.382037666523272
 30
0.0
 10
15.93814010527039
 20
5.414718965434798
 30
0.0
 10
15.95066583863437
 20
5.436113540946296
 30
0.0
 10
15.95662266443539
 20
5.44628809565742
 30
0.0
  0
SPLINE
  5
8D
330
1F
100
AcDbEntity
  8
0
  6
Continuous
 62
     7
370
    25
100
AcDbSpline
210
0.0
220
0.0
230
1.0
 70
     8
 71
     3
 72
    24
 73
    20
 74
     0
 42
0.000000001
 43
0.00000001
 40
0.0
 40
0.0
 40
0.0
 40
0.0
 40
0.0467
 40
0.0934
 40
0.1401
 40
0.1666666666666667
 40
0.1868
 40
0.3707874999999999
 40
0.4444444444444444
 40
0.554775
 40
0.5555555555555556
 40
0.7387625
 40
0.8333333333333334
 40
0.92275
 40
0.92275
 40
0.9420625
 40
0.961375
 40
0.9806874999999999
 40
0.9999998310491309
 40
0.9999998310491309
 40
0.9999998310491309
 40
0.9999998310491309
 10
13.09046536090126
 20
2.749020644092613
 30
0.0
 10
13.08875245992705
 20
2.749021122925156
 30
0.0
 10
13.08532496121908
 20
2.749154870278255
 30
0.0
 10
13.08023365482346
 20
2.749767594239652
 30
0.0
 10
13.07596605045558
 20
2.750645415336447
 30
0.0
 10
13.07272905553911
 20
2.751541384352669
 30
0.0
 10
13.06489332936633
 20
2.754079971218965
 30
0.0
 10
13.05639462181121
 20
2.758814899753023
 30
0.0
 10
13.04720366511529
 20
2.767335638012288
 30
0.0
 10
13.04333234123221
 20
2.772296078335173
 30
0.0
 10
13.0378844345808
 20
2.780674713062323
 30
0.0
 10
13.03385438125266
 20
2.789351716802635
 30
0.0
 10
13.0306441939079
 20
2.801931063703776
 30
0.0
 10
13.02972108604316
 20
2.80860721527298
 30
0.0
 10
13.02936906808337
 20
2.81265818445906
 30
0.0
 10
13.0292592338014
 20
2.814105812703986
 30
0.0
 10
13.02914100842384
 20
2.816298258647216
 30
0.0
 10
13.02906987538007
 20
2.818506428283499
 30
0.0
 10
13.02905398781967
 20
2.819985335044418
 30
0.0
 10
13.02905389577214
 20
2.820725534623487
 30
0.0
  0
SPLINE
  5
8E
330
1F
100
AcDbEntity
  8
0
  6
Continuous
 62
     7
370
    25
100
AcDbSpline
210
0.0
220
0.0
230
1.0
 70
     8
 71
     3
 72
    31
 73
    27
 74
     0
 42
0.000000001
 43
0.00000001
 40
0.0
 40
0.0
 40
0.0
 40
0.0
 40
0.0092494231773432
 40
0.0199587495794611
 40
0.032192637707648
 40
0.0460215091783821
 40
0.0615207344150467
 40
0.0787697136630646
 40
0.0978508583449315
 40
0.1510726713976787
 40
0.2070664520024982
 40
0.2887372036405639
 40
0.3706623660262305
 40
0.4517741315334969
 40
0.5145643850974374
 40
0.5835885029195211
 40
0.6511143696232481
 40
0.7195960786711995
 40
0.7922436642992298
 40
0.8586205622716199
 40
0.8824929266669276
 40
0.9062456716149131
 40
0.9298753966724703
 40
0.9533792064801782
 40
0.9767547067335886
 40
1.0
 40
1.0
 40
1.0
 40
1.0
 10
13.02905432480191
 20
2.820725534310426
 30
0.0
 10
13.03248774655142
 20
2.826591986386024
 30
0.0
 10
13.03989651178848
 20
2.839250835013857
 30
0.0
 10
13.05166111551245
 20
2.859291868101822
 30
0.0
 10
13.0649211753289
 20
2.881834265073738
 30
0.0
 10
13.07966675766825
 20
2.906843989973892
 30
0.0
 10
13.09590213159155
 20
2.934317956680965
 30
0.0
 10
13.11361846091697
 20
2.964228343014889
 30
0.0
 10
13.14358124652683
 20
3.014691181610785
 30
0.0
 10
13.18472858647957
 20
3.083705886078875
 30
0.0
 10
13.24223426434828
 20
3.179623694723458
 30
0.0
 10
13.30329122366072
 20
3.280949426884776
 30
0.0
 10
13.36485505576306
 20
3.382683133530691
 30
0.0
 10
13.41578565482175
 20
3.466511578345344
 30
0.0
 10
13.45883926858707
 20
3.537184363360958
 30
0.0
 10
13.49479614460857
 20
3.596075604189582
 30
0.0
 10
13.52698583323741
 20
3.648665332473616
 30
0.0
 10
13.5546851254509
 20
3.693885994132121
 30
0.0
 10
13.57676887422652
 20
3.729890592389524
 30
0.0
 10
13.58965284788061
 20
3.750854359353724
 30
0.0
 10
13.59654412523274
 20
3.762074158236625
 30
0.0
 10
13.60013718856811
 20
3.767920100849621
 30
0.0
 10
13.60299713603154
 20
3.772576988430931
 30
0.0
 10
13.60510429824953
 20
3.776016388344392
 30
0.0
 10
13.60652626526578
 20
3.778350384845246
 30
0.0
 10
13.60685020530885
 20
3.778902007867919
 30
0.0
 10
13.60701172296511
 20
3.779177049066629
 30
0.0
  0
SPLINE
  5
8F
330
1F
100
AcDbEntity
  8
0
  6
Continuous
 62
     7
370
    25
100
AcDbSpline
210
0.0
220
0.0
230
1.0
 70
     8
 71
     3
 72
    18
 73
    14
 74
     0
 42
0.000000001
 43
0.00000001
 40
0.0
 40
0.0
 40
0.0
 40
0.0
 40
0.088043545129259
 40
0.1769329012424746
 40
0.2665742356696722
 40
0.3568748731035231
 40
0.4477435584628017
 40
0.5390906721334753
 40
0.6308284055787523
 40
0.7228709039003249
 40
0.8151343807948463
 40
0.9075372104279665
 40
1.0
 40
1.0
 40
1.0
 40
1.0
 10
13.00713089666317
 20
5.682594790799016
 30
0.0
 10
13.00933929447787
 20
5.67735718952776
 30
0.0
 10
13.01377730559929
 20
5.666831670739143
 30
0.0
 10
13.02065487790318
 20
5.651307295218999
 30
0.0
 10
13.02772369027899
 20
5.635883839396192
 30
0.0
 10
13.03498799925208
 20
5.620596371123195
 30
0.0
 10
13.04243412661934
 20
5.605447532381095
 30
0.0
 10
13.05005364114191
 20
5.590447980687665
 30
0.0
 10
13.05783739862331
 20
5.575605937415198
 30
0.0
 10
13.06577594287074
 20
5.560928206392431
 30
0.0
 10
13.07386393715762
 20
5.546426783729782
 30
0.0
 10
13.08208196297501
 20
5.532091394217516
 30
0.0
 10
13.08767039797604
 20
5.522692911123257
 30
0.0
 10
13.09046552176249
 20
5.517992145408261
 30
0.0
  0
LINE
  5
90
330
1F
100
AcDbEntity
  8
0
  6
Continuous
 62
     7
370
    25
100
AcDbLine
 10
15.9785461583
 20
5.6825947198
 30
0.0
 11
13.007130831
 21
5.6825947198
 31
0.0
  0
SPLINE
  5
91
330
1F
100
AcDbEntity
  8
0
  6
Continuous
 62
     7
370
    25
100
AcDbSpline
210
0.0
220
0.0
230
1.0
 70
     8
 71
     3
 72
    18
 73
    14
 74
     0
 42
0.000000001
 43
0.00000001
 40
0.0
 40
0.0
 40
0.0
 40
0.0
 40
0.10075832176256
 40
0.201232037821712
 40
0.3013278042616283
 40
0.4009498091232462
 40
0.4999998943371294
 40
0.6255076345877854
 40
0.7499973191722826
 40
0.8749957377435773
 40
0.9249971712105917
 40
0.9757212394699497
 40
1.0
 40
1.0
 40
1.0
 40
1.0
 10
15.89521146747481
 20
5.517992145408261
 30
0.0
 10
15.89825661070416
 20
5.523116340187853
 30
0.0
 10
15.90433829573801
 20
5.533350255755864
 30
0.0
 10
15.91325973351047
 20
5.548965992736504
 30
0.0
 10
15.92200943534855
 20
5.564745292506954
 30
0.0
 10
15.93056428368033
 20
5.580699796637481
 30
0.0
 10
15.93967963802334
 20
5.598286803307799
 30
0.0
 10
15.94928455786759
 20
5.617574846005001
 30
0.0
 10
15.95933786000434
 20
5.638743399546819
 30
0.0
 10
15.96715912149471
 20
5.656024613283685
 30
0.0
 10
15.97290848411769
 20
5.669269394559246
 30
0.0
 10
15.9760989914573
 20
5.676660779247184
 30
0.0
 10
15.97794766760516
 20
5.681143661275032
 30
0.0
 10
15.97854609257413
 20
5.682594790799016
 30
0.0
  0
SPLINE
  5
92
330
1F
100
AcDbEntity
  8
0
  6
Continuous
 62
     7
370
    25
100
AcDbSpline
210
0.0
220
0.0
230
1.0
 70
     8
 71
     3
 72
    22
 73
    18
 74
     0
 42
0.000000001
 43
0.00000001
 40
0.0
 40
0.0
 40
0.0
 40
0.0
 40
0.0104492052709745
 40
0.0822888875685964
 40
0.1623079032049682
 40
0.24907014798798
 40
0.3369708895486971
 40
0.4177212597466393
 40
0.4867665267901429
 40
0.4995287730323972
 40
0.5607821775100162
 40
0.6219017944275145
 40
0.6864591471763521
 40
0.7595476521257725
 40
0.8417745411073517
 40
0.9297544862263882
 40
1.0
 40
1.0
 40
1.0
 40
1.0
 10
14.4080364134262
 20
3.150776920896853
 30
0.0
 10
14.40669571327352
 20
3.150131279456927
 30
0.0
 10
14.39613752044778
 20
3.145046766856981
 30
0.0
 10
14.38500449086826
 20
3.131348297188784
 30
0.0
 10
14.37802756476206
 20
3.110504413031574
 30
0.0
 10
14.38663492494935
 20
3.087450799044658
 30
0.0
 10
14.41043512301744
 20
3.066668500931926
 30
0.0
 10
14.44564217039624
 20
3.05248054768991
 30
0.0
 10
14.47538471392396
 20
3.04826253300272
 30
0.0
 10
14.50178287334977
 20
3.047772700147183
 30
0.0
 10
14.52692730652823
 20
3.05005771356057
 30
0.0
 10
14.55744462733496
 20
3.058818758345341
 30
0.0
 10
14.58274852279732
 20
3.072499128243731
 30
0.0
 10
14.60081254517442
 20
3.09085813936358
 30
0.0
 10
14.6073267683193
 20
3.112689653419955
 30
0.0
 10
14.60086334826654
 20
3.134381691120759
 30
0.0
 10
14.58418848937429
 20
3.145736055855584
 30
0.0
 10
14.57678554652181
 20
3.150776920896853
 30
0.0
  0
LINE
  5
93
330
1F
100
AcDbEntity
  8
0
  6
Continuous
 62
     7
370
    25
100
AcDbLine
 10
15.9785461583
 20
2.5844189102
 30
0.0
 11
13.007130831
 21
2.5844189102
 31
0.0
  0
SPLINE
  5
94
330
1F
100
AcDbEntity
  8
0
  6
Continuous
 62
     7
370
    25
100
AcDbSpline
210
0.0
220
0.0
230
1.0
 70
     8
 71
     3
 72
    16
 73
    12
 74
     0
 42
0.000000001
 43
0.00000001
 40
0.0
 40
0.0
 40
0.0
 40
0.0
 40
0.0229555858129082
 40
0.0714316983848391
 40
0.1250049536250052
 40
0.2500041123535194
 40
0.3744867965742584
 40
0.5000030175420557
 40
0.6654057610960765
 40
0.8322191690912106
 40
0.9999999999999999
 40
0.9999999999999999
 40
0.9999999999999999
 40
0.9999999999999999
 10
13.00713089666317
 20
2.584418839168832
 30
0.0
 10
13.00769680442092
 20
2.585790944026575
 30
0.0
 10
13.0094577593621
 20
2.590060570650328
 30
0.0
 10
13.01264452983613
 20
2.597455989995016
 30
0.0
 10
13.01842459311613
 20
2.61078292543305
 30
0.0
 10
13.02633886763696
 20
2.628269865696149
 30
0.0
 10
13.03639244961536
 20
2.649438053843785
 30
0.0
 10
13.04782198526108
 20
2.672394214278023
 30
0.0
 10
13.0607797359247
 20
2.697082280164177
 30
0.0
 10
13.0753287572196
 20
2.723400978776041
 30
0.0
 10
13.08541021729998
 20
2.740464870175298
 30
0.0
 10
13.09046552176249
 20
2.749021484559585
 30
0.0
  0
SPLINE
  5
95
330
1F
100
AcDbEntity
  8
0
  6
Continuous
 62
     7
370
    25
100
AcDbSpline
210
0.0
220
0.0
230
1.0
 70
     8
 71
     3
 72
    10
 73
     6
 74
     0
 42
0.000000001
 43
0.00000001
 40
0.0
 40
0.0
 40
0.0
 40
0.0
 40
0.5
 40
0.5
 40
1.0
 40
1.0
 40
1.0
 40
1.0
 10
15.89521156609287
 20
2.749020747916162
 30
0.0
 10
15.91039151322196
 20
2.723699527429358
 30
0.0
 10
15.92498304183692
 20
2.69746591357284
 30
0.0
 10
15.95283398212473
 20
2.642769209555838
 30
0.0
 10
15.96609907185596
 20
2.614313769108525
 30
0.0
 10
15.97854609253162
 20
2.584419336220265
 30
0.0
  0
SPLINE
  5
96
330
1F
100
AcDbEntity
  8
0
  6
Continuous
 62
     7
370
    25
100
AcDbSpline
210
0.0
220
0.0
230
1.0
 70
     8
 71
     3
 72
    17
 73
    13
 74
     0
 42
0.000000001
 43
0.00000001
 40
0.0
 40
0.0
 40
0.0
 40
0.0
 40
0.1265789664667464
 40
0.2468137607563108
 40
0.3608696263491091
 40
0.4689117950689395
 40
0.5711049577189904
 40
0.6676127550677731
 40
0.7585972927421094
 40
0.8442186838447449
 40
0.924634623490066
 40
0.9999999999999999
 40
0.9999999999999999
 40
0.9999999999999999
 40
0.9999999999999999
 10
15.95662266443539
 20
5.44628809565742
 30
0.0
 10
15.96041924753783
 20
5.452761025211432
 30
0.0
 10
15.96782212796649
 20
5.465382459332212
 30
0.0
 10
15.97885437399149
 20
5.484108950062718
 30
0.0
 10
15.98946813590607
 20
5.502052100887142
 30
0.0
 10
15.99967778761541
 20
5.519225917462102
 30
0.0
 10
16.0094811033004
 20
5.535622459339852
 30
0.0
 10
16.01888124870082
 20
5.551241237720385
 30
0.0
 10
16.02787938832928
 20
5.566081121036733
 30
0.0
 10
16.03648278164102
 20
5.580144483187125
 30
0.0
 10
16.04468101727571
 20
5.593428184409415
 30
0.0
 10
16.0500822211514
 20
5.602051577985003
 30
0.0
 10
16.05269526727109
 20
5.606223485885499
 30
0.0
  0
LINE
  5
97
330
1F
100
AcDbEntity
  8
0
  6
Continuous
 62
     7
370
    25
100
AcDbLine
 10
16.052695275
 20
5.606223482
 30
0.0
 11
16.052695275
 21
2.6607901479
 31
0.0
  0
SPLINE
  5
98
330
1F
100
AcDbEntity
  8
0
  6
Continuous
 62
     7
370
    25
100
AcDbSpline
210
0.0
220
0.0
230
1.0
 70
     8
 71
     3
 72
    10
 73
     6
 74
     0
 42
0.000000001
 43
0.00000001
 40
0.0
 40
0.0
 40
0.0
 40
0.0
 40
0.5
 40
0.5
 40
1.0
 40
1.0
 40
1.0
 40
1.0
 10
16.05269437076236
 20
2.660790144082552
 30
0.0
 10
16.03523412294863
 20
2.688415132589761
 30
0.0
 10
16.01874427488159
 20
2.715688923981791
 30
0.0
 10
15.98689645705063
 20
2.769100229048236
 30
0.0
 10
15.97155685472813
 20
2.795246748836558
 30
0.0
 10
15.95662309346516
 20
2.820725534623486
 30
0.0
  0
SPLINE
  5
99
330
1F
100
AcDbEntity
  8
0
  6
Continuous
 62
     7
370
    25
100
AcDbSpline
210
0.0
220
0.0
230
1.0
 70
     8
 71
     3
 72
    14
 73
    10
 74
     0
 42
0.000000001
 43
0.00000001
 40
0.0
 40
0.0
 40
0.0
 40
0.0
 40
0.1026212382569653
 40
0.2176080115949184
 40
0.3455633911410195
 40
0.4871177186527086
 40
0.642924686622365
 40
0.8136567537856443
 40
1.0
 40
1.0
 40
1.0
 40
1.0
 10
12.93298172196622
 20
2.66079014408235
 30
0.0
 10
12.93654039698107
 20
2.666452575813903
 30
0.0
 10
12.94408655610999
 20
2.678459744415884
 30
0.0
 10
12.95571649110874
 20
2.697409150850964
 30
0.0
 10
12.96839629847667
 20
2.718318837963375
 30
0.0
 10
12.98211073736644
 20
2.74119757548391
 30
0.0
 10
12.99687547160456
 20
2.766042510134594
 30
0.0
 10
13.01272390936109
 20
2.792889295364298
 30
0.0
 10
13.02345447442588
 20
2.811180230720658
 30
0.0
 10
13.02905432480191
 20
2.820725534310426
 30
0.0
  0
LINE
  5
9A
330
1F
100
AcDbEntity
  8
0
  6
Continuous
 62
     7
370
    25
100
AcDbLine
 10
12.9329817142
 20
5.606223482
 30
0.0
 11
12.9329817142
 21
2.6607901479
 31
0.0
  0
SPLINE
  5
9B
330
1F
100
AcDbEntity
  8
0
  6
Continuous
 62
     7
370
    25
100
AcDbSpline
210
0.0
220
0.0
230
1.0
 70
     8
 71
     3
 72
    10
 73
     6
 74
     0
 42
0.000000001
 43
0.00000001
 40
0.0
 40
0.0
 40
0.0
 40
0.0
 40
0.5
 40
0.5
 40
1.0
 40
1.0
 40
1.0
 40
1.0
 10
12.93298261847494
 20
5.606223485885296
 30
0.0
 10
12.95044286628867
 20
5.578598497378087
 30
0.0
 10
12.96693271435571
 20
5.551324705986056
 30
0.0
 10
12.99878053218667
 20
5.497913400919612
 30
0.0
 10
13.01412013450917
 20
5.471766881131289
 30
0.0
 10
13.02905389577214
 20
5.44628809534436
 30
0.0
  0
SPLINE
  5
9C
330
1F
100
AcDbEntity
  8
0
  6
Continuous
 62
     7
370
    25
100
AcDbSpline
210
0.0
220
0.0
230
1.0
 70
     8
 71
     3
 72
    11
 73
     7
 74
     0
 42
0.000000001
 43
0.00000001
 40
0.0
 40
0.0
 40
0.0
 40
0.0
 40
0.1483480589091972
 40
0.4731716315549062
 40
0.7993192481548765
 40
1.0
 40
1.0
 40
1.0
 40
1.0
 10
12.93297831892728
 20
5.608001062586864
 30
0.0
 10
12.93296237900531
 20
5.607916618673876
 30
0.0
 10
12.93291153695895
 20
5.607647275991691
 30
0.0
 10
12.93292677594132
 20
5.607159653300664
 30
0.0
 10
12.93292254541256
 20
5.606647385932307
 30
0.0
 10
12.9329660475386
 20
5.606340417175597
 30
0.0
 10
12.93298261847494
 20
5.606223485885296
 30
0.0
  0
SPLINE
  5
9D
330
1F
100
AcDbEntity
  8
0
  6
Continuous
 62
     7
370
    25
100
AcDbSpline
210
0.0
220
0.0
230
1.0
 70
     8
 71
     3
 72
    12
 73
     8
 74
     0
 42
0.000000001
 43
0.00000001
 40
0.0
 40
0.0
 40
0.0
 40
0.0
 40
0.0582088323182578
 40
0.2248344701031466
 40
0.4999101264587577
 40
0.8354124845754076
 40
1.0
 40
1.0
 40
1.0
 40
1.0
 10
12.93297783786644
 20
5.608001061876778
 30
0.0
 10
12.93296542089324
 20
5.608205012721232
 30
0.0
 10
12.93291745972516
 20
5.608992782862178
 30
0.0
 10
12.93291999437409
 20
5.610757949657049
 30
0.0
 10
12.93289263074177
 20
5.613494569900295
 30
0.0
 10
12.93288022430297
 20
5.616228427208033
 30
0.0
 10
12.93295620896138
 20
5.617987800354483
 30
0.0
 10
12.93298121671859
 20
5.618566837983917
 30
0.0
  0
SPLINE
  5
9E
330
1F
100
AcDbEntity
  8
0
  6
Continuous
 62
     7
370
    25
100
AcDbSpline
210
0.0
220
0.0
230
1.0
 70
     8
 71
     3
 72
    22
 73
    18
 74
     0
 42
0.000000001
 43
0.00000001
 40
0.0
 40
0.0
 40
0.0
 40
0.0
 40
0.0672920358985163
 40
0.1029621743296575
 40
0.1339415045940977
 40
0.1603987559801253
 40
0.1999326502913652
 40
0.265199443388641
 40
0.3919147143540846
 40
0.5191059885140914
 40
0.6327566292552634
 40
0.7637330562163124
 40
0.81825506824758
 40
0.8829710841851212
 40
0.9479794014690375
 40
0.9868709378956718
 40
1.0
 40
1.0
 40
1.0
 40
1.0
 10
13.00713089670569
 20
5.682594293747581
 30
0.0
 10
13.00457943018617
 20
5.682595125924988
 30
0.0
 10
13.00067548320239
 20
5.6825963992227
 30
0.0
 10
12.99559815709762
 20
5.682488061279829
 30
0.0
 10
12.99206964025937
 20
5.682373020520656
 30
0.0
 10
12.98839300358961
 20
5.682386375452941
 30
0.0
 10
12.98341595902919
 20
5.682345746411864
 30
0.0
 10
12.97465280157509
 20
5.681570558070212
 30
0.0
 10
12.96293811512464
 20
5.677776089341709
 30
0.0
 10
12.95149596554877
 20
5.669430178189956
 30
0.0
 10
12.94273646048531
 20
5.658219374594159
 30
0.0
 10
12.93798128726828
 20
5.647802006938808
 30
0.0
 10
12.93533430878744
 20
5.638686710607943
 30
0.0
 10
12.93395483725807
 20
5.631827268786545
 30
0.0
 10
12.93324029616956
 20
5.625469516510978
 30
0.0
 10
12.93298388715561
 20
5.621035686076494
 30
0.0
 10
12.93298221488285
 20
5.619064354476148
 30
0.0
 10
12.93298179283132
 20
5.618566825886703
 30
0.0
  0
SPLINE
  5
9F
330
1F
100
AcDbEntity
  8
0
  6
Continuous
 62
     7
370
    25
100
AcDbSpline
210
0.0
220
0.0
230
1.0
 70
     8
 71
     3
 72
    11
 73
     7
 74
     0
 42
0.000000001
 43
0.00000001
 40
0.0
 40
0.0
 40
0.0
 40
0.0
 40
0.1483480585564603
 40
0.473171631503948
 40
0.7993192474151135
 40
1.0
 40
1.0
 40
1.0
 40
1.0
 10
16.05269867031002
 20
2.659012567380982
 30
0.0
 10
16.05271461023187
 20
2.659097011293814
 30
0.0
 10
16.05276545227793
 20
2.659366353976113
 30
0.0
 10
16.05275021329604
 20
2.659853976666533
 30
0.0
 10
16.05275444382504
 20
2.660366244035187
 30
0.0
 10
16.05271094169883
 20
2.66067321279185
 30
0.0
 10
16.05269437076236
 20
2.660790144082552
 30
0.0
  0
SPLINE
  5
A0
330
1F
100
AcDbEntity
  8
0
  6
Continuous
 62
     7
370
    25
100
AcDbSpline
210
0.0
220
0.0
230
1.0
 70
     8
 71
     3
 72
    12
 73
     8
 74
     0
 42
0.000000001
 43
0.00000001
 40
0.0
 40
0.0
 40
0.0
 40
0.0
 40
0.0582088323132464
 40
0.2248344700982268
 40
0.4999101264582396
 40
0.8354124845086154
 40
1.0
 40
1.0
 40
1.0
 40
1.0
 10
16.05269915137086
 20
2.659012568091068
 30
0.0
 10
16.05271156834404
 20
2.65880861724663
 30
0.0
 10
16.05275952951206
 20
2.65802084710569
 30
0.0
 10
16.05275699486318
 20
2.65625568031083
 30
0.0
 10
16.05278435849553
 20
2.653519060067802
 30
0.0
 10
16.05279676493439
 20
2.650785202760046
 30
0.0
 10
16.05272078027594
 20
2.649025829613597
 30
0.0
 10
16.05269577251871
 20
2.64844679198393
 30
0.0
  0
SPLINE
  5
A1
330
1F
100
AcDbEntity
  8
0
  6
Continuous
 62
     7
370
    25
100
AcDbSpline
210
0.0
220
0.0
230
1.0
 70
     8
 71
     3
 72
    22
 73
    18
 74
     0
 42
0.000000001
 43
0.00000001
 40
0.0
 40
0.0
 40
0.0
 40
0.0
 40
0.0672920358987751
 40
0.1029621743854459
 40
0.1339415045946171
 40
0.160398756007527
 40
0.1999326502921674
 40
0.265199443389687
 40
0.3919147144626516
 40
0.5191059885125814
 40
0.6327566292647816
 40
0.763733056215879
 40
0.8182550684699696
 40
0.8829710841853659
 40
0.947979401473127
 40
0.9868709378999054
 40
1.0
 40
1.0
 40
1.0
 40
1.0
 10
15.97854609253162
 20
2.584419336220265
 30
0.0
 10
15.98109755905113
 20
2.584418504042869
 30
0.0
 10
15.98500150603701
 20
2.584417230745174
 30
0.0
 10
15.99007883214178
 20
2.584525568688027
 30
0.0
 10
15.99360734898104
 20
2.584640609447255
 30
0.0
 10
15.99728398564871
 20
2.584627254514798
 30
0.0
 10
16.00226103020911
 20
2.584667883556155
 30
0.0
 10
16.01102418766637
 20
2.58544307189766
 30
0.0
 10
16.02273887411563
 20
2.589237540630289
 30
0.0
 10
16.03418102369167
 20
2.597583451781008
 30
0.0
 10
16.04294052875228
 20
2.608794255374139
 30
0.0
 10
16.04769570197243
 20
2.619211623037203
 30
0.0
 10
16.05034268045217
 20
2.628326919368083
 30
0.0
 10
16.05172215198021
 20
2.635186361189809
 30
0.0
 10
16.05243669306741
 20
2.641544113457224
 30
0.0
 10
16.0526931020808
 20
2.645977943891638
 30
0.0
 10
16.05269477435427
 20
2.647949275491853
 30
0.0
 10
16.05269519640598
 20
2.648446804081143
 30
0.0
  0
SPLINE
  5
A2
330
1F
100
AcDbEntity
  8
0
  6
Continuous
 62
     7
370
    25
100
AcDbSpline
210
0.0
220
0.0
230
1.0
 70
     8
 71
     3
 72
    11
 73
     7
 74
     0
 42
0.000000001
 43
0.00000001
 40
0.0
 40
0.0
 40
0.0
 40
0.0
 40
0.1483480588120247
 40
0.4731716315405797
 40
0.7993192479512741
 40
1.0
 40
1.0
 40
1.0
 40
1.0
 10
12.93297831892728
 20
2.659012567380981
 30
0.0
 10
12.93296237900534
 20
2.659097011293927
 30
0.0
 10
12.93291153695907
 20
2.659366353976144
 30
0.0
 10
12.9329267759413
 20
2.659853976667004
 30
0.0
 10
12.93292254541248
 20
2.660366244035442
 30
0.0
 10
12.93296604753856
 20
2.66067321279214
 30
0.0
 10
12.93298261847495
 20
2.660790144082552
 30
0.0
  0
SPLINE
  5
A3
330
1F
100
AcDbEntity
  8
0
  6
Continuous
 62
     7
370
    25
100
AcDbSpline
210
0.0
220
0.0
230
1.0
 70
     8
 71
     3
 72
    23
 73
    19
 74
     0
 42
0.000000001
 43
0.00000001
 40
0.0
 40
0.0
 40
0.0
 40
0.0
 40
0.0036751064613527
 40
0.0146048150304631
 40
0.0328236038440984
 40
0.0583883697599288
 40
0.0913848029068958
 40
0.1319418873960444
 40
0.1802166270971508
 40
0.2363553269209084
 40
0.3005427023492927
 40
0.3729564416197169
 40
0.4539297569152869
 40
0.5437961501673335
 40
0.6427322469954824
 40
0.7513636873310893
 40
0.8703402779422188
 40
1.0
 40
1.0
 40
1.0
 40
1.0
 10
12.93298121671859
 20
2.648446791983929
 30
0.0
 10
12.93298224583606
 20
2.64830742158865
 30
0.0
 10
12.93298633553263
 20
2.647753565839109
 30
0.0
 10
12.93302478382763
 20
2.646508865665175
 30
0.0
 10
12.93311215329619
 20
2.644435312439199
 30
0.0
 10
12.93331022170319
 20
2.641529115955765
 30
0.0
 10
12.9336911936189
 20
2.637787748409939
 30
0.0
 10
12.93437145468721
 20
2.633214684388592
 30
0.0
 10
12.9355046856236
 20
2.627829461401519
 30
0.0
 10
12.93728684616388
 20
2.621679861007694
 30
0.0
 10
12.93996511495312
 20
2.614862921233399
 30
0.0
 10
12.94388918746057
 20
2.607573632386346
 30
0.0
 10
12.9494667808964
 20
2.600170280183481
 30
0.0
 10
12.95708226774186
 20
2.593221095173872
 30
0.0
 10
12.96703861820942
 20
2.587684803679478
 30
0.0
 10
12.97918851126646
 20
2.584537977064458
 30
0.0
 10
12.99279486580209
 20
2.584679899727593
 30
0.0
 10
13.0022172692237
 20
2.584508480165649
 30
0.0
 10
13.00713089666472
 20
2.584419087701136
 30
0.0
  0
SPLINE
  5
A4
330
1F
100
AcDbEntity
  8
0
  6
Continuous
 62
     7
370
    25
100
AcDbSpline
210
0.0
220
0.0
230
1.0
 70
     8
 71
     3
 72
    14
 73
    10
 74
     0
 42
0.000000001
 43
0.00000001
 40
0.0
 40
0.0
 40
0.0
 40
0.0
 40
0.0978336734440711
 40
0.2503103835104719
 40
0.4999713530881847
 40
0.7495202360849025
 40
0.8493857338525729
 40
0.9598642214026075
 40
1.0
 40
1.0
 40
1.0
 40
1.0
 10
12.93298179283132
 20
2.648446804081143
 30
0.0
 10
12.93296050379206
 20
2.64879042200336
 30
0.0
 10
12.93290603514751
 20
2.649669578748304
 30
0.0
 10
12.93289306931106
 20
2.651433638926913
 30
0.0
 10
12.93289511274336
 20
2.653730181005885
 30
0.0
 10
12.93290315399772
 20
2.655843963254436
 30
0.0
 10
12.93291836342617
 20
2.657462772767817
 30
0.0
 10
12.93290624593268
 20
2.658352157750173
 30
0.0
 10
12.93296315402518
 20
2.658873610377007
 30
0.0
 10
12.93297831892728
 20
2.659012567380981
 30
0.0
  0
SPLINE
  5
A5
330
1F
100
AcDbEntity
  8
0
  6
Continuous
 62
     7
370
    25
100
AcDbSpline
210
0.0
220
0.0
230
1.0
 70
     8
 71
     3
 72
    11
 73
     7
 74
     0
 42
0.000000001
 43
0.00000001
 40
0.0
 40
0.0
 40
0.0
 40
0.0
 40
0.148348058662173
 40
0.4731716315200677
 40
0.7993192476365462
 40
1.0
 40
1.0
 40
1.0
 40
1.0
 10
16.05269867031002
 20
5.608001062586865
 30
0.0
 10
16.0527146102319
 20
5.607916618673986
 30
0.0
 10
16.05276545227805
 20
5.607647275991722
 30
0.0
 10
16.05275021329602
 20
5.607159653301119
 30
0.0
 10
16.05275444382496
 20
5.606647385932554
 30
0.0
 10
16.05271094169879
 20
5.606340417175879
 30
0.0
 10
16.05269437076236
 20
5.606223485885296
 30
0.0
  0
SPLINE
  5
A6
330
1F
100
AcDbEntity
  8
0
  6
Continuous
 62
     7
370
    25
100
AcDbSpline
210
0.0
220
0.0
230
1.0
 70
     8
 71
     3
 72
    23
 73
    19
 74
     0
 42
0.000000001
 43
0.00000001
 40
0.0
 40
0.0
 40
0.0
 40
0.0
 40
0.0036751064614028
 40
0.0146048150305446
 40
0.032823603844208
 40
0.0583883697600539
 40
0.0913848029070334
 40
0.1319418873961819
 40
0.1802166270972853
 40
0.2363553269210266
 40
0.3005427023493848
 40
0.3729564416197913
 40
0.4539297569153271
 40
0.5437961501673481
 40
0.6427322469954748
 40
0.7513636873310693
 40
0.8703402779422124
 40
1.0
 40
1.0
 40
1.0
 40
1.0
 10
16.05269577251871
 20
5.618566837983916
 30
0.0
 10
16.05269474340124
 20
5.618706208379199
 30
0.0
 10
16.05269065370468
 20
5.619260064128743
 30
0.0
 10
16.05265220540968
 20
5.620504764302681
 30
0.0
 10
16.05256483594113
 20
5.622578317528663
 30
0.0
 10
16.05236676753413
 20
5.625484514012098
 30
0.0
 10
16.05198579561842
 20
5.629225881557927
 30
0.0
 10
16.05130553455012
 20
5.633798945579277
 30
0.0
 10
16.05017230361372
 20
5.63918416856635
 30
0.0
 10
16.04839014307345
 20
5.645333768960177
 30
0.0
 10
16.0457118742842
 20
5.65215070873447
 30
0.0
 10
16.04178780177675
 20
5.659439997581526
 30
0.0
 10
16.03621020834093
 20
5.666843349784388
 30
0.0
 10
16.02859472149546
 20
5.673792534793997
 30
0.0
 10
16.01863837102789
 20
5.679328826288387
 30
0.0
 10
16.00648847797085
 20
5.682475652903405
 30
0.0
 10
15.99288212343522
 20
5.682333730240262
 30
0.0
 10
15.9834597200136
 20
5.6825051498022
 30
0.0
 10
15.97854609257258
 20
5.682594542266711
 30
0.0
  0
SPLINE
  5
A7
330
1F
100
AcDbEntity
  8
0
  6
Continuous
 62
     7
370
    25
100
AcDbSpline
210
0.0
220
0.0
230
1.0
 70
     8
 71
     3
 72
    14
 73
    10
 74
     0
 42
0.000000001
 43
0.00000001
 40
0.0
 40
0.0
 40
0.0
 40
0.0
 40
0.0978336731194293
 40
0.2503103835104425
 40
0.4999713530894317
 40
0.7495202360873476
 40
0.8493857338553681
 40
0.9598642214203298
 40
1.0
 40
1.0
 40
1.0
 40
1.0
 10
16.05269519640598
 20
5.618566825886704
 30
0.0
 10
16.05271648544512
 20
5.618223207965623
 30
0.0
 10
16.05277095408955
 20
5.617344051220668
 30
0.0
 10
16.05278391992636
 20
5.615579991042083
 30
0.0
 10
16.05278187649392
 20
5.613283448961956
 30
0.0
 10
16.05277383523953
 20
5.61116966671342
 30
0.0
 10
16.05275862581122
 20
5.609550857199967
 30
0.0
 10
16.05277074330435
 20
5.608661472217682
 30
0.0
 10
16.05271383521206
 20
5.608140019590795
 30
0.0
 10
16.05269867031002
 20
5.608001062586865
 30
0.0
  0
SPLINE
  5
A8
330
1F
100
AcDbEntity
  8
0
  6
Continuous
 62
     7
370
    25
100
AcDbSpline
210
0.0
220
0.0
230
1.0
 70
     8
 71
     3
 72
    10
 73
     6
 74
     0
 42
0.000000001
 43
0.00000001
 40
0.0
 40
0.0
 40
0.0
 40
0.0
 40
0.5
 40
0.5
 40
1.0
 40
1.0
 40
1.0
 40
1.0
 10
12.91803534501235
 20
2.637443822857939
 30
0.0
 10
12.91803534501235
 20
2.637445042175139
 30
0.0
 10
12.91923767025683
 20
2.639426972975555
 30
0.0
 10
12.92445805306486
 20
2.647535310635975
 30
0.0
 10
12.92846231525845
 20
2.653647505865781
 30
0.0
 10
12.93298216077655
 20
2.660790144089835
 30
0.0
  0
SPLINE
  5
A9
330
1F
100
AcDbEntity
  8
0
  6
Continuous
 62
     7
370
    25
100
AcDbSpline
210
0.0
220
0.0
230
1.0
 70
     8
 71
     3
 72
    17
 73
    13
 74
     0
 42
0.000000001
 43
0.00000001
 40
0.0
 40
0.0
 40
0.0
 40
0.0
 40
0.0705486691868307
 40
0.1358765775151796
 40
0.1957760708074257
 40
0.2500859720961185
 40
0.3779292537592313
 40
0.500087159755533
 40
0.6176288628757521
 40
0.7405477249677466
 40
0.8682656493118427
 40
1.0
 40
1.0
 40
1.0
 40
1.0
 10
13.00713089666317
 20
2.584418839168968
 30
0.0
 10
13.00667249074386
 20
2.583328199481753
 30
0.0
 10
13.00578960197861
 20
2.581227629907456
 30
0.0
 10
13.0045801412947
 20
2.578394581179375
 30
0.0
 10
13.00351799395265
 20
2.575924390291204
 30
0.0
 10
13.00216577777351
 20
2.572773768462019
 30
0.0
 10
13.00065537553999
 20
2.569176977510408
 30
0.0
 10
12.99916299256201
 20
2.565519234471764
 30
0.0
 10
12.9980723618343
 20
2.562607669689134
 30
0.0
 10
12.99732548458916
 20
2.560435521657107
 30
0.0
 10
12.9968596990745
 20
2.5589829742788
 30
0.0
 10
12.99680385617684
 20
2.558797724259801
 30
0.0
 10
12.99677550249267
 20
2.558703665377625
 30
0.0
  0
SPLINE
  5
AA
330
1F
100
AcDbEntity
  8
0
  6
Continuous
 62
     7
370
    25
100
AcDbSpline
210
0.0
220
0.0
230
1.0
 70
     8
 71
     3
 72
    14
 73
    10
 74
     0
 42
0.000000001
 43
0.00000001
 40
0.0
 40
0.0
 40
0.0
 40
0.0
 40
0.25
 40
0.25
 40
0.5
 40
0.5
 40
0.75
 40
0.75
 40
1.0
 40
1.0
 40
1.0
 40
1.0
 10
12.99677550249267
 20
2.558703665377625
 30
0.0
 10
12.98646843998089
 20
2.558703665377625
 30
0.0
 10
12.97616543285808
 20
2.560753060915553
 30
0.0
 10
12.95712046466819
 20
2.568641745034771
 30
0.0
 10
12.94838599698283
 20
2.57447792975572
 30
0.0
 10
12.93380960939045
 20
2.589054317348104
 30
0.0
 10
12.9279734246695
 20
2.59778878503346
 30
0.0
 10
12.92008474055028
 20
2.616833753223351
 30
0.0
 10
12.91803534501235
 20
2.627136760346162
 30
0.0
 10
12.91803534501235
 20
2.637443822857939
 30
0.0
  0
SPLINE
  5
AB
330
1F
100
AcDbEntity
  8
0
  6
Continuous
 62
     7
370
    25
100
AcDbSpline
210
0.0
220
0.0
230
1.0
 70
     8
 71
     3
 72
    10
 73
     6
 74
     0
 42
0.000000001
 43
0.00000001
 40
0.0
 40
0.0
 40
0.0
 40
0.0
 40
0.5
 40
0.5
 40
1.0
 40
1.0
 40
1.0
 40
1.0
 10
12.91803534501235
 20
5.629569807109907
 30
0.0
 10
12.91803534501235
 20
5.629568587792711
 30
0.0
 10
12.91923767025683
 20
5.62758665699229
 30
0.0
 10
12.92445805306486
 20
5.619478319331874
 30
0.0
 10
12.92846231525846
 20
5.613366124102066
 30
0.0
 10
12.93298216077655
 20
5.606223485878012
 30
0.0
  0
SPLINE
  5
AC
330
1F
100
AcDbEntity
  8
0
  6
Continuous
 62
     7
370
    25
100
AcDbSpline
210
0.0
220
0.0
230
1.0
 70
     8
 71
     3
 72
    33
 73
    29
 74
     0
 42
0.000000001
 43
0.00000001
 40
0.0
 40
0.0
 40
0.0
 40
0.0
 40
0.0279562499999997
 40
0.0559124999999994
 40
0.0838687499999995
 40
0.1118249999999998
 40
0.1397812499999996
 40
0.1666666666666666
 40
0.1677374999999997
 40
0.2236499999999995
 40
0.2795624999999997
 40
0.335475
 40
0.4444444444444444
 40
0.4472999999999998
 40
0.5555555555555556
 40
0.5591250000000001
 40
0.6709499999999998
 40
0.782775
 40
0.8333333333333334
 40
0.8946000000000001
 40
0.9170375
 40
0.939475
 40
0.9619125
 40
0.98435
 40
0.9882625
 40
0.992175
 40
0.9960875
 40
1.0
 40
1.0
 40
1.0
 40
1.0
 10
12.99677550249267
 20
5.708309964590223
 30
0.0
 10
12.99570052134165
 20
5.708309964590221
 30
0.0
 10
12.99354695851464
 20
5.708265936821722
 30
0.0
 10
12.99031134409067
 20
5.708067001410392
 30
0.0
 10
12.98707599087469
 20
5.707734361787394
 30
0.0
 10
12.98384643025813
 20
5.707267207499646
 30
0.0
 10
12.98066928396767
 20
5.706672420530528
 30
0.0
 10
12.97853481459647
 20
5.706181748720515
 30
0.0
 10
12.97534419798962
 20
5.705377283515253
 30
0.0
 10
12.97108001683664
 20
5.704106518104591
 30
0.0
 10
12.9648782128976
 20
5.701664182358943
 30
0.0
 10
12.95695433449368
 20
5.697738116878398
 30
0.0
 10
12.95127409273883
 20
5.693979440874797
 30
0.0
 10
12.94424678693709
 20
5.688393021380041
 30
0.0
 10
12.94080693353742
 20
5.685143463367782
 30
0.0
 10
12.9346583359144
 20
5.678207797692593
 30
0.0
 10
12.92900279074709
 20
5.670536391658609
 30
0.0
 10
12.92387488562489
 20
5.659984142899945
 30
0.0
 10
12.92083658981109
 20
5.650807027949133
 30
0.0
 10
12.9195116455874
 20
5.645098750268175
 30
0.0
 10
12.91877816048866
 20
5.64049467005435
 30
0.0
 10
12.91842261899753
 20
5.63755508937669
 30
0.0
 10
12.91817747828198
 20
5.634599508992286
 30
0.0
 10
12.91808070440105
 20
5.632453303604938
 30
0.0
 10
12.91805009347318
 20
5.631122614407207
 30
0.0
 10
12.91804157400439
 20
5.63060425618229
 30
0.0
 10
12.91803647768264
 20
5.630087053518074
 30
0.0
 10
12.91803534501235
 20
5.629742230579562
 30
0.0
 10
12.91803534501235
 20
5.629569807109907
 30
0.0
  0
SPLINE
  5
AD
330
1F
100
AcDbEntity
  8
0
  6
Continuous
 62
     7
370
    25
100
AcDbSpline
210
0.0
220
0.0
230
1.0
 70
     8
 71
     3
 72
    18
 73
    14
 74
     0
 42
0.000000001
 43
0.00000001
 40
0.0
 40
0.0
 40
0.0
 40
0.0
 40
0.0757308037851866
 40
0.1502760815965066
 40
0.2234677785163741
 40
0.2951567932504046
 40
0.3652151528588504
 40
0.4335376243841982
 40
0.5000427824997362
 40
0.6221597936923642
 40
0.7500199789759204
 40
0.8641676700331395
 40
1.0
 40
1.0
 40
1.0
 40
1.0
 10
12.99677550249267
 20
5.708309964590224
 30
0.0
 10
12.99678490865802
 20
5.708278891453343
 30
0.0
 10
12.99680357374014
 20
5.708217231613224
 30
0.0
 10
12.99695699228483
 20
5.707725687830761
 30
0.0
 10
12.99720271357056
 20
5.706964164354329
 30
0.0
 10
12.99754932446123
 20
5.70592734606914
 30
0.0
 10
12.99799479443973
 20
5.704648544426304
 30
0.0
 10
12.99853908529183
 20
5.703153635555037
 30
0.0
 10
12.99937043930453
 20
5.700987460917801
 30
0.0
 10
13.0006547118525
 20
5.697838138597647
 30
0.0
 10
13.00246424739152
 20
5.693527559671282
 30
0.0
 10
13.00464546798447
 20
5.688484790431666
 30
0.0
 10
13.00625585581099
 20
5.684668473436489
 30
0.0
 10
13.00713089666317
 20
5.682594790798878
 30
0.0
  0
SPLINE
  5
AE
330
1F
100
AcDbEntity
  8
0
  6
Continuous
 62
     7
370
    25
100
AcDbSpline
210
0.0
220
0.0
230
1.0
 70
     8
 71
     3
 72
    10
 73
     6
 74
     0
 42
0.000000001
 43
0.00000001
 40
0.0
 40
0.0
 40
0.0
 40
0.0
 40
0.5
 40
0.5
 40
1.0
 40
1.0
 40
1.0
 40
1.0
 10
16.06764164422495
 20
2.637443822857939
 30
0.0
 10
16.06764164422495
 20
2.637445042175139
 30
0.0
 10
16.06643931898048
 20
2.639426972975555
 30
0.0
 10
16.06121893617244
 20
2.647535310635974
 30
0.0
 10
16.05721467397885
 20
2.65364750586578
 30
0.0
 10
16.05269482846075
 20
2.660790144089835
 30
0.0
  0
SPLINE
  5
AF
330
1F
100
AcDbEntity
  8
0
  6
Continuous
 62
     7
370
    25
100
AcDbSpline
210
0.0
220
0.0
230
1.0
 70
     8
 71
     3
 72
    14
 73
    10
 74
     0
 42
0.000000001
 43
0.00000001
 40
0.0
 40
0.0
 40
0.0
 40
0.0
 40
0.25
 40
0.25
 40
0.5
 40
0.5
 40
0.75
 40
0.75
 40
1.0
 40
1.0
 40
1.0
 40
1.0
 10
16.06764164422495
 20
2.63744382285794
 30
0.0
 10
16.06764164422495
 20
2.627136760346162
 30
0.0
 10
16.06559224868702
 20
2.616833753223351
 30
0.0
 10
16.0577035645678
 20
2.59778878503346
 30
0.0
 10
16.05186737984685
 20
2.589054317348104
 30
0.0
 10
16.03729099225447
 20
2.57447792975572
 30
0.0
 10
16.02855652456911
 20
2.56864174503477
 30
0.0
 10
16.00951155637922
 20
2.560753060915553
 30
0.0
 10
15.99920854925641
 20
2.558703665377625
 30
0.0
 10
15.98890148674463
 20
2.558703665377625
 30
0.0
  0
SPLINE
  5
B0
330
1F
100
AcDbEntity
  8
0
  6
Continuous
 62
     7
370
    25
100
AcDbSpline
210
0.0
220
0.0
230
1.0
 70
     8
 71
     3
 72
    17
 73
    13
 74
     0
 42
0.000000001
 43
0.00000001
 40
0.0
 40
0.0
 40
0.0
 40
0.0
 40
0.1666652664767965
 40
0.2499985998101298
 40
0.4444430442545743
 40
0.4999985998101298
 40
0.5555541553656854
 40
0.6249985998101298
 40
0.7499985998101298
 40
0.8333319331434632
 40
0.8749985998101298
 40
0.9999985998101298
 40
0.9999985998101298
 40
0.9999985998101298
 40
0.9999985998101298
 10
15.97854606498589
 20
2.584419153575551
 30
0.0
 10
15.97964062698465
 20
2.58180544256996
 30
0.0
 10
15.9812236617315
 20
2.578110510726543
 30
0.0
 10
15.98374293210445
 20
2.572235513788032
 30
0.0
 10
15.98532896749893
 20
2.568445656325592
 30
0.0
 10
15.98648006444452
 20
2.565567688392933
 30
0.0
 10
15.98707680726016
 20
2.564030186255531
 30
0.0
 10
15.98777568592327
 20
2.562162491747249
 30
0.0
 10
15.98833769346262
 20
2.560553921030015
 30
0.0
 10
15.98864642648115
 20
2.559582686148127
 30
0.0
 10
15.98885115197771
 20
2.558900367042293
 30
0.0
 10
15.9889015108796
 20
2.558703665377629
 30
0.0
 10
15.98890151062358
 20
2.558703665377629
 30
0.0
  0
SPLINE
  5
B1
330
1F
100
AcDbEntity
  8
0
  6
Continuous
 62
     7
370
    25
100
AcDbSpline
210
0.0
220
0.0
230
1.0
 70
     8
 71
     3
 72
    17
 73
    13
 74
     0
 42
0.000000001
 43
0.00000001
 40
0.0
 40
0.0
 40
0.0
 40
0.0
 40
0.0835361479568914
 40
0.1658876857439156
 40
0.2473026774436221
 40
0.3280771394797312
 40
0.4085478703272683
 40
0.4890832459484789
 40
0.5700724844557011
 40
0.7092441483277374
 40
0.8519707613671942
 40
1.0
 40
1.0
 40
1.0
 40
1.0
 10
16.06764164422495
 20
5.629569807109907
 30
0.0
 10
16.06762416857294
 20
5.629539451158149
 30
0.0
 10
16.0675894650878
 20
5.629479169726591
 30
0.0
 10
16.06729306202279
 20
5.62898198890397
 30
0.0
 10
16.0668057800016
 20
5.628185014959009
 30
0.0
 10
16.0661051956723
 20
5.627059937899607
 30
0.0
 10
16.06519131452607
 20
5.625614128811142
 30
0.0
 10
16.06406022644492
 20
5.623845041247046
 30
0.0
 10
16.06239534502016
 20
5.621263163831634
 30
0.0
 10
16.05997536879992
 20
5.617535949035878
 30
0.0
 10
16.05661454606958
 20
5.612360923106833
 30
0.0
 10
16.05401744632129
 20
5.608294021505564
 30
0.0
 10
16.05269521429679
 20
5.606223485885498
 30
0.0
  0
SPLINE
  5
B2
330
1F
100
AcDbEntity
  8
0
  6
Continuous
 62
     7
370
    25
100
AcDbSpline
210
0.0
220
0.0
230
1.0
 70
     8
 71
     3
 72
    17
 73
    13
 74
     0
 42
0.000000001
 43
0.00000001
 40
0.0
 40
0.0
 40
0.0
 40
0.0
 40
0.0705486692535962
 40
0.135876577605149
 40
0.19577607087579
 40
0.2500859720973245
 40
0.3779292536760878
 40
0.5000871597573648
 40
0.6176288627684046
 40
0.7405477248244483
 40
0.8682656492054508
 40
1.0
 40
1.0
 40
1.0
 40
1.0
 10
15.97854609257413
 20
5.682594790798878
 30
0.0
 10
15.97900449849388
 20
5.683685430487096
 30
0.0
 10
15.97988738725972
 20
5.68578600006273
 30
0.0
 10
15.98109684794406
 20
5.688619048791566
 30
0.0
 10
15.9821589952857
 20
5.691089239678623
 30
0.0
 10
15.98351121146362
 20
5.694239861505449
 30
0.0
 10
15.98502161369606
 20
5.697836652456497
 30
0.0
 10
15.98651399667451
 20
5.701494395494199
 30
0.0
 10
15.98760462740338
 20
5.704405960276618
 30
0.0
 10
15.98835150464829
 20
5.706578108308877
 30
0.0
 10
15.98881729016287
 20
5.708030655688569
 30
0.0
 10
15.98887313306048
 20
5.70821590570787
 30
0.0
 10
15.98890148674463
 20
5.708309964590224
 30
0.0
  0
SPLINE
  5
B3
330
1F
100
AcDbEntity
  8
0
  6
Continuous
 62
     7
370
    25
100
AcDbSpline
210
0.0
220
0.0
230
1.0
 70
     8
 71
     3
 72
    14
 73
    10
 74
     0
 42
0.000000001
 43
0.00000001
 40
0.0
 40
0.0
 40
0.0
 40
0.0
 40
0.25
 40
0.25
 40
0.5
 40
0.5
 40
0.75
 40
0.75
 40
1.0
 40
1.0
 40
1.0
 40
1.0
 10
15.98890148674463
 20
5.708309964590223
 30
0.0
 10
15.99920854925641
 20
5.708309964590223
 30
0.0
 10
16.00951155637922
 20
5.706260569052294
 30
0.0
 10
16.02855652456912
 20
5.698371884933077
 30
0.0
 10
16.03729099225447
 20
5.692535700212127
 30
0.0
 10
16.05186737984685
 20
5.677959312619744
 30
0.0
 10
16.0577035645678
 20
5.669224844934388
 30
0.0
 10
16.06559224868702
 20
5.650179876744496
 30
0.0
 10
16.06764164422495
 20
5.639876869621685
 30
0.0
 10
16.06764164422495
 20
5.629569807109907
 30
0.0
  0
LINE
  5
B4
330
1F
100
AcDbEntity
  8
0
  6
Continuous
 62
     7
370
    25
100
AcDbLine
 10
16.067641609
 20
2.637443871
 30
0.0
 11
16.067641609
 21
5.629569759
 31
0.0
  0
LINE
  5
B5
330
1F
100
AcDbEntity
  8
0
  6
Continuous
 62
     7
370
    25
100
AcDbLine
 10
12.9180353802
 20
2.637443871
 30
0.0
 11
12.9180353802
 21
5.629569759
 31
0.0
  0
LINE
  5
B6
330
1F
100
AcDbEntity
  8
0
  6
Continuous
 62
     7
370
    25
100
AcDbLine
 10
15.9889014386
 20
5.7083099294
 30
0.0
 11
12.9967755506
 21
5.7083099294
 31
0.0
  0
LINE
  5
B7
330
1F
100
AcDbEntity
  8
0
  6
Continuous
 62
     7
370
    25
100
AcDbLine
 10
15.9889014386
 20
2.5587037006
 30
0.0
 11
12.9967755506
 21
2.5587037006
 31
0.0
  0
SPLINE
  5
B8
330
1F
100
AcDbEntity
  8
0
  6
Continuous
 62
     7
370
    25
100
AcDbSpline
210
0.0
220
0.0
230
1.0
 70
     8
 71
     3
 72
    17
 73
    13
 74
     0
 42
0.000000001
 43
0.00000001
 40
0.0
 40
0.0
 40
0.0
 40
0.0
 40
0.0501548934394613
 40
0.1708357863930648
 40
0.2892685418291912
 40
0.4048908537769185
 40
0.5170627348528879
 40
0.6250771796382906
 40
0.7281728425901416
 40
0.8255603834725338
 40
0.9164342175674597
 40
1.0
 40
1.0
 40
1.0
 40
1.0
 10
15.37866530147179
 20
3.666886338756816
 30
0.0
 10
15.38212264445793
 20
3.66047745122133
 30
0.0
 10
15.39389892125493
 20
3.638647729992811
 30
0.0
 10
15.42319543055471
 20
3.584560200558537
 30
0.0
 10
15.46520427983938
 20
3.507387429071522
 30
0.0
 10
15.51426326640806
 20
3.417835768070682
 30
0.0
 10
15.56873202323818
 20
3.319144224037384
 30
0.0
 10
15.62784958256848
 20
3.212955932065384
 30
0.0
 10
15.69056160108815
 20
3.101439539107299
 30
0.0
 10
15.75618999881171
 20
2.986274623199769
 30
0.0
 10
15.82299310869953
 20
2.870532969524708
 30
0.0
 10
15.87182070979659
 20
2.788377117579688
 30
0.0
 10
15.89521170761696
 20
2.749020128692266
 30
0.0
  0
SPLINE
  5
B9
330
1F
100
AcDbEntity
  8
0
  6
Continuous
 62
     7
370
    25
100
AcDbSpline
210
0.0
220
0.0
230
1.0
 70
     8
 71
     3
 72
    17
 73
    13
 74
     0
 42
0.000000001
 43
0.00000001
 40
0.0
 40
0.0
 40
0.0
 40
0.0
 40
0.0501548934394613
 40
0.1708357863930648
 40
0.2892685418291912
 40
0.4048908537769185
 40
0.5170627348528879
 40
0.6250771796382906
 40
0.7281728425901416
 40
0.8255603834725338
 40
0.9164342175674597
 40
1.0
 40
1.0
 40
1.0
 40
1.0
 10
13.60701168776551
 20
3.666886338756816
 30
0.0
 10
13.60355434477938
 20
3.66047745122133
 30
0.0
 10
13.59177806798237
 20
3.638647729992811
 30
0.0
 10
13.56248155868259
 20
3.584560200558537
 30
0.0
 10
13.52047270939792
 20
3.507387429071522
 30
0.0
 10
13.47141372282924
 20
3.417835768070682
 30
0.0
 10
13.41694496599912
 20
3.319144224037384
 30
0.0
 10
13.35782740666882
 20
3.212955932065384
 30
0.0
 10
13.29511538814915
 20
3.101439539107299
 30
0.0
 10
13.22948699042559
 20
2.986274623199769
 30
0.0
 10
13.16268388053777
 20
2.870532969524708
 30
0.0
 10
13.11385627944071
 20
2.788377117579688
 30
0.0
 10
13.09046528162034
 20
2.749020128692266
 30
0.0
  0
LINE
  5
BA
330
1F
100
AcDbEntity
  8
0
  6
Continuous
 62
     7
370
    25
100
AcDbLine
 10
11.5613660657
 20
3.1524944411
 30
0.0
 11
11.5705772126
 21
3.1517691828
 31
0.0
  0
SPLINE
  5
BB
330
1F
100
AcDbEntity
  8
0
  6
Continuous
 62
     7
370
    25
100
AcDbSpline
210
0.0
220
0.0
230
1.0
 70
     8
 71
     3
 72
    13
 73
     9
 74
     0
 42
0.000000001
 43
0.00000001
 40
0.0
 40
0.0
 40
0.0
 40
0.0
 40
0.1313051906186594
 40
0.260361120793865
 40
0.3882960474210532
 40
0.5139920932050247
 40
0.7593587846553715
 40
1.0
 40
1.0
 40
1.0
 40
1.0
 10
11.60006215199981
 20
3.199396945900842
 30
0.0
 10
11.59995659467139
 20
3.199612359306977
 30
0.0
 10
11.59974728821363
 20
3.200039496083453
 30
0.0
 10
11.5981168747133
 20
3.203365125966635
 30
0.0
 10
11.59569897924976
 20
3.208296786476234
 30
0.0
 10
11.59159095870907
 20
3.216675533552759
 30
0.0
 10
11.58521815283087
 20
3.229668526180458
 30
0.0
 10
11.57959206157948
 20
3.241127588791407
 30
0.0
 10
11.57680636731928
 20
3.246801411613742
 30
0.0
  0
SPLINE
  5
BC
330
1F
100
AcDbEntity
  8
0
  6
Continuous
 62
     7
370
    25
100
AcDbSpline
210
0.0
220
0.0
230
1.0
 70
     8
 71
     3
 72
    11
 73
     7
 74
     0
 42
0.000000001
 43
0.00000001
 40
0.0
 40
0.0
 40
0.0
 40
0.0
 40
0.2445438429839703
 40
0.495543640991201
 40
0.7487715937732549
 40
1.0
 40
1.0
 40
1.0
 40
1.0
 10
10.73977001016804
 20
3.163573146407097
 30
0.0
 10
10.74175402272787
 20
3.161660353717758
 30
0.0
 10
10.74577442575939
 20
3.157784270631099
 30
0.0
 10
10.75300814910615
 20
3.154041191344169
 30
0.0
 10
10.76070877106897
 20
3.151923779661864
 30
0.0
 10
10.76586431262872
 20
3.152171375934137
 30
0.0
 10
10.76843186573051
 20
3.152294683363531
 30
0.0
  0
LINE
  5
BD
330
1F
100
AcDbEntity
  8
0
  6
Continuous
 62
     7
370
    25
100
AcDbLine
 10
2.1052701566
 20
4.5468926362
 30
0.0
 11
2.0659000715
 21
4.507522551
 31
0.0
  0
LINE
  5
BE
330
1F
100
AcDbEntity
  8
0
  6
Continuous
 62
     7
370
    25
100
AcDbLine
 10
2.0659000715
 20
3.759491079
 30
0.0
 11
2.1052701566
 21
3.7201209938
 31
0.0
  0
LINE
  5
BF
330
1F
100
AcDbEntity
  8
0
  6
Continuous
 62
     7
370
    25
100
AcDbLine
 10
2.8966087609
 20
4.5468926362
 30
0.0
 11
2.1052701566
 21
4.5468926362
 31
0.0
  0
LINE
  5
C0
330
1F
100
AcDbEntity
  8
0
  6
Continuous
 62
     7
370
    25
100
AcDbLine
 10
2.1052701566
 20
3.7201209938
 30
0.0
 11
2.8966087609
 21
3.7201209938
 31
0.0
  0
LINE
  5
C1
330
1F
100
AcDbEntity
  8
0
  6
Continuous
 62
     7
370
    25
100
AcDbLine
 10
2.9556638795
 20
5.3913808572
 30
0.0
 11
2.8966087609
 21
5.3913808572
 31
0.0
  0
LINE
  5
C2
330
1F
100
AcDbEntity
  8
0
  6
Continuous
 62
     7
370
    25
100
AcDbLine
 10
2.8966087609
 20
2.8756327727
 30
0.0
 11
2.9556638795
 21
2.8756327727
 31
0.0
  0
LINE
  5
C3
330
1F
100
AcDbEntity
  8
0
  6
Continuous
 62
     7
370
    25
100
AcDbLine
 10
2.9556638795
 20
2.637443871
 30
0.0
 11
3.3139448106
 21
2.637443871
 31
0.0
  0
LINE
  5
C4
330
1F
100
AcDbEntity
  8
0
  6
Continuous
 62
     7
370
    25
100
AcDbLine
 10
2.9556638795
 20
2.637443871
 30
0.0
 11
2.9556638795
 21
5.629569759
 31
0.0
  0
LINE
  5
C5
330
1F
100
AcDbEntity
  8
0
  6
Continuous
 62
     7
370
    25
100
AcDbLine
 10
2.9556638795
 20
5.629569759
 30
0.0
 11
3.3139448106
 21
5.629569759
 31
0.0
  0
LINE
  5
C6
330
1F
100
AcDbEntity
  8
0
  6
Continuous
 62
     7
370
    25
100
AcDbLine
 10
3.3139448106
 20
2.637443871
 30
0.0
 11
3.3139448106
 21
5.629569759
 31
0.0
  0
LINE
  5
C7
330
1F
100
AcDbEntity
  8
0
  6
Continuous
 62
     7
370
    25
100
AcDbLine
 10
2.9556638795
 20
2.5587037006
 30
0.0
 11
2.9556638795
 21
2.637443871
 31
0.0
  0
SPLINE
  5
C8
330
1F
100
AcDbEntity
  8
0
  6
Continuous
 62
     7
370
    25
100
AcDbSpline
210
0.0
220
0.0
230
1.0
 70
    24
 71
     3
 72
    14
 73
    10
 74
     0
 42
0.000000001
 43
0.00000001
 40
0.0
 40
0.0
 40
0.0
 40
0.0
 40
0.25
 40
0.25
 40
0.5
 40
0.5
 40
0.75
 40
0.75
 40
1.0
 40
1.0
 40
1.0
 40
1.0
 10
3.3139448108044
 20
2.558703665377625
 30
0.0
 10
3.3139448108044
 20
2.558703665377625
 30
0.0
 10
3.3139448108044
 20
2.560753060915553
 30
0.0
 10
3.3139448108044
 20
2.568641745034771
 30
0.0
 10
3.3139448108044
 20
2.57447792975572
 30
0.0
 10
3.3139448108044
 20
2.589054317348104
 30
0.0
 10
3.3139448108044
 20
2.59778878503346
 30
0.0
 10
3.3139448108044
 20
2.616833753223351
 30
0.0
 10
3.3139448108044
 20
2.627136760346162
 30
0.0
 10
3.3139448108044
 20
2.637443822857939
 30
0.0
  0
LINE
  5
C9
330
1F
100
AcDbEntity
  8
0
  6
Continuous
 62
     7
370
    25
100
AcDbLine
 10
2.9556638795
 20
2.5587037006
 30
0.0
 11
3.3139448106
 21
2.5587037006
 31
0.0
  0
LINE
  5
CA
330
1F
100
AcDbEntity
  8
0
  6
Continuous
 62
     7
370
    25
100
AcDbLine
 10
3.3720699358
 20
5.606223482
 30
0.0
 11
3.3720699358
 21
2.6607901479
 31
0.0
  0
SPLINE
  5
CB
330
1F
100
AcDbEntity
  8
0
  6
Continuous
 62
     7
370
    25
100
AcDbSpline
210
0.0
220
0.0
230
1.0
 70
     8
 71
     3
 72
    10
 73
     6
 74
     0
 42
0.000000001
 43
0.00000001
 40
0.0
 40
0.0
 40
0.0
 40
0.0
 40
0.5
 40
0.5
 40
1.0
 40
1.0
 40
1.0
 40
1.0
 10
3.313944810804399
 20
2.637443822857939
 30
0.0
 10
3.325006738320815
 20
2.637445042175139
 30
0.0
 10
3.336179631975312
 20
2.639426972975555
 30
0.0
 10
3.356179651956589
 20
2.647535310635975
 30
0.0
 10
3.364932875282155
 20
2.653647505865781
 30
0.0
 10
3.372069640547453
 20
2.660790144089835
 30
0.0
  0
SPLINE
  5
CC
330
1F
100
AcDbEntity
  8
0
  6
Continuous
 62
     7
370
    25
100
AcDbSpline
210
0.0
220
0.0
230
1.0
 70
     8
 71
     3
 72
    10
 73
     6
 74
     0
 42
0.000000001
 43
0.00000001
 40
0.0
 40
0.0
 40
0.0
 40
0.0
 40
0.5
 40
0.5
 40
1.0
 40
1.0
 40
1.0
 40
1.0
 10
3.313944810804399
 20
5.629569807109907
 30
0.0
 10
3.325006738320813
 20
5.629568587792711
 30
0.0
 10
3.336179631975313
 20
5.62758665699229
 30
0.0
 10
3.356179651956587
 20
5.619478319331874
 30
0.0
 10
3.364932875282158
 20
5.613366124102066
 30
0.0
 10
3.372069640547452
 20
5.606223485878012
 30
0.0
  0
SPLINE
  5
CD
330
1F
100
AcDbEntity
  8
0
  6
Continuous
 62
     7
370
    25
100
AcDbSpline
210
0.0
220
0.0
230
1.0
 70
    24
 71
     3
 72
    33
 73
    29
 74
     0
 42
0.000000001
 43
0.00000001
 40
0.0
 40
0.0
 40
0.0
 40
0.0
 40
0.0279562499999997
 40
0.0559124999999994
 40
0.0838687499999995
 40
0.1118249999999998
 40
0.1397812499999996
 40
0.1666666666666666
 40
0.1677374999999997
 40
0.2236499999999995
 40
0.2795624999999997
 40
0.335475
 40
0.4444444444444444
 40
0.4472999999999998
 40
0.5555555555555556
 40
0.5591250000000001
 40
0.6709499999999998
 40
0.782775
 40
0.8333333333333334
 40
0.8946000000000001
 40
0.9170375
 40
0.939475
 40
0.9619125
 40
0.98435
 40
0.9882625
 40
0.992175
 40
0.9960875
 40
1.0
 40
1.0
 40
1.0
 40
1.0
 10
3.313944810804399
 20
5.708309964590223
 30
0.0
 10
3.313944810804399
 20
5.708309964590221
 30
0.0
 10
3.313944810804399
 20
5.708265936821722
 30
0.0
 10
3.313944810804399
 20
5.708067001410392
 30
0.0
 10
3.313944810804399
 20
5.707734361787394
 30
0.0
 10
3.313944810804399
 20
5.707267207499646
 30
0.0
 10
3.313944810804399
 20
5.706672420530528
 30
0.0
 10
3.3139448108044
 20
5.706181748720515
 30
0.0
 10
3.3139448108044
 20
5.705377283515253
 30
0.0
 10
3.313944810804399
 20
5.704106518104591
 30
0.0
 10
3.3139448108044
 20
5.701664182358943
 30
0.0
 10
3.313944810804399
 20
5.697738116878398
 30
0.0
 10
3.313944810804399
 20
5.693979440874797
 30
0.0
 10
3.313944810804399
 20
5.688393021380041
 30
0.0
 10
3.313944810804399
 20
5.685143463367782
 30
0.0
 10
3.313944810804399
 20
5.678207797692593
 30
0.0
 10
3.313944810804399
 20
5.670536391658609
 30
0.0
 10
3.313944810804399
 20
5.659984142899945
 30
0.0
 10
3.313944810804399
 20
5.650807027949133
 30
0.0
 10
3.3139448108044
 20
5.645098750268175
 30
0.0
 10
3.3139448108044
 20
5.64049467005435
 30
0.0
 10
3.3139448108044
 20
5.63755508937669
 30
0.0
 10
3.313944810804399
 20
5.634599508992286
 30
0.0
 10
3.313944810804399
 20
5.632453303604938
 30
0.0
 10
3.3139448108044
 20
5.631122614407207
 30
0.0
 10
3.3139448108044
 20
5.63060425618229
 30
0.0
 10
3.313944810804399
 20
5.630087053518074
 30
0.0
 10
3.3139448108044
 20
5.629742230579562
 30
0.0
 10
3.3139448108044
 20
5.629569807109907
 30
0.0
  0
LINE
  5
CE
330
1F
100
AcDbEntity
  8
0
  6
Continuous
 62
     7
370
    25
100
AcDbLine
 10
2.9556638795
 20
5.7083099294
 30
0.0
 11
2.9556638795
 21
5.629569759
 31
0.0
  0
LINE
  5
CF
330
1F
100
AcDbEntity
  8
0
  6
Continuous
 62
     7
370
    25
100
AcDbLine
 10
2.9556638795
 20
5.7083099294
 30
0.0
 11
3.3139448106
 21
5.7083099294
 31
0.0
  0
SPLINE
  5
D0
330
1F
100
AcDbEntity
  8
0
  6
Continuous
 62
     7
370
    25
100
AcDbSpline
210
0.0
220
0.0
230
1.0
 70
     8
 71
     3
 72
    11
 73
     7
 74
     0
 42
0.000000001
 43
0.00000001
 40
0.0
 40
0.0
 40
0.0
 40
0.0
 40
0.1483480588120247
 40
0.4731716315405797
 40
0.7993192479512741
 40
1.0
 40
1.0
 40
1.0
 40
1.0
 10
3.37206439445153
 20
2.659012567380981
 30
0.0
 10
3.372039282316583
 20
2.659097011293927
 30
0.0
 10
3.371959184538697
 20
2.659366353976144
 30
0.0
 10
3.371982452498163
 20
2.659853976667004
 30
0.0
 10
3.371975569120337
 20
2.660366244035442
 30
0.0
 10
3.372043479838468
 20
2.66067321279214
 30
0.0
 10
3.372069348555497
 20
2.660790144082552
 30
0.0
  0
SPLINE
  5
D1
330
1F
100
AcDbEntity
  8
0
  6
Continuous
 62
     7
370
    25
100
AcDbSpline
210
0.0
220
0.0
230
1.0
 70
     8
 71
     3
 72
    14
 73
    10
 74
     0
 42
0.000000001
 43
0.00000001
 40
0.0
 40
0.0
 40
0.0
 40
0.0
 40
0.0978336734440711
 40
0.2503103835104719
 40
0.4999713530881847
 40
0.7495202360849025
 40
0.8493857338525729
 40
0.9598642214026075
 40
1.0
 40
1.0
 40
1.0
 40
1.0
 10
3.372072618168594
 20
2.648446804081143
 30
0.0
 10
3.37204972293387
 20
2.64879042200336
 30
0.0
 10
3.371991144790143
 20
2.649669578748304
 30
0.0
 10
3.371978537528812
 20
2.651433638926913
 30
0.0
 10
3.371959470333921
 20
2.653730181005885
 30
0.0
 10
3.371960533335609
 20
2.655843963254436
 30
0.0
 10
3.371975570847825
 20
2.657462772767817
 30
0.0
 10
3.371953182571164
 20
2.658352157750173
 30
0.0
 10
3.37204099432382
 20
2.658873610377007
 30
0.0
 10
3.37206439445153
 20
2.659012567380981
 30
0.0
  0
SPLINE
  5
D2
330
1F
100
AcDbEntity
  8
0
  6
Continuous
 62
     7
370
    25
100
AcDbSpline
210
0.0
220
0.0
230
1.0
 70
     8
 71
     3
 72
    23
 73
    19
 74
     0
 42
0.000000001
 43
0.00000001
 40
0.0
 40
0.0
 40
0.0
 40
0.0
 40
0.0036751064613527
 40
0.0146048150304631
 40
0.0328236038440984
 40
0.0583883697599288
 40
0.0913848029068958
 40
0.1319418873960444
 40
0.1802166270971508
 40
0.2363553269209084
 40
0.3005427023492927
 40
0.3729564416197169
 40
0.4539297569152869
 40
0.5437961501673335
 40
0.6427322469954824
 40
0.7513636873310893
 40
0.8703402779422188
 40
1.0
 40
1.0
 40
1.0
 40
1.0
 10
3.372072990696862
 20
2.648446791983929
 30
0.0
 10
3.37206984281281
 20
2.64830742158865
 30
0.0
 10
3.372057333171309
 20
2.647753565839109
 30
0.0
 10
3.372058902863003
 20
2.646508865665175
 30
0.0
 10
3.372051393991996
 20
2.644435312439199
 30
0.0
 10
3.372051553719077
 20
2.641529115955765
 30
0.0
 10
3.37205120569365
 20
2.637787748409939
 30
0.0
 10
3.37205320528894
 20
2.633214684388592
 30
0.0
 10
3.372055931851358
 20
2.627829461401519
 30
0.0
 10
3.372059856146454
 20
2.621679861007694
 30
0.0
 10
3.372065115490515
 20
2.614862921233399
 30
0.0
 10
3.372072193253278
 20
2.607573632386346
 30
0.0
 10
3.372081687010548
 20
2.600170280183481
 30
0.0
 10
3.372092226820298
 20
2.593221095173872
 30
0.0
 10
3.372104563196977
 20
2.587684803679478
 30
0.0
 10
3.372119263335971
 20
2.584537977064458
 30
0.0
 10
3.372144783796615
 20
2.584679899727593
 30
0.0
 10
3.372150965580329
 20
2.584508480165649
 30
0.0
 10
3.372154189278225
 20
2.584419087701136
 30
0.0
  0
SPLINE
  5
D3
330
1F
100
AcDbEntity
  8
0
  6
Continuous
 62
     7
370
    25
100
AcDbSpline
210
0.0
220
0.0
230
1.0
 70
     8
 71
     3
 72
    17
 73
    13
 74
     0
 42
0.000000001
 43
0.00000001
 40
0.0
 40
0.0
 40
0.0
 40
0.0
 40
0.0705486691868307
 40
0.1358765775151796
 40
0.1957760708074257
 40
0.2500859720961185
 40
0.3779292537592313
 40
0.500087159755533
 40
0.6176288628757521
 40
0.7405477249677466
 40
0.8682656493118427
 40
1.0
 40
1.0
 40
1.0
 40
1.0
 10
3.372154462108974
 20
2.584418839168968
 30
0.0
 10
3.371127853563095
 20
2.583328199481753
 30
0.0
 10
3.369150607822391
 20
2.581227629907456
 30
0.0
 10
3.366081035660739
 20
2.578394581179375
 30
0.0
 10
3.363137887290277
 20
2.575924390291204
 30
0.0
 10
3.35899917190586
 20
2.572773768462019
 30
0.0
 10
3.353466056942848
 20
2.569176977510408
 30
0.0
 10
3.346310178286805
 20
2.565519234471764
 30
0.0
 10
3.338867402870528
 20
2.562607669689134
 30
0.0
 10
3.331010955494355
 20
2.560435521657107
 30
0.0
 10
3.322633014663988
 20
2.5589829742788
 30
0.0
 10
3.316870613525751
 20
2.558797724259801
 30
0.0
 10
3.3139448108044
 20
2.558703665377625
 30
0.0
  0
SPLINE
  5
D4
330
1F
100
AcDbEntity
  8
0
  6
Continuous
 62
     7
370
    25
100
AcDbSpline
210
0.0
220
0.0
230
1.0
 70
     8
 71
     3
 72
    22
 73
    18
 74
     0
 42
0.000000001
 43
0.00000001
 40
0.0
 40
0.0
 40
0.0
 40
0.0
 40
0.0672920358985163
 40
0.1029621743296575
 40
0.1339415045940977
 40
0.1603987559801253
 40
0.1999326502913652
 40
0.265199443388641
 40
0.3919147143540846
 40
0.5191059885140914
 40
0.6327566292552634
 40
0.7637330562163124
 40
0.81825506824758
 40
0.8829710841851212
 40
0.9479794014690375
 40
0.9868709378956718
 40
1.0
 40
1.0
 40
1.0
 40
1.0
 10
3.372153916449701
 20
5.682594293747581
 30
0.0
 10
3.372153509179558
 20
5.682595125924988
 30
0.0
 10
3.372152886023803
 20
5.6825963992227
 30
0.0
 10
3.37217288968648
 20
5.682488061279829
 30
0.0
 10
3.372139531926477
 20
5.682373020520656
 30
0.0
 10
3.372087018336176
 20
5.682386375452941
 30
0.0
 10
3.37216680005521
 20
5.682345746411864
 30
0.0
 10
3.372080241249908
 20
5.681570558070212
 30
0.0
 10
3.372128601077147
 20
5.677776089341709
 30
0.0
 10
3.372067839887823
 20
5.669430178189956
 30
0.0
 10
3.372084960106706
 20
5.658219374594159
 30
0.0
 10
3.372040817365855
 20
5.647802006938808
 30
0.0
 10
3.372034497174563
 20
5.638686710607943
 30
0.0
 10
3.372012944688886
 20
5.631827268786545
 30
0.0
 10
3.372013019865556
 20
5.625469516510978
 30
0.0
 10
3.371984484580756
 20
5.621035686076494
 30
0.0
 10
3.372054857349321
 20
5.619064354476148
 30
0.0
 10
3.372072618168593
 20
5.618566825886703
 30
0.0
  0
SPLINE
  5
D5
330
1F
100
AcDbEntity
  8
0
  6
Continuous
 62
     7
370
    25
100
AcDbSpline
210
0.0
220
0.0
230
1.0
 70
     8
 71
     3
 72
    12
 73
     8
 74
     0
 42
0.000000001
 43
0.00000001
 40
0.0
 40
0.0
 40
0.0
 40
0.0
 40
0.0582088323182578
 40
0.2248344701031466
 40
0.4999101264587577
 40
0.8354124845754076
 40
1.0
 40
1.0
 40
1.0
 40
1.0
 10
3.37206469843227
 20
5.608001061876778
 30
0.0
 10
3.372045575689017
 20
5.608205012721232
 30
0.0
 10
3.371971713155191
 20
5.608992782862178
 30
0.0
 10
3.371984219392425
 20
5.610757949657049
 30
0.0
 10
3.371951049323082
 20
5.613494569900295
 30
0.0
 10
3.371975779107548
 20
5.616228427208033
 30
0.0
 10
3.372048919148437
 20
5.617987800354483
 30
0.0
 10
3.372072990696862
 20
5.618566837983917
 30
0.0
  0
SPLINE
  5
D6
330
1F
100
AcDbEntity
  8
0
  6
Continuous
 62
     7
370
    25
100
AcDbSpline
210
0.0
220
0.0
230
1.0
 70
     8
 71
     3
 72
    11
 73
     7
 74
     0
 42
0.000000001
 43
0.00000001
 40
0.0
 40
0.0
 40
0.0
 40
0.0
 40
0.1483480589091972
 40
0.4731716315549062
 40
0.7993192481548765
 40
1.0
 40
1.0
 40
1.0
 40
1.0
 10
3.37206439445153
 20
5.608001062586864
 30
0.0
 10
3.372039282316528
 20
5.607916618673876
 30
0.0
 10
3.371959184538517
 20
5.607647275991691
 30
0.0
 10
3.371982452498188
 20
5.607159653300664
 30
0.0
 10
3.371975569120468
 20
5.606647385932307
 30
0.0
 10
3.372043479838523
 20
5.606340417175597
 30
0.0
 10
3.372069348555498
 20
5.606223485885296
 30
0.0
  0
SPLINE
  5
D7
330
1F
100
AcDbEntity
  8
0
  6
Continuous
 62
     7
370
    25
100
AcDbSpline
210
0.0
220
0.0
230
1.0
 70
     8
 71
     3
 72
    18
 73
    14
 74
     0
 42
0.000000001
 43
0.00000001
 40
0.0
 40
0.0
 40
0.0
 40
0.0
 40
0.0757308037851866
 40
0.1502760815965066
 40
0.2234677785163741
 40
0.2951567932504046
 40
0.3652151528588504
 40
0.4335376243841982
 40
0.5000427824997362
 40
0.6221597936923642
 40
0.7500199789759204
 40
0.8641676700331395
 40
1.0
 40
1.0
 40
1.0
 40
1.0
 10
3.313944810804401
 20
5.708309964590224
 30
0.0
 10
3.315626286155115
 20
5.708278891453343
 30
0.0
 10
3.318962914242717
 20
5.708217231613224
 30
0.0
 10
3.323902472535389
 20
5.707725687830761
 30
0.0
 10
3.328710061024371
 20
5.706964164354329
 30
0.0
 10
3.333358291271058
 20
5.70592734606914
 30
0.0
 10
3.337823822356718
 20
5.704648544426304
 30
0.0
 10
3.342088131135673
 20
5.703153635555037
 30
0.0
 10
3.347302034519795
 20
5.700987460917801
 30
0.0
 10
3.353467973542967
 20
5.697838138597647
 30
0.0
 10
3.360078755939242
 20
5.693527559671282
 30
0.0
 10
3.366441929463132
 20
5.688484790431666
 30
0.0
 10
3.370143259986223
 20
5.684668473436489
 30
0.0
 10
3.372154462108974
 20
5.682594790798878
 30
0.0
  0
SPLINE
  5
D8
330
1F
100
AcDbEntity
  8
0
  6
Continuous
 62
     7
370
    25
100
AcDbSpline
210
0.0
220
0.0
230
1.0
 70
     8
 71
     3
 72
    18
 73
    14
 74
     0
 42
0.000000001
 43
0.00000001
 40
0.0
 40
0.0
 40
0.0
 40
0.0
 40
0.088043545129259
 40
0.1769329012424746
 40
0.2665742356696722
 40
0.3568748731035231
 40
0.4477435584628017
 40
0.5390906721334753
 40
0.6308284055787523
 40
0.7228709039003249
 40
0.8151343807948463
 40
0.9075372104279665
 40
1.0
 40
1.0
 40
1.0
 40
1.0
 10
3.372154462108948
 20
5.682594790799016
 30
0.0
 10
3.376971113263819
 20
5.67735718952776
 30
0.0
 10
3.386650687863559
 20
5.666831670739143
 30
0.0
 10
3.401503619758318
 20
5.651307295218999
 30
0.0
 10
3.416658811217534
 20
5.635883839396192
 30
0.0
 10
3.432109192281759
 20
5.620596371123195
 30
0.0
 10
3.44782183521966
 20
5.605447532381095
 30
0.0
 10
3.463771719081915
 20
5.590447980687665
 30
0.0
 10
3.479932805895515
 20
5.575605937415198
 30
0.0
 10
3.496279514511026
 20
5.560928206392431
 30
0.0
 10
3.512789762920662
 20
5.546426783729782
 30
0.0
 10
3.529431178894493
 20
5.532091394217516
 30
0.0
 10
3.540618691165413
 20
5.522692911123257
 30
0.0
 10
3.546214261598618
 20
5.517992145408261
 30
0.0
  0
SPLINE
  5
D9
330
1F
100
AcDbEntity
  8
0
  6
Continuous
 62
     7
370
    25
100
AcDbSpline
210
0.0
220
0.0
230
1.0
 70
     8
 71
     3
 72
    23
 73
    19
 74
     0
 42
0.000000001
 43
0.00000001
 40
0.0
 40
0.0
 40
0.0
 40
0.0
 40
0.0470632203154054
 40
0.0936066682930638
 40
0.1396848779092543
 40
0.1853491539075356
 40
0.2306492123581523
 40
0.2756349732871724
 40
0.3203584182506483
 40
0.3648754197531784
 40
0.4092474475192221
 40
0.4535430591571609
 40
0.4978390902652713
 40
0.5798652662535908
 40
0.6712557724292176
 40
0.7719720372525055
 40
0.8817111258443012
 40
0.9999999999999999
 40
0.9999999999999999
 40
0.9999999999999999
 40
0.9999999999999999
 10
3.54621549254148
 20
5.517993618684884
 30
0.0
 10
3.546217799567204
 20
5.517955841931229
 30
0.0
 10
3.546222388139558
 20
5.517880705635311
 30
0.0
 10
3.546248122896273
 20
5.517273499796971
 30
0.0
 10
3.546274461745188
 20
5.516309525850425
 30
0.0
 10
3.546295990814259
 20
5.514962593992339
 30
0.0
 10
3.546307161732535
 20
5.513252646306441
 30
0.0
 10
3.546305835630541
 20
5.511190274551031
 30
0.0
 10
3.546292378881582
 20
5.508791072819285
 30
0.0
 10
3.546269888105563
 20
5.506071427543046
 30
0.0
 10
3.546243868066396
 20
5.503049328235135
 30
0.0
 10
3.54622257732776
 20
5.499743248971543
 30
0.0
 10
3.546212714883533
 20
5.495163126559667
 30
0.0
 10
3.546269812648465
 20
5.488757908510422
 30
0.0
 10
3.546331788167548
 20
5.480042029264688
 30
0.0
 10
3.546330688627294
 20
5.469915403202131
 30
0.0
 10
3.54625357087514
 20
5.458505313728021
 30
0.0
 10
3.546228296730618
 20
5.450461040285046
 30
0.0
 10
3.546215185838142
 20
5.446288095714981
 30
0.0
  0
SPLINE
  5
DA
330
1F
100
AcDbEntity
  8
0
  6
Continuous
 62
     7
370
    25
100
AcDbSpline
210
0.0
220
0.0
230
1.0
 70
     8
 71
     3
 72
    10
 73
     6
 74
     0
 42
0.000000001
 43
0.00000001
 40
0.0
 40
0.0
 40
0.0
 40
0.0
 40
0.5
 40
0.5
 40
1.0
 40
1.0
 40
1.0
 40
1.0
 10
3.372069348555498
 20
5.606223485885296
 30
0.0
 10
3.39933076135729
 20
5.578598497378087
 30
0.0
 10
3.427563066099417
 20
5.551324705986056
 30
0.0
 10
3.485680570779617
 20
5.497913400919612
 30
0.0
 10
3.515571818204665
 20
5.471766881131289
 30
0.0
 10
3.546214959203417
 20
5.44628809534436
 30
0.0
  0
SPLINE
  5
DB
330
1F
100
AcDbEntity
  8
0
  6
Continuous
 62
     7
370
    25
100
AcDbSpline
210
0.0
220
0.0
230
1.0
 70
     8
 71
     3
 72
    14
 73
    10
 74
     0
 42
0.000000001
 43
0.00000001
 40
0.0
 40
0.0
 40
0.0
 40
0.0
 40
0.1026212382569653
 40
0.2176080115949184
 40
0.3455633911410195
 40
0.4871177186527086
 40
0.642924686622365
 40
0.8136567537856443
 40
1.0
 40
1.0
 40
1.0
 40
1.0
 10
3.372069922754008
 20
2.66079014408235
 30
0.0
 10
3.377688593150958
 20
2.666452575813903
 30
0.0
 10
3.389602965981132
 20
2.678459744415884
 30
0.0
 10
3.408860900685591
 20
2.697409150850964
 30
0.0
 10
3.430611956640752
 20
2.718318837963375
 30
0.0
 10
3.455089176037754
 20
2.74119757548391
 30
0.0
 10
3.482516206299279
 20
2.766042510134594
 30
0.0
 10
3.513079136539181
 20
2.792889295364298
 30
0.0
 10
3.534852260673664
 20
2.811180230720658
 30
0.0
 10
3.546214778549989
 20
2.820725534310426
 30
0.0
  0
SPLINE
  5
DC
330
1F
100
AcDbEntity
  8
0
  6
Continuous
 62
     7
370
    25
100
AcDbSpline
210
0.0
220
0.0
230
1.0
 70
     8
 71
     3
 72
    24
 73
    20
 74
     0
 42
0.000000001
 43
0.00000001
 40
0.0
 40
0.0
 40
0.0
 40
0.0
 40
0.0467
 40
0.0934
 40
0.1401
 40
0.1666666666666667
 40
0.1868
 40
0.3707874999999999
 40
0.4444444444444444
 40
0.554775
 40
0.5555555555555556
 40
0.7387625
 40
0.8333333333333334
 40
0.92275
 40
0.92275
 40
0.9420625
 40
0.961375
 40
0.9806874999999999
 40
0.9999998310491309
 40
0.9999998310491309
 40
0.9999998310491309
 40
0.9999998310491309
 10
3.546214752793206
 20
2.749020644092613
 30
0.0
 10
3.546214752793206
 20
2.749021122925156
 30
0.0
 10
3.546217424644548
 20
2.749154870278255
 30
0.0
 10
3.546221811891131
 20
2.749767594239652
 30
0.0
 10
3.546222601598077
 20
2.750645415336447
 30
0.0
 10
3.546220693823264
 20
2.751541384352669
 30
0.0
 10
3.54621388672165
 20
2.754079971218965
 30
0.0
 10
3.546202152394155
 20
2.758814899753023
 30
0.0
 10
3.5462142316539
 20
2.767335638012288
 30
0.0
 10
3.546221956943599
 20
2.772296078335173
 30
0.0
 10
3.546223975779613
 20
2.780674713062323
 30
0.0
 10
3.546209896628703
 20
2.789351716802635
 30
0.0
 10
3.546221111635059
 20
2.801931063703776
 30
0.0
 10
3.546223445291675
 20
2.80860721527298
 30
0.0
 10
3.546220300865454
 20
2.81265818445906
 30
0.0
 10
3.546219038880122
 20
2.814105812703986
 30
0.0
 10
3.546217061868946
 20
2.816298258647216
 30
0.0
 10
3.546215446992503
 20
2.818506428283499
 30
0.0
 10
3.546214959203417
 20
2.819985335044418
 30
0.0
 10
3.546214959203417
 20
2.820725534623487
 30
0.0
  0
SPLINE
  5
DD
330
1F
100
AcDbEntity
  8
0
  6
Continuous
 62
     7
370
    25
100
AcDbSpline
210
0.0
220
0.0
230
1.0
 70
     8
 71
     3
 72
    16
 73
    12
 74
     0
 42
0.000000001
 43
0.00000001
 40
0.0
 40
0.0
 40
0.0
 40
0.0
 40
0.0229555858129082
 40
0.0714316983848391
 40
0.1250049536250052
 40
0.2500041123535194
 40
0.3744867965742584
 40
0.5000030175420557
 40
0.6654057610960765
 40
0.8322191690912106
 40
0.9999999999999999
 40
0.9999999999999999
 40
0.9999999999999999
 40
0.9999999999999999
 10
3.372154462108948
 20
2.584418839168832
 30
0.0
 10
3.373407640263434
 20
2.585790944026575
 30
0.0
 10
3.37730719850966
 20
2.590060570650328
 30
0.0
 10
3.384166655762342
 20
2.597455989995016
 30
0.0
 10
3.396741421924141
 20
2.61078292543305
 30
0.0
 10
3.413751363176131
 20
2.628269865696149
 30
0.0
 10
3.435149918664228
 20
2.649438053843785
 30
0.0
 10
3.459194699354676
 20
2.672394214278023
 30
0.0
 10
3.486085100677126
 20
2.697082280164177
 30
0.0
 10
3.515853409153657
 20
2.723400978776041
 30
0.0
 10
3.53607448883439
 20
2.740464870175298
 30
0.0
 10
3.546214261598618
 20
2.749021484559585
 30
0.0
  0
SPLINE
  5
DE
330
1F
100
AcDbEntity
  8
0
  6
Continuous
 62
     7
370
    25
100
AcDbSpline
210
0.0
220
0.0
230
1.0
 70
     8
 71
     3
 72
    24
 73
    20
 74
     0
 42
0.000000001
 43
0.00000001
 40
0.0
 40
0.0
 40
0.0
 40
0.0
 40
0.125
 40
0.125
 40
0.25
 40
0.25
 40
0.5000000000000002
 40
0.5000000000000002
 40
0.7500000000000003
 40
0.7500000000000003
 40
0.8750000000000004
 40
0.8750000000000004
 40
0.9375000000000004
 40
0.9375000000000004
 40
0.9687500000000002
 40
0.9687500000000002
 40
0.9843750000000001
 40
0.9843750000000001
 40
1.0
 40
1.0
 40
1.0
 40
1.0
 10
3.546215185838136
 20
5.446288095714972
 30
0.0
 10
3.616152603057668
 20
5.388007557580717
 30
0.0
 10
3.69549425204558
 20
5.329510459305554
 30
0.0
 10
3.870408543434406
 20
5.21386911047568
 30
0.0
 10
3.966019876509842
 20
5.156733871954049
 30
0.0
 10
4.274001506874117
 20
4.99021509671169
 30
0.0
 10
4.507508173351513
 20
4.885716712792437
 30
0.0
 10
5.014436790937738
 20
4.705279474667314
 30
0.0
 10
5.28791123690611
 20
4.629345001846107
 30
0.0
 10
5.716331199745128
 20
4.548528366556229
 30
0.0
 10
5.862186034587365
 20
4.527102248681
 30
0.0
 10
6.084160666169426
 20
4.504701038086234
 30
0.0
 10
6.158683394837458
 20
4.498856433015498
 30
0.0
 10
6.271099800482748
 20
4.492711053097601
 30
0.0
 10
6.308677344243566
 20
4.491099563534682
 30
0.0
 10
6.365181229756653
 20
4.48936138303616
 30
0.0
 10
6.384038776515164
 20
4.488895153901749
 30
0.0
 10
6.421796367611124
 20
4.488193051972969
 30
0.0
 10
6.440764309695824
 20
4.487967018875888
 30
0.0
 10
6.459600882391974
 20
4.48783658088045
 30
0.0
  0
LINE
  5
DF
330
1F
100
AcDbEntity
  8
0
  6
Continuous
 62
     7
370
    25
100
AcDbLine
 10
6.4596009484
 20
3.7791770382
 30
0.0
 11
6.4596009484
 21
4.4878365917
 31
0.0
  0
SPLINE
  5
E0
330
1F
100
AcDbEntity
  8
0
  6
Continuous
 62
     7
370
    25
100
AcDbSpline
210
0.0
220
0.0
230
1.0
 70
     8
 71
     3
 72
    31
 73
    27
 74
     0
 42
0.000000001
 43
0.00000001
 40
0.0
 40
0.0
 40
0.0
 40
0.0
 40
0.0092494231773432
 40
0.0199587495794611
 40
0.032192637707648
 40
0.0460215091783821
 40
0.0615207344150467
 40
0.0787697136630646
 40
0.0978508583449315
 40
0.1510726713976787
 40
0.2070664520024982
 40
0.2887372036405639
 40
0.3706623660262305
 40
0.4517741315334969
 40
0.5145643850974374
 40
0.5835885029195211
 40
0.6511143696232481
 40
0.7195960786711995
 40
0.7922436642992298
 40
0.8586205622716199
 40
0.8824929266669276
 40
0.9062456716149131
 40
0.9298753966724703
 40
0.9533792064801782
 40
0.9767547067335886
 40
1.0
 40
1.0
 40
1.0
 40
1.0
 10
3.546214778549988
 20
2.820725534310426
 30
0.0
 10
3.553309935323704
 20
2.826591986386024
 30
0.0
 10
3.568620128679382
 20
2.839250835013857
 30
0.0
 10
3.593711337000035
 20
2.859291868101822
 30
0.0
 10
3.622728587952737
 20
2.881834265073738
 30
0.0
 10
3.655993836588857
 20
2.906843989973892
 30
0.0
 10
3.693808466550663
 20
2.934317956680965
 30
0.0
 10
3.736507800559296
 20
2.964228343014889
 30
0.0
 10
3.811383414720095
 20
3.014691181610785
 30
0.0
 10
3.921541388236208
 20
3.083705886078875
 30
0.0
 10
4.090764031046289
 20
3.179623694723458
 30
0.0
 10
4.291979259854423
 20
3.280949426884776
 30
0.0
 10
4.523281385179385
 20
3.382683133530691
 30
0.0
 10
4.742335166542994
 20
3.466511578345344
 30
0.0
 10
4.952904582004487
 20
3.537184363360958
 30
0.0
 10
5.153183238902655
 20
3.596075604189582
 30
0.0
 10
5.362151589295207
 20
3.648665332473616
 30
0.0
 10
5.577449101786322
 20
3.693885994132121
 30
0.0
 10
5.793894977164651
 20
3.729890592389524
 30
0.0
 10
5.965256920432471
 20
3.750854359353724
 30
0.0
 10
6.08564734554417
 20
3.762074158236625
 30
0.0
 10
6.161033554510108
 20
3.767920100849621
 30
0.0
 10
6.23614149473524
 20
3.772576988430931
 30
0.0
 10
6.310937338187342
 20
3.776016388344392
 30
0.0
 10
6.385386650837443
 20
3.778350384845246
 30
0.0
 10
6.434908912017772
 20
3.778902007867919
 30
0.0
 10
6.459600887366994
 20
3.779177049066629
 30
0.0
  0
SPLINE
  5
E1
330
1F
100
AcDbEntity
  8
0
  6
Continuous
 62
     7
370
    25
100
AcDbSpline
210
0.0
220
0.0
230
1.0
 70
    24
 71
     3
 72
    10
 73
     6
 74
     0
 42
0.000000001
 43
0.00000001
 40
0.0
 40
0.0
 40
0.0
 40
0.0
 40
0.5
 40
0.5
 40
1.0
 40
1.0
 40
1.0
 40
1.0
 10
6.459600887366994
 20
4.527207602385078
 30
0.0
 10
6.459600887366995
 20
4.527207650045578
 30
0.0
 10
6.459600887366994
 20
4.522964501113912
 30
0.0
 10
6.459600887366994
 20
4.508387707580364
 30
0.0
 10
6.459600887366994
 20
4.498143830868868
 30
0.0
 10
6.459600887366994
 20
4.487836580893708
 30
0.0
  0
SPLINE
  5
E2
330
1F
100
AcDbEntity
  8
0
  6
Continuous
 62
     7
370
    25
100
AcDbSpline
210
0.0
220
0.0
230
1.0
 70
     8
 71
     3
 72
    55
 73
    51
 74
     0
 42
0.000000001
 43
0.00000001
 40
0.0
 40
0.0
 40
0.0
 40
0.0
 40
0.0087639382338513
 40
0.0177477074237412
 40
0.0269537870305024
 40
0.0363845532085546
 40
0.0460422764111103
 40
0.0559291190494241
 40
0.0660471332103115
 40
0.0763982584368773
 40
0.0869843195780634
 40
0.0978070247133381
 40
0.1088679631595356
 40
0.1201686035675501
 40
0.1317102921173148
 40
0.1434942508202373
 40
0.1555215759390192
 40
0.1677932365355887
 40
0.1803100731587184
 40
0.1930727966837567
 40
0.2060819873178533
 40
0.219338093785007
 40
0.2328414327063302
 40
0.2465921881920013
 40
0.2605904116625649
 40
0.2748360219184697
 40
0.2893288054780775
 40
0.3040684172057714
 40
0.3190543812533134
 40
0.3342860923391919
 40
0.3497628173924122
 40
0.3654836975889945
 40
0.3814477508113719
 40
0.3976538745629237
 40
0.4141008493720519
 40
0.4307873427224912
 40
0.4477119135489657
 40
0.5068882386485439
 40
0.5722502355188103
 40
0.6180550642606264
 40
0.7296583355932799
 40
0.7682029606197551
 40
0.8047098268502187
 40
0.8391297667885151
 40
0.871422703455904
 40
0.9015557249902609
 40
0.929501483289795
 40
0.9552369017237451
 40
0.9787421701805507
 40
0.9999999999999999
 40
0.9999999999999999
 40
0.9999999999999999
 40
0.9999999999999999
 10
3.546214261598618
 20
5.517992145408261
 30
0.0
 10
3.552920692075627
 20
5.512426260333559
 30
0.0
 10
3.566501774322862
 20
5.501154877854113
 30
0.0
 10
3.587422766347804
 20
5.484278611365057
 30
0.0
 10
3.609073360650549
 20
5.467165570320671
 30
0.0
 10
3.631486432568983
 20
5.44983896153926
 30
0.0
 10
3.654665975139658
 20
5.432299420965102
 30
0.0
 10
3.678623745250592
 20
5.414554374153761
 30
0.0
 10
3.703369070492339
 20
5.3966098927071
 30
0.0
 10
3.728911667597011
 20
5.378472969265978
 30
0.0
 10
3.755260848003726
 20
5.360150899854216
 30
0.0
 10
3.782425725946448
 20
5.341651469121575
 30
0.0
 10
3.810415148344376
 20
5.322982913013461
 30
0.0
 10
3.839237701702823
 20
5.304153943282366
 30
0.0
 10
3.868901697556752
 20
5.28517375499797
 30
0.0
 10
3.89941516373981
 20
5.266052038901273
 30
0.0
 10
3.930785833923308
 20
5.246798992553085
 30
0.0
 10
3.963021137516594
 20
5.227425331951463
 30
0.0
 10
3.996128189350205
 20
5.207942303154886
 30
0.0
 10
4.030113779301954
 20
5.188361694039306
 30
0.0
 10
4.064984361821748
 20
5.16869584615377
 30
0.0
 10
4.100746045367497
 20
5.148957666684397
 30
0.0
 10
4.137404581748816
 20
5.129160640524185
 30
0.0
 10
4.174965355379645
 20
5.109318842449353
 30
0.0
 10
4.213433372439488
 20
5.089446949402294
 30
0.0
 10
4.252813249944114
 20
5.069560252880944
 30
0.0
 10
4.293109204723684
 20
5.049674671435853
 30
0.0
 10
4.334325042316563
 20
5.029806763270793
 30
0.0
 10
4.376464145748431
 20
5.009973738963618
 30
0.0
 10
4.419529464313714
 20
4.990193474244333
 30
0.0
 10
4.463523501912787
 20
4.970484523072484
 30
0.0
 10
4.508448306653207
 20
4.950866130089614
 30
0.0
 10
4.554305455188485
 20
4.931358245979735
 30
0.0
 10
4.601096056722642
 20
4.911981532245903
 30
0.0
 10
4.648820681514613
 20
4.892757406911838
 30
0.0
 10
4.697479577030269
 20
4.873707934596196
 30
0.0
 10
4.788110563248405
 20
4.839256126870123
 30
0.0
 10
4.927767052345938
 20
4.789699440634156
 30
0.0
 10
5.098574641220059
 20
4.736005192609851
 30
0.0
 10
5.324690515422666
 20
4.673002017324453
 30
0.0
 10
5.526861890804243
 20
4.626777159447588
 30
0.0
 10
5.721599775779155
 20
4.591798165820347
 30
0.0
 10
5.836407994602498
 20
4.574008074221143
 30
0.0
 10
5.945119156496593
 20
4.559730877504393
 30
0.0
 10
6.04746771223026
 20
4.548595827643849
 30
0.0
 10
6.143229445152823
 20
4.540231039450292
 30
0.0
 10
6.232219503711185
 20
4.534250675205537
 30
0.0
 10
6.314287038009358
 20
4.530322083824401
 30
0.0
 10
6.389309118502301
 20
4.527969142553007
 30
0.0
 10
6.436967905624181
 20
4.527452807833986
 30
0.0
 10
6.459600887366994
 20
4.527207602385537
 30
0.0
  0
SPLINE
  5
E3
330
1F
100
AcDbEntity
  8
0
  6
Continuous
 62
     7
370
    25
100
AcDbSpline
210
0.0
220
0.0
230
1.0
 70
    24
 71
     3
 72
    10
 73
     6
 74
     0
 42
0.000000001
 43
0.00000001
 40
0.0
 40
0.0
 40
0.0
 40
0.0
 40
0.5
 40
0.5
 40
1.0
 40
1.0
 40
1.0
 40
1.0
 10
6.459600886218575
 20
3.779177049074156
 30
0.0
 10
6.459600886218575
 20
3.768869795631675
 30
0.0
 10
6.459600886218576
 20
3.758625915558294
 30
0.0
 10
6.459600886218573
 20
3.744049120972434
 30
0.0
 10
6.459600886218575
 20
3.739805974475831
 30
0.0
 10
6.459600886218575
 20
3.739806027582908
 30
0.0
  0
SPLINE
  5
E4
330
1F
100
AcDbEntity
  8
0
  6
Continuous
 62
     7
370
    25
100
AcDbSpline
210
0.0
220
0.0
230
1.0
 70
     8
 71
     3
 72
    56
 73
    52
 74
     0
 42
0.000000001
 43
0.00000001
 40
0.0
 40
0.0
 40
0.0
 40
0.0
 40
0.0088064301180333
 40
0.017834534671121
 40
0.0270868152554998
 40
0.0365656682399712
 40
0.0462733823417089
 40
0.0562121362571839
 40
0.0663839963525917
 40
0.0767909144189027
 40
0.0874347254973338
 40
0.0983171457818022
 40
0.1094397706055926
 40
0.1208040725202255
 40
0.1324113994752326
 40
0.1442629731083265
 40
0.1563598871562286
 40
0.1687031059972457
 40
0.1812934633375581
 40
0.1941316610540628
 40
0.20721826820761
 40
0.2205537202414427
 40
0.234138318380751
 40
0.2479722292503811
 40
0.2620554847289505
 40
0.2763879820589175
 40
0.2909694842335231
 40
0.3057996206829887
 40
0.3208778882839199
 40
0.3362036527175186
 40
0.3517761502039858
 40
0.3675944896423716
 40
0.3836576551871333
 40
0.3999645092947833
 40
0.4165137962762547
 40
0.4333041463929915
 40
0.4503340805372797
 40
0.5123575566650339
 40
0.5823887913460656
 40
0.6287724095981949
 40
0.7187438287988109
 40
0.754385871135977
 40
0.7884372913231067
 40
0.8208588465838903
 40
0.8516179599889466
 40
0.880687483348516
 40
0.9080446285027451
 40
0.9336700634466393
 40
0.957547166667904
 40
0.9796614302697451
 40
1.0
 40
1.0
 40
1.0
 40
1.0
 10
3.546214261598618
 20
2.749021484559585
 30
0.0
 10
3.552953435401134
 20
2.754614363972443
 30
0.0
 10
3.566601420705595
 20
2.765940906108486
 30
0.0
 10
3.587627739194514
 20
2.782899297278736
 30
0.0
 10
3.609390055333758
 20
2.80009615167382
 30
0.0
 10
3.631921563240812
 20
2.817507998656089
 30
0.0
 10
3.655226287890686
 20
2.835134162678688
 30
0.0
 10
3.679316093773549
 20
2.852967106912491
 30
0.0
 10
3.704200389579275
 20
2.87100065976415
 30
0.0
 10
3.729888975119657
 20
2.889227716337508
 30
0.0
 10
3.75639123867997
 20
2.907640862446845
 30
0.0
 10
3.783716367186476
 20
2.926232187340265
 30
0.0
 10
3.811873275289273
 20
2.944993321344997
 30
0.0
 10
3.84087061226169
 20
2.963915411010795
 30
0.0
 10
3.870716747214605
 20
2.982989111436631
 30
0.0
 10
3.901419760197626
 20
3.002204573699836
 30
0.0
 10
3.932987431550802
 20
3.021551433503143
 30
0.0
 10
3.96542723162086
 20
3.041018799346692
 30
0.0
 10
3.998746310257084
 20
3.060595240693292
 30
0.0
 10
4.032951486248725
 20
3.080268775997419
 30
0.0
 10
4.068049236659272
 20
3.100026860633616
 30
0.0
 10
4.104045686070066
 20
3.11985637471439
 30
0.0
 10
4.14094659572995
 20
3.139743610800213
 30
0.0
 10
4.178757352612068
 20
3.159674261500833
 30
0.0
 10
4.217482958377554
 20
3.17963340696788
 30
0.0
 10
4.257128018246906
 20
3.199605502278938
 30
0.0
 10
4.297696729777001
 20
3.219574364711703
 30
0.0
 10
4.339192871552534
 20
3.23952316091277
 30
0.0
 10
4.381619791758969
 20
3.259434393942879
 30
0.0
 10
4.424980396764108
 20
3.27928989026714
 30
0.0
 10
4.469277139223125
 20
3.299070786427119
 30
0.0
 10
4.514512007562803
 20
3.318757516399344
 30
0.0
 10
4.560686509755119
 20
3.33832979580021
 30
0.0
 10
4.607801678460312
 20
3.357766617602267
 30
0.0
 10
4.65585799415744
 20
3.377046203373706
 30
0.0
 10
4.7048556207652
 20
3.396146123687681
 30
0.0
 10
4.798541196702675
 20
3.43159707373612
 30
0.0
 10
4.945884554923209
 20
3.483489337582061
 30
0.0
 10
5.12514517029642
 20
3.538941579116991
 30
0.0
 10
5.335093609114867
 20
3.596038714795126
 30
0.0
 10
5.512478013227513
 20
3.636576553997942
 30
0.0
 10
5.678753740735596
 20
3.667782161617716
 30
0.0
 10
5.785633449118565
 20
3.685403390948054
 30
0.0
 10
5.887833924249123
 20
3.700004707896645
 30
0.0
 10
5.985141624697064
 20
3.711845801704814
 30
0.0
 10
6.077372113064965
 20
3.721194360756489
 30
0.0
 10
6.164369082207125
 20
3.728318161334686
 30
0.0
 10
6.2460006533032
 20
3.733497164207964
 30
0.0
 10
6.322157096498612
 20
3.736967421415724
 30
0.0
 10
6.392746677579183
 20
3.739095314016863
 30
0.0
 10
6.437946346439149
 20
3.739575822543019
 30
0.0
 10
6.459600887366994
 20
3.73980602758231
 30
0.0
  0
SPLINE
  5
E5
330
1F
100
AcDbEntity
  8
0
  6
Continuous
 62
     7
370
    25
100
AcDbSpline
210
0.0
220
0.0
230
1.0
 70
     8
 71
     3
 72
     9
 73
     5
 74
     0
 42
0.000000001
 43
0.00000001
 40
0.0
 40
0.0
 40
0.0
 40
0.0
 40
0.9308161409472466
 40
1.0
 40
1.0
 40
1.0
 40
1.0
 10
11.56179374074643
 20
3.150776920896853
 30
0.0
 10
11.56178020574214
 20
3.150814645834036
 30
0.0
 10
11.56176566473485
 20
3.150855174715652
 30
0.0
 10
11.56135515979057
 20
3.152478081026392
 30
0.0
 10
11.56132675947437
 20
3.15259035994785
 30
0.0
  0
LWPOLYLINE
  5
E6
330
1F
100
AcDbEntity
  8
0
  6
Continuous
 62
     7
370
    25
100
AcDbPolyline
 90
        9
 70
   128
 43
0.0
 10
11.5773942005
 20
3.2470948882
 10
11.576717195
 20
3.2467571188
 10
11.5747125782
 20
3.2457568637
 10
11.5714572024
 20
3.2441324758
 10
11.5670760264
 20
3.2419465077
 10
11.5617380081
 20
3.2392827785
 10
11.5556473051
 20
3.2362438069
 10
11.5490385814
 20
3.2329463383
 10
11.5421664475
 20
3.2295170913
  0
SPLINE
  5
E7
330
1F
100
AcDbEntity
  8
0
  6
Continuous
 62
     7
370
    25
100
AcDbSpline
210
0.0
220
0.0
230
1.0
 70
     8
 71
     3
 72
    12
 73
     8
 74
     0
 42
0.000000001
 43
0.00000001
 40
0.0
 40
0.0
 40
0.0
 40
0.0
 40
0.2499999999999948
 40
0.2499999999999948
 40
0.4999999999999895
 40
0.4999999999999895
 40
1.0
 40
1.0
 40
1.0
 40
1.0
 10
11.59703388906664
 20
3.207701214767891
 30
0.0
 10
11.5970338889198
 20
3.207701215062693
 30
0.0
 10
11.59645418076776
 20
3.208865047220895
 30
0.0
 10
11.59429320415918
 20
3.213202607862865
 30
0.0
 10
11.59276386788438
 20
3.216272054942391
 30
0.0
 10
11.58712866917688
 20
3.2275789076893
 30
0.0
 10
11.58231036800429
 20
3.237242530626586
 30
0.0
 10
11.57739434188042
 20
3.247094889047321
 30
0.0
  0
ARC
  5
E8
330
1F
100
AcDbEntity
  8
0
  6
Continuous
 62
     7
370
    25
100
AcDbCircle
 10
11.5617939471
 20
3.1901470246
 30
0.0
 40
0.0393700787401579
100
AcDbArc
 50
270.0
 51
26.4793974024
  0
SPLINE
  5
E9
330
1F
100
AcDbEntity
  8
0
  6
Continuous
 62
     7
370
    25
100
AcDbSpline
210
0.0
220
0.0
230
1.0
 70
     8
 71
     3
 72
    16
 73
    12
 74
     0
 42
0.000000001
 43
0.00000001
 40
0.0
 40
0.0
 40
0.0
 40
0.0
 40
0.2499999999999984
 40
0.2499999999999984
 40
0.4999999999999969
 40
0.4999999999999969
 40
0.7499999999999953
 40
0.7499999999999953
 40
0.8749999999999977
 40
0.8749999999999977
 40
1.0
 40
1.0
 40
1.0
 40
1.0
 10
6.636765883468343
 20
4.487837059729733
 30
0.0
 10
6.636273684402232
 20
4.493035160511512
 30
0.0
 10
6.636762799376248
 20
4.49814692500015
 30
0.0
 10
6.636854945884073
 20
4.507669216318472
 30
0.0
 10
6.636754894195692
 20
4.512043984400334
 30
0.0
 10
6.636738521106339
 20
4.519298149322153
 30
0.0
 10
6.636803079034312
 20
4.522233701428783
 30
0.0
 10
6.636811021546525
 20
4.525181394756988
 30
0.0
 10
6.636760028446779
 20
4.525940843458394
 30
0.0
 10
6.636612479833808
 20
4.526952888942764
 30
0.0
 10
6.636560337841271
 20
4.527207615700825
 30
0.0
 10
6.63676571776151
 20
4.527207602384996
 30
0.0
  0
LINE
  5
EA
330
1F
100
AcDbEntity
  8
0
  6
Continuous
 62
     7
370
    25
100
AcDbLine
 10
6.4596009484
 20
4.4878365917
 30
0.0
 11
6.6367657818
 21
4.4878375084
 31
0.0
  0
LINE
  5
EB
330
1F
100
AcDbEntity
  8
0
  6
Continuous
 62
     7
370
    25
100
AcDbLine
 10
6.4596009484
 20
4.5272075936
 30
0.0
 11
6.6367657818
 21
4.5272075203
 31
0.0
  0
LINE
  5
EC
330
1F
100
AcDbEntity
  8
0
  6
Continuous
 62
     7
370
    25
100
AcDbLine
 10
6.6367657818
 20
3.7791770382
 30
0.0
 11
6.6367657818
 21
4.4878365917
 31
0.0
  0
LINE
  5
ED
330
1F
100
AcDbEntity
  8
0
  6
Continuous
 62
     7
370
    25
100
AcDbLine
 10
6.4596009484
 20
3.7791770382
 30
0.0
 11
6.6367657818
 21
3.7791761216
 31
0.0
  0
SPLINE
  5
EE
330
1F
100
AcDbEntity
  8
0
  6
Continuous
 62
     7
370
    25
100
AcDbSpline
210
0.0
220
0.0
230
1.0
 70
    24
 71
     3
 72
    16
 73
    12
 74
     0
 42
0.000000001
 43
0.00000001
 40
0.0150180248894774
 40
0.0150180248894774
 40
0.0150180248894774
 40
0.0150180248894774
 40
0.2074020260881974
 40
0.2074020260881974
 40
0.4223849750127325
 40
0.4223849750127325
 40
0.6326829472352162
 40
0.6326829472352162
 40
0.8274386696515031
 40
0.8274386696515031
 40
0.9874322573556239
 40
0.9874322573556239
 40
0.9874322573556239
 40
0.9874322573556239
 10
6.656451281067782
 20
4.486879391119177
 30
0.0
 10
6.656451281067782
 20
4.490657722861211
 30
0.0
 10
6.656451281067782
 20
4.493248528881114
 30
0.0
 10
6.656451281067782
 20
4.496116076779234
 30
0.0
 10
6.656451281067751
 20
4.498051084455699
 30
0.0
 10
6.656451281067812
 20
4.501640774556408
 30
0.0
 10
6.656451281067782
 20
4.50316549430567
 30
0.0
 10
6.656451281067782
 20
4.505555637117164
 30
0.0
 10
6.656451281067782
 20
4.506332226493009
 30
0.0
 10
6.656451281067782
 20
4.506992209115836
 30
0.0
 10
6.656451281067846
 20
4.507260242431762
 30
0.0
 10
6.656451281067795
 20
4.507522037980807
 30
0.0
  0
SPLINE
  5
EF
330
1F
100
AcDbEntity
  8
0
  6
Continuous
 62
     7
370
    25
100
AcDbSpline
210
0.0
220
0.0
230
1.0
 70
     8
 71
     3
 72
     8
 73
     4
 74
     0
 42
0.000000001
 43
0.00000001
 40
0.0
 40
0.0
 40
0.0
 40
0.0
 40
0.0007075371120174
 40
0.0007075371120174
 40
0.0007075371120174
 40
0.0007075371120174
 10
6.636765894458477
 20
4.48783659737593
 30
0.0
 10
6.643327875819334
 20
4.487525265360752
 30
0.0
 10
6.649889842744434
 20
4.487212827870692
 30
0.0
 10
6.656451281089574
 20
4.486879391114982
 30
0.0
  0
SPLINE
  5
F0
330
1F
100
AcDbEntity
  8
0
  6
Continuous
 62
     7
370
    25
100
AcDbSpline
210
0.0
220
0.0
230
1.0
 70
    24
 71
     3
 72
     8
 73
     4
 74
     0
 42
0.000000001
 43
0.00000001
 40
0.0
 40
0.0
 40
0.0
 40
0.0
 40
0.0007074116177215
 40
0.0007074116177215
 40
0.0007074116177215
 40
0.0007074116177215
 10
6.636765847359589
 20
4.527207471227372
 30
0.0
 10
6.643327786036306
 20
4.520645532711911
 30
0.0
 10
6.649889714729863
 20
4.514083604180171
 30
0.0
 10
6.656451280914302
 20
4.507522038168276
 30
0.0
  0
LINE
  5
F1
330
1F
100
AcDbEntity
  8
0
  6
Continuous
 62
     7
370
    25
100
AcDbLine
 10
6.6564511543
 20
3.7801342472
 30
0.0
 11
6.6564511543
 21
4.4868793828
 31
0.0
  0
SPLINE
  5
F2
330
1F
100
AcDbEntity
  8
0
  6
Continuous
 62
     7
370
    25
100
AcDbSpline
210
0.0
220
0.0
230
1.0
 70
     8
 71
     3
 72
     8
 73
     4
 74
     0
 42
0.000000001
 43
0.00000001
 40
0.0
 40
0.0
 40
0.0
 40
0.0
 40
0.0007075371104686
 40
0.0007075371104686
 40
0.0007075371104686
 40
0.0007075371104686
 10
6.636765894458616
 20
3.779177032591946
 30
0.0
 10
6.643327875811014
 20
3.779488364606701
 30
0.0
 10
6.649889842728527
 20
3.779800802021229
 30
0.0
 10
6.656451281087261
 20
3.780134237908404
 30
0.0
  0
SPLINE
  5
F3
330
1F
100
AcDbEntity
  8
0
  6
Continuous
 62
     7
370
    25
100
AcDbSpline
210
0.0
220
0.0
230
1.0
 70
    24
 71
     3
 72
    16
 73
    12
 74
     0
 42
0.000000001
 43
0.00000001
 40
0.0125680884447375
 40
0.0125680884447375
 40
0.0125680884447375
 40
0.0125680884447375
 40
0.1725613303484953
 40
0.1725613303484953
 40
0.3673170527647838
 40
0.3673170527647838
 40
0.577615024987266
 40
0.577615024987266
 40
0.7925979739118025
 40
0.7925979739118025
 40
0.984982328060027
 40
0.984982328060027
 40
0.984982328060027
 40
0.984982328060027
 10
6.656451281067782
 20
3.759491591729796
 30
0.0
 10
6.656451281067782
 20
3.75975338654912
 30
0.0
 10
6.656451281067782
 20
3.760021417964327
 30
0.0
 10
6.656451281067782
 20
3.760681394421194
 30
0.0
 10
6.65645128106781
 20
3.761457981403661
 30
0.0
 10
6.656451281067751
 20
3.763848120045563
 30
0.0
 10
6.656451281067782
 20
3.765372837864325
 30
0.0
 10
6.656451281067782
 20
3.768962524711423
 30
0.0
 10
6.656451281067782
 20
3.770897530884225
 30
0.0
 10
6.656451281067782
 20
3.773765079300093
 30
0.0
 10
6.656451281067782
 20
3.776355892284719
 30
0.0
 10
6.656451281067782
 20
3.780134235312319
 30
0.0
  0
SPLINE
  5
F4
330
1F
100
AcDbEntity
  8
0
  6
Continuous
 62
     7
370
    25
100
AcDbSpline
210
0.0
220
0.0
230
1.0
 70
     8
 71
     3
 72
     8
 73
     4
 74
     0
 42
0.000000001
 43
0.00000001
 40
0.000000000001851
 40
0.000000000001851
 40
0.000000000001851
 40
0.000000000001851
 40
0.000707537109534
 40
0.000707537109534
 40
0.000707537109534
 40
0.000707537109534
 10
6.656451281091803
 20
3.780134237906181
 30
0.0
 10
6.663012719435971
 20
3.779800802019837
 30
0.0
 10
6.669574686338913
 20
3.779488364606015
 30
0.0
 10
6.676136667676738
 20
3.779177032591952
 30
0.0
  0
SPLINE
  5
F5
330
1F
100
AcDbEntity
  8
0
  6
Continuous
 62
     7
370
    25
100
AcDbSpline
210
0.0
220
0.0
230
1.0
 70
     8
 71
     3
 72
    16
 73
    12
 74
     0
 42
0.000000001
 43
0.00000001
 40
0.0
 40
0.0
 40
0.0
 40
0.0
 40
0.2500000000000016
 40
0.2500000000000016
 40
0.5000000000000031
 40
0.5000000000000031
 40
0.7500000000000047
 40
0.7500000000000047
 40
0.8750000000000023
 40
0.8750000000000023
 40
1.0
 40
1.0
 40
1.0
 40
1.0
 10
6.676136678667218
 20
3.779176570238174
 30
0.0
 10
6.676628876934619
 20
3.773978477891681
 30
0.0
 10
6.676139763546413
 20
3.768866721974628
 30
0.0
 10
6.676047615913101
 20
3.759344442999834
 30
0.0
 10
6.676147667627012
 20
3.754969679761019
 30
0.0
 10
6.676164041182692
 20
3.747715517083081
 30
0.0
 10
6.67609948426764
 20
3.74477996297716
 30
0.0
 10
6.676091540121813
 20
3.741832261042645
 30
0.0
 10
6.676142530792692
 20
3.741072808697183
 30
0.0
 10
6.676290080169946
 20
3.740060753325549
 30
0.0
 10
6.676342225425763
 20
3.739806021906758
 30
0.0
 10
6.676136853525451
 20
3.739806027582479
 30
0.0
  0
SPLINE
  5
F6
330
1F
100
AcDbEntity
  8
0
  6
Continuous
 62
     7
370
    25
100
AcDbSpline
210
0.0
220
0.0
230
1.0
 70
    24
 71
     3
 72
     8
 73
     4
 74
     0
 42
0.000000001
 43
0.00000001
 40
0.0
 40
0.0
 40
0.0
 40
0.0
 40
0.0007074118526633
 40
0.0007074118526633
 40
0.0007074118526633
 40
0.0007074118526633
 10
6.676136721253464
 20
3.739806152263028
 30
0.0
 10
6.669574780397169
 20
3.746368092958065
 30
0.0
 10
6.663012849524638
 20
3.75293002366878
 30
0.0
 10
6.656451281178835
 20
3.759491591842038
 30
0.0
  0
LINE
  5
F7
330
1F
100
AcDbEntity
  8
0
  6
Continuous
 62
     7
370
    25
100
AcDbLine
 10
10.7487505998
 20
3.2295170913
 30
0.0
 11
10.7460349511
 21
3.2348451364
 31
0.0
  0
SPLINE
  5
F8
330
1F
100
AcDbEntity
  8
0
  6
Continuous
 62
     7
370
    25
100
AcDbSpline
210
0.0
220
0.0
230
1.0
 70
     8
 71
     3
 72
    14
 73
    10
 74
     0
 42
0.000000001
 43
0.00000001
 40
0.0
 40
0.0
 40
0.0
 40
0.0
 40
0.107799598940667
 40
0.2272789260173982
 40
0.35844260459677
 40
0.5012941235633595
 40
0.6558361802226176
 40
0.8220709028130282
 40
1.0
 40
1.0
 40
1.0
 40
1.0
 10
10.55986115351454
 20
3.589691214931634
 30
0.0
 10
10.56678803153549
 20
3.577066953665591
 30
0.0
 10
10.58139229178066
 20
3.550450634398131
 30
0.0
 10
10.60404095069311
 20
3.508265211342875
 30
0.0
 10
10.62867685127885
 20
3.461833624628514
 30
0.0
 10
10.65526287317908
 20
3.411135290251954
 30
0.0
 10
10.6838071192608
 20
3.356174732897393
 30
0.0
 10
10.71431856440583
 20
3.296956330204038
 30
0.0
 10
10.73522603906751
 20
3.256012607691063
 30
0.0
 10
10.74603498491609
 20
3.234845131147714
 30
0.0
  0
SPLINE
  5
F9
330
1F
100
AcDbEntity
  8
0
  6
Continuous
 62
     7
370
    25
100
AcDbSpline
210
0.0
220
0.0
230
1.0
 70
     8
 71
     3
 72
    24
 73
    20
 74
     0
 42
0.000000001
 43
0.00000001
 40
0.0
 40
0.0
 40
0.0
 40
0.0
 40
0.0315929413389787
 40
0.0630440755136846
 40
0.0943827735889717
 40
0.1256387235982806
 40
0.1568418497664431
 40
0.1880222284058999
 40
0.219210001639735
 40
0.2504352901767811
 40
0.3762209370940011
 40
0.500846985029003
 40
0.6263905579356309
 40
0.7510467213266636
 40
0.801020536463487
 40
0.85074170400929
 40
0.9003710030160249
 40
0.9500701041414543
 40
1.0
 40
1.0
 40
1.0
 40
1.0
 10
10.22552861107184
 20
3.779176106322534
 30
0.0
 10
10.22977332475313
 20
3.77913928020845
 30
0.0
 10
10.23824369941643
 20
3.779065793276914
 30
0.0
 10
10.2509130005903
 20
3.778467726640571
 30
0.0
 10
10.26351351969401
 20
3.777511890643284
 30
0.0
 10
10.27604521885481
 20
3.776163724439025
 30
0.0
 10
10.28850809692908
 20
3.774432409709585
 30
0.0
 10
10.30090198895008
 20
3.77231559830845
 30
0.0
 10
10.31322734585443
 20
3.769813536438128
 30
0.0
 10
10.337840208679
 20
3.764017457444267
 30
0.0
 10
10.37399448552284
 20
3.752455965582848
 30
0.0
 10
10.41979475440736
 20
3.730825471886091
 30
0.0
 10
10.46222219212414
 20
3.703413858987175
 30
0.0
 10
10.49282527619138
 20
3.676925902275476
 30
0.0
 10
10.51360581381822
 20
3.655077352863073
 30
0.0
 10
10.52659740042519
 20
3.639773673410063
 30
0.0
 10
10.53865259282204
 20
3.623773532431959
 30
0.0
 10
10.54986071258974
 20
3.607125409241301
 30
0.0
 10
10.55652252908088
 20
3.595511581007598
 30
0.0
 10
10.55986115351454
 20
3.589691214931634
 30
0.0
  0
LINE
  5
FA
330
1F
100
AcDbEntity
  8
0
  6
Continuous
 62
     7
370
    25
100
AcDbLine
 10
6.6761368203
 20
3.7791761216
 30
0.0
 11
10.2255285907
 21
3.7791761216
 31
0.0
  0
LINE
  5
FB
330
1F
100
AcDbEntity
  8
0
  6
Continuous
 62
     7
370
    25
100
AcDbLine
 10
6.6761365269
 20
3.7791770382
 30
0.0
 11
6.6761365269
 21
4.4878365917
 31
0.0
  0
LINE
  5
FC
330
1F
100
AcDbEntity
  8
0
  6
Continuous
 62
     7
370
    25
100
AcDbLine
 10
6.6761368203
 20
4.4878375084
 30
0.0
 11
10.2255285907
 21
4.4878375084
 31
0.0
  0
SPLINE
  5
FD
330
1F
100
AcDbEntity
  8
0
  6
Continuous
 62
     7
370
    25
100
AcDbSpline
210
0.0
220
0.0
230
1.0
 70
     8
 71
     3
 72
    33
 73
    29
 74
     0
 42
0.000000001
 43
0.00000001
 40
0.0
 40
0.0
 40
0.0
 40
0.0
 40
0.0669165937454735
 40
0.1256235886351108
 40
0.2512361329586157
 40
0.3191700642718773
 40
0.3768446223188547
 40
0.4103765674289985
 40
0.4396696855305362
 40
0.4745750025391481
 40
0.502437456510001
 40
0.5188831047891479
 40
0.5335260199254233
 40
0.5404692899350767
 40
0.549035272921422
 40
0.5645582907656816
 40
0.5965247202669174
 40
0.6269945952707007
 40
0.6891360449626974
 40
0.751013287410355
 40
0.8135663597989656
 40
0.8439632794667482
 40
0.8756541398887336
 40
0.9064172850030201
 40
0.9376555251821519
 40
0.9587067276994006
 40
0.9794831334125204
 40
1.0
 40
1.0
 40
1.0
 40
1.0
 10
11.54216616353436
 20
3.229517103338556
 30
0.0
 10
11.52258689918258
 20
3.268707801667999
 30
0.0
 10
11.48583043396169
 20
3.3422811246615
 30
0.0
 10
11.41189734686341
 20
3.489208927380505
 30
0.0
 10
11.33694445146155
 20
3.636369822855448
 30
0.0
 10
11.26102979383814
 20
3.782274034677665
 30
0.0
 10
11.21206181982898
 20
3.874239247769634
 30
0.0
 10
11.17417150223222
 20
3.943435000800946
 30
0.0
 10
11.14277820704246
 20
3.999189145692208
 30
0.0
 10
11.11221636036776
 20
4.051141824549692
 30
0.0
 10
11.08450028150492
 20
4.094997706663349
 30
0.0
 10
11.06222831030964
 20
4.126534041341023
 30
0.0
 10
11.04674127816552
 20
4.146054765942154
 30
0.0
 10
11.0336725514138
 20
4.160852328483826
 30
0.0
 10
11.01996269038606
 20
4.175846150941581
 30
0.0
 10
10.99474466528681
 20
4.202510603387082
 30
0.0
 10
10.95831136421659
 20
4.238294991509499
 30
0.0
 10
10.89699240440433
 20
4.292118342383545
 30
0.0
 10
10.81462857421195
 20
4.351443470884759
 30
0.0
 10
10.70532058135022
 20
4.407112950413073
 30
0.0
 10
10.6085818769026
 20
4.438500434886038
 30
0.0
 10
10.52915657859014
 20
4.457273525979732
 30
0.0
 10
10.46936751215158
 20
4.468392329133767
 30
0.0
 10
10.40862357900317
 20
4.477023083727158
 30
0.0
 10
10.35451027248974
 20
4.482497379110829
 30
0.0
 10
10.30678183782947
 20
4.485742988427582
 30
0.0
 10
10.26599604292526
 20
4.487506620200894
 30
0.0
 10
10.23896113716979
 20
4.487727685648793
 30
0.0
 10
10.22552864505455
 20
4.487837523645371
 30
0.0
  0
LINE
  5
FE
330
1F
100
AcDbEntity
  8
0
  6
Continuous
 62
     7
370
    25
100
AcDbLine
 10
10.7487505998
 20
3.2295170913
 30
0.0
 11
11.5421664475
 21
3.2295170913
 31
0.0
  0
LINE
  5
FF
330
1F
100
AcDbEntity
  8
0
  6
Continuous
 62
     7
370
    25
100
AcDbLine
 10
10.2255285907
 20
3.7791761216
 30
0.0
 11
10.2255285907
 21
3.7398060364
 31
0.0
  0
LINE
  5
100
330
1F
100
AcDbEntity
  8
0
  6
Continuous
 62
     7
370
    25
100
AcDbLine
 10
6.6761368203
 20
3.739806073
 30
0.0
 11
10.2255285907
 21
3.7398060364
 31
0.0
  0
SPLINE
  5
101
330
1F
100
AcDbEntity
  8
0
  6
Continuous
 62
     7
370
    25
100
AcDbSpline
210
0.0
220
0.0
230
1.0
 70
     8
 71
     3
 72
     8
 73
     4
 74
     0
 42
0.000000001
 43
0.00000001
 40
0.0000000000000027
 40
0.0000000000000027
 40
0.0000000000000027
 40
0.0000000000000027
 40
0.00070753711123
 40
0.00070753711123
 40
0.00070753711123
 40
0.00070753711123
 10
6.656451281067782
 20
4.486879391116119
 30
0.0
 10
6.663012719405619
 20
4.487212827871413
 30
0.0
 10
6.669574686323417
 20
4.487525265361125
 30
0.0
 10
6.676136667676971
 20
4.487836597375957
 30
0.0
  0
SPLINE
  5
102
330
1F
100
AcDbEntity
  8
0
  6
Continuous
 62
     7
370
    25
100
AcDbSpline
210
0.0
220
0.0
230
1.0
 70
     8
 71
     3
 72
    16
 73
    12
 74
     0
 42
0.000000001
 43
0.00000001
 40
0.0
 40
0.0
 40
0.0
 40
0.0
 40
0.1250000000000005
 40
0.1250000000000005
 40
0.2500000000000009
 40
0.2500000000000009
 40
0.5000000000000007
 40
0.5000000000000007
 40
0.7500000000000003
 40
0.7500000000000003
 40
1.0
 40
1.0
 40
1.0
 40
1.0
 10
6.636765709827637
 20
3.739806027582516
 30
0.0
 10
6.636560159673716
 20
3.739806020884548
 30
0.0
 10
6.636612421165875
 20
3.740061077383285
 30
0.0
 10
6.636758436697489
 20
3.74106113821263
 30
0.0
 10
6.636810884268367
 20
3.741818649721455
 30
0.0
 10
6.636803425261573
 20
3.744779607377558
 30
0.0
 10
6.636738552216846
 20
3.747707832888056
 30
0.0
 10
6.636754830512284
 20
3.754962819071919
 30
0.0
 10
6.636854373438001
 20
3.759354103768061
 30
0.0
 10
6.636763716708039
 20
3.768821187905429
 30
0.0
 10
6.636274581699759
 20
3.773987945791028
 30
0.0
 10
6.636765883468335
 20
3.779176570238148
 30
0.0
  0
LINE
  5
103
330
1F
100
AcDbEntity
  8
0
  6
Continuous
 62
     7
370
    25
100
AcDbLine
 10
6.4596009484
 20
3.7398060364
 30
0.0
 11
6.6367657818
 21
3.7398060364
 31
0.0
  0
SPLINE
  5
104
330
1F
100
AcDbEntity
  8
0
  6
Continuous
 62
     7
370
    25
100
AcDbSpline
210
0.0
220
0.0
230
1.0
 70
    24
 71
     3
 72
     8
 73
     4
 74
     0
 42
0.000000001
 43
0.00000001
 40
0.0
 40
0.0
 40
0.0
 40
0.0
 40
0.0007074116206327
 40
0.0007074116206327
 40
0.0007074116206327
 40
0.0007074116206327
 10
6.656451149825638
 20
3.759491460710948
 30
0.0
 10
6.649889583627648
 20
3.752929894685504
 30
0.0
 10
6.643327654905082
 20
3.746367966124757
 30
0.0
 10
6.636765716201364
 20
3.739806027582294
 30
0.0
  0
SPLINE
  5
105
330
1F
100
AcDbEntity
  8
0
  6
Continuous
 62
     7
370
    25
100
AcDbSpline
210
0.0
220
0.0
230
1.0
 70
    24
 71
     3
 72
     8
 73
     4
 74
     0
 42
0.000000001
 43
0.00000001
 40
0.0
 40
0.0
 40
0.0
 40
0.0
 40
0.0007074116174522
 40
0.0007074116174522
 40
0.0007074116174522
 40
0.0007074116174522
 10
6.656451412379484
 20
4.507522169326496
 30
0.0
 10
6.663012978566234
 20
4.514083735340699
 30
0.0
 10
6.66957490726019
 20
4.520645663872839
 30
0.0
 10
6.676136845934578
 20
4.52720760238597
 30
0.0
  0
SPLINE
  5
106
330
1F
100
AcDbEntity
  8
0
  6
Continuous
 62
     7
370
    25
100
AcDbSpline
210
0.0
220
0.0
230
1.0
 70
     8
 71
     3
 72
    16
 73
    12
 74
     0
 42
0.000000001
 43
0.00000001
 40
0.0
 40
0.0
 40
0.0
 40
0.0
 40
0.2500000000000012
 40
0.2500000000000012
 40
0.5000000000000024
 40
0.5000000000000024
 40
0.7500000000000037
 40
0.7500000000000037
 40
0.8750000000000018
 40
0.8750000000000018
 40
1.0
 40
1.0
 40
1.0
 40
1.0
 10
6.676136678667218
 20
4.487837059729717
 30
0.0
 10
6.676628877690362
 20
4.493035160057675
 30
0.0
 10
6.676139762801696
 20
4.498146924085163
 30
0.0
 10
6.676047616233219
 20
4.5076692147394
 30
0.0
 10
6.676147667923069
 20
4.512043982560709
 30
0.0
 10
6.676164041037532
 20
4.519298147361809
 30
0.0
 10
6.676099483164055
 20
4.522233699576004
 30
0.0
 10
6.676091540563922
 20
4.525181393367234
 30
0.0
 10
6.67614253353246
 20
4.525940842261549
 30
0.0
 10
6.676290082188215
 20
4.526952888288418
 30
0.0
 10
6.676342224541857
 20
4.52720761439885
 30
0.0
 10
6.676136845933705
 20
4.527207602385085
 30
0.0
  0
LINE
  5
107
330
1F
100
AcDbEntity
  8
0
  6
Continuous
 62
     7
370
    25
100
AcDbLine
 10
6.6761368203
 20
4.5272075936
 30
0.0
 11
10.2255285907
 21
4.5272075936
 31
0.0
  0
LINE
  5
108
330
1F
100
AcDbEntity
  8
0
  6
Continuous
 62
     7
370
    25
100
AcDbLine
 10
10.2255285907
 20
4.5272075936
 30
0.0
 11
10.2255285907
 21
4.4878375084
 31
0.0
  0
LINE
  5
109
330
1F
100
AcDbEntity
  8
0
  6
Continuous
 62
     7
370
    25
100
AcDbLine
 10
10.7688190613
 20
3.1507769209
 30
0.0
 11
11.5617937407
 21
3.1507769209
 31
0.0
  0
SPLINE
  5
10A
330
1F
100
AcDbEntity
  8
0
  6
Continuous
 62
     7
370
    25
100
AcDbSpline
210
0.0
220
0.0
230
1.0
 70
     8
 71
     3
 72
    22
 73
    18
 74
     0
 42
0.000000001
 43
0.00000001
 40
0.0
 40
0.0
 40
0.0
 40
0.0
 40
0.0465473266416197
 40
0.0896601394079966
 40
0.1293382735061963
 40
0.1655816197999006
 40
0.1983901387783651
 40
0.2277638826909905
 40
0.2537030323330623
 40
0.3858303554287267
 40
0.5049878490201644
 40
0.5919345953327239
 40
0.6770110735258303
 40
0.7602832190805324
 40
0.8418213535296041
 40
0.9217003869068618
 40
1.0
 40
1.0
 40
1.0
 40
1.0
 10
10.74875082236802
 20
3.229517103338561
 30
0.0
 10
10.74923140143976
 20
3.227628623349636
 30
0.0
 10
10.75015709985635
 20
3.223991005653996
 30
0.0
 10
10.7514827229517
 20
3.218767495757282
 30
0.0
 10
10.75269457304117
 20
3.214000989508595
 30
0.0
 10
10.753792162339
 20
3.209696447720614
 30
0.0
 10
10.75477548252036
 20
3.205851737337941
 30
0.0
 10
10.75564506974086
 20
3.202459001427766
 30
0.0
 10
10.75746188382987
 20
3.195349886767197
 30
0.0
 10
10.76001072333107
 20
3.185306023440363
 30
0.0
 10
10.7627641050018
 20
3.174548121035728
 30
0.0
 10
10.76477395573115
 20
3.166621492571229
 30
0.0
 10
10.76624649269217
 20
3.160790765483179
 30
0.0
 10
10.7673946370681
 20
3.15626644158083
 30
0.0
 10
10.76820922006194
 20
3.153092110426537
 30
0.0
 10
10.76872188695623
 20
3.151135351995183
 30
0.0
 10
10.76878671033472
 20
3.150895616648095
 30
0.0
 10
10.76881879839192
 20
3.150776945858195
 30
0.0
  0
LINE
  5
10B
330
1F
100
AcDbEntity
  8
0
  6
Continuous
 62
     7
370
    25
100
AcDbLine
 10
10.7109585563
 20
3.2169658696
 30
0.0
 11
10.7136747916
 21
3.2116378245
 31
0.0
  0
LWPOLYLINE
  5
10C
330
1F
100
AcDbEntity
  8
0
  6
Continuous
 62
     7
370
    25
100
AcDbPolyline
 90
        9
 70
   128
 43
0.0
 10
10.7109585563
 20
3.2169658696
 10
10.7116326285
 20
3.2173094323
 10
10.7136290322
 20
3.2183268472
 10
10.716870328
 20
3.2199791015
 10
10.7212321443
 20
3.2222026158
 10
10.7265478696
 20
3.2249119578
 10
10.7326121729
 20
3.2280030688
 10
10.7391921502
 20
3.2313570767
 10
10.7460349511
 20
3.2348451364
  0
LWPOLYLINE
  5
10D
330
1F
100
AcDbEntity
  8
0
  6
Continuous
 62
     7
370
    25
100
AcDbPolyline
 90
        9
 70
   128
 43
0.0
 10
10.7487505998
 20
3.2295170913
 10
10.7419077988
 20
3.2260290316
 10
10.7353278215
 20
3.2226750237
 10
10.7292635182
 20
3.2195839127
 10
10.7239483796
 20
3.2168745707
 10
10.7195859767
 20
3.2146510564
 10
10.7163446808
 20
3.2129988021
 10
10.7143488638
 20
3.2119813872
 10
10.7136747916
 20
3.2116378245
  0
SPLINE
  5
10E
330
1F
100
AcDbEntity
  8
0
  6
Continuous
 62
     7
370
    25
100
AcDbSpline
210
0.0
220
0.0
230
1.0
 70
     8
 71
     3
 72
    34
 73
    30
 74
     0
 42
0.000000001
 43
0.00000001
 40
0.0
 40
0.0
 40
0.0
 40
0.0
 40
6.54281330956779
 40
6.54281330956779
 40
13.0856266190814
 40
13.0856266190814
 40
19.6284399285951
 40
19.6284399285951
 40
22.8998465833518
 40
22.8998465833518
 40
26.1712532381086
 40
26.1712532381086
 40
32.7140665476221
 40
32.7140665476221
 40
39.2568798571356
 40
39.2568798571356
 40
40.0747315208248
 40
40.0747315208248
 40
40.8925831845139
 40
40.8925831845139
 40
42.5282865118924
 40
42.5282865118924
 40
44.1639898392708
 40
44.1639898392708
 40
45.7996931666493
 40
45.7996931666493
 40
49.0710998214062
 40
49.0710998214062
 40
51.95061649908946
 40
51.95061649908946
 40
51.95061649908946
 40
51.95061649908946
 10
10.22552864670448
 20
4.527207602385538
 30
0.0
 10
10.27270404191751
 20
4.527207598734553
 30
0.0
 10
10.32391695476247
 20
4.524860116490851
 30
0.0
 10
10.42891512508743
 20
4.514612680129552
 30
0.0
 10
10.48271391481566
 20
4.506709821894631
 30
0.0
 10
10.58752605807038
 20
4.484785410533017
 30
0.0
 10
10.63854055291495
 20
4.470746880670656
 30
0.0
 10
10.70885809694223
 20
4.445094127638489
 30
0.0
 10
10.73133933843853
 20
4.435742945073411
 30
0.0
 10
10.77496764095818
 20
4.415338031374238
 30
0.0
 10
10.79606981838964
 20
4.404303828906717
 30
0.0
 10
10.85764350010719
 20
4.368703388174395
 30
0.0
 10
10.89640019348133
 20
4.341637720643726
 30
0.0
 10
10.97111136330885
 20
4.280694215231521
 30
0.0
 10
11.0070581753644
 20
4.246805946568057
 30
0.0
 10
11.04666430220066
 20
4.204859463270931
 30
0.0
 10
11.05105321821507
 20
4.200145861308923
 30
0.0
 10
11.05980986862463
 20
4.190613323387544
 30
0.0
 10
11.06399006228838
 20
4.186004629473214
 30
0.0
 10
11.07617989200621
 20
4.172138764734316
 30
0.0
 10
11.08406956404157
 20
4.162630521494513
 30
0.0
 10
11.10294409441003
 20
4.137393157471719
 30
0.0
 10
11.11390709031224
 20
4.121644407709552
 30
0.0
 10
11.140854908652
 20
4.079571787139868
 30
0.0
 10
11.15680646221692
 20
4.053285606421757
 30
0.0
 10
11.21448731507905
 20
3.953229522845891
 30
0.0
 10
11.26599125338948
 20
3.858337603714092
 30
0.0
 10
11.40030396363899
 20
3.599409017559694
 30
0.0
 10
11.47864800471176
 20
3.444995445717902
 30
0.0
 10
11.57739434188055
 20
3.247094889047096
 30
0.0
  0
SPLINE
  5
10F
330
1F
100
AcDbEntity
  8
0
  6
Continuous
 62
     7
370
    25
100
AcDbSpline
210
0.0
220
0.0
230
1.0
 70
     8
 71
     3
 72
    25
 73
    21
 74
     0
 42
0.000000001
 43
0.00000001
 40
0.0
 40
0.0
 40
0.0
 40
0.0
 40
0.2499999999999934
 40
0.2499999999999934
 40
0.3749999999999944
 40
0.3749999999999944
 40
0.4999999999999954
 40
0.4999999999999954
 40
0.6249999999999964
 40
0.6249999999999964
 40
0.7499999999999976
 40
0.7499999999999976
 40
0.8749999999999986
 40
0.8749999999999986
 40
0.9374999999999992
 40
0.9687499999999997
 40
0.9687499999999997
 40
0.9843749999999998
 40
0.9843749999999998
 40
1.0
 40
1.0
 40
1.0
 40
1.0
 10
10.22552861107184
 20
3.739806027582383
 30
0.0
 10
10.25635313510992
 20
3.739806027582383
 30
0.0
 10
10.28651179474022
 20
3.736083587589209
 30
0.0
 10
10.33050621640446
 20
3.724991139438292
 30
0.0
 10
10.34504895510508
 20
3.720336413864328
 30
0.0
 10
10.37330498522593
 20
3.709204465149556
 30
0.0
 10
10.38692764130608
 20
3.702774839539412
 30
0.0
 10
10.41315159102832
 20
3.688200090100239
 30
0.0
 10
10.4257518739046
 20
3.680058524520532
 30
0.0
 10
10.44989516021973
 20
3.66196170406538
 30
0.0
 10
10.46132164983928
 20
3.652077472145583
 30
0.0
 10
10.4824090069425
 20
3.631100037586127
 30
0.0
 10
10.49213190691493
 20
3.619964285743626
 30
0.0
 10
10.50552653682816
 20
3.602235503192292
 30
0.0
 10
10.51192469156061
 20
3.59311636054955
 30
0.0
 10
10.51786320132985
 20
3.583608521298735
 30
0.0
 10
10.52075456258736
 20
3.578788753948588
 30
0.0
 10
10.52170534601868
 20
3.577171229462992
 30
0.0
 10
10.52358072398373
 20
3.573913957490806
 30
0.0
 10
10.5244706689056
 20
3.572330464100851
 30
0.0
 10
10.52543316600906
 20
3.570592271497234
 30
0.0
  0
SPLINE
  5
110
330
1F
100
AcDbEntity
  8
0
  6
Continuous
 62
     7
370
    25
100
AcDbSpline
210
0.0
220
0.0
230
1.0
 70
     8
 71
     3
 72
    33
 73
    29
 74
     0
 42
0.000000001
 43
0.00000001
 40
0.0
 40
0.0
 40
0.0
 40
0.0
 40
0.0640783663529849
 40
0.1281138663684523
 40
0.19165301220959
 40
0.2542508895752917
 40
0.3154865576015204
 40
0.374976261750289
 40
0.432383468894968
 40
0.4874252041955828
 40
0.5398746560548041
 40
0.589560425301151
 40
0.6363630703630524
 40
0.6802097264021406
 40
0.7210675723490084
 40
0.758936824014086
 40
0.7938437866035872
 40
0.8258343423854496
 40
0.8549681040510024
 40
0.8813133451437289
 40
0.9049427302568669
 40
0.9259298080087867
 40
0.9443461944590847
 40
0.9602593580810047
 40
0.9737309146841364
 40
0.9848153487619768
 40
0.9935590987174946
 40
1.0
 40
1.0
 40
1.0
 40
1.0
 10
10.55986115351454
 20
3.589691214931634
 30
0.0
 10
10.55870740252627
 20
3.589047546418138
 30
0.0
 10
10.55640067237151
 20
3.587760639984393
 30
0.0
 10
10.55298413623484
 20
3.585856193561548
 30
0.0
 10
10.5496623666599
 20
3.584005314591871
 30
0.0
 10
10.54648852833686
 20
3.582237459470157
 30
0.0
 10
10.54350820076211
 20
3.580577720734062
 30
0.0
 10
10.54075706326657
 20
3.579045779082536
 30
0.0
 10
10.53825974059924
 20
3.577655206995177
 30
0.0
 10
10.53602966308753
 20
3.576413407398808
 30
0.0
 10
10.53406984134296
 20
3.575322036975419
 30
0.0
 10
10.53237430060009
 20
3.574377798195596
 30
0.0
 10
10.53092989637297
 20
3.573573440286046
 30
0.0
 10
10.52971824852302
 20
3.572898825768375
 30
0.0
 10
10.52871758681133
 20
3.572341948063341
 30
0.0
 10
10.52790437036609
 20
3.571889824425475
 30
0.0
 10
10.52725461035975
 20
3.571529225141267
 30
0.0
 10
10.52674487893827
 20
3.571247229830087
 30
0.0
 10
10.52635302449905
 20
3.571031621301243
 30
0.0
 10
10.52605863453309
 20
3.570871141665763
 30
0.0
 10
10.52584329611672
 20
3.570755631818841
 30
0.0
 10
10.52569070346932
 20
3.570676101966478
 30
0.0
 10
10.5255866593094
 20
3.57062469419857
 30
0.0
 10
10.52551900247595
 20
3.570594753982022
 30
0.0
 10
10.52547750823541
 20
3.570580431347107
 30
0.0
 10
10.52545373760524
 20
3.570577573220567
 30
0.0
 10
10.52544099083556
 20
3.570580939453065
 30
0.0
 10
10.52543552671454
 20
3.570588913242305
 30
0.0
 10
10.52543320898833
 20
3.570592295499068
 30
0.0
  0
SPLINE
  5
111
330
1F
100
AcDbEntity
  8
0
  6
Continuous
 62
     7
370
    25
100
AcDbSpline
210
0.0
220
0.0
230
1.0
 70
     8
 71
     3
 72
    10
 73
     6
 74
     0
 42
0.000000001
 43
0.00000001
 40
0.0
 40
0.0
 40
0.0
 40
0.0
 40
0.5
 40
0.5
 40
1.0
 40
1.0
 40
1.0
 40
1.0
 10
10.52543320898834
 20
3.570592295499059
 30
0.0
 10
10.55744824707768
 20
3.512540412987935
 30
0.0
 10
10.58857458624141
 20
3.453736885176932
 30
0.0
 10
10.65022190198805
 20
3.335665297931753
 30
0.0
 10
10.68067190709088
 20
3.276383889682825
 30
0.0
 10
10.71095884226396
 20
3.216965888527985
 30
0.0
  0
SPLINE
  5
112
330
1F
100
AcDbEntity
  8
0
  6
Continuous
 62
     7
370
    25
100
AcDbSpline
210
0.0
220
0.0
230
1.0
 70
    24
 71
     3
 72
    17
 73
    13
 74
     0
 42
0.000000001
 43
0.00000001
 40
0.0
 40
0.0
 40
0.0
 40
0.0
 40
0.0591400648845977
 40
0.1178909558271647
 40
0.1769699822388175
 40
0.2370827080143527
 40
0.3579090524701642
 40
0.4817338527135205
 40
0.6080134222102728
 40
0.7371783468204636
 40
0.8679896404983196
 40
0.9999999999999999
 40
0.9999999999999999
 40
0.9999999999999999
 40
0.9999999999999999
 10
10.73374265573984
 20
3.172267781978678
 30
0.0
 10
10.73372448226488
 20
3.172303435356941
 30
0.0
 10
10.73368825490635
 20
3.172374507494757
 30
0.0
 10
10.73338958145181
 20
3.172960455843949
 30
0.0
 10
10.73291082690999
 20
3.17389969376142
 30
0.0
 10
10.73201737791092
 20
3.175652494213357
 30
0.0
 10
10.73045093399912
 20
3.178725600344031
 30
0.0
 10
10.72792482063241
 20
3.18368142060391
 30
0.0
 10
10.7248676751729
 20
3.18967903876519
 30
0.0
 10
10.72137785194047
 20
3.196525499777819
 30
0.0
 10
10.71760190718764
 20
3.203933284302804
 30
0.0
 10
10.71498773107382
 20
3.209061869234306
 30
0.0
 10
10.71367467971594
 20
3.211637860718843
 30
0.0
  0
ARC
  5
113
330
1F
100
AcDbEntity
  8
0
  6
Continuous
 62
     7
370
    25
100
AcDbCircle
 10
10.7688187984
 20
3.1901470246
 30
0.0
 40
0.0393700787401319
100
AcDbArc
 50
207.0091485186
 51
228.1185072215
  0
ARC
  5
114
330
1F
100
AcDbEntity
  8
0
  6
Continuous
 62
     7
370
    25
100
AcDbCircle
 10
10.7688187984
 20
3.1901470246
 30
0.0
 40
0.0393700787401312
100
AcDbArc
 50
248.6837781697
 51
269.9999999946
  0
LINE
  5
115
330
1F
100
AcDbEntity
  8
0
  6
Continuous
 62
     7
370
    25
100
AcDbLine
 10
6.6564511543
 20
3.759491079
 30
0.0
 11
6.6564511543
 21
3.759491519
 31
0.0
  0
LINE
  5
116
330
1F
100
AcDbEntity
  8
0
  6
Continuous
 62
     7
370
    25
100
AcDbLine
 10
6.6564511543
 20
3.759491079
 30
0.0
 11
6.6761362336
 21
3.7398060364
 31
0.0
  0
LINE
  5
117
330
1F
100
AcDbEntity
  8
0
  6
Continuous
 62
     7
370
    25
100
AcDbLine
 10
6.6761362336
 20
3.7398060364
 30
0.0
 11
6.6761368203
 21
3.739806073
 31
0.0
  0
LINE
  5
118
330
1F
100
AcDbEntity
  8
0
  6
Continuous
 62
     7
370
    25
100
AcDbLine
 10
6.6367663684
 20
3.7398060364
 30
0.0
 11
6.6564511543
 21
3.759491079
 31
0.0
  0
LINE
  5
119
330
1F
100
AcDbEntity
  8
0
  6
Continuous
 62
     7
370
    25
100
AcDbLine
 10
6.6367663684
 20
3.7398060364
 30
0.0
 11
6.6367657818
 21
3.7398060364
 31
0.0
  0
LINE
  5
11A
330
1F
100
AcDbEntity
  8
0
  6
Continuous
 62
     7
370
    25
100
AcDbLine
 10
6.6564514477
 20
4.507522111
 30
0.0
 11
6.6564511543
 21
4.507522551
 31
0.0
  0
LINE
  5
11B
330
1F
100
AcDbEntity
  8
0
  6
Continuous
 62
     7
370
    25
100
AcDbLine
 10
6.6564511543
 20
4.507522551
 30
0.0
 11
6.6761362336
 21
4.5272075936
 31
0.0
  0
LINE
  5
11C
330
1F
100
AcDbEntity
  8
0
  6
Continuous
 62
     7
370
    25
100
AcDbLine
 10
6.6761368203
 20
4.5272075936
 30
0.0
 11
6.6761362336
 21
4.5272075936
 31
0.0
  0
LINE
  5
11D
330
1F
100
AcDbEntity
  8
0
  6
Continuous
 62
     7
370
    25
100
AcDbLine
 10
6.6367663684
 20
4.5272075936
 30
0.0
 11
6.6564511543
 21
4.507522551
 31
0.0
  0
LINE
  5
11E
330
1F
100
AcDbEntity
  8
0
  6
Continuous
 62
     7
370
    25
100
AcDbLine
 10
6.6367657818
 20
4.5272075203
 30
0.0
 11
6.6367663684
 21
4.5272075936
 31
0.0
  0
LINE
  5
11F
330
1F
100
AcDbEntity
  8
0
  6
Continuous
 62
     7
370
    25
100
AcDbLine
 10
2.1052701566
 20
3.7201209938
 30
0.0
 11
2.1052701566
 21
4.5468926362
 31
0.0
  0
LINE
  5
120
330
1F
100
AcDbEntity
  8
0
  6
Continuous
 62
     7
370
    25
100
AcDbLine
 10
2.0659000715
 20
4.507522551
 30
0.0
 11
2.0659000715
 21
3.759491079
 31
0.0
  0
LINE
  5
121
330
1F
100
AcDbEntity
  8
0
  6
Continuous
 62
     7
370
    25
100
AcDbLine
 10
2.8966087609
 20
2.8756327727
 30
0.0
 11
2.8966087609
 21
5.3913808572
 31
0.0
  0
SPLINE
  5
122
330
1F
100
AcDbEntity
  8
0
  6
Continuous
 62
     7
370
    25
100
AcDbSpline
210
0.0
220
0.0
230
1.0
 70
     8
 71
     3
 72
    12
 73
     8
 74
     0
 42
0.000000001
 43
0.00000001
 40
0.0
 40
0.0
 40
0.0
 40
0.0
 40
0.1349078581785689
 40
0.2852424100187115
 40
0.440828901308255
 40
0.7227840289264945
 40
1.0
 40
1.0
 40
1.0
 40
1.0
 10
11.56132675947437
 20
3.15259035994785
 30
0.0
 10
11.56101491429138
 20
3.15382111820726
 30
0.0
 10
11.56035556447475
 20
3.156423371751304
 30
0.0
 10
11.55841520593927
 20
3.164280466697622
 30
0.0
 10
11.5550271108104
 20
3.177970337143255
 30
0.0
 10
11.54953389204285
 20
3.199970725382087
 30
0.0
 10
11.54460834713878
 20
3.219724108093015
 30
0.0
 10
11.54216644748259
 20
3.229517091283685
 30
0.0
  0
SPLINE
  5
123
330
1F
100
AcDbEntity
  8
0
  6
Continuous
 62
     7
370
    25
100
AcDbSpline
210
0.0
220
0.0
230
1.0
 70
     8
 71
     3
 72
    14
 73
    10
 74
     0
 42
0.000000001
 43
0.00000001
 40
0.0
 40
0.0
 40
0.0
 40
0.0
 40
0.1485903905993155
 40
0.2759298337957471
 40
0.461913810865449
 40
0.5315862844105628
 40
0.6435977434755272
 40
0.8054278177657921
 40
0.9999999999999999
 40
0.9999999999999999
 40
0.9999999999999999
 40
0.9999999999999999
 10
15.29992513108495
 20
7.225495999157528
 30
0.0
 10
15.30533344721693
 20
7.225717834259418
 30
0.0
 10
15.31537659849604
 20
7.226129778279138
 30
0.0
 10
15.33160031492524
 20
7.229611987619453
 30
0.0
 10
15.34321120193973
 20
7.233991112051307
 30
0.0
 10
15.3538528195799
 20
7.240078773593074
 30
0.0
 10
15.36370358575971
 20
7.248056901465606
 30
0.0
 10
15.37379615701805
 20
7.262029013861428
 30
0.0
 10
15.37607194170795
 20
7.274207504848679
 30
0.0
 10
15.37731437041119
 20
7.280856159632229
 30
0.0
  0
SPLINE
  5
124
330
1F
100
AcDbEntity
  8
0
  6
Continuous
 62
     7
370
    25
100
AcDbSpline
210
0.0
220
0.0
230
1.0
 70
     8
 71
     3
 72
    13
 73
     9
 74
     0
 42
0.000000001
 43
0.00000001
 40
0.0
 40
0.0
 40
0.0
 40
0.0
 40
0.197812292265396
 40
0.3583584120677134
 40
0.5481741696156724
 40
0.7232060694950839
 40
0.8495863771851918
 40
1.0
 40
1.0
 40
1.0
 40
1.0
 10
13.60766896683924
 20
7.27808360499435
 30
0.0
 10
13.60886111982647
 20
7.272409109406824
 30
0.0
 10
13.61102083420294
 20
7.262129145483739
 30
0.0
 10
13.62217479293778
 20
7.247156996183126
 30
0.0
 10
13.63763442791711
 20
7.235851867029124
 30
0.0
 10
13.65301537770369
 20
7.229948084427058
 30
0.0
 10
13.66948673304904
 20
7.226196832674987
 30
0.0
 10
13.6800251420086
 20
7.225742752538951
 30
0.0
 10
13.68575185815235
 20
7.225495999157528
 30
0.0
  0
LINE
  5
125
330
1F
100
AcDbEntity
  8
0
  6
Continuous
 62
     7
370
    25
100
AcDbLine
 10
13.6857518582
 20
7.2254959992
 30
0.0
 11
15.2999251311
 21
7.2254959992
 31
0.0
  0
LINE
  5
126
330
1F
100
AcDbEntity
  8
0
  6
Continuous
 62
     7
370
    25
100
AcDbLine
 10
14.9062243158
 20
16.7213897418
 30
0.0
 11
14.8668542306
 21
16.760759827
 31
0.0
  0
LINE
  5
127
330
1F
100
AcDbEntity
  8
0
  6
Continuous
 62
     7
370
    25
100
AcDbLine
 10
14.1188227586
 20
16.760759827
 30
0.0
 11
14.0794526734
 21
16.7213897418
 31
0.0
  0
LINE
  5
128
330
1F
100
AcDbEntity
  8
0
  6
Continuous
 62
     7
370
    25
100
AcDbLine
 10
14.9062243158
 20
15.9300511376
 30
0.0
 11
14.9062243158
 21
16.7213897418
 31
0.0
  0
LINE
  5
129
330
1F
100
AcDbEntity
  8
0
  6
Continuous
 62
     7
370
    25
100
AcDbLine
 10
14.0794526734
 20
16.7213897418
 30
0.0
 11
14.0794526734
 21
15.9300511376
 31
0.0
  0
LINE
  5
12A
330
1F
100
AcDbEntity
  8
0
  6
Continuous
 62
     7
370
    25
100
AcDbLine
 10
15.7507125369
 20
15.8709960189
 30
0.0
 11
15.7507125369
 21
15.9300511376
 31
0.0
  0
LINE
  5
12B
330
1F
100
AcDbEntity
  8
0
  6
Continuous
 62
     7
370
    25
100
AcDbLine
 10
13.2349644524
 20
15.9300511376
 30
0.0
 11
13.2349644524
 21
15.8709960189
 31
0.0
  0
SPLINE
  5
12C
330
1F
100
AcDbEntity
  8
0
  6
Continuous
 62
     7
370
    25
100
AcDbSpline
210
0.0
220
0.0
230
1.0
 70
    24
 71
     3
 72
    33
 73
    29
 74
     0
 42
0.000000001
 43
0.00000001
 40
0.0
 40
0.0
 40
0.0
 40
0.0
 40
0.0279562499999997
 40
0.0559124999999994
 40
0.0838687499999995
 40
0.1118249999999998
 40
0.1397812499999996
 40
0.1666666666666666
 40
0.1677374999999997
 40
0.2236499999999995
 40
0.2795624999999997
 40
0.335475
 40
0.4444444444444444
 40
0.4472999999999998
 40
0.5555555555555556
 40
0.5591250000000001
 40
0.6709499999999998
 40
0.782775
 40
0.8333333333333334
 40
0.8946000000000001
 40
0.9170375
 40
0.939475
 40
0.9619125
 40
0.98435
 40
0.9882625
 40
0.992175
 40
0.9960875
 40
1.0
 40
1.0
 40
1.0
 40
1.0
 10
12.99677550249267
 20
15.51271508762546
 30
0.0
 10
12.99570052134165
 20
15.51271508762546
 30
0.0
 10
12.99354695851464
 20
15.51271508762546
 30
0.0
 10
12.99031134409067
 20
15.51271508762546
 30
0.0
 10
12.98707599087469
 20
15.51271508762546
 30
0.0
 10
12.98384643025813
 20
15.51271508762546
 30
0.0
 10
12.98066928396767
 20
15.51271508762546
 30
0.0
 10
12.97853481459647
 20
15.51271508762546
 30
0.0
 10
12.97534419798962
 20
15.51271508762546
 30
0.0
 10
12.97108001683664
 20
15.51271508762546
 30
0.0
 10
12.9648782128976
 20
15.51271508762546
 30
0.0
 10
12.95695433449368
 20
15.51271508762546
 30
0.0
 10
12.95127409273883
 20
15.51271508762546
 30
0.0
 10
12.94424678693709
 20
15.51271508762546
 30
0.0
 10
12.94080693353742
 20
15.51271508762546
 30
0.0
 10
12.9346583359144
 20
15.51271508762546
 30
0.0
 10
12.92900279074709
 20
15.51271508762546
 30
0.0
 10
12.92387488562489
 20
15.51271508762546
 30
0.0
 10
12.92083658981109
 20
15.51271508762546
 30
0.0
 10
12.9195116455874
 20
15.51271508762546
 30
0.0
 10
12.91877816048866
 20
15.51271508762546
 30
0.0
 10
12.91842261899753
 20
15.51271508762546
 30
0.0
 10
12.91817747828198
 20
15.51271508762546
 30
0.0
 10
12.91808070440105
 20
15.51271508762546
 30
0.0
 10
12.91805009347318
 20
15.51271508762546
 30
0.0
 10
12.91804157400439
 20
15.51271508762546
 30
0.0
 10
12.91803647768264
 20
15.51271508762546
 30
0.0
 10
12.91803534501235
 20
15.51271508762546
 30
0.0
 10
12.91803534501235
 20
15.51271508762546
 30
0.0
  0
LINE
  5
12D
330
1F
100
AcDbEntity
  8
0
  6
Continuous
 62
     7
370
    25
100
AcDbLine
 10
12.9180353802
 20
15.8709960189
 30
0.0
 11
12.9180353802
 21
15.5127150878
 31
0.0
  0
LINE
  5
12E
330
1F
100
AcDbEntity
  8
0
  6
Continuous
 62
     7
370
    25
100
AcDbLine
 10
12.9967755506
 20
15.8709960189
 30
0.0
 11
12.9180353802
 21
15.8709960189
 31
0.0
  0
LINE
  5
12F
330
1F
100
AcDbEntity
  8
0
  6
Continuous
 62
     7
370
    25
100
AcDbLine
 10
12.9967755506
 20
15.8709960189
 30
0.0
 11
12.9967755506
 21
15.5127150878
 31
0.0
  0
SPLINE
  5
130
330
1F
100
AcDbEntity
  8
0
  6
Continuous
 62
     7
370
    25
100
AcDbSpline
210
0.0
220
0.0
230
1.0
 70
     8
 71
     3
 72
     8
 73
     4
 74
     0
 42
0.000000001
 43
0.00000001
 40
3.0
 40
3.0
 40
3.0
 40
3.0
 40
4.0
 40
4.0
 40
4.0
 40
4.0
 10
14.39426358216003
 20
15.72454094171336
 30
0.0
 10
14.40417289424907
 20
15.73297513729177
 30
0.0
 10
14.41814311532031
 20
15.73720958939286
 30
0.0
 10
14.43320665804059
 20
15.73720958939286
 30
0.0
  0
SPLINE
  5
131
330
1F
100
AcDbEntity
  8
0
  6
Continuous
 62
     7
370
    25
100
AcDbSpline
210
0.0
220
0.0
230
1.0
 70
     8
 71
     3
 72
     8
 73
     4
 74
     0
 42
0.000000001
 43
0.00000001
 40
4.0
 40
4.0
 40
4.0
 40
4.0
 40
5.0
 40
5.0
 40
5.0
 40
5.0
 10
14.37746460825077
 20
15.68833984711138
 30
0.0
 10
14.37746460825077
 20
15.70320381524493
 30
0.0
 10
14.38430220713533
 20
15.71620219485034
 30
0.0
 10
14.39426358216003
 20
15.72454094171336
 30
0.0
  0
LINE
  5
132
330
1F
100
AcDbEntity
  8
0
  6
Continuous
 62
     7
370
    25
100
AcDbLine
 10
14.3774646041
 20
15.6827604368
 30
0.0
 11
14.3774646041
 21
15.6883398473
 31
0.0
  0
SPLINE
  5
133
330
1F
100
AcDbEntity
  8
0
  6
Continuous
 62
     7
370
    25
100
AcDbSpline
210
0.0
220
0.0
230
1.0
 70
     8
 71
     3
 72
     8
 73
     4
 74
     0
 42
0.000000001
 43
0.00000001
 40
7.0
 40
7.0
 40
7.0
 40
7.0
 40
8.0
 40
8.0
 40
8.0
 40
8.0
 10
14.39426358216003
 20
15.64655934123684
 30
0.0
 10
14.38430220713533
 20
15.65491544241175
 30
0.0
 10
14.37746460825077
 20
15.66795720779688
 30
0.0
 10
14.37746460825077
 20
15.68276043583882
 30
0.0
  0
SPLINE
  5
134
330
1F
100
AcDbEntity
  8
0
  6
Continuous
 62
     7
370
    25
100
AcDbSpline
210
0.0
220
0.0
230
1.0
 70
     8
 71
     3
 72
     8
 73
     4
 74
     0
 42
0.000000001
 43
0.00000001
 40
8.0
 40
8.0
 40
8.0
 40
8.0
 40
9.0
 40
9.0
 40
9.0
 40
9.0
 10
14.43320665804059
 20
15.6339601108049
 30
0.0
 10
14.41814311532031
 20
15.6339601108049
 30
0.0
 10
14.40417289424907
 20
15.63820324006194
 30
0.0
 10
14.39426358216003
 20
15.64655934123684
 30
0.0
  0
SPLINE
  5
135
330
1F
100
AcDbEntity
  8
0
  6
Continuous
 62
     7
370
    25
100
AcDbSpline
210
0.0
220
0.0
230
1.0
 70
     8
 71
     3
 72
     8
 73
     4
 74
     0
 42
0.000000001
 43
0.00000001
 40
9.0
 40
9.0
 40
9.0
 40
9.0
 40
10.0
 40
10.0
 40
10.0
 40
10.0
 10
14.47218444254493
 20
15.64655934123684
 30
0.0
 10
14.46215365027267
 20
15.63820324006194
 30
0.0
 10
14.44820078351332
 20
15.6339601108049
 30
0.0
 10
14.43320665804059
 20
15.6339601108049
 30
0.0
  0
SPLINE
  5
136
330
1F
100
AcDbEntity
  8
0
  6
Continuous
 62
     7
370
    25
100
AcDbSpline
210
0.0
220
0.0
230
1.0
 70
     8
 71
     3
 72
     8
 73
     4
 74
     0
 42
0.000000001
 43
0.00000001
 40
10.0
 40
10.0
 40
10.0
 40
10.0
 40
11.0
 40
11.0
 40
11.0
 40
11.0
 10
14.48884458195907
 20
15.68276043583882
 30
0.0
 10
14.48884458195907
 20
15.66795720779688
 30
0.0
 10
14.48200698307452
 20
15.65491544241175
 30
0.0
 10
14.47218444254493
 20
15.64655934123684
 30
0.0
  0
LINE
  5
137
330
1F
100
AcDbEntity
  8
0
  6
Continuous
 62
     7
370
    25
100
AcDbLine
 10
14.488844582
 20
15.6883398473
 30
0.0
 11
14.488844582
 21
15.6827604368
 31
0.0
  0
SPLINE
  5
138
330
1F
100
AcDbEntity
  8
0
  6
Continuous
 62
     7
370
    25
100
AcDbSpline
210
0.0
220
0.0
230
1.0
 70
     8
 71
     3
 72
     8
 73
     4
 74
     0
 42
0.000000001
 43
0.00000001
 40
1.0
 40
1.0
 40
1.0
 40
1.0
 40
2.0
 40
2.0
 40
2.0
 40
2.0
 10
14.47218444254493
 20
15.72454094171336
 30
0.0
 10
14.48200698307452
 20
15.71620219485034
 30
0.0
 10
14.48884458195907
 20
15.70320381524493
 30
0.0
 10
14.48884458195907
 20
15.68833984711138
 30
0.0
  0
SPLINE
  5
139
330
1F
100
AcDbEntity
  8
0
  6
Continuous
 62
     7
370
    25
100
AcDbSpline
210
0.0
220
0.0
230
1.0
 70
     8
 71
     3
 72
     8
 73
     4
 74
     0
 42
0.000000001
 43
0.00000001
 40
2.0
 40
2.0
 40
2.0
 40
2.0
 40
3.0
 40
3.0
 40
3.0
 40
3.0
 10
14.43320665804059
 20
15.73720958939286
 30
0.0
 10
14.44820078351332
 20
15.73720958939286
 30
0.0
 10
14.46215365027267
 20
15.73297513729177
 30
0.0
 10
14.47218444254493
 20
15.72454094171336
 30
0.0
  0
SPLINE
  5
13A
330
1F
100
AcDbEntity
  8
0
  6
Continuous
 62
     7
370
    25
100
AcDbSpline
210
0.0
220
0.0
230
1.0
 70
     8
 71
     3
 72
     8
 73
     4
 74
     0
 42
0.000000001
 43
0.00000001
 40
2.0
 40
2.0
 40
2.0
 40
2.0
 40
3.0
 40
3.0
 40
3.0
 40
3.0
 10
14.56037905556855
 20
15.65611288993214
 30
0.0
 10
14.56037905556855
 20
15.65261599608636
 30
0.0
 10
14.56322516271847
 20
15.64974385746861
 30
0.0
 10
14.56673073372019
 20
15.64974385746861
 30
0.0
  0
LINE
  5
13B
330
1F
100
AcDbEntity
  8
0
  6
Continuous
 62
     7
370
    25
100
AcDbLine
 10
14.5603790573
 20
15.7213217197
 30
0.0
 11
14.5603790573
 21
15.6561128963
 31
0.0
  0
LINE
  5
13C
330
1F
100
AcDbEntity
  8
0
  6
Continuous
 62
     7
370
    25
100
AcDbLine
 10
14.5711734389
 20
15.7213217197
 30
0.0
 11
14.5603790573
 21
15.7213217197
 31
0.0
  0
SPLINE
  5
13D
330
1F
100
AcDbEntity
  8
0
  6
Continuous
 62
     7
370
    25
100
AcDbSpline
210
0.0
220
0.0
230
1.0
 70
     8
 71
     3
 72
     8
 73
     4
 74
     0
 42
0.000000001
 43
0.00000001
 40
5.0
 40
5.0
 40
5.0
 40
5.0
 40
6.0
 40
6.0
 40
6.0
 40
6.0
 10
14.58741707349275
 20
15.7013989668084
 30
0.0
 10
14.58741707349275
 20
15.71658398971191
 30
0.0
 10
14.57693506911135
 20
15.72132171685782
 30
0.0
 10
14.57117343756396
 20
15.72132171685782
 30
0.0
  0
LINE
  5
13E
330
1F
100
AcDbEntity
  8
0
  6
Continuous
 62
     7
370
    25
100
AcDbLine
 10
14.5874170704
 20
15.6974855633
 30
0.0
 11
14.5874170704
 21
15.7013989698
 31
0.0
  0
LINE
  5
13F
330
1F
100
AcDbEntity
  8
0
  6
Continuous
 62
     7
370
    25
100
AcDbLine
 10
14.6001204295
 20
15.6974855633
 30
0.0
 11
14.5874170704
 21
15.6974855633
 31
0.0
  0
LINE
  5
140
330
1F
100
AcDbEntity
  8
0
  6
Continuous
 62
     7
370
    25
100
AcDbLine
 10
14.6001204295
 20
15.7332007391
 30
0.0
 11
14.6001204295
 21
15.6974855633
 31
0.0
  0
LINE
  5
141
330
1F
100
AcDbEntity
  8
0
  6
Continuous
 62
     7
370
    25
100
AcDbLine
 10
14.4967755024
 20
15.7332007391
 30
0.0
 11
14.6001204295
 21
15.7332007391
 31
0.0
  0
LINE
  5
142
330
1F
100
AcDbEntity
  8
0
  6
Continuous
 62
     7
370
    25
100
AcDbLine
 10
14.4967755024
 20
15.6974855633
 30
0.0
 11
14.4967755024
 21
15.7332007391
 31
0.0
  0
LINE
  5
143
330
1F
100
AcDbEntity
  8
0
  6
Continuous
 62
     7
370
    25
100
AcDbLine
 10
14.5094615049
 20
15.6974855633
 30
0.0
 11
14.4967755024
 21
15.6974855633
 31
0.0
  0
LINE
  5
144
330
1F
100
AcDbEntity
  8
0
  6
Continuous
 62
     7
370
    25
100
AcDbLine
 10
14.5094615049
 20
15.7013989698
 30
0.0
 11
14.5094615049
 21
15.6974855633
 31
0.0
  0
SPLINE
  5
145
330
1F
100
AcDbEntity
  8
0
  6
Continuous
 62
     7
370
    25
100
AcDbSpline
210
0.0
220
0.0
230
1.0
 70
     8
 71
     3
 72
     8
 73
     4
 74
     0
 42
0.000000001
 43
0.00000001
 40
13.0
 40
13.0
 40
13.0
 40
13.0
 40
14.0
 40
14.0
 40
14.0
 40
14.0
 10
14.52563572316531
 20
15.72132171685781
 30
0.0
 10
14.51997821748926
 20
15.72132171685781
 30
0.0
 10
14.50946150448407
 20
15.71658398971191
 30
0.0
 10
14.50946150448407
 20
15.7013989668084
 30
0.0
  0
LINE
  5
146
330
1F
100
AcDbEntity
  8
0
  6
Continuous
 62
     7
370
    25
100
AcDbLine
 10
14.5364995202
 20
15.7213217197
 30
0.0
 11
14.5256357226
 21
15.7213217197
 31
0.0
  0
LINE
  5
147
330
1F
100
AcDbEntity
  8
0
  6
Continuous
 62
     7
370
    25
100
AcDbLine
 10
14.5364995202
 20
15.6561128963
 30
0.0
 11
14.5364995202
 21
15.7213217197
 31
0.0
  0
SPLINE
  5
148
330
1F
100
AcDbEntity
  8
0
  6
Continuous
 62
     7
370
    25
100
AcDbSpline
210
0.0
220
0.0
230
1.0
 70
     8
 71
     3
 72
     8
 73
     4
 74
     0
 42
0.000000001
 43
0.00000001
 40
16.0
 40
16.0
 40
16.0
 40
16.0
 40
17.0
 40
17.0
 40
17.0
 40
17.0
 10
14.53011313563286
 20
15.64974385746861
 30
0.0
 10
14.53365341525836
 20
15.64974385746861
 30
0.0
 10
14.53649952240828
 20
15.65261599608636
 30
0.0
 10
14.53649952240828
 20
15.65611288993214
 30
0.0
  0
LINE
  5
149
330
1F
100
AcDbEntity
  8
0
  6
Continuous
 62
     7
370
    25
100
AcDbLine
 10
14.5166461888
 20
15.6497438599
 30
0.0
 11
14.5301131361
 21
15.6497438599
 31
0.0
  0
LINE
  5
14A
330
1F
100
AcDbEntity
  8
0
  6
Continuous
 62
     7
370
    25
100
AcDbLine
 10
14.5166461888
 20
15.6378561505
 30
0.0
 11
14.5166461888
 21
15.6497438599
 31
0.0
  0
LINE
  5
14B
330
1F
100
AcDbEntity
  8
0
  6
Continuous
 62
     7
370
    25
100
AcDbLine
 10
14.5802323842
 20
15.6378561505
 30
0.0
 11
14.5166461888
 21
15.6378561505
 31
0.0
  0
LINE
  5
14C
330
1F
100
AcDbEntity
  8
0
  6
Continuous
 62
     7
370
    25
100
AcDbLine
 10
14.5802323842
 20
15.6497438599
 30
0.0
 11
14.5802323842
 21
15.6378561505
 31
0.0
  0
LINE
  5
14D
330
1F
100
AcDbEntity
  8
0
  6
Continuous
 62
     7
370
    25
100
AcDbLine
 10
14.5667307323
 20
15.6497438599
 30
0.0
 11
14.5802323842
 21
15.6497438599
 31
0.0
  0
SPLINE
  5
14E
330
1F
100
AcDbEntity
  8
0
  6
Continuous
 62
     7
370
    25
100
AcDbSpline
210
0.0
220
0.0
230
1.0
 70
     8
 71
     3
 72
     8
 73
     4
 74
     0
 42
0.000000001
 43
0.00000001
 40
3.0
 40
3.0
 40
3.0
 40
3.0
 40
4.0
 40
4.0
 40
4.0
 40
4.0
 10
14.62483296992701
 20
15.72454094171336
 30
0.0
 10
14.63479434495172
 20
15.73297513729177
 30
0.0
 10
14.64874721171106
 20
15.73720958939286
 30
0.0
 10
14.66381075443135
 20
15.73720958939286
 30
0.0
  0
SPLINE
  5
14F
330
1F
100
AcDbEntity
  8
0
  6
Continuous
 62
     7
370
    25
100
AcDbSpline
210
0.0
220
0.0
230
1.0
 70
     8
 71
     3
 72
     8
 73
     4
 74
     0
 42
0.000000001
 43
0.00000001
 40
4.0
 40
4.0
 40
4.0
 40
4.0
 40
5.0
 40
5.0
 40
5.0
 40
5.0
 10
14.60813812188909
 20
15.68833984711138
 30
0.0
 10
14.60813812188909
 20
15.70320381524493
 30
0.0
 10
14.61494101214987
 20
15.71620219485034
 30
0.0
 10
14.62483296992701
 20
15.72454094171336
 30
0.0
  0
LINE
  5
150
330
1F
100
AcDbEntity
  8
0
  6
Continuous
 62
     7
370
    25
100
AcDbLine
 10
14.6081381177
 20
15.6827604368
 30
0.0
 11
14.6081381177
 21
15.6883398473
 31
0.0
  0
SPLINE
  5
151
330
1F
100
AcDbEntity
  8
0
  6
Continuous
 62
     7
370
    25
100
AcDbSpline
210
0.0
220
0.0
230
1.0
 70
     8
 71
     3
 72
     8
 73
     4
 74
     0
 42
0.000000001
 43
0.00000001
 40
7.0
 40
7.0
 40
7.0
 40
7.0
 40
8.0
 40
8.0
 40
8.0
 40
8.0
 10
14.62483296992702
 20
15.64655934123684
 30
0.0
 10
14.61494101214987
 20
15.65491544241175
 30
0.0
 10
14.60813812188909
 20
15.66795720779688
 30
0.0
 10
14.60813812188909
 20
15.68276043583883
 30
0.0
  0
SPLINE
  5
152
330
1F
100
AcDbEntity
  8
0
  6
Continuous
 62
     7
370
    25
100
AcDbSpline
210
0.0
220
0.0
230
1.0
 70
     8
 71
     3
 72
     8
 73
     4
 74
     0
 42
0.000000001
 43
0.00000001
 40
8.0
 40
8.0
 40
8.0
 40
8.0
 40
9.0
 40
9.0
 40
9.0
 40
9.0
 10
14.66381075443135
 20
15.6339601108049
 30
0.0
 10
14.64874721171107
 20
15.6339601108049
 30
0.0
 10
14.63479434495172
 20
15.63820324006194
 30
0.0
 10
14.62483296992702
 20
15.64655934123684
 30
0.0
  0
SPLINE
  5
153
330
1F
100
AcDbEntity
  8
0
  6
Continuous
 62
     7
370
    25
100
AcDbSpline
210
0.0
220
0.0
230
1.0
 70
     8
 71
     3
 72
     8
 73
     4
 74
     0
 42
0.000000001
 43
0.00000001
 40
9.0
 40
9.0
 40
9.0
 40
9.0
 40
10.0
 40
10.0
 40
10.0
 40
10.0
 10
14.70275383031191
 20
15.64655934123684
 30
0.0
 10
14.69282716391099
 20
15.63820324006194
 30
0.0
 10
14.67883958852786
 20
15.6339601108049
 30
0.0
 10
14.66381075443135
 20
15.6339601108049
 30
0.0
  0
SPLINE
  5
154
330
1F
100
AcDbEntity
  8
0
  6
Continuous
 62
     7
370
    25
100
AcDbSpline
210
0.0
220
0.0
230
1.0
 70
     8
 71
     3
 72
     8
 73
     4
 74
     0
 42
0.000000001
 43
0.00000001
 40
10.0
 40
10.0
 40
10.0
 40
10.0
 40
11.0
 40
11.0
 40
11.0
 40
11.0
 10
14.71944867834984
 20
15.68276043583883
 30
0.0
 10
14.71944867834984
 20
15.66795720779688
 30
0.0
 10
14.7125763708415
 20
15.65491544241175
 30
0.0
 10
14.70275383031191
 20
15.64655934123684
 30
0.0
  0
LINE
  5
155
330
1F
100
AcDbEntity
  8
0
  6
Continuous
 62
     7
370
    25
100
AcDbLine
 10
14.7194486735
 20
15.6883398473
 30
0.0
 11
14.7194486735
 21
15.6827604368
 31
0.0
  0
SPLINE
  5
156
330
1F
100
AcDbEntity
  8
0
  6
Continuous
 62
     7
370
    25
100
AcDbSpline
210
0.0
220
0.0
230
1.0
 70
     8
 71
     3
 72
     8
 73
     4
 74
     0
 42
0.000000001
 43
0.00000001
 40
1.0
 40
1.0
 40
1.0
 40
1.0
 40
2.0
 40
2.0
 40
2.0
 40
2.0
 10
14.70275383031191
 20
15.72454094171336
 30
0.0
 10
14.7125763708415
 20
15.71620219485034
 30
0.0
 10
14.71944867834984
 20
15.70320381524493
 30
0.0
 10
14.71944867834984
 20
15.68833984711138
 30
0.0
  0
SPLINE
  5
157
330
1F
100
AcDbEntity
  8
0
  6
Continuous
 62
     7
370
    25
100
AcDbSpline
210
0.0
220
0.0
230
1.0
 70
     8
 71
     3
 72
     8
 73
     4
 74
     0
 42
0.000000001
 43
0.00000001
 40
2.0
 40
2.0
 40
2.0
 40
2.0
 40
3.0
 40
3.0
 40
3.0
 40
3.0
 10
14.66381075443135
 20
15.73720958939286
 30
0.0
 10
14.67883958852786
 20
15.73720958939286
 30
0.0
 10
14.69282716391099
 20
15.73297513729177
 30
0.0
 10
14.70275383031191
 20
15.72454094171336
 30
0.0
  0
SPLINE
  5
158
330
1F
100
AcDbEntity
  8
0
  6
Continuous
 62
     7
370
    25
100
AcDbSpline
210
0.0
220
0.0
230
1.0
 70
     8
 71
     3
 72
     8
 73
     4
 74
     0
 42
0.000000001
 43
0.00000001
 40
2.0
 40
2.0
 40
2.0
 40
2.0
 40
3.0
 40
3.0
 40
3.0
 40
3.0
 10
14.32977495917779
 20
15.65611288993214
 30
0.0
 10
14.32977495917779
 20
15.65261599608636
 30
0.0
 10
14.33262106632771
 20
15.64974385746861
 30
0.0
 10
14.33612663732943
 20
15.64974385746861
 30
0.0
  0
LINE
  5
159
330
1F
100
AcDbEntity
  8
0
  6
Continuous
 62
     7
370
    25
100
AcDbLine
 10
14.3297749667
 20
15.7213217197
 30
0.0
 11
14.3297749667
 21
15.6561128963
 31
0.0
  0
LINE
  5
15A
330
1F
100
AcDbEntity
  8
0
  6
Continuous
 62
     7
370
    25
100
AcDbLine
 10
14.3406040482
 20
15.7213217197
 30
0.0
 11
14.3297749667
 21
15.7213217197
 31
0.0
  0
SPLINE
  5
15B
330
1F
100
AcDbEntity
  8
0
  6
Continuous
 62
     7
370
    25
100
AcDbSpline
210
0.0
220
0.0
230
1.0
 70
     8
 71
     3
 72
     8
 73
     4
 74
     0
 42
0.000000001
 43
0.00000001
 40
5.0
 40
5.0
 40
5.0
 40
5.0
 40
6.0
 40
6.0
 40
6.0
 40
6.0
 10
14.35684768572577
 20
15.7013989668084
 30
0.0
 10
14.35684768572577
 20
15.71658398971191
 30
0.0
 10
14.34629626409681
 20
15.72132171685781
 30
0.0
 10
14.34060404979698
 20
15.72132171685781
 30
0.0
  0
LINE
  5
15C
330
1F
100
AcDbEntity
  8
0
  6
Continuous
 62
     7
370
    25
100
AcDbLine
 10
14.3568476889
 20
15.6974855633
 30
0.0
 11
14.3568476889
 21
15.7013989698
 31
0.0
  0
LINE
  5
15D
330
1F
100
AcDbEntity
  8
0
  6
Continuous
 62
     7
370
    25
100
AcDbLine
 10
14.3695163342
 20
15.6974855633
 30
0.0
 11
14.3568476889
 21
15.6974855633
 31
0.0
  0
LINE
  5
15E
330
1F
100
AcDbEntity
  8
0
  6
Continuous
 62
     7
370
    25
100
AcDbLine
 10
14.3695163342
 20
15.7332007391
 30
0.0
 11
14.3695163342
 21
15.6974855633
 31
0.0
  0
LINE
  5
15F
330
1F
100
AcDbEntity
  8
0
  6
Continuous
 62
     7
370
    25
100
AcDbLine
 10
14.2661193437
 20
15.7332007391
 30
0.0
 11
14.3695163342
 21
15.7332007391
 31
0.0
  0
LINE
  5
160
330
1F
100
AcDbEntity
  8
0
  6
Continuous
 62
     7
370
    25
100
AcDbLine
 10
14.2661193437
 20
15.6974855633
 30
0.0
 11
14.2661193437
 21
15.7332007391
 31
0.0
  0
LINE
  5
161
330
1F
100
AcDbEntity
  8
0
  6
Continuous
 62
     7
370
    25
100
AcDbLine
 10
14.2788226936
 20
15.6974855633
 30
0.0
 11
14.2661193437
 21
15.6974855633
 31
0.0
  0
LINE
  5
162
330
1F
100
AcDbEntity
  8
0
  6
Continuous
 62
     7
370
    25
100
AcDbLine
 10
14.2788226936
 20
15.7013989698
 30
0.0
 11
14.2788226936
 21
15.6974855633
 31
0.0
  0
SPLINE
  5
163
330
1F
100
AcDbEntity
  8
0
  6
Continuous
 62
     7
370
    25
100
AcDbSpline
210
0.0
220
0.0
230
1.0
 70
     8
 71
     3
 72
     8
 73
     4
 74
     0
 42
0.000000001
 43
0.00000001
 40
13.0
 40
13.0
 40
13.0
 40
13.0
 40
14.0
 40
14.0
 40
14.0
 40
14.0
 10
14.29501427246266
 20
15.72132171685781
 30
0.0
 10
14.2893567667866
 20
15.72132171685781
 30
0.0
 10
14.27882269946953
 20
15.71658398971191
 30
0.0
 10
14.27882269946953
 20
15.7013989668084
 30
0.0
  0
LINE
  5
164
330
1F
100
AcDbEntity
  8
0
  6
Continuous
 62
     7
370
    25
100
AcDbLine
 10
14.3058607113
 20
15.7213217197
 30
0.0
 11
14.2950142682
 21
15.7213217197
 31
0.0
  0
LINE
  5
165
330
1F
100
AcDbEntity
  8
0
  6
Continuous
 62
     7
370
    25
100
AcDbLine
 10
14.3058607113
 20
15.6561128963
 30
0.0
 11
14.3058607113
 21
15.7213217197
 31
0.0
  0
SPLINE
  5
166
330
1F
100
AcDbEntity
  8
0
  6
Continuous
 62
     7
370
    25
100
AcDbSpline
210
0.0
220
0.0
230
1.0
 70
     8
 71
     3
 72
     8
 73
     4
 74
     0
 42
0.000000001
 43
0.00000001
 40
16.0
 40
16.0
 40
16.0
 40
16.0
 40
17.0
 40
17.0
 40
17.0
 40
17.0
 10
14.2995090392421
 20
15.64974385746861
 30
0.0
 10
14.30299725593193
 20
15.64974385746861
 30
0.0
 10
14.30586071739374
 20
15.65261599608636
 30
0.0
 10
14.30586071739374
 20
15.65611288993214
 30
0.0
  0
LINE
  5
167
330
1F
100
AcDbEntity
  8
0
  6
Continuous
 62
     7
370
    25
100
AcDbLine
 10
14.2859900275
 20
15.6497438599
 30
0.0
 11
14.2995090363
 21
15.6497438599
 31
0.0
  0
LINE
  5
168
330
1F
100
AcDbEntity
  8
0
  6
Continuous
 62
     7
370
    25
100
AcDbLine
 10
14.2859900275
 20
15.6378561505
 30
0.0
 11
14.2859900275
 21
15.6497438599
 31
0.0
  0
LINE
  5
169
330
1F
100
AcDbEntity
  8
0
  6
Continuous
 62
     7
370
    25
100
AcDbLine
 10
14.349628289
 20
15.6378561505
 30
0.0
 11
14.2859900275
 21
15.6378561505
 31
0.0
  0
LINE
  5
16A
330
1F
100
AcDbEntity
  8
0
  6
Continuous
 62
     7
370
    25
100
AcDbLine
 10
14.349628289
 20
15.6497438599
 30
0.0
 11
14.349628289
 21
15.6378561505
 31
0.0
  0
LINE
  5
16B
330
1F
100
AcDbEntity
  8
0
  6
Continuous
 62
     7
370
    25
100
AcDbLine
 10
14.3361266416
 20
15.6497438599
 30
0.0
 11
14.349628289
 21
15.6497438599
 31
0.0
  0
LINE
  5
16C
330
1F
100
AcDbEntity
  8
0
  6
Continuous
 62
     7
370
    25
100
AcDbLine
 10
15.9889014386
 20
15.5127150878
 30
0.0
 11
12.9967755506
 21
15.5127150878
 31
0.0
  0
LINE
  5
16D
330
1F
100
AcDbEntity
  8
0
  6
Continuous
 62
     7
370
    25
100
AcDbLine
 10
15.9889014386
 20
15.8709960189
 30
0.0
 11
12.9967755506
 21
15.8709960189
 31
0.0
  0
LINE
  5
16E
330
1F
100
AcDbEntity
  8
0
  6
Continuous
 62
     7
370
    25
100
AcDbLine
 10
15.9889014386
 20
15.5127150878
 30
0.0
 11
15.9889014386
 21
15.8709960189
 31
0.0
  0
LINE
  5
16F
330
1F
100
AcDbEntity
  8
0
  6
Continuous
 62
     7
370
    25
100
AcDbLine
 10
15.9889014386
 20
15.8709960189
 30
0.0
 11
16.067641609
 21
15.8709960189
 31
0.0
  0
LINE
  5
170
330
1F
100
AcDbEntity
  8
0
  6
Continuous
 62
     7
370
    25
100
AcDbLine
 10
16.067641609
 20
15.5127150878
 30
0.0
 11
16.067641609
 21
15.8709960189
 31
0.0
  0
SPLINE
  5
171
330
1F
100
AcDbEntity
  8
0
  6
Continuous
 62
     7
370
    25
100
AcDbSpline
210
0.0
220
0.0
230
1.0
 70
    24
 71
     3
 72
    14
 73
    10
 74
     0
 42
0.000000001
 43
0.00000001
 40
0.0
 40
0.0
 40
0.0
 40
0.0
 40
0.25
 40
0.25
 40
0.5
 40
0.5
 40
0.75
 40
0.75
 40
1.0
 40
1.0
 40
1.0
 40
1.0
 10
15.98890148674463
 20
15.51271508762546
 30
0.0
 10
15.99920854925641
 20
15.51271508762546
 30
0.0
 10
16.00951155637922
 20
15.51271508762546
 30
0.0
 10
16.02855652456912
 20
15.51271508762546
 30
0.0
 10
16.03729099225447
 20
15.51271508762546
 30
0.0
 10
16.05186737984685
 20
15.51271508762546
 30
0.0
 10
16.0577035645678
 20
15.51271508762546
 30
0.0
 10
16.06559224868702
 20
15.51271508762546
 30
0.0
 10
16.06764164422495
 20
15.51271508762546
 30
0.0
 10
16.06764164422495
 20
15.51271508762546
 30
0.0
  0
SPLINE
  5
172
330
1F
100
AcDbEntity
  8
0
  6
Continuous
 62
     7
370
    25
100
AcDbSpline
210
0.0
220
0.0
230
1.0
 70
     8
 71
     3
 72
    18
 73
    14
 74
     0
 42
0.000000001
 43
0.00000001
 40
0.0
 40
0.0
 40
0.0
 40
0.0
 40
0.0757308037851866
 40
0.1502760815965066
 40
0.2234677785163741
 40
0.2951567932504046
 40
0.3652151528588504
 40
0.4335376243841982
 40
0.5000427824997362
 40
0.6221597936923642
 40
0.7500199789759204
 40
0.8641676700331395
 40
1.0
 40
1.0
 40
1.0
 40
1.0
 10
12.99677550249267
 20
15.51271508762546
 30
0.0
 10
12.99678490865802
 20
15.51103361227474
 30
0.0
 10
12.99680357374014
 20
15.50769698418714
 30
0.0
 10
12.99695699228483
 20
15.50275742589447
 30
0.0
 10
12.99720271357056
 20
15.49794983740549
 30
0.0
 10
12.99754932446123
 20
15.4933016071588
 30
0.0
 10
12.99799479443973
 20
15.48883607607314
 30
0.0
 10
12.99853908529183
 20
15.48457176729419
 30
0.0
 10
12.99937043930453
 20
15.47935786391006
 30
0.0
 10
13.0006547118525
 20
15.47319192488689
 30
0.0
 10
13.00246424739152
 20
15.46658114249062
 30
0.0
 10
13.00464546798447
 20
15.46021796896673
 30
0.0
 10
13.00625585581099
 20
15.45651663844363
 30
0.0
 10
13.00713089666317
 20
15.45450543632088
 30
0.0
  0
SPLINE
  5
173
330
1F
100
AcDbEntity
  8
0
  6
Continuous
 62
     7
370
    25
100
AcDbSpline
210
0.0
220
0.0
230
1.0
 70
     8
 71
     3
 72
    17
 73
    13
 74
     0
 42
0.000000001
 43
0.00000001
 40
0.0
 40
0.0
 40
0.0
 40
0.0
 40
0.0705486692535962
 40
0.135876577605149
 40
0.19577607087579
 40
0.2500859720973245
 40
0.3779292536760878
 40
0.5000871597573648
 40
0.6176288627684046
 40
0.7405477248244483
 40
0.8682656492054508
 40
1.0
 40
1.0
 40
1.0
 40
1.0
 10
15.97854609257413
 20
15.45450543632088
 30
0.0
 10
15.97900449849388
 20
15.45553204486775
 30
0.0
 10
15.97988738725972
 20
15.4575092906098
 30
0.0
 10
15.98109684794406
 20
15.46057886277271
 30
0.0
 10
15.9821589952857
 20
15.46352201114225
 30
0.0
 10
15.98351121146362
 20
15.46766072652384
 30
0.0
 10
15.98502161369606
 20
15.47319384148561
 30
0.0
 10
15.98651399667451
 20
15.48034972013924
 30
0.0
 10
15.98760462740338
 20
15.48779249555391
 30
0.0
 10
15.98835150464829
 20
15.4956489429275
 30
0.0
 10
15.98881729016287
 20
15.50402688376003
 30
0.0
 10
15.98887313306048
 20
15.50978928490142
 30
0.0
 10
15.98890148674463
 20
15.51271508762512
 30
0.0
  0
LINE
  5
174
330
1F
100
AcDbEntity
  8
0
  6
Continuous
 62
     7
370
    25
100
AcDbLine
 10
15.9785461583
 20
15.4545054469
 30
0.0
 11
13.007130831
 21
15.4545054469
 31
0.0
  0
SPLINE
  5
175
330
1F
100
AcDbEntity
  8
0
  6
Continuous
 62
     7
370
    25
100
AcDbSpline
210
0.0
220
0.0
230
1.0
 70
     8
 71
     3
 72
    22
 73
    18
 74
     0
 42
0.000000001
 43
0.00000001
 40
0.0
 40
0.0
 40
0.0
 40
0.0
 40
0.0672920358985163
 40
0.1029621743296575
 40
0.1339415045940977
 40
0.1603987559801253
 40
0.1999326502913652
 40
0.265199443388641
 40
0.3919147143540846
 40
0.5191059885140914
 40
0.6327566292552634
 40
0.7637330562163124
 40
0.81825506824758
 40
0.8829710841851212
 40
0.9479794014690375
 40
0.9868709378956718
 40
1.0
 40
1.0
 40
1.0
 40
1.0
 10
13.00713089670569
 20
15.45450598198016
 30
0.0
 10
13.00457943018617
 20
15.4545063892503
 30
0.0
 10
13.00067548320239
 20
15.45450701240605
 30
0.0
 10
12.99559815709762
 20
15.45448700874338
 30
0.0
 10
12.99206964025937
 20
15.45452036650338
 30
0.0
 10
12.98839300358961
 20
15.45457288009368
 30
0.0
 10
12.98341595902919
 20
15.45449309837465
 30
0.0
 10
12.97465280157509
 20
15.45457965717995
 30
0.0
 10
12.96293811512464
 20
15.45453129735271
 30
0.0
 10
12.95149596554877
 20
15.45459205854204
 30
0.0
 10
12.94273646048531
 20
15.45457493832315
 30
0.0
 10
12.93798128726828
 20
15.454619081064
 30
0.0
 10
12.93533430878744
 20
15.45462540125529
 30
0.0
 10
12.93395483725807
 20
15.45464695374097
 30
0.0
 10
12.93324029616956
 20
15.4546468785643
 30
0.0
 10
12.93298388715561
 20
15.4546754138491
 30
0.0
 10
12.93298221488285
 20
15.45460504108054
 30
0.0
 10
12.93298179283132
 20
15.45458728026126
 30
0.0
  0
SPLINE
  5
176
330
1F
100
AcDbEntity
  8
0
  6
Continuous
 62
     7
370
    25
100
AcDbSpline
210
0.0
220
0.0
230
1.0
 70
     8
 71
     3
 72
    12
 73
     8
 74
     0
 42
0.000000001
 43
0.00000001
 40
0.0
 40
0.0
 40
0.0
 40
0.0
 40
0.0582088323182578
 40
0.2248344701031466
 40
0.4999101264587577
 40
0.8354124845754076
 40
1.0
 40
1.0
 40
1.0
 40
1.0
 10
12.93297783786644
 20
15.45459519999759
 30
0.0
 10
12.93296542089324
 20
15.45461432274084
 30
0.0
 10
12.93291745972516
 20
15.45468818527467
 30
0.0
 10
12.93291999437409
 20
15.45467567903743
 30
0.0
 10
12.93289263074177
 20
15.45470884910678
 30
0.0
 10
12.93288022430297
 20
15.45468411932231
 30
0.0
 10
12.93295620896138
 20
15.45461097928142
 30
0.0
 10
12.93298121671859
 20
15.454586907733
 30
0.0
  0
SPLINE
  5
177
330
1F
100
AcDbEntity
  8
0
  6
Continuous
 62
     7
370
    25
100
AcDbSpline
210
0.0
220
0.0
230
1.0
 70
     8
 71
     3
 72
    11
 73
     7
 74
     0
 42
0.000000001
 43
0.00000001
 40
0.0
 40
0.0
 40
0.0
 40
0.0
 40
0.1483480589091972
 40
0.4731716315549062
 40
0.7993192481548765
 40
1.0
 40
1.0
 40
1.0
 40
1.0
 10
12.93297831892728
 20
15.45459550397833
 30
0.0
 10
12.93296237900531
 20
15.45462061611333
 30
0.0
 10
12.93291153695895
 20
15.45470071389134
 30
0.0
 10
12.93292677594132
 20
15.45467744593167
 30
0.0
 10
12.93292254541256
 20
15.45468432930939
 30
0.0
 10
12.9329660475386
 20
15.45461641859133
 30
0.0
 10
12.93298261847494
 20
15.45459054987436
 30
0.0
  0
SPLINE
  5
178
330
1F
100
AcDbEntity
  8
0
  6
Continuous
 62
     7
370
    25
100
AcDbSpline
210
0.0
220
0.0
230
1.0
 70
     8
 71
     3
 72
    10
 73
     6
 74
     0
 42
0.000000001
 43
0.00000001
 40
0.0
 40
0.0
 40
0.0
 40
0.0
 40
0.5
 40
0.5
 40
1.0
 40
1.0
 40
1.0
 40
1.0
 10
12.91803534501235
 20
15.51271508762546
 30
0.0
 10
12.91803534501235
 20
15.50165316010904
 30
0.0
 10
12.91923767025683
 20
15.49048026645454
 30
0.0
 10
12.92445805306486
 20
15.47048024647327
 30
0.0
 10
12.92846231525846
 20
15.4617270231477
 30
0.0
 10
12.93298216077655
 20
15.4545902578824
 30
0.0
  0
SPLINE
  5
179
330
1F
100
AcDbEntity
  8
0
  6
Continuous
 62
     7
370
    25
100
AcDbSpline
210
0.0
220
0.0
230
1.0
 70
     8
 71
     3
 72
    17
 73
    13
 74
     0
 42
0.000000001
 43
0.00000001
 40
0.0
 40
0.0
 40
0.0
 40
0.0
 40
0.0835361479568914
 40
0.1658876857439156
 40
0.2473026774436221
 40
0.3280771394797312
 40
0.4085478703272683
 40
0.4890832459484789
 40
0.5700724844557011
 40
0.7092441483277374
 40
0.8519707613671942
 40
1.0
 40
1.0
 40
1.0
 40
1.0
 10
16.06764164422495
 20
15.51271508762546
 30
0.0
 10
16.06762416857294
 20
15.51085992160122
 30
0.0
 10
16.0675894650878
 20
15.50717589730805
 30
0.0
 10
16.06729306202279
 20
15.50170882791587
 30
0.0
 10
16.0668057800016
 20
15.49635617191572
 30
0.0
 10
16.0661051956723
 20
15.49112826251389
 30
0.0
 10
16.06519131452607
 20
15.48603425726749
 30
0.0
 10
16.06406022644492
 20
15.48108264700682
 30
0.0
 10
16.06239534502016
 20
15.47514755782939
 30
0.0
 10
16.05997536879992
 20
15.46840285913062
 30
0.0
 10
16.05661454606958
 20
15.46107746891804
 30
0.0
 10
16.05401744632129
 20
15.45677862988118
 30
0.0
 10
16.05269521429679
 20
15.45459001057749
 30
0.0
  0
SPLINE
  5
17A
330
1F
100
AcDbEntity
  8
0
  6
Continuous
 62
     7
370
    25
100
AcDbSpline
210
0.0
220
0.0
230
1.0
 70
     8
 71
     3
 72
    11
 73
     7
 74
     0
 42
0.000000001
 43
0.00000001
 40
0.0
 40
0.0
 40
0.0
 40
0.0
 40
0.148348058662173
 40
0.4731716315200677
 40
0.7993192476365462
 40
1.0
 40
1.0
 40
1.0
 40
1.0
 10
16.05269867031002
 20
15.45459550397833
 30
0.0
 10
16.0527146102319
 20
15.45462061611319
 30
0.0
 10
16.05276545227805
 20
15.45470071389088
 30
0.0
 10
16.05275021329602
 20
15.45467744593173
 30
0.0
 10
16.05275444382496
 20
15.45468432930972
 30
0.0
 10
16.05271094169879
 20
15.45461641859147
 30
0.0
 10
16.05269437076236
 20
15.45459054987436
 30
0.0
  0
SPLINE
  5
17B
330
1F
100
AcDbEntity
  8
0
  6
Continuous
 62
     7
370
    25
100
AcDbSpline
210
0.0
220
0.0
230
1.0
 70
     8
 71
     3
 72
    14
 73
    10
 74
     0
 42
0.000000001
 43
0.00000001
 40
0.0
 40
0.0
 40
0.0
 40
0.0
 40
0.0978336731194293
 40
0.2503103835104425
 40
0.4999713530894317
 40
0.7495202360873476
 40
0.8493857338553681
 40
0.9598642214203298
 40
1.0
 40
1.0
 40
1.0
 40
1.0
 10
16.05269519640598
 20
15.45458728026126
 30
0.0
 10
16.05271648544512
 20
15.45461017549584
 30
0.0
 10
16.05277095408955
 20
15.45466875363937
 30
0.0
 10
16.05278391992636
 20
15.45468136090122
 30
0.0
 10
16.05278187649392
 20
15.45470042809591
 30
0.0
 10
16.05277383523953
 20
15.45469936509416
 30
0.0
 10
16.05275862581122
 20
15.45468432758216
 30
0.0
 10
16.05277074330435
 20
15.45470671585827
 30
0.0
 10
16.05271383521206
 20
15.45461890410594
 30
0.0
 10
16.05269867031002
 20
15.45459550397833
 30
0.0
  0
SPLINE
  5
17C
330
1F
100
AcDbEntity
  8
0
  6
Continuous
 62
     7
370
    25
100
AcDbSpline
210
0.0
220
0.0
230
1.0
 70
     8
 71
     3
 72
    23
 73
    19
 74
     0
 42
0.000000001
 43
0.00000001
 40
0.0
 40
0.0
 40
0.0
 40
0.0
 40
0.0036751064614028
 40
0.0146048150305446
 40
0.032823603844208
 40
0.0583883697600539
 40
0.0913848029070334
 40
0.1319418873961819
 40
0.1802166270972853
 40
0.2363553269210266
 40
0.3005427023493848
 40
0.3729564416197913
 40
0.4539297569153271
 40
0.5437961501673481
 40
0.6427322469954748
 40
0.7513636873310693
 40
0.8703402779422124
 40
1.0
 40
1.0
 40
1.0
 40
1.0
 10
16.05269577251871
 20
15.454586907733
 30
0.0
 10
16.05269474340124
 20
15.45459005561705
 30
0.0
 10
16.05269065370468
 20
15.45460256525856
 30
0.0
 10
16.05265220540968
 20
15.45460099556687
 30
0.0
 10
16.05256483594113
 20
15.45460850443789
 30
0.0
 10
16.05236676753413
 20
15.45460834471081
 30
0.0
 10
16.05198579561842
 20
15.45460869273624
 30
0.0
 10
16.05130553455012
 20
15.45460669314095
 30
0.0
 10
16.05017230361372
 20
15.45460396657853
 30
0.0
 10
16.04839014307345
 20
15.45460004228344
 30
0.0
 10
16.0457118742842
 20
15.45459478293937
 30
0.0
 10
16.04178780177675
 20
15.45458770517661
 30
0.0
 10
16.03621020834093
 20
15.45457821141934
 30
0.0
 10
16.02859472149546
 20
15.45456767160958
 30
0.0
 10
16.01863837102789
 20
15.4545553352329
 30
0.0
 10
16.00648847797085
 20
15.4545406350939
 30
0.0
 10
15.99288212343522
 20
15.45451511463325
 30
0.0
 10
15.9834597200136
 20
15.45450893284953
 30
0.0
 10
15.97854609257258
 20
15.45450570915163
 30
0.0
  0
SPLINE
  5
17D
330
1F
100
AcDbEntity
  8
0
  6
Continuous
 62
     7
370
    25
100
AcDbSpline
210
0.0
220
0.0
230
1.0
 70
     8
 71
     3
 72
     8
 73
     4
 74
     0
 42
0.000000001
 43
0.00000001
 40
3.0
 40
3.0
 40
3.0
 40
3.0
 40
4.0
 40
4.0
 40
4.0
 40
4.0
 10
14.68446238558014
 20
15.71506548742157
 30
0.0
 10
14.68893979804769
 20
15.70972035935953
 30
0.0
 10
14.69244536904941
 20
15.70080892020415
 30
0.0
 10
14.69244536904941
 20
15.68679531335319
 30
0.0
  0
LINE
  5
17E
330
1F
100
AcDbEntity
  8
0
  6
Continuous
 62
     7
370
    25
100
AcDbLine
 10
14.6924453604
 20
15.6867953185
 30
0.0
 11
14.6924453604
 21
15.6843223271
 31
0.0
  0
SPLINE
  5
17F
330
1F
100
AcDbEntity
  8
0
  6
Continuous
 62
     7
370
    25
100
AcDbSpline
210
0.0
220
0.0
230
1.0
 70
     8
 71
     3
 72
     8
 73
     4
 74
     0
 42
0.000000001
 43
0.00000001
 40
6.0
 40
6.0
 40
6.0
 40
6.0
 40
7.0
 40
7.0
 40
7.0
 40
7.0
 10
14.68446238558014
 20
15.65611288993214
 30
0.0
 10
14.67644469348708
 20
15.64655934123684
 30
0.0
 10
14.66589327185812
 20
15.64662008132846
 30
0.0
 10
14.66384546305513
 20
15.64662008132846
 30
0.0
  0
SPLINE
  5
180
330
1F
100
AcDbEntity
  8
0
  6
Continuous
 62
     7
370
    25
100
AcDbSpline
210
0.0
220
0.0
230
1.0
 70
     8
 71
     3
 72
     8
 73
     4
 74
     0
 42
0.000000001
 43
0.00000001
 40
7.0
 40
7.0
 40
7.0
 40
7.0
 40
8.0
 40
8.0
 40
8.0
 40
8.0
 10
14.66384546305513
 20
15.64662008132846
 30
0.0
 10
14.66190178012348
 20
15.64662008132846
 30
0.0
 10
14.65117681537563
 20
15.64655934123684
 30
0.0
 10
14.64322854053013
 20
15.65611288993214
 30
0.0
  0
SPLINE
  5
181
330
1F
100
AcDbEntity
  8
0
  6
Continuous
 62
     7
370
    25
100
AcDbSpline
210
0.0
220
0.0
230
1.0
 70
     8
 71
     3
 72
     8
 73
     4
 74
     0
 42
0.000000001
 43
0.00000001
 40
8.0
 40
8.0
 40
8.0
 40
8.0
 40
9.0
 40
9.0
 40
9.0
 40
9.0
 10
14.64322854053013
 20
15.65611288993214
 30
0.0
 10
14.63868171081502
 20
15.66144934083824
 30
0.0
 10
14.63521084843708
 20
15.67029136274606
 30
0.0
 10
14.63521084843708
 20
15.6843223239089
 30
0.0
  0
LINE
  5
182
330
1F
100
AcDbEntity
  8
0
  6
Continuous
 62
     7
370
    25
100
AcDbLine
 10
14.6352108491
 20
15.6843223271
 30
0.0
 11
14.6352108491
 21
15.6867953185
 31
0.0
  0
SPLINE
  5
183
330
1F
100
AcDbEntity
  8
0
  6
Continuous
 62
     7
370
    25
100
AcDbSpline
210
0.0
220
0.0
230
1.0
 70
     8
 71
     3
 72
     8
 73
     4
 74
     0
 42
0.000000001
 43
0.00000001
 40
0.0
 40
0.0
 40
0.0
 40
0.0
 40
1.0
 40
1.0
 40
1.0
 40
1.0
 10
14.63521084843708
 20
15.68679531335319
 30
0.0
 10
14.63521084843708
 20
15.70080892020415
 30
0.0
 10
14.63868171081502
 20
15.70972035935953
 30
0.0
 10
14.64322854053013
 20
15.71506548742157
 30
0.0
  0
SPLINE
  5
184
330
1F
100
AcDbEntity
  8
0
  6
Continuous
 62
     7
370
    25
100
AcDbSpline
210
0.0
220
0.0
230
1.0
 70
     8
 71
     3
 72
     8
 73
     4
 74
     0
 42
0.000000001
 43
0.00000001
 40
1.0
 40
1.0
 40
1.0
 40
1.0
 40
2.0
 40
2.0
 40
2.0
 40
2.0
 10
14.64322854053013
 20
15.71506548742157
 30
0.0
 10
14.65117681537563
 20
15.72454094171336
 30
0.0
 10
14.66190178012348
 20
15.72449755593363
 30
0.0
 10
14.66384546305513
 20
15.72449755593363
 30
0.0
  0
SPLINE
  5
185
330
1F
100
AcDbEntity
  8
0
  6
Continuous
 62
     7
370
    25
100
AcDbSpline
210
0.0
220
0.0
230
1.0
 70
     8
 71
     3
 72
     8
 73
     4
 74
     0
 42
0.000000001
 43
0.00000001
 40
2.0
 40
2.0
 40
2.0
 40
2.0
 40
3.0
 40
3.0
 40
3.0
 40
3.0
 10
14.66384546305513
 20
15.72449755593363
 30
0.0
 10
14.66596268910568
 20
15.72449755593363
 30
0.0
 10
14.67644469348708
 20
15.72454094171336
 30
0.0
 10
14.68446238558014
 20
15.71506548742157
 30
0.0
  0
SPLINE
  5
186
330
1F
100
AcDbEntity
  8
0
  6
Continuous
 62
     7
370
    25
100
AcDbSpline
210
0.0
220
0.0
230
1.0
 70
     8
 71
     3
 72
     8
 73
     4
 74
     0
 42
0.000000001
 43
0.00000001
 40
5.0
 40
5.0
 40
5.0
 40
5.0
 40
6.0
 40
6.0
 40
6.0
 40
6.0
 10
14.69244536904941
 20
15.6843223239089
 30
0.0
 10
14.69244536904941
 20
15.67029136274606
 30
0.0
 10
14.68893979804769
 20
15.66144934083824
 30
0.0
 10
14.68446238558014
 20
15.65611288993214
 30
0.0
  0
SPLINE
  5
187
330
1F
100
AcDbEntity
  8
0
  6
Continuous
 62
     7
370
    25
100
AcDbSpline
210
0.0
220
0.0
230
1.0
 70
     8
 71
     3
 72
     8
 73
     4
 74
     0
 42
0.000000001
 43
0.00000001
 40
3.0
 40
3.0
 40
3.0
 40
3.0
 40
4.0
 40
4.0
 40
4.0
 40
4.0
 10
14.45385828918937
 20
15.71506548742156
 30
0.0
 10
14.45830099303315
 20
15.70972035935952
 30
0.0
 10
14.46180656403487
 20
15.70080892020415
 30
0.0
 10
14.46180656403487
 20
15.68679531335319
 30
0.0
  0
LINE
  5
188
330
1F
100
AcDbEntity
  8
0
  6
Continuous
 62
     7
370
    25
100
AcDbLine
 10
14.4618065629
 20
15.6867953185
 30
0.0
 11
14.4618065629
 21
15.6843223271
 31
0.0
  0
SPLINE
  5
189
330
1F
100
AcDbEntity
  8
0
  6
Continuous
 62
     7
370
    25
100
AcDbSpline
210
0.0
220
0.0
230
1.0
 70
     8
 71
     3
 72
     8
 73
     4
 74
     0
 42
0.000000001
 43
0.00000001
 40
5.0
 40
5.0
 40
5.0
 40
5.0
 40
6.0
 40
6.0
 40
6.0
 40
6.0
 10
14.46180656403487
 20
15.6843223239089
 30
0.0
 10
14.46180656403487
 20
15.67029136274606
 30
0.0
 10
14.45830099303315
 20
15.66144934083824
 30
0.0
 10
14.45385828918937
 20
15.65611288993214
 30
0.0
  0
SPLINE
  5
18A
330
1F
100
AcDbEntity
  8
0
  6
Continuous
 62
     7
370
    25
100
AcDbSpline
210
0.0
220
0.0
230
1.0
 70
     8
 71
     3
 72
     8
 73
     4
 74
     0
 42
0.000000001
 43
0.00000001
 40
6.0
 40
6.0
 40
6.0
 40
6.0
 40
7.0
 40
7.0
 40
7.0
 40
7.0
 10
14.45385828918937
 20
15.65611288993214
 30
0.0
 10
14.44580588847254
 20
15.64655934123684
 30
0.0
 10
14.43525446684358
 20
15.64662008132846
 30
0.0
 10
14.43320665804059
 20
15.64662008132846
 30
0.0
  0
SPLINE
  5
18B
330
1F
100
AcDbEntity
  8
0
  6
Continuous
 62
     7
370
    25
100
AcDbSpline
210
0.0
220
0.0
230
1.0
 70
     8
 71
     3
 72
     8
 73
     4
 74
     0
 42
0.000000001
 43
0.00000001
 40
7.0
 40
7.0
 40
7.0
 40
7.0
 40
8.0
 40
8.0
 40
8.0
 40
8.0
 10
14.43320665804059
 20
15.64662008132846
 30
0.0
 10
14.43122826648516
 20
15.64662008132846
 30
0.0
 10
14.42050330173731
 20
15.64655934123684
 30
0.0
 10
14.41258973551559
 20
15.65611288993214
 30
0.0
  0
SPLINE
  5
18C
330
1F
100
AcDbEntity
  8
0
  6
Continuous
 62
     7
370
    25
100
AcDbSpline
210
0.0
220
0.0
230
1.0
 70
     8
 71
     3
 72
     8
 73
     4
 74
     0
 42
0.000000001
 43
0.00000001
 40
8.0
 40
8.0
 40
8.0
 40
8.0
 40
9.0
 40
9.0
 40
9.0
 40
9.0
 10
14.41258973551559
 20
15.65611288993214
 30
0.0
 10
14.40807761442426
 20
15.66144934083824
 30
0.0
 10
14.40458939773442
 20
15.67029136274606
 30
0.0
 10
14.40458939773442
 20
15.6843223239089
 30
0.0
  0
LINE
  5
18D
330
1F
100
AcDbEntity
  8
0
  6
Continuous
 62
     7
370
    25
100
AcDbLine
 10
14.4045894016
 20
15.6843223271
 30
0.0
 11
14.4045894016
 21
15.6867953185
 31
0.0
  0
SPLINE
  5
18E
330
1F
100
AcDbEntity
  8
0
  6
Continuous
 62
     7
370
    25
100
AcDbSpline
210
0.0
220
0.0
230
1.0
 70
     8
 71
     3
 72
     8
 73
     4
 74
     0
 42
0.000000001
 43
0.00000001
 40
0.0
 40
0.0
 40
0.0
 40
0.0
 40
1.0
 40
1.0
 40
1.0
 40
1.0
 10
14.40458939773442
 20
15.68679531335319
 30
0.0
 10
14.40458939773442
 20
15.70080892020415
 30
0.0
 10
14.40807761442426
 20
15.70972035935952
 30
0.0
 10
14.41258973551559
 20
15.71506548742156
 30
0.0
  0
SPLINE
  5
18F
330
1F
100
AcDbEntity
  8
0
  6
Continuous
 62
     7
370
    25
100
AcDbSpline
210
0.0
220
0.0
230
1.0
 70
     8
 71
     3
 72
     8
 73
     4
 74
     0
 42
0.000000001
 43
0.00000001
 40
1.0
 40
1.0
 40
1.0
 40
1.0
 40
2.0
 40
2.0
 40
2.0
 40
2.0
 10
14.41258973551559
 20
15.71506548742156
 30
0.0
 10
14.42050330173731
 20
15.72454094171336
 30
0.0
 10
14.43122826648516
 20
15.72449755593363
 30
0.0
 10
14.43320665804059
 20
15.72449755593363
 30
0.0
  0
SPLINE
  5
190
330
1F
100
AcDbEntity
  8
0
  6
Continuous
 62
     7
370
    25
100
AcDbSpline
210
0.0
220
0.0
230
1.0
 70
     8
 71
     3
 72
     8
 73
     4
 74
     0
 42
0.000000001
 43
0.00000001
 40
2.0
 40
2.0
 40
2.0
 40
2.0
 40
3.0
 40
3.0
 40
3.0
 40
3.0
 10
14.43320665804059
 20
15.72449755593363
 30
0.0
 10
14.43535859271492
 20
15.72449755593363
 30
0.0
 10
14.44580588847254
 20
15.72454094171336
 30
0.0
 10
14.45385828918937
 20
15.71506548742156
 30
0.0
  0
SPLINE
  5
191
330
1F
100
AcDbEntity
  8
0
  6
Continuous
 62
     7
370
    25
100
AcDbSpline
210
0.0
220
0.0
230
1.0
 70
     8
 71
     3
 72
    18
 73
    14
 74
     0
 42
0.000000001
 43
0.00000001
 40
0.0
 40
0.0
 40
0.0
 40
0.0
 40
0.088043545129259
 40
0.1769329012424746
 40
0.2665742356696722
 40
0.3568748731035231
 40
0.4477435584628017
 40
0.5390906721334753
 40
0.6308284055787523
 40
0.7228709039003249
 40
0.8151343807948463
 40
0.9075372104279665
 40
1.0
 40
1.0
 40
1.0
 40
1.0
 10
13.00713089666317
 20
15.45450543632091
 30
0.0
 10
13.00933929447787
 20
15.44968878516604
 30
0.0
 10
13.01377730559929
 20
15.4400092105663
 30
0.0
 10
13.02065487790318
 20
15.42515627867154
 30
0.0
 10
13.02772369027899
 20
15.41000108721232
 30
0.0
 10
13.03498799925208
 20
15.3945507061481
 30
0.0
 10
13.04243412661934
 20
15.3788380632102
 30
0.0
 10
13.05005364114191
 20
15.36288817934794
 30
0.0
 10
13.05783739862331
 20
15.34672709253434
 30
0.0
 10
13.06577594287074
 20
15.33038038391883
 30
0.0
 10
13.07386393715762
 20
15.3138701355092
 30
0.0
 10
13.08208196297501
 20
15.29722871953537
 30
0.0
 10
13.08767039797604
 20
15.28604120726444
 30
0.0
 10
13.09046552176249
 20
15.28044563683124
 30
0.0
  0
SPLINE
  5
192
330
1F
100
AcDbEntity
  8
0
  6
Continuous
 62
     7
370
    25
100
AcDbSpline
210
0.0
220
0.0
230
1.0
 70
     8
 71
     3
 72
    23
 73
    19
 74
     0
 42
0.000000001
 43
0.00000001
 40
0.0
 40
0.0
 40
0.0
 40
0.0
 40
0.0470632203154054
 40
0.0936066682930638
 40
0.1396848779092543
 40
0.1853491539075356
 40
0.2306492123581523
 40
0.2756349732871724
 40
0.3203584182506483
 40
0.3648754197531784
 40
0.4092474475192221
 40
0.4535430591571609
 40
0.4978390902652713
 40
0.5798652662535908
 40
0.6712557724292176
 40
0.7719720372525055
 40
0.8817111258443012
 40
0.9999999999999999
 40
0.9999999999999999
 40
0.9999999999999999
 40
0.9999999999999999
 10
13.09046552152141
 20
15.28044440588838
 30
0.0
 10
13.08880608716841
 20
15.28044209886266
 30
0.0
 10
13.08550554547163
 20
15.2804375102903
 30
0.0
 10
13.08061125360417
 20
15.28041177553358
 30
0.0
 10
13.07582862955405
 20
15.28038543668467
 30
0.0
 10
13.07118334850374
 20
15.2803639076156
 30
0.0
 10
13.06670080101699
 20
15.28035273669732
 30
0.0
 10
13.06240559700318
 20
15.28035406279932
 30
0.0
 10
13.05832111664212
 20
15.28036751954827
 30
0.0
 10
13.05446912028121
 20
15.28039001032429
 30
0.0
 10
13.05086931651052
 20
15.28041603036346
 30
0.0
 10
13.04753936004344
 20
15.2804373211021
 30
0.0
 10
13.04363132270289
 20
15.28044718354632
 30
0.0
 10
13.03935479871814
 20
15.28039008578139
 30
0.0
 10
13.03511416575874
 20
15.28032811026231
 30
0.0
 10
13.03176847133823
 20
15.28032920980256
 30
0.0
 10
13.02948701205131
 20
15.28040632755472
 30
0.0
 10
13.02920156436171
 20
15.28043160169924
 30
0.0
 10
13.02905348916327
 20
15.28044471259171
 30
0.0
  0
SPLINE
  5
193
330
1F
100
AcDbEntity
  8
0
  6
Continuous
 62
     7
370
    25
100
AcDbSpline
210
0.0
220
0.0
230
1.0
 70
     8
 71
     3
 72
    10
 73
     6
 74
     0
 42
0.000000001
 43
0.00000001
 40
0.0
 40
0.0
 40
0.0
 40
0.0
 40
0.5
 40
0.5
 40
1.0
 40
1.0
 40
1.0
 40
1.0
 10
12.93298261847494
 20
15.45459054987436
 30
0.0
 10
12.95044286628867
 20
15.42732913707257
 30
0.0
 10
12.96693271435571
 20
15.39909683233044
 30
0.0
 10
12.99878053218667
 20
15.34097932765024
 30
0.0
 10
13.01412013450917
 20
15.31108808022519
 30
0.0
 10
13.02905389577214
 20
15.28044493922644
 30
0.0
  0
SPLINE
  5
194
330
1F
100
AcDbEntity
  8
0
  6
Continuous
 62
     7
370
    25
100
AcDbSpline
210
0.0
220
0.0
230
1.0
 70
     8
 71
     3
 72
    17
 73
    13
 74
     0
 42
0.000000001
 43
0.00000001
 40
0.0
 40
0.0
 40
0.0
 40
0.0
 40
0.1265789664667464
 40
0.2468137607563108
 40
0.3608696263491091
 40
0.4689117950689395
 40
0.5711049577189904
 40
0.6676127550677731
 40
0.7585972927421094
 40
0.8442186838447449
 40
0.924634623490066
 40
0.9999999999999999
 40
0.9999999999999999
 40
0.9999999999999999
 40
0.9999999999999999
 10
15.95662266443539
 20
15.28044511987987
 30
0.0
 10
15.96041924753783
 20
15.28817620334179
 30
0.0
 10
15.96782212796649
 20
15.30325088626283
 30
0.0
 10
15.97885437399149
 20
15.32495710744871
 30
0.0
 10
15.98946813590607
 20
15.34531554113448
 30
0.0
 10
15.99967778761541
 20
15.36436205279888
 30
0.0
 10
16.0094811033004
 20
15.38215982053168
 30
0.0
 10
16.01888124870082
 20
15.39876378480699
 30
0.0
 10
16.02787938832928
 20
15.41423116863081
 30
0.0
 10
16.03648278164102
 20
15.42861232075417
 30
0.0
 10
16.04468101727571
 20
15.44197471713845
 30
0.0
 10
16.0500822211514
 20
15.45047677077346
 30
0.0
 10
16.05269526727109
 20
15.45458997567585
 30
0.0
  0
SPLINE
  5
195
330
1F
100
AcDbEntity
  8
0
  6
Continuous
 62
     7
370
    25
100
AcDbSpline
210
0.0
220
0.0
230
1.0
 70
     8
 71
     3
 72
    24
 73
    20
 74
     0
 42
0.000000001
 43
0.00000001
 40
0.0
 40
0.0
 40
0.0
 40
0.0
 40
0.0467
 40
0.0934
 40
0.1401
 40
0.1666666666666667
 40
0.1868
 40
0.3707874999999999
 40
0.4444444444444444
 40
0.554775
 40
0.5555555555555556
 40
0.7387625
 40
0.8333333333333334
 40
0.92275
 40
0.92275
 40
0.9420625
 40
0.961375
 40
0.9806874999999999
 40
0.9999998310491405
 40
0.9999998310491405
 40
0.9999998310491405
 40
0.9999998310491405
 10
15.89521162833605
 20
15.28044514563665
 30
0.0
 10
15.89692452931025
 20
15.28044514563665
 30
0.0
 10
15.90035202801822
 20
15.28044247378531
 30
0.0
 10
15.90544333441384
 20
15.28043808653873
 30
0.0
 10
15.90971093878172
 20
15.28043729683178
 30
0.0
 10
15.91294793369819
 20
15.2804392046066
 30
0.0
 10
15.92078365987097
 20
15.28044601170821
 30
0.0
 10
15.92928236742609
 20
15.2804577460357
 30
0.0
 10
15.93847332412201
 20
15.28044566677596
 30
0.0
 10
15.94234464800509
 20
15.28043794148626
 30
0.0
 10
15.9477925546565
 20
15.28043592265024
 30
0.0
 10
15.95182260798464
 20
15.28045000180115
 30
0.0
 10
15.9550327953294
 20
15.2804387867948
 30
0.0
 10
15.95595590319414
 20
15.28043645313818
 30
0.0
 10
15.95630792115393
 20
15.2804395975644
 30
0.0
 10
15.9564177554359
 20
15.28044085954973
 30
0.0
 10
15.95653598081346
 20
15.28044283656091
 30
0.0
 10
15.95660711385723
 20
15.28044445143736
 30
0.0
 10
15.95662300141763
 20
15.28044493922644
 30
0.0
 10
15.95662309346516
 20
15.28044493922644
 30
0.0
  0
SPLINE
  5
196
330
1F
100
AcDbEntity
  8
0
  6
Continuous
 62
     7
370
    25
100
AcDbSpline
210
0.0
220
0.0
230
1.0
 70
     8
 71
     3
 72
    18
 73
    14
 74
     0
 42
0.000000001
 43
0.00000001
 40
0.0
 40
0.0
 40
0.0
 40
0.0
 40
0.10075832176256
 40
0.201232037821712
 40
0.3013278042616283
 40
0.4009498091232462
 40
0.4999998943371294
 40
0.6255076345877854
 40
0.7499973191722826
 40
0.8749957377435773
 40
0.9249971712105917
 40
0.9757212394699497
 40
1.0
 40
1.0
 40
1.0
 40
1.0
 10
15.89521146747481
 20
15.28044563683124
 30
0.0
 10
15.89825661070416
 20
15.28654221954924
 30
0.0
 10
15.90433829573801
 20
15.29871816435092
 30
0.0
 10
15.91325973351047
 20
15.3167952741333
 30
0.0
 10
15.92200943534855
 20
15.3346773205854
 30
0.0
 10
15.93056428368033
 20
15.35232630063024
 30
0.0
 10
15.93967963802334
 20
15.37130481805695
 30
0.0
 10
15.94928455786759
 20
15.39150971117868
 30
0.0
 10
15.95933786000434
 20
15.41290804654068
 30
0.0
 10
15.96715912149471
 20
15.42971803511006
 30
0.0
 10
15.97290848411769
 20
15.44222282912319
 30
0.0
 10
15.9760989914573
 20
15.44908495326264
 30
0.0
 10
15.97794766760516
 20
15.45317988733412
 30
0.0
 10
15.97854609257413
 20
15.45450543632091
 30
0.0
  0
LINE
  5
197
330
1F
100
AcDbEntity
  8
0
  6
Continuous
 62
     7
370
    25
100
AcDbLine
 10
13.646381993
 20
12.3670589501
 30
0.0
 11
15.3392949963
 21
12.3670589501
 31
0.0
  0
SPLINE
  5
198
330
1F
100
AcDbEntity
  8
0
  6
Continuous
 62
     7
370
    25
100
AcDbSpline
210
0.0
220
0.0
230
1.0
 70
     8
 71
     3
 72
    55
 73
    51
 74
     0
 42
0.000000001
 43
0.00000001
 40
0.0
 40
0.0
 40
0.0
 40
0.0
 40
0.0087639382338513
 40
0.0177477074237412
 40
0.0269537870305024
 40
0.0363845532085546
 40
0.0460422764111103
 40
0.0559291190494241
 40
0.0660471332103115
 40
0.0763982584368773
 40
0.0869843195780634
 40
0.0978070247133381
 40
0.1088679631595356
 40
0.1201686035675501
 40
0.1317102921173148
 40
0.1434942508202373
 40
0.1555215759390192
 40
0.1677932365355887
 40
0.1803100731587184
 40
0.1930727966837567
 40
0.2060819873178533
 40
0.219338093785007
 40
0.2328414327063302
 40
0.2465921881920013
 40
0.2605904116625649
 40
0.2748360219184697
 40
0.2893288054780775
 40
0.3040684172057714
 40
0.3190543812533134
 40
0.3342860923391919
 40
0.3497628173924122
 40
0.3654836975889945
 40
0.3814477508113719
 40
0.3976538745629237
 40
0.4141008493720519
 40
0.4307873427224912
 40
0.4477119135489657
 40
0.5068882386485439
 40
0.5722502355188103
 40
0.6180550642606264
 40
0.7296583355932799
 40
0.7682029606197551
 40
0.8047098268502187
 40
0.8391297667885151
 40
0.871422703455904
 40
0.9015557249902609
 40
0.929501483289795
 40
0.9552369017237451
 40
0.9787421701805507
 40
0.9999999999999999
 40
0.9999999999999999
 40
0.9999999999999999
 40
0.9999999999999999
 10
13.09046552176249
 20
15.28044563683124
 30
0.0
 10
13.09380036990122
 20
15.27373920635423
 30
0.0
 10
13.10055371611264
 20
15.260158124107
 30
0.0
 10
13.11061308135439
 20
15.23923713208205
 30
0.0
 10
13.12077724752906
 20
15.21758653777931
 30
0.0
 10
13.13102875779098
 20
15.19517346586088
 30
0.0
 10
13.14136891529284
 20
15.1719939232902
 30
0.0
 10
13.15179354332765
 20
15.14803615317926
 30
0.0
 10
13.16229971214445
 20
15.12329082793752
 30
0.0
 10
13.17288386325933
 20
15.09774823083285
 30
0.0
 10
13.18354232217819
 20
15.07139905042613
 30
0.0
 10
13.19427114815593
 20
15.04423417248341
 30
0.0
 10
13.20506616771135
 20
15.01624475008548
 30
0.0
 10
13.21592295705762
 20
14.98742219672704
 30
0.0
 10
13.22683683854607
 20
14.95775820087311
 30
0.0
 10
13.23780287308385
 20
14.92724473469005
 30
0.0
 10
13.24881585351877
 20
14.89587406450655
 30
0.0
 10
13.25987029760626
 20
14.86363876091326
 30
0.0
 10
13.27096044093921
 20
14.83053170907965
 30
0.0
 10
13.28208022973242
 20
14.7965461191279
 30
0.0
 10
13.29322331348907
 20
14.76167553660811
 30
0.0
 10
13.30438303753854
 20
14.72591385306236
 30
0.0
 10
13.31555243544599
 20
14.68925531668104
 30
0.0
 10
13.32672422129037
 20
14.65169454305021
 30
0.0
 10
13.33789078180903
 20
14.61322652599037
 30
0.0
 10
13.34904416840656
 20
14.57384664848574
 30
0.0
 10
13.36017608902481
 20
14.53355069370617
 30
0.0
 10
13.37127789987401
 20
14.49233485611329
 30
0.0
 10
13.38234059701407
 20
14.45019575268143
 30
0.0
 10
13.39335480781563
 20
14.40713043411614
 30
0.0
 10
13.40431078217527
 20
14.36313639651707
 30
0.0
 10
13.41519838395327
 20
14.31821159177665
 30
0.0
 10
13.42600708083089
 20
14.27235444324137
 30
0.0
 10
13.43672593946127
 20
14.22556384170722
 30
0.0
 10
13.44734359965729
 20
14.17783921691524
 30
0.0
 10
13.45784832779753
 20
14.12918032139959
 30
0.0
 10
13.47681700953904
 20
14.03854933518145
 30
0.0
 10
13.50400395905342
 20
13.89889284608392
 30
0.0
 10
13.53333342970373
 20
13.7280852572098
 30
0.0
 10
13.56756686555679
 20
13.50196938300719
 30
0.0
 10
13.59263672584049
 20
13.29979800762561
 30
0.0
 10
13.61153203677547
 20
13.1050601226507
 30
0.0
 10
13.62113672964272
 20
12.99025190382736
 30
0.0
 10
13.62883423724476
 20
12.88154074193326
 30
0.0
 10
13.63482973276191
 20
12.7791921861996
 30
0.0
 10
13.63932799397058
 20
12.68343045327703
 30
0.0
 10
13.64254201049059
 20
12.59444039471867
 30
0.0
 10
13.64465783877441
 20
12.5123728604205
 30
0.0
 10
13.645934395394
 20
12.43735077992756
 30
0.0
 10
13.64623788055897
 20
12.38969199280568
 30
0.0
 10
13.6463820045414
 20
12.36705901106286
 30
0.0
  0
SPLINE
  5
199
330
1F
100
AcDbEntity
  8
0
  6
Continuous
 62
     7
370
    25
100
AcDbSpline
210
0.0
220
0.0
230
1.0
 70
     8
 71
     3
 72
    45
 73
    41
 74
     0
 42
0.000000001
 43
0.00000001
 40
0.0
 40
0.0
 40
0.0
 40
0.0
 40
0.0125029723991962
 40
0.0257013616024943
 40
0.03959222458849
 40
0.0541724078746956
 40
0.0694385148679086
 40
0.0853868659803887
 40
0.1020134509719283
 40
0.1193138730188993
 40
0.1372832840597714
 40
0.1559163110215863
 40
0.1752069725927854
 40
0.1951485862735541
 40
0.215733665504635
 40
0.2369538067483264
 40
0.258799566470209
 40
0.2812603280461601
 40
0.3712320677915011
 40
0.4176156820751075
 40
0.4876465444638549
 40
0.5496706995474817
 40
0.5825640671689771
 40
0.6145464398264607
 40
0.6456081000232616
 40
0.6757410098566128
 40
0.704938905098192
 40
0.7331973634777841
 40
0.7605138506184478
 40
0.7868877466566709
 40
0.8123203562121738
 40
0.8368149040452862
 40
0.8603765184508144
 40
0.8830122041815719
 40
0.9047308064677984
 40
0.9255429674961205
 40
0.9454610765291992
 40
0.964499214680408
 40
0.9826730952024254
 40
1.0
 40
1.0
 40
1.0
 40
1.0
 10
15.3392949846959
 20
12.36705901106286
 30
0.0
 10
15.33936592861753
 20
12.38037103006715
 30
0.0
 10
15.33951176237009
 20
12.40773548414772
 30
0.0
 10
15.33999653786181
 20
12.44988086711942
 30
0.0
 10
15.34072042441814
 20
12.49422356775133
 30
0.0
 10
15.34173705631124
 20
12.54074500693373
 30
0.0
 10
15.34307603305153
 20
12.58942452674534
 30
0.0
 10
15.34477471908661
 20
12.6402386463526
 30
0.0
 10
15.34686887347891
 20
12.69316096855238
 30
0.0
 10
15.34939512967824
 20
12.7481618845256
 30
0.0
 10
15.35239006546176
 20
12.80520832262215
 30
0.0
 10
15.355890237888
 20
12.86426346890802
 30
0.0
 10
15.35993193933692
 20
12.92528648719106
 30
0.0
 10
15.36455100352803
 20
12.98823220292662
 30
0.0
 10
15.36978266901335
 20
13.05305086988111
 30
0.0
 10
15.37566110314796
 20
13.11968755998486
 30
0.0
 10
15.38222024238557
 20
13.1880829705688
 30
0.0
 10
15.3967087851868
 20
13.32777325289403
 30
0.0
 10
15.41699510186524
 20
13.49156700474923
 30
0.0
 10
15.44801687726659
 20
13.70151403465964
 30
0.0
 10
15.47828994148021
 20
13.88077537401027
 30
0.0
 10
15.50977536136455
 20
14.04379491119733
 30
0.0
 10
15.53593778554693
 20
14.16756483506513
 30
0.0
 10
15.55672060633282
 20
14.26024425158082
 30
0.0
 10
15.57785714545465
 20
14.34936837272981
 30
0.0
 10
15.59926687092973
 20
14.43494641427258
 30
0.0
 10
15.62087491741357
 20
14.51699399702717
 30
0.0
 10
15.6426119600045
 20
14.59553334350976
 30
0.0
 10
15.66441393561137
 20
14.67059282786303
 30
0.0
 10
15.68622181522244
 20
14.74220669465374
 30
0.0
 10
15.70798136799362
 20
14.81041474797464
 30
0.0
 10
15.72964295541289
 20
14.87526202609693
 30
0.0
 10
15.75116126239775
 20
14.93679858345441
 30
0.0
 10
15.77249528128663
 20
14.99507890655996
 30
0.0
 10
15.79360743923779
 20
15.05016264019983
 30
0.0
 10
15.81446576158801
 20
15.10211073713403
 30
0.0
 10
15.83503543293458
 20
15.15099765615454
 30
0.0
 10
15.855307445473
 20
15.19686748677836
 30
0.0
 10
15.87519788647121
 20
15.2398857215887
 30
0.0
 10
15.88864723171249
 20
15.26714242806995
 30
0.0
 10
15.89521146747481
 20
15.28044563683124
 30
0.0
  0
SPLINE
  5
19A
330
1F
100
AcDbEntity
  8
0
  6
Continuous
 62
     7
370
    25
100
AcDbSpline
210
0.0
220
0.0
230
1.0
 70
    24
 71
     3
 72
    10
 73
     6
 74
     0
 42
0.000000001
 43
0.00000001
 40
0.0
 40
0.0
 40
0.0
 40
0.0
 40
0.5
 40
0.5
 40
1.0
 40
1.0
 40
1.0
 40
1.0
 10
13.64638198375166
 20
12.36705901106286
 30
0.0
 10
13.63607473377365
 20
12.36705901106286
 30
0.0
 10
13.625830939046
 20
12.36705901106286
 30
0.0
 10
13.61125442716127
 20
12.36705901106286
 30
0.0
 10
13.60701147616011
 20
12.36705901106286
 30
0.0
 10
13.6070117229764
 20
12.36705901106286
 30
0.0
  0
SPLINE
  5
19B
330
1F
100
AcDbEntity
  8
0
  6
Continuous
 62
     7
370
    25
100
AcDbSpline
210
0.0
220
0.0
230
1.0
 70
     8
 71
     3
 72
    24
 73
    20
 74
     0
 42
0.000000001
 43
0.00000001
 40
0.0
 40
0.0
 40
0.0
 40
0.0
 40
0.125
 40
0.125
 40
0.25
 40
0.25
 40
0.5000000000000002
 40
0.5000000000000002
 40
0.7500000000000003
 40
0.7500000000000003
 40
0.8750000000000004
 40
0.8750000000000004
 40
0.9375000000000004
 40
0.9375000000000004
 40
0.9687500000000002
 40
0.9687500000000002
 40
0.9843750000000001
 40
0.9843750000000001
 40
1.0
 40
1.0
 40
1.0
 40
1.0
 10
13.02905348916327
 20
15.28044471259172
 30
0.0
 10
13.06313654769901
 20
15.21050729537219
 30
0.0
 10
13.09771859908972
 20
15.13116564638428
 30
0.0
 10
13.16645885955736
 20
14.95625135499545
 30
0.0
 10
13.20063434526634
 20
14.86064002192002
 30
0.0
 10
13.30064284689249
 20
14.55265839155574
 30
0.0
 10
13.36395886363875
 20
14.31915172507835
 30
0.0
 10
13.4737454500891
 20
13.81222310749212
 30
0.0
 10
13.52022187395297
 20
13.53874866152375
 30
0.0
 10
13.56977502493575
 20
13.11032869868473
 30
0.0
 10
13.58293407785703
 20
12.96447386384249
 30
0.0
 10
13.59668985036896
 20
12.74249923226043
 30
0.0
 10
13.60027824099934
 20
12.6679765035924
 30
0.0
 10
13.60404530485028
 20
12.55556009794711
 30
0.0
 10
13.60503171331661
 20
12.51798255418629
 30
0.0
 10
13.60609231564835
 20
12.46147866867321
 30
0.0
 10
13.60637602050453
 20
12.44262112191469
 30
0.0
 10
13.6068012078158
 20
12.40486353081873
 30
0.0
 10
13.60693654110401
 20
12.38589558873403
 30
0.0
 10
13.60701298021352
 20
12.36705901603788
 30
0.0
  0
SPLINE
  5
19C
330
1F
100
AcDbEntity
  8
0
  6
Continuous
 62
     7
370
    25
100
AcDbSpline
210
0.0
220
0.0
230
1.0
 70
    24
 71
     3
 72
    10
 73
     6
 74
     0
 42
0.000000001
 43
0.00000001
 40
0.0
 40
0.0
 40
0.0
 40
0.0
 40
0.5
 40
0.5
 40
1.0
 40
1.0
 40
1.0
 40
1.0
 10
15.37866526626091
 20
12.36705901221128
 30
0.0
 10
15.37866551307728
 20
12.36705901221128
 30
0.0
 10
15.37442255909821
 20
12.36705901221128
 30
0.0
 10
15.35984603845866
 20
12.36705901221128
 30
0.0
 10
15.34960223812701
 20
12.36705901221128
 30
0.0
 10
15.3392949846817
 20
12.36705901221128
 30
0.0
  0
SPLINE
  5
19D
330
1F
100
AcDbEntity
  8
0
  6
Continuous
 62
     7
370
    25
100
AcDbSpline
210
0.0
220
0.0
230
1.0
 70
     8
 71
     3
 72
    33
 73
    29
 74
     0
 42
0.000000001
 43
0.00000001
 40
0.0
 40
0.0
 40
0.0
 40
0.0
 40
0.0126635702602377
 40
0.0253661136312625
 40
0.0381073767791924
 40
0.0508870627362823
 40
0.0637048306872275
 40
0.0765602957614174
 40
0.0894530288303591
 40
0.1023825563095113
 40
0.1153483599638289
 40
0.1283498767163279
 40
0.1413864984590291
 40
0.2039383458130652
 40
0.2804160594600044
 40
0.3488997566126937
 40
0.4164293990656057
 40
0.4766493491918551
 40
0.5482487438413314
 40
0.6658814406840686
 40
0.7929261313255197
 40
0.8489250292562385
 40
0.9021458793719658
 40
0.9253740826433546
 40
0.9466857375831224
 40
0.96616862686695
 40
0.9839109143946485
 40
1.0
 40
1.0
 40
1.0
 40
1.0
 10
15.37866526627219
 20
12.36705901106286
 30
0.0
 10
15.37873556804127
 20
12.38051028028232
 30
0.0
 10
15.37887638793851
 20
12.4074542160361
 30
0.0
 10
15.37936592817408
 20
12.44792375262907
 30
0.0
 10
15.38005941620934
 20
12.48850525238583
 30
0.0
 10
15.38097702274316
 20
12.52919326846107
 30
0.0
 10
15.38211330607243
 20
12.56998259865294
 30
0.0
 10
15.38346963930454
 20
12.61086782670984
 30
0.0
 10
15.38504548077381
 20
12.65184343967942
 30
0.0
 10
15.38684072367041
 20
12.6929038117703
 30
0.0
 10
15.38885505851396
 20
12.73404314329806
 30
0.0
 10
15.39108815909171
 20
12.77525571466888
 30
0.0
 10
15.3966410906253
 20
12.86876115907287
 30
0.0
 10
15.40854753439374
 20
13.02874515378248
 30
0.0
 10
15.43048357651057
 20
13.24526072174727
 30
0.0
 10
15.45869223201976
 20
13.46451585463275
 30
0.0
 10
15.48949827792165
 20
13.66450119597263
 30
0.0
 10
15.52515249576063
 20
13.86495357522624
 30
0.0
 10
15.57523804004714
 20
14.11193901571432
 30
0.0
 10
15.64843699667102
 20
14.41722665944645
 30
0.0
 10
15.72978289580757
 20
14.69568585872239
 30
0.0
 10
15.8009443644296
 20
14.90510851866316
 30
0.0
 10
15.84342456204417
 20
15.01883576431223
 30
0.0
 10
15.87621592181586
 20
15.10045533639127
 30
0.0
 10
15.89825833047706
 20
15.15292782822748
 30
0.0
 10
15.9189199223124
 20
15.19997390853857
 30
0.0
 10
15.93814010527039
 20
15.24205279867255
 30
0.0
 10
15.95066583863437
 20
15.2680714887454
 30
0.0
 10
15.95662266443539
 20
15.28044511987987
 30
0.0
  0
LINE
  5
19E
330
1F
100
AcDbEntity
  8
0
  6
Continuous
 62
     7
370
    25
100
AcDbLine
 10
13.646381993
 20
8.6011313077
 30
0.0
 11
15.3392952163
 21
8.6011313077
 31
0.0
  0
SPLINE
  5
19F
330
1F
100
AcDbEntity
  8
0
  6
Continuous
 62
     7
370
    25
100
AcDbSpline
210
0.0
220
0.0
230
1.0
 70
    24
 71
     3
 72
    34
 73
    30
 74
     0
 42
0.000000001
 43
0.00000001
 40
0.0
 40
0.0
 40
0.0
 40
0.0
 40
2.87951667768327
 40
2.87951667768327
 40
6.150923332440172
 40
6.150923332440172
 40
7.786626659818673
 40
7.786626659818673
 40
9.422329987197074
 40
9.422329987197074
 40
11.05803331457557
 40
11.05803331457557
 40
11.87588497826467
 40
11.87588497826467
 40
12.69373664195387
 40
12.69373664195387
 40
19.23654995146737
 40
19.23654995146737
 40
25.77936326098087
 40
25.77936326098087
 40
29.05076991573767
 40
29.05076991573767
 40
32.32217657049437
 40
32.32217657049437
 40
38.86498988000807
 40
38.86498988000807
 40
45.40780318952168
 40
45.40780318952168
 40
51.95061649908947
 40
51.95061649908947
 40
51.95061649908947
 40
51.95061649908947
 10
15.33929517438223
 20
7.249265556549306
 30
0.0
 10
15.33929517438223
 20
7.348011893718092
 30
0.0
 10
15.33929517438223
 20
7.426355934790864
 30
0.0
 10
15.33929517438223
 20
7.560668645040382
 30
0.0
 10
15.33929517438223
 20
7.612172583350812
 30
0.0
 10
15.33929517438223
 20
7.669853436212938
 30
0.0
 10
15.33929517438223
 20
7.685804989777861
 30
0.0
 10
15.33929517438223
 20
7.712752808117623
 30
0.0
 10
15.33929517438223
 20
7.72371580401983
 30
0.0
 10
15.33929517438223
 20
7.74259033438829
 30
0.0
 10
15.33929517438223
 20
7.750480006423651
 30
0.0
 10
15.33929517438223
 20
7.762669836141484
 30
0.0
 10
15.33929517438223
 20
7.766850029805223
 30
0.0
 10
15.33929517438223
 20
7.77560668021479
 30
0.0
 10
15.33929517438223
 20
7.779995596229202
 30
0.0
 10
15.33929517438223
 20
7.81960172306546
 30
0.0
 10
15.33929517438223
 20
7.855548535121008
 30
0.0
 10
15.33929517438223
 20
7.93025970494853
 30
0.0
 10
15.33929517438223
 20
7.969016398322663
 30
0.0
 10
15.33929517438223
 20
8.03059008004022
 30
0.0
 10
15.33929517438223
 20
8.05169225747168
 30
0.0
 10
15.33929517438223
 20
8.095320559991327
 30
0.0
 10
15.33929517438223
 20
8.117801801487625
 30
0.0
 10
15.33929517438223
 20
8.188119345514908
 30
0.0
 10
15.33929517438223
 20
8.239133840359477
 30
0.0
 10
15.33929517438223
 20
8.343945983614198
 30
0.0
 10
15.33929517438223
 20
8.397744773342426
 30
0.0
 10
15.33929517438223
 20
8.50274294366739
 30
0.0
 10
15.33929517438223
 20
8.553955856512347
 30
0.0
 10
15.33929517438223
 20
8.601131251725382
 30
0.0
  0
SPLINE
  5
1A0
330
1F
100
AcDbEntity
  8
0
  6
Continuous
 62
     7
370
    25
100
AcDbSpline
210
0.0
220
0.0
230
1.0
 70
     8
 71
     3
 72
    18
 73
    14
 74
     0
 42
0.000000001
 43
0.00000001
 40
0.0
 40
0.0
 40
0.0
 40
0.0
 40
0.0502068899071328
 40
0.0999607703817711
 40
0.1496906486647461
 40
0.1998242911792255
 40
0.2507765608705285
 40
0.3743546669898278
 40
0.5004458969616249
 40
0.6241582649030034
 40
0.7500752806935688
 40
0.8745988559876966
 40
1.0
 40
1.0
 40
1.0
 40
1.0
 10
15.29992510879188
 20
7.229626000550516
 30
0.0
 10
15.30102126814342
 20
7.229638634745167
 30
0.0
 10
15.30320369636084
 20
7.229663789137975
 30
0.0
 10
15.30644456027052
 20
7.229871116728263
 30
0.0
 10
15.30962769708761
 20
7.23020304368881
 30
0.0
 10
15.31275272683995
 20
7.230671366774555
 30
0.0
 10
15.31724648579199
 20
7.231550976398426
 30
0.0
 10
15.32284474059547
 20
7.233123603402842
 30
0.0
 10
15.32870488370252
 20
7.235683129727551
 30
0.0
 10
15.33342491538745
 20
7.238701396397293
 30
0.0
 10
15.33676879412966
 20
7.242042843650052
 30
0.0
 10
15.33891031613401
 20
7.245603566588182
 30
0.0
 10
15.3391665883472
 20
7.24804203913327
 30
0.0
 10
15.33929517438223
 20
7.249265556549418
 30
0.0
  0
LINE
  5
1A1
330
1F
100
AcDbEntity
  8
0
  6
Continuous
 62
     7
370
    25
100
AcDbLine
 10
13.6857518582
 20
7.2296260848
 30
0.0
 11
15.2999251311
 21
7.2296260848
 31
0.0
  0
SPLINE
  5
1A2
330
1F
100
AcDbEntity
  8
0
  6
Continuous
 62
     7
370
    25
100
AcDbSpline
210
0.0
220
0.0
230
1.0
 70
     8
 71
     3
 72
    12
 73
     8
 74
     0
 42
0.000000001
 43
0.00000001
 40
0.0
 40
0.0
 40
0.0
 40
0.0
 40
0.2499999999999948
 40
0.2499999999999948
 40
0.4999999999999895
 40
0.4999999999999895
 40
1.0
 40
1.0
 40
1.0
 40
1.0
 10
13.68575188044542
 20
7.229626009363214
 30
0.0
 10
13.68022636227733
 20
7.229626009510062
 30
0.0
 10
13.67483272359437
 20
7.230205717662098
 30
0.0
 10
13.66497467711523
 20
7.232366694270683
 30
0.0
 10
13.66069284250684
 20
7.233896030545481
 30
0.0
 10
13.65001667429393
 20
7.239531229252979
 30
0.0
 10
13.64638182601995
 20
7.244349530425572
 30
0.0
 10
13.6463818236216
 20
7.249265556549436
 30
0.0
  0
SPLINE
  5
1A3
330
1F
100
AcDbEntity
  8
0
  6
Continuous
 62
     7
370
    25
100
AcDbSpline
210
0.0
220
0.0
230
1.0
 70
    24
 71
     3
 72
    34
 73
    30
 74
     0
 42
0.000000001
 43
0.00000001
 40
0.0
 40
0.0
 40
0.0
 40
0.0
 40
6.54281330956779
 40
6.54281330956779
 40
13.0856266190814
 40
13.0856266190814
 40
19.6284399285951
 40
19.6284399285951
 40
22.8998465833518
 40
22.8998465833518
 40
26.1712532381086
 40
26.1712532381086
 40
32.7140665476221
 40
32.7140665476221
 40
39.2568798571356
 40
39.2568798571356
 40
40.0747315208248
 40
40.0747315208248
 40
40.8925831845139
 40
40.8925831845139
 40
42.5282865118924
 40
42.5282865118924
 40
44.1639898392708
 40
44.1639898392708
 40
45.7996931666493
 40
45.7996931666493
 40
49.0710998214062
 40
49.0710998214062
 40
51.95061649908946
 40
51.95061649908946
 40
51.95061649908946
 40
51.95061649908946
 10
13.64638180170526
 20
8.601131251725382
 30
0.0
 10
13.64638180170526
 20
8.553955856512347
 30
0.0
 10
13.64638180170526
 20
8.50274294366739
 30
0.0
 10
13.64638180170526
 20
8.397744773342426
 30
0.0
 10
13.64638180170526
 20
8.343945983614198
 30
0.0
 10
13.64638180170526
 20
8.239133840359475
 30
0.0
 10
13.64638180170526
 20
8.188119345514906
 30
0.0
 10
13.64638180170526
 20
8.117801801487625
 30
0.0
 10
13.64638180170526
 20
8.095320559991327
 30
0.0
 10
13.64638180170526
 20
8.051692257471679
 30
0.0
 10
13.64638180170526
 20
8.030590080040218
 30
0.0
 10
13.64638180170526
 20
7.969016398322662
 30
0.0
 10
13.64638180170527
 20
7.930259704948528
 30
0.0
 10
13.64638180170526
 20
7.855548535121006
 30
0.0
 10
13.64638180170526
 20
7.819601723065459
 30
0.0
 10
13.64638180170526
 20
7.7799955962292
 30
0.0
 10
13.64638180170526
 20
7.775606680214788
 30
0.0
 10
13.64638180170526
 20
7.766850029805222
 30
0.0
 10
13.64638180170526
 20
7.762669836141482
 30
0.0
 10
13.64638180170526
 20
7.750480006423649
 30
0.0
 10
13.64638180170526
 20
7.742590334388289
 30
0.0
 10
13.64638180170526
 20
7.723715804019829
 30
0.0
 10
13.64638180170526
 20
7.712752808117623
 30
0.0
 10
13.64638180170526
 20
7.685804989777859
 30
0.0
 10
13.64638180170526
 20
7.669853436212936
 30
0.0
 10
13.64638180170526
 20
7.612172583350811
 30
0.0
 10
13.64638180170526
 20
7.560668645040381
 30
0.0
 10
13.64638180170526
 20
7.426355934790863
 30
0.0
 10
13.64638180170526
 20
7.348011893718092
 30
0.0
 10
13.64638180170526
 20
7.249265556549303
 30
0.0
  0
LINE
  5
1A4
330
1F
100
AcDbEntity
  8
0
  6
Continuous
 62
     7
370
    25
100
AcDbLine
 10
14.4928384946
 20
12.18989353
 30
0.0
 11
15.3392949963
 21
12.1898941167
 31
0.0
  0
LINE
  5
1A5
330
1F
100
AcDbEntity
  8
0
  6
Continuous
 62
     7
370
    25
100
AcDbLine
 10
13.646381993
 20
12.1898941167
 30
0.0
 11
14.4928384946
 21
12.18989353
 31
0.0
  0
LINE
  5
1A6
330
1F
100
AcDbEntity
  8
0
  6
Continuous
 62
     7
370
    25
100
AcDbLine
 10
13.646381993
 20
12.3670589501
 30
0.0
 11
13.646381993
 21
12.1898941167
 31
0.0
  0
LINE
  5
1A7
330
1F
100
AcDbEntity
  8
0
  6
Continuous
 62
     7
370
    25
100
AcDbLine
 10
15.3392949963
 20
12.1898941167
 30
0.0
 11
15.3392949963
 21
12.3670589501
 31
0.0
  0
SPLINE
  5
1A8
330
1F
100
AcDbEntity
  8
0
  6
Continuous
 62
     7
370
    25
100
AcDbSpline
210
0.0
220
0.0
230
1.0
 70
     8
 71
     3
 72
    16
 73
    12
 74
     0
 42
0.000000001
 43
0.00000001
 40
0.0
 40
0.0
 40
0.0
 40
0.0
 40
0.2499999999999984
 40
0.2499999999999984
 40
0.4999999999999969
 40
0.4999999999999969
 40
0.7499999999999953
 40
0.7499999999999953
 40
0.8749999999999977
 40
0.8749999999999977
 40
1.0
 40
1.0
 40
1.0
 40
1.0
 10
13.60701172296784
 20
12.18989401496152
 30
0.0
 10
13.60701166171625
 20
12.19038621402763
 30
0.0
 10
13.60803757480848
 20
12.18989709905361
 30
0.0
 10
13.61198314681405
 20
12.18980495254578
 30
0.0
 10
13.61491194650596
 20
12.18990500423416
 30
0.0
 10
13.62216334674688
 20
12.18992137732352
 30
0.0
 10
13.6265531504242
 20
12.18985681939555
 30
0.0
 10
13.6336536545567
 20
12.18984887688333
 30
0.0
 10
13.63614311922457
 20
12.18989986998308
 30
0.0
 10
13.64121635909448
 20
12.19004741859605
 30
0.0
 10
13.64378385691129
 20
12.19009956058859
 30
0.0
 10
13.64638200348189
 20
12.18989418066835
 30
0.0
  0
LINE
  5
1A9
330
1F
100
AcDbEntity
  8
0
  6
Continuous
 62
     7
370
    25
100
AcDbLine
 10
13.6070116878
 20
12.3670589501
 30
0.0
 11
13.6070116878
 21
12.1898941167
 31
0.0
  0
LINE
  5
1AA
330
1F
100
AcDbEntity
  8
0
  6
Continuous
 62
     7
370
    25
100
AcDbLine
 10
15.3786653015
 20
12.1898941167
 30
0.0
 11
15.3786653015
 21
12.3670589501
 31
0.0
  0
SPLINE
  5
1AB
330
1F
100
AcDbEntity
  8
0
  6
Continuous
 62
     7
370
    25
100
AcDbSpline
210
0.0
220
0.0
230
1.0
 70
     8
 71
     3
 72
    16
 73
    12
 74
     0
 42
0.000000001
 43
0.00000001
 40
0.0
 40
0.0
 40
0.0
 40
0.0
 40
0.1250000000000023
 40
0.1250000000000023
 40
0.2500000000000046
 40
0.2500000000000046
 40
0.5000000000000031
 40
0.5000000000000031
 40
0.7500000000000016
 40
0.7500000000000016
 40
1.0
 40
1.0
 40
1.0
 40
1.0
 10
15.33929500548566
 20
12.18989418222798
 30
0.0
 10
15.34189539345136
 20
12.19009973802833
 30
0.0
 10
15.34445254187873
 20
12.19004747893596
 30
0.0
 10
15.34948500766368
 20
12.18990146402216
 30
0.0
 10
15.35198644524341
 20
12.18984901454507
 30
0.0
 10
15.35913117066285
 20
12.18985647222785
 30
0.0
 10
15.36350407342992
 20
12.1899213460909
 30
0.0
 10
15.37076008304084
 20
12.18990506816584
 30
0.0
 10
15.37369510739885
 20
12.18980552525583
 30
0.0
 10
15.37762327895313
 20
12.18989618110634
 30
0.0
 10
15.37866532740948
 20
12.1903853173649
 30
0.0
 10
15.37866526626947
 20
12.18989401496152
 30
0.0
  0
LINE
  5
1AC
330
1F
100
AcDbEntity
  8
0
  6
Continuous
 62
     7
370
    25
100
AcDbLine
 10
15.3392952163
 20
8.6011313077
 30
0.0
 11
15.3786653015
 21
8.6011313077
 31
0.0
  0
LINE
  5
1AD
330
1F
100
AcDbEntity
  8
0
  6
Continuous
 62
     7
370
    25
100
AcDbLine
 10
15.3392952163
 20
8.6011313077
 30
0.0
 11
15.3392950696
 21
12.1505230782
 31
0.0
  0
SPLINE
  5
1AE
330
1F
100
AcDbEntity
  8
0
  6
Continuous
 62
     7
370
    25
100
AcDbSpline
210
0.0
220
0.0
230
1.0
 70
     8
 71
     3
 72
    16
 73
    12
 74
     0
 42
0.000000001
 43
0.00000001
 40
0.0
 40
0.0
 40
0.0
 40
0.0
 40
0.2500000000000016
 40
0.2500000000000016
 40
0.5000000000000031
 40
0.5000000000000031
 40
0.7500000000000047
 40
0.7500000000000047
 40
0.8750000000000023
 40
0.8750000000000023
 40
1.0
 40
1.0
 40
1.0
 40
1.0
 10
15.37866526626946
 20
12.15052321976264
 30
0.0
 10
15.37866532752096
 20
12.15003102149696
 30
0.0
 10
15.37763941792805
 20
12.15052013488161
 30
0.0
 10
15.37369385817348
 20
12.15061228251776
 30
0.0
 10
15.37076506776831
 20
12.15051223080351
 30
0.0
 10
15.36351368820899
 20
12.15049585724678
 30
0.0
 10
15.35912389647576
 20
12.15056041415962
 30
0.0
 10
15.35202340977404
 20
12.15056835830901
 30
0.0
 10
15.34953395184008
 20
12.15051736764417
 30
0.0
 10
15.34446072153647
 20
12.15036981826291
 30
0.0
 10
15.34189324298178
 20
12.15031767298369
 30
0.0
 10
15.3392951012082
 20
12.1505230449296
 30
0.0
  0
LINE
  5
1AF
330
1F
100
AcDbEntity
  8
0
  6
Continuous
 62
     7
370
    25
100
AcDbLine
 10
15.3786653015
 20
8.6011313077
 30
0.0
 11
15.3786653015
 21
12.1505230782
 31
0.0
  0
LINE
  5
1B0
330
1F
100
AcDbEntity
  8
0
  6
Continuous
 62
     7
370
    25
100
AcDbLine
 10
14.4928384946
 20
12.1505236648
 30
0.0
 11
15.3392950696
 21
12.1505230782
 31
0.0
  0
LINE
  5
1B1
330
1F
100
AcDbEntity
  8
0
  6
Continuous
 62
     7
370
    25
100
AcDbLine
 10
13.646381993
 20
12.1505230782
 30
0.0
 11
13.646381993
 21
8.6011313077
 31
0.0
  0
LINE
  5
1B2
330
1F
100
AcDbEntity
  8
0
  6
Continuous
 62
     7
370
    25
100
AcDbLine
 10
13.646381993
 20
12.1505230782
 30
0.0
 11
14.4928384946
 21
12.1505236648
 31
0.0
  0
SPLINE
  5
1B3
330
1F
100
AcDbEntity
  8
0
  6
Continuous
 62
     7
370
    25
100
AcDbSpline
210
0.0
220
0.0
230
1.0
 70
     8
 71
     3
 72
    16
 73
    12
 74
     0
 42
0.000000001
 43
0.00000001
 40
0.0
 40
0.0
 40
0.0
 40
0.0
 40
0.2500000000000012
 40
0.2500000000000012
 40
0.5000000000000024
 40
0.5000000000000024
 40
0.7500000000000037
 40
0.7500000000000037
 40
0.8750000000000018
 40
0.8750000000000018
 40
1.0
 40
1.0
 40
1.0
 40
1.0
 10
13.60701172296784
 20
12.15052321976264
 30
0.0
 10
13.60701166171625
 20
12.1500310207395
 30
0.0
 10
13.60803757462062
 20
12.15052013562816
 30
0.0
 10
13.61198314596849
 20
12.15061228219664
 30
0.0
 10
13.61491194516185
 20
12.15051223050679
 30
0.0
 10
13.62216334429247
 20
12.15049585739233
 30
0.0
 10
13.62655314732858
 20
12.1505604152658
 30
0.0
 10
13.63365365052531
 20
12.15056835786594
 30
0.0
 10
13.63614311481388
 20
12.1505173648974
 30
0.0
 10
13.64121635422542
 20
12.15036981624164
 30
0.0
 10
13.64378383736074
 20
12.150317673888
 30
0.0
 10
13.64638198375154
 20
12.15052305249615
 30
0.0
  0
LINE
  5
1B4
330
1F
100
AcDbEntity
  8
0
  6
Continuous
 62
     7
370
    25
100
AcDbLine
 10
13.646381773
 20
8.6011313077
 30
0.0
 11
13.6070116878
 21
8.6011313077
 31
0.0
  0
LINE
  5
1B5
330
1F
100
AcDbEntity
  8
0
  6
Continuous
 62
     7
370
    25
100
AcDbLine
 10
13.6070116878
 20
12.1505230782
 30
0.0
 11
13.6070116878
 21
8.6011313077
 31
0.0
  0
SPLINE
  5
1B6
330
1F
100
AcDbEntity
  8
0
  6
Continuous
 62
     7
370
    25
100
AcDbSpline
210
0.0
220
0.0
230
1.0
 70
    24
 71
     3
 72
    35
 73
    31
 74
     0
 42
0.000000001
 43
0.00000001
 40
0.0
 40
0.0
 40
0.0
 40
0.0
 40
0.0122784948461744
 40
0.0246489707164836
 40
0.037114798989696
 40
0.0496792742881489
 40
0.0623456142576334
 40
0.0935789389187146
 40
0.1243469243951982
 40
0.1560334241104923
 40
0.1864346291582245
 40
0.2489876255014319
 40
0.3108647927252993
 40
0.373006166872295
 40
0.4034700477975496
 40
0.4354423964448645
 40
0.4509653954178495
 40
0.4595268771076499
 40
0.466474629086697
 40
0.4811114897050248
 40
0.497563150203732
 40
0.5254152457897058
 40
0.5603308484534752
 40
0.5896146592687795
 40
0.6231558355956324
 40
0.6808218335911579
 40
0.7487641724423896
 40
0.8743765640595462
 40
0.9330788700059288
 40
1.0
 40
1.0
 40
1.0
 40
1.0
 10
15.37866526627219
 20
8.601131253375305
 30
0.0
 10
15.37866526627219
 20
8.593092602633302
 30
0.0
 10
15.37866526627219
 20
8.576955081770844
 30
0.0
 10
15.37866526627219
 20
8.552663089211677
 30
0.0
 10
15.37866526627219
 20
8.528197330503826
 30
0.0
 10
15.37866526627219
 20
8.503557692807798
 30
0.0
 10
15.37866526627219
 20
8.466690088660233
 30
0.0
 10
15.37866526627219
 20
8.418039328909057
 30
0.0
 10
15.37866526627219
 20
8.357298374519964
 30
0.0
 10
15.37866526627219
 20
8.297506082088049
 30
0.0
 10
15.37866526627219
 20
8.218080728159217
 30
0.0
 10
15.37866526627219
 20
8.121339316709193
 30
0.0
 10
15.37866526627219
 20
8.012031318581359
 30
0.0
 10
15.37866526627219
 20
7.929670688127336
 30
0.0
 10
15.3786652662722
 20
7.868351350228542
 30
0.0
 10
15.37866526627219
 20
7.83191794208327
 30
0.0
 10
15.37866526627219
 20
7.806699193424572
 30
0.0
 10
15.37866526627219
 20
7.792989383595377
 30
0.0
 10
15.37866526627219
 20
7.779923017378234
 30
0.0
 10
15.37866526627219
 20
7.764434181292504
 30
0.0
 10
15.37866526627219
 20
7.742165520513804
 30
0.0
 10
15.37866526627219
 20
7.714446793988596
 30
0.0
 10
15.37866526627219
 20
7.68388815688848
 30
0.0
 10
15.37866526627219
 20
7.652491250556562
 30
0.0
 10
15.37866526627219
 20
7.61460364803589
 30
0.0
 10
15.3786652662722
 20
7.565632617472005
 30
0.0
 10
15.37866526627219
 20
7.48971800447131
 30
0.0
 10
15.37866526627219
 20
7.41476393464263
 30
0.0
 10
15.37866526627219
 20
7.340830791993748
 30
0.0
 10
15.37866526627219
 20
7.304074342134434
 30
0.0
 10
15.37866526627219
 20
7.284493734895498
 30
0.0
  0
ARC
  5
1B7
330
1F
100
AcDbEntity
  8
0
  6
Continuous
 62
     7
370
    25
100
AcDbCircle
 10
15.3412571155
 20
7.2866867282
 30
0.0
 40
0.0374724277609561
100
AcDbArc
 50
266.9987487468
 51
356.6445358022
  0
SPLINE
  5
1B8
330
1F
100
AcDbEntity
  8
0
  6
Continuous
 62
     7
370
    25
100
AcDbSpline
210
0.0
220
0.0
230
1.0
 70
    24
 71
     3
 72
    33
 73
    29
 74
     0
 42
0.000000001
 43
0.00000001
 40
0.0
 40
0.0
 40
0.0
 40
0.0
 40
0.0669165937454735
 40
0.1256235886351108
 40
0.2512361329586157
 40
0.3191700642718773
 40
0.3768446223188547
 40
0.4103765674289985
 40
0.4396696855305362
 40
0.4745750025391481
 40
0.502437456510001
 40
0.5188831047891479
 40
0.5335260199254233
 40
0.5404692899350767
 40
0.549035272921422
 40
0.5645582907656816
 40
0.5965247202669174
 40
0.6269945952707007
 40
0.6891360449626974
 40
0.751013287410355
 40
0.8135663597989656
 40
0.8439632794667482
 40
0.8756541398887336
 40
0.9064172850030201
 40
0.9376555251821519
 40
0.9587067276994006
 40
0.9794831334125204
 40
1.0
 40
1.0
 40
1.0
 40
1.0
 10
13.60701172296511
 20
7.284493734895497
 30
0.0
 10
13.60701172296511
 20
7.304072999247277
 30
0.0
 10
13.60701172296511
 20
7.34082946446817
 30
0.0
 10
13.60701172296511
 20
7.414762551566448
 30
0.0
 10
13.60701172296511
 20
7.489715446968311
 30
0.0
 10
13.60701172296511
 20
7.565630104591712
 30
0.0
 10
13.60701172296511
 20
7.614598078600881
 30
0.0
 10
13.60701172296511
 20
7.652488396197634
 30
0.0
 10
13.60701172296511
 20
7.683881691387398
 30
0.0
 10
13.60701172296511
 20
7.714443538062096
 30
0.0
 10
13.60701172296511
 20
7.742159616924939
 30
0.0
 10
13.60701172296511
 20
7.764431588120216
 30
0.0
 10
13.60701172296511
 20
7.779918620264333
 30
0.0
 10
13.60701172296511
 20
7.792987347016057
 30
0.0
 10
13.60701172296511
 20
7.806697208043796
 30
0.0
 10
13.60701172296511
 20
7.831915233143047
 30
0.0
 10
13.60701172296511
 20
7.868348534213261
 30
0.0
 10
13.60701172296511
 20
7.929667494025525
 30
0.0
 10
13.60701172296511
 20
8.012031324217908
 30
0.0
 10
13.60701172296511
 20
8.121339317079636
 30
0.0
 10
13.60701172296511
 20
8.218078021527262
 30
0.0
 10
13.60701172296511
 20
8.29750331983972
 30
0.0
 10
13.60701172296511
 20
8.357292386278273
 30
0.0
 10
13.60701172296511
 20
8.418036319426687
 30
0.0
 10
13.60701172296511
 20
8.472149625940125
 30
0.0
 10
13.60701172296511
 20
8.519878060600387
 30
0.0
 10
13.60701172296511
 20
8.560663855504597
 30
0.0
 10
13.60701172296511
 20
8.58769876126007
 30
0.0
 10
13.60701172296511
 20
8.601131253375305
 30
0.0
  0
ARC
  5
1B9
330
1F
100
AcDbEntity
  8
0
  6
Continuous
 62
     7
370
    25
100
AcDbCircle
 10
13.6444198737
 20
7.2866867282
 30
0.0
 40
0.0374724277609561
100
AcDbArc
 50
183.3554641978
 51
273.0012512532
  0
SPLINE
  5
1BA
330
1F
100
AcDbEntity
  8
0
  6
Continuous
 62
     7
370
    25
100
AcDbSpline
210
0.0
220
0.0
230
1.0
 70
    24
 71
     3
 72
     8
 73
     4
 74
     0
 42
0.000000001
 43
0.00000001
 40
0.0
 40
0.0
 40
0.0
 40
0.0
 40
0.0007075371112341
 40
0.0007075371112341
 40
0.0007075371112341
 40
0.0007075371112341
 10
15.3786652992013
 20
12.18989400397138
 30
0.0
 10
15.37210331784771
 20
12.18333202261779
 30
0.0
 10
15.36554135092988
 20
12.17677005569995
 30
0.0
 10
15.358979912592
 20
12.17020861736207
 30
0.0
  0
SPLINE
  5
1BB
330
1F
100
AcDbEntity
  8
0
  6
Continuous
 62
     7
370
    25
100
AcDbSpline
210
0.0
220
0.0
230
1.0
 70
    24
 71
     3
 72
    16
 73
    12
 74
     0
 42
0.000000001
 43
0.00000001
 40
0.0150180248346401
 40
0.0150180248346401
 40
0.0150180248346401
 40
0.0150180248346401
 40
0.2074020260881974
 40
0.2074020260881974
 40
0.4223849750127325
 40
0.4223849750127325
 40
0.6326829472352162
 40
0.6326829472352162
 40
0.8274386696515031
 40
0.8274386696515031
 40
0.9874322573527442
 40
0.9874322573527442
 40
0.9874322573527442
 40
0.9874322573527442
 10
15.35897991259202
 20
12.17020861736207
 30
0.0
 10
15.35860164936471
 20
12.17020861736207
 30
0.0
 10
15.35821398059423
 20
12.17020861736207
 30
0.0
 10
15.35732360228122
 20
12.17020861736207
 30
0.0
 10
15.35631621384965
 20
12.17020861736211
 30
0.0
 10
15.35347153834078
 20
12.17020861736204
 30
0.0
 10
15.35180681799408
 20
12.17020861736207
 30
0.0
 10
15.34818088847061
 20
12.17020861736207
 30
0.0
 10
15.34640026357462
 20
12.17020861736207
 30
0.0
 10
15.34380405107761
 20
12.17020861736207
 30
0.0
 10
15.34163553148337
 20
12.17020861736201
 30
0.0
 10
15.33849666645783
 20
12.17020861736206
 30
0.0
  0
SPLINE
  5
1BC
330
1F
100
AcDbEntity
  8
0
  6
Continuous
 62
     7
370
    25
100
AcDbSpline
210
0.0
220
0.0
230
1.0
 70
     8
 71
     3
 72
     8
 73
     4
 74
     0
 42
0.000000001
 43
0.00000001
 40
0.0
 40
0.0
 40
0.0
 40
0.0
 40
0.000707411617444
 40
0.000707411617444
 40
0.000707411617444
 40
0.000707411617444
 10
15.33849667161233
 20
12.17020874867377
 30
0.0
 10
15.33877460276446
 20
12.17677031486028
 30
0.0
 10
15.33903525774146
 20
12.183332243554
 30
0.0
 10
15.33929500548564
 20
12.18989418222816
 30
0.0
  0
SPLINE
  5
1BD
330
1F
100
AcDbEntity
  8
0
  6
Continuous
 62
     7
370
    25
100
AcDbSpline
210
0.0
220
0.0
230
1.0
 70
     8
 71
     3
 72
     8
 73
     4
 74
     0
 42
0.000000001
 43
0.00000001
 40
0.0
 40
0.0
 40
0.0
 40
0.0
 40
0.0007074121339753
 40
0.0007074121339753
 40
0.0007074121339753
 40
0.0007074121339753
 10
15.33929500086256
 20
12.15052316928759
 30
0.0
 10
15.33903525292859
 20
12.15708511275306
 30
0.0
 10
15.33877459763064
 20
12.16364704623565
 30
0.0
 10
15.33849666605647
 20
12.17020861720858
 30
0.0
  0
SPLINE
  5
1BE
330
1F
100
AcDbEntity
  8
0
  6
Continuous
 62
     7
370
    25
100
AcDbSpline
210
0.0
220
0.0
230
1.0
 70
    24
 71
     3
 72
     8
 73
     4
 74
     0
 42
0.000000001
 43
0.00000001
 40
0.0000000000000001
 40
0.0000000000000001
 40
0.0000000000000001
 40
0.0000000000000001
 40
0.0007075371112341
 40
0.0007075371112341
 40
0.0007075371112341
 40
0.0007075371112341
 10
15.358979912592
 20
12.17020861736207
 30
0.0
 10
15.36554135092988
 20
12.1636471790242
 30
0.0
 10
15.37210331784771
 20
12.15708521210636
 30
0.0
 10
15.3786652992013
 20
12.15052323075277
 30
0.0
  0
SPLINE
  5
1BF
330
1F
100
AcDbEntity
  8
0
  6
Continuous
 62
     7
370
    25
100
AcDbSpline
210
0.0
220
0.0
230
1.0
 70
    24
 71
     3
 72
    16
 73
    12
 74
     0
 42
0.000000001
 43
0.00000001
 40
0.0150180248894774
 40
0.0150180248894774
 40
0.0150180248894774
 40
0.0150180248894774
 40
0.2074020260881974
 40
0.2074020260881974
 40
0.4223849750127325
 40
0.4223849750127325
 40
0.6326829472352162
 40
0.6326829472352162
 40
0.8274386696515031
 40
0.8274386696515031
 40
0.9874322573556239
 40
0.9874322573556239
 40
0.9874322573556239
 40
0.9874322573556239
 10
13.62669707664561
 20
12.17020861736207
 30
0.0
 10
13.62707533987282
 20
12.17020861736207
 30
0.0
 10
13.62746300864319
 20
12.17020861736207
 30
0.0
 10
13.62835338695609
 20
12.17020861736207
 30
0.0
 10
13.62936077538765
 20
12.17020861736211
 30
0.0
 10
13.63220545089652
 20
12.17020861736204
 30
0.0
 10
13.63387017124322
 20
12.17020861736207
 30
0.0
 10
13.63749610076669
 20
12.17020861736207
 30
0.0
 10
13.63927672566268
 20
12.17020861736207
 30
0.0
 10
13.64187293815971
 20
12.17020861736207
 30
0.0
 10
13.64404145775401
 20
12.17020861736201
 30
0.0
 10
13.64718032277964
 20
12.17020861736206
 30
0.0
  0
SPLINE
  5
1C0
330
1F
100
AcDbEntity
  8
0
  6
Continuous
 62
     7
370
    25
100
AcDbSpline
210
0.0
220
0.0
230
1.0
 70
    24
 71
     3
 72
     8
 73
     4
 74
     0
 42
0.000000001
 43
0.00000001
 40
0.0
 40
0.0
 40
0.0
 40
0.0
 40
0.0007075371120174
 40
0.0007075371120174
 40
0.0007075371120174
 40
0.0007075371120174
 10
13.607011690036
 20
12.18989400397138
 30
0.0
 10
13.61357367139685
 20
12.18333202261052
 30
0.0
 10
13.62013563832195
 20
12.17677005568542
 30
0.0
 10
13.62669707666709
 20
12.17020861734028
 30
0.0
  0
SPLINE
  5
1C1
330
1F
100
AcDbEntity
  8
0
  6
Continuous
 62
     7
370
    25
100
AcDbSpline
210
0.0
220
0.0
230
1.0
 70
     8
 71
     3
 72
     8
 73
     4
 74
     0
 42
0.000000001
 43
0.00000001
 40
0.0
 40
0.0
 40
0.0
 40
0.0
 40
0.0007074116177215
 40
0.0007074116177215
 40
0.0007074116177215
 40
0.0007074116177215
 10
13.64638198894342
 20
12.18989405107027
 30
0.0
 10
13.64664173668771
 20
12.18333211239355
 30
0.0
 10
13.64690239180923
 20
12.1767701837
 30
0.0
 10
13.64718032318049
 20
12.17020861751556
 30
0.0
  0
SPLINE
  5
1C2
330
1F
100
AcDbEntity
  8
0
  6
Continuous
 62
     7
370
    25
100
AcDbSpline
210
0.0
220
0.0
230
1.0
 70
     8
 71
     3
 72
     8
 73
     4
 74
     0
 42
0.000000001
 43
0.00000001
 40
0.0
 40
0.0
 40
0.0
 40
0.0
 40
0.0007074116174522
 40
0.0007074116174522
 40
0.0007074116174522
 40
0.0007074116174522
 10
13.6471803176253
 20
12.17020848605037
 30
0.0
 10
13.64690238647307
 20
12.16364691986362
 30
0.0
 10
13.64664173149597
 20
12.15708499116967
 30
0.0
 10
13.64638198375165
 20
12.15052305249528
 30
0.0
  0
SPLINE
  5
1C3
330
1F
100
AcDbEntity
  8
0
  6
Continuous
 62
     7
370
    25
100
AcDbSpline
210
0.0
220
0.0
230
1.0
 70
    24
 71
     3
 72
     8
 73
     4
 74
     0
 42
0.000000001
 43
0.00000001
 40
0.0000000000000027
 40
0.0000000000000027
 40
0.0000000000000027
 40
0.0000000000000027
 40
0.00070753711123
 40
0.00070753711123
 40
0.00070753711123
 40
0.00070753711123
 10
13.6266970766453
 20
12.17020861736207
 30
0.0
 10
13.62013563830746
 20
12.16364717902424
 30
0.0
 10
13.61357367138967
 20
12.15708521210644
 30
0.0
 10
13.60701169003612
 20
12.15052323075289
 30
0.0
  0
LINE
  5
1C4
330
1F
100
AcDbEntity
  8
0
  6
Continuous
 62
     7
370
    25
100
AcDbLine
 10
13.6471802904
 20
12.1702084508
 30
0.0
 11
14.4928384946
 21
12.1702087441
 31
0.0
  0
LINE
  5
1C5
330
1F
100
AcDbEntity
  8
0
  6
Continuous
 62
     7
370
    25
100
AcDbLine
 10
14.4928384946
 20
12.18989353
 30
0.0
 11
14.4928384946
 21
12.1702087441
 31
0.0
  0
LINE
  5
1C6
330
1F
100
AcDbEntity
  8
0
  6
Continuous
 62
     7
370
    25
100
AcDbLine
 10
14.4928384946
 20
12.1702087441
 30
0.0
 11
15.3384966988
 21
12.1702087441
 31
0.0
  0
LINE
  5
1C7
330
1F
100
AcDbEntity
  8
0
  6
Continuous
 62
     7
370
    25
100
AcDbLine
 10
14.4928384946
 20
12.1702087441
 30
0.0
 11
14.4928384946
 21
12.1505236648
 31
0.0
  0
LINE
  5
1C8
330
1F
100
AcDbEntity
  8
0
  6
Continuous
 62
     7
370
    25
100
AcDbLine
 10
15.3786653015
 20
7.2844934509
 30
0.0
 11
15.3759228132
 21
7.2808772794
 31
0.0
  0
LINE
  5
1C9
330
1F
100
AcDbEntity
  8
0
  6
Continuous
 62
     7
370
    25
100
AcDbLine
 10
14.0794526734
 20
16.7213897418
 30
0.0
 11
14.9062243158
 21
16.7213897418
 31
0.0
  0
LINE
  5
1CA
330
1F
100
AcDbEntity
  8
0
  6
Continuous
 62
     7
370
    25
100
AcDbLine
 10
14.8668542306
 20
16.760759827
 30
0.0
 11
14.1188227586
 21
16.760759827
 31
0.0
  0
LINE
  5
1CB
330
1F
100
AcDbEntity
  8
0
  6
Continuous
 62
     7
370
    25
100
AcDbLine
 10
13.2349644524
 20
15.9300511376
 30
0.0
 11
15.7507125369
 21
15.9300511376
 31
0.0
  0
LINE
  5
1CC
330
1F
100
AcDbEntity
  8
0
  6
Continuous
 62
     7
370
    25
100
AcDbLine
 10
15.2999251311
 20
7.2254959992
 30
0.0
 11
15.2999251311
 21
7.2296260848
 31
0.0
  0
LINE
  5
1CD
330
1F
100
AcDbEntity
  8
0
  6
Continuous
 62
     7
370
    25
100
AcDbLine
 10
13.6857518582
 20
7.2296260848
 30
0.0
 11
13.6857518582
 21
7.2254959992
 31
0.0
  0
ENDSEC
  0
SECTION
  2
OBJECTS
  0
DICTIONARY
  5
C
330
0
100
AcDbDictionary
281
     1
  3
ACAD_GROUP
350
D
  3
ACAD_LAYOUT
350
1A
  3
ACAD_MLINESTYLE
350
17
  3
ACAD_PLOTSETTINGS
350
19
  3
ACAD_PLOTSTYLENAME
350
E
  3
ACAD_SCALELIST
350
47
  0
DICTIONARY
  5
D
102
{ACAD_REACTORS
330
C
102
}
330
C
100
AcDbDictionary
281
     1
  0
DICTIONARY
  5
1A
102
{ACAD_REACTORS
330
C
102
}
330
C
100
AcDbDictionary
281
     1
  3
Layout1
350
1E
  3
Layout2
350
26
  3
Model
350
22
  0
DICTIONARY
  5
17
102
{ACAD_REACTORS
330
C
102
}
330
C
100
AcDbDictionary
281
     1
  3
Standard
350
18
  0
DICTIONARY
  5
19
102
{ACAD_REACTORS
330
C
102
}
330
C
100
AcDbDictionary
281
     1
  0
ACDBDICTIONARYWDFLT
  5
E
102
{ACAD_REACTORS
330
C
102
}
330
C
100
AcDbDictionary
281
     1
  3
Normal
350
F
100
AcDbDictionaryWithDefault
340
F
  0
DICTIONARY
  5
47
102
{ACAD_REACTORS
330
C
102
}
330
C
100
AcDbDictionary
281
     1
  3
A0
350
48
  3
A1
350
49
  3
A2
350
4A
  3
A3
350
4B
  3
A4
350
4C
  3
A5
350
4D
  3
A6
350
4E
  3
A7
350
4F
  3
A8
350
50
  3
A9
350
51
  3
B0
350
52
  3
B1
350
53
  3
B2
350
54
  3
B3
350
55
  3
B4
350
56
  3
B5
350
57
  3
B6
350
58
  3
B7
350
59
  3
B8
350
5A
  3
B9
350
5B
  3
C0
350
5C
  3
C1
350
5D
  3
C2
350
5E
  3
C3
350
5F
  3
C4
350
60
  3
C5
350
61
  3
C6
350
62
  3
C7
350
63
  3
C8
350
64
  3
C9
350
65
  3
D0
350
66
  3
D1
350
67
  3
D2
350
68
  0
LAYOUT
  5
1E
102
{ACAD_REACTORS
330
1A
102
}
330
1A
100
AcDbPlotSettings
  1

  2
none_device
  4

  6

 40
0.0
 41
0.0
 42
0.0
 43
0.0
 44
0.0
 45
0.0
 46
0.0
 47
0.0
 48
0.0
 49
0.0
140
0.0
141
0.0
142
1.0
143
1.0
 70
   688
 72
     0
 73
     0
 74
     5
  7

 75
    16
147
1.0
148
0.0
149
0.0
100
AcDbLayout
  1
Layout1
 70
     1
 71
     1
 10
0.0
 20
0.0
 11
12.0
 21
9.0
 12
0.0
 22
0.0
 32
0.0
 14
1.0000000000E+20
 24
1.0000000000E+20
 34
1.0000000000E+20
 15
-1.0000000000E+20
 25
-1.0000000000E+20
 35
-1.0000000000E+20
146
0.0
 13
0.0
 23
0.0
 33
0.0
 16
1.0
 26
0.0
 36
0.0
 17
0.0
 27
1.0
 37
0.0
 76
     0
330
1B
  0
LAYOUT
  5
26
102
{ACAD_REACTORS
330
1A
102
}
330
1A
100
AcDbPlotSettings
  1

  2
none_device
  4

  6

 40
0.0
 41
0.0
 42
0.0
 43
0.0
 44
0.0
 45
0.0
 46
0.0
 47
0.0
 48
0.0
 49
0.0
140
0.0
141
0.0
142
1.0
143
1.0
 70
   688
 72
     0
 73
     0
 74
     5
  7

 75
    16
147
1.0
148
0.0
149
0.0
100
AcDbLayout
  1
Layout2
 70
     1
 71
     2
 10
0.0
 20
0.0
 11
0.0
 21
0.0
 12
0.0
 22
0.0
 32
0.0
 14
0.0
 24
0.0
 34
0.0
 15
0.0
 25
0.0
 35
0.0
146
0.0
 13
0.0
 23
0.0
 33
0.0
 16
1.0
 26
0.0
 36
0.0
 17
0.0
 27
1.0
 37
0.0
 76
     0
330
23
  0
LAYOUT
  5
22
102
{ACAD_REACTORS
330
1A
102
}
330
1A
100
AcDbPlotSettings
  1

  2
none_device
  4
Letter_(8.50_x_11.00_Inches)
  6

 40
6.35
 41
6.35
 42
6.35000508
 43
6.35000508
 44
215.9
 45
279.4
 46
0.0
 47
0.0
 48
0.0
 49
0.0
140
0.0
141
0.0
142
1.0
143
1.0
 70
  1712
 72
     0
 73
     0
 74
     0
  7

 75
     0
147
1.0
148
0.0
149
0.0
100
AcDbLayout
  1
Model
 70
     1
 71
     0
 10
0.0
 20
0.0
 11
18.9922047244
 21
18.4385433071
 12
0.0
 22
0.0
 32
0.0
 14
0.0
 24
0.0
 34
0.0
 15
18.9922047244
 25
18.4385433071
 35
0.0
146
0.0
 13
0.0
 23
0.0
 33
0.0
 16
1.0
 26
0.0
 36
0.0
 17
0.0
 27
1.0
 37
0.0
 76
     0
330
1F
331
29
  0
MLINESTYLE
  5
18
102
{ACAD_REACTORS
330
17
102
}
330
17
100
AcDbMlineStyle
  2
Standard
 70
     0
  3

 62
   256
 51
90.0
 52
90.0
 71
     2
 49
0.5
 62
   256
  6
BYLAYER
 49
-0.5
 62
   256
  6
BYLAYER
  0
ACDBPLACEHOLDER
  5
F
102
{ACAD_REACTORS
330
E
102
}
330
E
  0
SCALE
  5
48
102
{ACAD_REACTORS
330
47
102
}
330
47
100
AcDbScale
 70
     0
300
1:1
140
1.0
141
1.0
290
     1
  0
SCALE
  5
49
102
{ACAD_REACTORS
330
47
102
}
330
47
100
AcDbScale
 70
     0
300
1:2
140
1.0
141
2.0
290
     0
  0
SCALE
  5
4A
102
{ACAD_REACTORS
330
47
102
}
330
47
100
AcDbScale
 70
     0
300
1:4
140
1.0
141
4.0
290
     0
  0
SCALE
  5
4B
102
{ACAD_REACTORS
330
47
102
}
330
47
100
AcDbScale
 70
     0
300
1:5
140
1.0
141
5.0
290
     0
  0
SCALE
  5
4C
102
{ACAD_REACTORS
330
47
102
}
330
47
100
AcDbScale
 70
     0
300
1:8
140
1.0
141
8.0
290
     0
  0
SCALE
  5
4D
102
{ACAD_REACTORS
330
47
102
}
330
47
100
AcDbScale
 70
     0
300
1:10
140
1.0
141
10.0
290
     0
  0
SCALE
  5
4E
102
{ACAD_REACTORS
330
47
102
}
330
47
100
AcDbScale
 70
     0
300
1:16
140
1.0
141
16.0
290
     0
  0
SCALE
  5
4F
102
{ACAD_REACTORS
330
47
102
}
330
47
100
AcDbScale
 70
     0
300
1:20
140
1.0
141
20.0
290
     0
  0
SCALE
  5
50
102
{ACAD_REACTORS
330
47
102
}
330
47
100
AcDbScale
 70
     0
300
1:30
140
1.0
141
30.0
290
     0
  0
SCALE
  5
51
102
{ACAD_REACTORS
330
47
102
}
330
47
100
AcDbScale
 70
     0
300
1:40
140
1.0
141
40.0
290
     0
  0
SCALE
  5
52
102
{ACAD_REACTORS
330
47
102
}
330
47
100
AcDbScale
 70
     0
300
1:50
140
1.0
141
50.0
290
     0
  0
SCALE
  5
53
102
{ACAD_REACTORS
330
47
102
}
330
47
100
AcDbScale
 70
     0
300
1:100
140
1.0
141
100.0
290
     0
  0
SCALE
  5
54
102
{ACAD_REACTORS
330
47
102
}
330
47
100
AcDbScale
 70
     0
300
2:1
140
2.0
141
1.0
290
     0
  0
SCALE
  5
55
102
{ACAD_REACTORS
330
47
102
}
330
47
100
AcDbScale
 70
     0
300
4:1
140
4.0
141
1.0
290
     0
  0
SCALE
  5
56
102
{ACAD_REACTORS
330
47
102
}
330
47
100
AcDbScale
 70
     0
300
8:1
140
8.0
141
1.0
290
     0
  0
SCALE
  5
57
102
{ACAD_REACTORS
330
47
102
}
330
47
100
AcDbScale
 70
     0
300
10:1
140
10.0
141
1.0
290
     0
  0
SCALE
  5
58
102
{ACAD_REACTORS
330
47
102
}
330
47
100
AcDbScale
 70
     0
300
100:1
140
100.0
141
1.0
290
     0
  0
SCALE
  5
59
102
{ACAD_REACTORS
330
47
102
}
330
47
100
AcDbScale
 70
     0
300
1/128" = 1'-0"
140
0.0078125
141
12.0
290
     0
  0
SCALE
  5
5A
102
{ACAD_REACTORS
330
47
102
}
330
47
100
AcDbScale
 70
     0
300
1/64" = 1'-0"
140
0.015625
141
12.0
290
     0
  0
SCALE
  5
5B
102
{ACAD_REACTORS
330
47
102
}
330
47
100
AcDbScale
 70
     0
300
1/32" = 1'-0"
140
0.03125
141
12.0
290
     0
  0
SCALE
  5
5C
102
{ACAD_REACTORS
330
47
102
}
330
47
100
AcDbScale
 70
     0
300
1/16" = 1'-0"
140
0.0625
141
12.0
290
     0
  0
SCALE
  5
5D
102
{ACAD_REACTORS
330
47
102
}
330
47
100
AcDbScale
 70
     0
300
3/32" = 1'-0"
140
0.09375
141
12.0
290
     0
  0
SCALE
  5
5E
102
{ACAD_REACTORS
330
47
102
}
330
47
100
AcDbScale
 70
     0
300
1/8" = 1'-0"
140
0.125
141
12.0
290
     0
  0
SCALE
  5
5F
102
{ACAD_REACTORS
330
47
102
}
330
47
100
AcDbScale
 70
     0
300
3/16" = 1'-0"
140
0.1875
141
12.0
290
     0
  0
SCALE
  5
60
102
{ACAD_REACTORS
330
47
102
}
330
47
100
AcDbScale
 70
     0
300
1/4" = 1'-0"
140
0.25
141
12.0
290
     0
  0
SCALE
  5
61
102
{ACAD_REACTORS
330
47
102
}
330
47
100
AcDbScale
 70
     0
300
3/8" = 1'-0"
140
0.375
141
12.0
290
     0
  0
SCALE
  5
62
102
{ACAD_REACTORS
330
47
102
}
330
47
100
AcDbScale
 70
     0
300
1/2" = 1'-0"
140
0.5
141
12.0
290
     0
  0
SCALE
  5
63
102
{ACAD_REACTORS
330
47
102
}
330
47
100
AcDbScale
 70
     0
300
3/4" = 1'-0"
140
0.75
141
12.0
290
     0
  0
SCALE
  5
64
102
{ACAD_REACTORS
330
47
102
}
330
47
100
AcDbScale
 70
     0
300
1" = 1'-0"
140
1.0
141
12.0
290
     0
  0
SCALE
  5
65
102
{ACAD_REACTORS
330
47
102
}
330
47
100
AcDbScale
 70
     0
300
1-1/2" = 1'-0"
140
1.5
141
12.0
290
     0
  0
SCALE
  5
66
102
{ACAD_REACTORS
330
47
102
}
330
47
100
AcDbScale
 70
     0
300
3" = 1'-0"
140
3.0
141
12.0
290
     0
  0
SCALE
  5
67
102
{ACAD_REACTORS
330
47
102
}
330
47
100
AcDbScale
 70
     0
300
6" = 1'-0"
140
6.0
141
12.0
290
     0
  0
SCALE
  5
68
102
{ACAD_REACTORS
330
47
102
}
330
47
100
AcDbScale
 70
     0
300
1'-0" = 1'-0"
140
12.0
141
12.0
290
     0
  0
ENDSEC
  0
EOF
