  0
SECTION
  2
HEADER
  9
$ACADVER
  1
AC1015
  9
$ACADMAINTVER
 70
     6
  9
$DWGCODEPAGE
  3
ANSI_1252
  9
$INSBASE
 10
0.0
 20
0.0
 30
0.0
  9
$EXTMIN
 10
0.0
 20
0.0
 30
0.0
  9
$EXTMAX
 10
11.0
 20
8.5
 30
0.0
  9
$LIMMIN
 10
0.0
 20
0.0
  9
$LIMMAX
 10
11.0
 20
8.5
  9
$ORTHOMODE
 70
     0
  9
$REGENMODE
 70
     1
  9
$FILLMODE
 70
     1
  9
$QTEXTMODE
 70
     0
  9
$MIRRTEXT
 70
     1
  9
$LTSCALE
 40
1.0
  9
$ATTMODE
 70
     1
  9
$TEXTSIZE
 40
0.1377952756
  9
$TRACEWID
 40
0.05
  9
$TEXTSTYLE
  7
Standard
  9
$CLAYER
  8
0
  9
$CELTYPE
  6
ByLayer
  9
$CECOLOR
 62
   256
  9
$CELTSCALE
 40
1.0
  9
$DISPSILH
 70
     0
  9
$DIMSCALE
 40
1.0
  9
$DIMASZ
 40
0.13
  9
$DIMEXO
 40
0.0393700787
  9
$DIMDLI
 40
0.38
  9
$DIMRND
 40
0.0
  9
$DIMDLE
 40
0.0
  9
$DIMEXE
 40
0.0393700787
  9
$DIMTP
 40
0.0
  9
$DIMTM
 40
0.0
  9
$DIMTXT
 40
0.1377952756
  9
$DIMCEN
 40
0.09
  9
$DIMTSZ
 40
0.0
  9
$DIMTOL
 70
     0
  9
$DIMLIM
 70
     0
  9
$DIMTIH
 70
     1
  9
$DIMTOH
 70
     1
  9
$DIMSE1
 70
     0
  9
$DIMSE2
 70
     0
  9
$DIMTAD
 70
     1
  9
$DIMZIN
 70
     0
  9
$DIMBLK
  1

  9
$DIMASO
 70
     1
  9
$DIMSHO
 70
     1
  9
$DIMPOST
  1

  9
$DIMAPOST
  1

  9
$DIMALT
 70
     0
  9
$DIMALTD
 70
     2
  9
$DIMALTF
 40
25.4
  9
$DIMLFAC
 40
2.0
  9
$DIMTOFL
 70
     0
  9
$DIMTVP
 40
0.0
  9
$DIMTIX
 70
     0
  9
$DIMSOXD
 70
     0
  9
$DIMSAH
 70
     0
  9
$DIMBLK1
  1

  9
$DIMBLK2
  1

  9
$DIMSTYLE
  2
Standard
  9
$DIMCLRD
 70
     0
  9
$DIMCLRE
 70
     0
  9
$DIMCLRT
 70
     0
  9
$DIMTFAC
 40
1.0
  9
$DIMGAP
 40
0.06
  9
$DIMJUST
 70
     0
  9
$DIMSD1
 70
     0
  9
$DIMSD2
 70
     0
  9
$DIMTOLJ
 70
     1
  9
$DIMTZIN
 70
     0
  9
$DIMALTZ
 70
     0
  9
$DIMALTTZ
 70
     0
  9
$DIMUPT
 70
     0
  9
$DIMDEC
 70
     2
  9
$DIMTDEC
 70
     2
  9
$DIMALTU
 70
     2
  9
$DIMALTTD
 70
     2
  9
$DIMTXSTY
  7
Standard
  9
$DIMAUNIT
 70
     0
  9
$DIMADEC
 70
     2
  9
$DIMALTRND
 40
0.0
  9
$DIMAZIN
 70
     0
  9
$DIMDSEP
 70
    46
  9
$DIMATFIT
 70
     3
  9
$DIMFRAC
 70
     0
  9
$DIMLDRBLK
  1

  9
$DIMLUNIT
 70
     2
  9
$DIMLWD
 70
    -2
  9
$DIMLWE
 70
    -2
  9
$DIMTMOVE
 70
     0
  9
$LUNITS
 70
     2
  9
$LUPREC
 70
     2
  9
$SKETCHINC
 40
0.1
  9
$FILLETRAD
 40
0.5
  9
$AUNITS
 70
     0
  9
$AUPREC
 70
     2
  9
$MENU
  1
.
  9
$ELEVATION
 40
0.0
  9
$PELEVATION
 40
0.0
  9
$THICKNESS
 40
0.0
  9
$LIMCHECK
 70
     0
  9
$CHAMFERA
 40
0.0
  9
$CHAMFERB
 40
0.0
  9
$CHAMFERC
 40
0.0
  9
$CHAMFERD
 40
0.0
  9
$SKPOLY
 70
     0
  9
$TDCREATE
 40
2459276.591024039
  9
$TDUCREATE
 40
2459276.799357373
  9
$TDUPDATE
 40
2459276.591024942
  9
$TDUUPDATE
 40
2459276.799358275
  9
$TDINDWG
 40
0.0000000116
  9
$TDUSRTIMER
 40
0.0000000116
  9
$USRTIMER
 70
     1
  9
$ANGBASE
 50
0.0
  9
$ANGDIR
 70
     0
  9
$PDMODE
 70
     0
  9
$PDSIZE
 40
-1.0
  9
$PLINEWID
 40
0.0
  9
$SPLFRAME
 70
     0
  9
$SPLINETYPE
 70
     6
  9
$SPLINESEGS
 70
     8
  9
$HANDSEED
  5
1CB
  9
$SURFTAB1
 70
     6
  9
$SURFTAB2
 70
     6
  9
$SURFTYPE
 70
     6
  9
$SURFU
 70
     6
  9
$SURFV
 70
     6
  9
$UCSBASE
  2

  9
$UCSNAME
  2

  9
$UCSORG
 10
0.0
 20
0.0
 30
0.0
  9
$UCSXDIR
 10
1.0
 20
0.0
 30
0.0
  9
$UCSYDIR
 10
0.0
 20
1.0
 30
0.0
  9
$UCSORTHOREF
  2

  9
$UCSORTHOVIEW
 70
     0
  9
$UCSORGTOP
 10
0.0
 20
0.0
 30
0.0
  9
$UCSORGBOTTOM
 10
0.0
 20
0.0
 30
0.0
  9
$UCSORGLEFT
 10
0.0
 20
0.0
 30
0.0
  9
$UCSORGRIGHT
 10
0.0
 20
0.0
 30
0.0
  9
$UCSORGFRONT
 10
0.0
 20
0.0
 30
0.0
  9
$UCSORGBACK
 10
0.0
 20
0.0
 30
0.0
  9
$PUCSBASE
  2

  9
$PUCSNAME
  2

  9
$PUCSORG
 10
0.0
 20
0.0
 30
0.0
  9
$PUCSXDIR
 10
1.0
 20
0.0
 30
0.0
  9
$PUCSYDIR
 10
0.0
 20
1.0
 30
0.0
  9
$PUCSORTHOREF
  2

  9
$PUCSORTHOVIEW
 70
     0
  9
$PUCSORGTOP
 10
0.0
 20
0.0
 30
0.0
  9
$PUCSORGBOTTOM
 10
0.0
 20
0.0
 30
0.0
  9
$PUCSORGLEFT
 10
0.0
 20
0.0
 30
0.0
  9
$PUCSORGRIGHT
 10
0.0
 20
0.0
 30
0.0
  9
$PUCSORGFRONT
 10
0.0
 20
0.0
 30
0.0
  9
$PUCSORGBACK
 10
0.0
 20
0.0
 30
0.0
  9
$USERI1
 70
     0
  9
$USERI2
 70
     0
  9
$USERI3
 70
     0
  9
$USERI4
 70
     0
  9
$USERI5
 70
     0
  9
$USERR1
 40
0.0
  9
$USERR2
 40
0.0
  9
$USERR3
 40
0.0
  9
$USERR4
 40
0.0
  9
$USERR5
 40
0.0
  9
$WORLDVIEW
 70
     1
  9
$SHADEDGE
 70
     3
  9
$SHADEDIF
 70
    70
  9
$TILEMODE
 70
     1
  9
$MAXACTVP
 70
    64
  9
$PINSBASE
 10
0.0
 20
0.0
 30
0.0
  9
$PLIMCHECK
 70
     0
  9
$PEXTMIN
 10
1.0000000000E+20
 20
1.0000000000E+20
 30
1.0000000000E+20
  9
$PEXTMAX
 10
-1.0000000000E+20
 20
-1.0000000000E+20
 30
-1.0000000000E+20
  9
$PLIMMIN
 10
0.0
 20
0.0
  9
$PLIMMAX
 10
12.0
 20
9.0
  9
$UNITMODE
 70
     0
  9
$VISRETAIN
 70
     1
  9
$PLINEGEN
 70
     0
  9
$PSLTSCALE
 70
     1
  9
$TREEDEPTH
 70
  3020
  9
$CMLSTYLE
  2
Standard
  9
$CMLJUST
 70
     0
  9
$CMLSCALE
 40
1.0
  9
$PROXYGRAPHICS
 70
     1
  9
$MEASUREMENT
 70
     0
  9
$CELWEIGHT
370
    -1
  9
$ENDCAPS
280
     0
  9
$JOINSTYLE
280
     0
  9
$LWDISPLAY
290
     1
  9
$INSUNITS
 70
     1
  9
$HYPERLINKBASE
  1

  9
$STYLESHEET
  1

  9
$XEDIT
290
     1
  9
$CEPSNTYPE
380
     0
  9
$PSTYLEMODE
290
     1
  9
$FINGERPRINTGUID
  2
{AC4AC8A8-DDE9-4D6C-A64A-F4C9C284A7D9}
  9
$VERSIONGUID
  2
{FAEB1C32-E019-11D5-929B-00C0DF256EC4}
  9
$EXTNAMES
290
     1
  9
$PSVPSCALE
 40
0.0
  9
$OLESTARTUP
290
     0
  0
ENDSEC
  0
SECTION
  2
CLASSES
  0
CLASS
  1
ACDBDICTIONARYWDFLT
  2
AcDbDictionaryWithDefault
  3
ObjectDBX Classes
 90
        0
280
     0
281
     0
  0
CLASS
  1
VISUALSTYLE
  2
AcDbVisualStyle
  3
ObjectDBX Classes
 90
     4095
280
     0
281
     0
  0
CLASS
  1
MATERIAL
  2
AcDbMaterial
  3
ObjectDBX Classes
 90
     1153
280
     0
281
     0
  0
CLASS
  1
SCALE
  2
AcDbScale
  3
ObjectDBX Classes
 90
     1153
280
     0
281
     0
  0
CLASS
  1
TABLESTYLE
  2
AcDbTableStyle
  3
ObjectDBX Classes
 90
     4095
280
     0
281
     0
  0
CLASS
  1
MLEADERSTYLE
  2
AcDbMLeaderStyle
  3
ACDB_MLEADERSTYLE_CLASS
 90
     4095
280
     0
281
     0
  0
CLASS
  1
SUN
  2
AcDbSun
  3
SCENEOE
 90
     1153
280
     0
281
     0
  0
CLASS
  1
ACDBPLACEHOLDER
  2
AcDbPlaceHolder
  3
ObjectDBX Classes
 90
        0
280
     0
281
     0
  0
CLASS
  1
LAYOUT
  2
AcDbLayout
  3
ObjectDBX Classes
 90
        0
280
     0
281
     0
  0
ENDSEC
  0
SECTION
  2
TABLES
  0
TABLE
  2
VPORT
  5
8
330
0
100
AcDbSymbolTable
 70
     1
  0
VPORT
  5
29
330
8
100
AcDbSymbolTableRecord
100
AcDbViewportTableRecord
  2
*Active
 70
     0
 10
0.0
 20
0.0
 11
1.0
 21
1.0
 12
5.5
 22
4.25
 13
0.0
 23
0.0
 14
0.5
 24
0.5
 15
0.5
 25
0.5
 16
0.0
 26
0.0
 36
1.0
 17
0.0
 27
0.0
 37
0.0
 40
8.5
 41
1.2941176471
 42
50.0
 43
0.0
 44
0.0
 50
0.0
 51
0.0
 71
     0
 72
  2000
 73
     1
 74
     3
 75
     0
 76
     0
 77
     0
 78
     0
281
     0
 65
     1
110
0.0
120
0.0
130
0.0
111
1.0
121
0.0
131
0.0
112
0.0
122
1.0
132
0.0
 79
     0
146
0.0
  0
ENDTAB
  0
TABLE
  2
LTYPE
  5
5
330
0
100
AcDbSymbolTable
 70
     6
  0
LTYPE
  5
14
330
5
100
AcDbSymbolTableRecord
100
AcDbLinetypeTableRecord
  2
ByBlock
 70
     0
  3

 72
    65
 73
     0
 40
0.0
  0
LTYPE
  5
15
330
5
100
AcDbSymbolTableRecord
100
AcDbLinetypeTableRecord
  2
ByLayer
 70
     0
  3

 72
    65
 73
     0
 40
0.0
  0
LTYPE
  5
16
330
5
100
AcDbSymbolTableRecord
100
AcDbLinetypeTableRecord
  2
Continuous
 70
     0
  3
Solid line
 72
    65
 73
     0
 40
0.0
  0
LTYPE
  5
6E
330
5
100
AcDbSymbolTableRecord
100
AcDbLinetypeTableRecord
  2
HIDDEN
 70
     0
  3
Hidden __ __ __ __ __ __ __ __ __ __ __ __ __ __
 72
    65
 73
     2
 40
0.075
 49
0.05
 74
     0
 49
-0.025
 74
     0
  0
LTYPE
  5
6F
330
5
100
AcDbSymbolTableRecord
100
AcDbLinetypeTableRecord
  2
PHANTOM
 70
     0
  3
Phantom ______  __  __  ______  __  __  ______
 72
    65
 73
     6
 40
0.5
 49
0.25
 74
     0
 49
-0.05
 74
     0
 49
0.05
 74
     0
 49
-0.05
 74
     0
 49
0.05
 74
     0
 49
-0.05
 74
     0
  0
LTYPE
  5
70
330
5
100
AcDbSymbolTableRecord
100
AcDbLinetypeTableRecord
  2
CENTER
 70
     0
  3
Center ____ _ ____ _ ____ _ ____ _ ____ _ ____
 72
    65
 73
     4
 40
0.4
 49
0.25
 74
     0
 49
-0.05
 74
     0
 49
0.05
 74
     0
 49
-0.05
 74
     0
  0
LTYPE
  5
71
330
5
100
AcDbSymbolTableRecord
100
AcDbLinetypeTableRecord
  2
CENTERX2
 70
     0
  3
Center (2x) ________  __  ________  __  _____
 72
    65
 73
     4
 40
0.8
 49
0.5
 74
     0
 49
-0.1
 74
     0
 49
0.1
 74
     0
 49
-0.1
 74
     0
  0
LTYPE
  5
72
330
5
100
AcDbSymbolTableRecord
100
AcDbLinetypeTableRecord
  2
DOT2
 70
     0
  3
Dot (.5x) ........................................
 72
    65
 73
     2
 40
0.025
 49
0.0
 74
     0
 49
-0.025
 74
     0
  0
ENDTAB
  0
TABLE
  2
LAYER
  5
2
330
0
100
AcDbSymbolTable
 70
     2
  0
LAYER
  5
10
330
2
100
AcDbSymbolTableRecord
100
AcDbLayerTableRecord
  2
0
 70
     0
 62
     7
  6
Continuous
370
    -3
390
F
  0
LAYER
  5
73
330
2
100
AcDbSymbolTableRecord
100
AcDbLayerTableRecord
  2
FORMAT
 70
     0
 62
     7
  6
Continuous
370
    -3
390
F
  0
ENDTAB
  0
TABLE
  2
STYLE
  5
3
330
0
100
AcDbSymbolTable
 70
     2
  0
STYLE
  5
11
330
3
100
AcDbSymbolTableRecord
100
AcDbTextStyleTableRecord
  2
Standard
 70
     0
 40
0.0
 41
1.0
 50
0.0
 71
     0
 42
0.1377952756
  3
txt
  4

  0
STYLE
  5
77
330
3
100
AcDbSymbolTableRecord
100
AcDbTextStyleTableRecord
  2
SLDTEXTSTYLE0
 70
     0
 40
0.0
 41
0.605
 50
0.0
 71
     0
 42
0.1377952756
  3
TXT
  4

  0
ENDTAB
  0
TABLE
  2
VIEW
  5
6
330
0
100
AcDbSymbolTable
 70
     0
  0
ENDTAB
  0
TABLE
  2
UCS
  5
7
330
0
100
AcDbSymbolTable
 70
     0
  0
ENDTAB
  0
TABLE
  2
APPID
  5
9
330
0
100
AcDbSymbolTable
 70
     1
  0
APPID
  5
12
330
9
100
AcDbSymbolTableRecord
100
AcDbRegAppTableRecord
  2
ACAD
 70
     0
  0
ENDTAB
  0
TABLE
  2
DIMSTYLE
  5
A
330
0
100
AcDbSymbolTable
 70
     1
100
AcDbDimStyleTable
  0
DIMSTYLE
105
27
330
A
100
AcDbSymbolTableRecord
100
AcDbDimStyleTableRecord
  2
Standard
 70
     0
178
     0
340
11
  0
ENDTAB
  0
TABLE
  2
BLOCK_RECORD
  5
1
330
0
100
AcDbSymbolTable
 70
     2
  0
BLOCK_RECORD
  5
1F
330
1
100
AcDbSymbolTableRecord
100
AcDbBlockTableRecord
  2
*Model_Space
340
22
  0
BLOCK_RECORD
  5
1B
330
1
100
AcDbSymbolTableRecord
100
AcDbBlockTableRecord
  2
*Paper_Space
340
1E
  0
BLOCK_RECORD
  5
23
330
1
100
AcDbSymbolTableRecord
100
AcDbBlockTableRecord
  2
*Paper_Space0
340
26
  0
BLOCK_RECORD
  5
74
330
1
100
AcDbSymbolTableRecord
100
AcDbBlockTableRecord
  2
SW_NOTE_0
340
0
102
{BLKREFS
331
7B
102
}
  0
ENDTAB
  0
ENDSEC
  0
SECTION
  2
BLOCKS
  0
BLOCK
  5
20
330
1F
100
AcDbEntity
  8
0
100
AcDbBlockBegin
  2
*Model_Space
 70
     0
 10
0.0
 20
0.0
 30
0.0
  3
*Model_Space
  1

  0
ENDBLK
  5
21
330
1F
100
AcDbEntity
  8
0
100
AcDbBlockEnd
  0
BLOCK
  5
1C
330
1B
100
AcDbEntity
 67
     1
  8
0
100
AcDbBlockBegin
  2
*Paper_Space
 70
     0
 10
0.0
 20
0.0
 30
0.0
  3
*Paper_Space
  1

  0
ENDBLK
  5
1D
330
1B
100
AcDbEntity
 67
     1
  8
0
100
AcDbBlockEnd
  0
BLOCK
  5
24
330
23
100
AcDbEntity
  8
0
100
AcDbBlockBegin
  2
*Paper_Space0
 70
     0
 10
0.0
 20
0.0
 30
0.0
  3
*Paper_Space0
  1

  0
ENDBLK
  5
25
330
23
100
AcDbEntity
  8
0
100
AcDbBlockEnd
  0
BLOCK
  5
75
330
74
100
AcDbEntity
  8
0
100
AcDbBlockBegin
  2
SW_NOTE_0
 70
     0
 10
0.0
 20
0.0
 30
0.0
  3
SW_NOTE_0
  1

  0
MTEXT
  5
78
330
74
100
AcDbEntity
  8
0
  6
Continuous
 62
     0
370
     0
100
AcDbMText
 10
0.0
 20
0.1611334675
 30
0.0
 40
0.125
 41
0.0
 71
     1
 72
     1
  1
TBW01016U
  7
SLDTEXTSTYLE0
 73
     1
 44
1.0
  0
MTEXT
  5
79
330
74
100
AcDbEntity
  8
0
  6
Continuous
 62
     0
370
     0
100
AcDbMText
 10
0.0
 20
-0.0439810737
 30
0.0
 40
0.1041666667
 41
0.0
 71
     1
 72
     1
  1
Slide Bar - Round
  7
SLDTEXTSTYLE0
 73
     1
 44
1.0
  0
MTEXT
  5
7A
330
74
100
AcDbEntity
  8
0
  6
Continuous
 62
     0
370
     0
100
AcDbMText
 10
0.0
 20
-0.2213178443
 30
0.0
 40
0.0833333333
 41
0.0
 71
     1
 72
     1
  1
AD-01013, v01
  7
SLDTEXTSTYLE0
 73
     1
 44
1.0
  0
ENDBLK
  5
76
330
74
100
AcDbEntity
  8
0
100
AcDbBlockEnd
  0
ENDSEC
  0
SECTION
  2
ENTITIES
  0
INSERT
  5
7B
330
1F
100
AcDbEntity
  8
0
  6
Continuous
 62
     7
370
     0
100
AcDbBlockReference
  2
SW_NOTE_0
 10
3.5819904829
 20
1.490425509
 30
0.0
  0
ARC
  5
7C
330
1F
100
AcDbEntity
  8
0
  6
Continuous
 62
     7
370
    25
100
AcDbCircle
 10
7.1154328255
 20
6.8370789454
 30
0.0
 40
0.0023622047244096
100
AcDbArc
 50
0.0
 51
90.0
  0
ARC
  5
7D
330
1F
100
AcDbEntity
  8
0
  6
Continuous
 62
     7
370
    25
100
AcDbCircle
 10
6.9579525105
 20
6.8370789454
 30
0.0
 40
0.0023622047244096
100
AcDbArc
 50
90.0
 51
180.0
  0
ARC
  5
7E
330
1F
100
AcDbEntity
  8
0
  6
Continuous
 62
     7
370
    25
100
AcDbCircle
 10
7.1154328255
 20
6.8063702839
 30
0.0
 40
0.0023622047244105
100
AcDbArc
 50
270.0
 51
0.0
  0
ARC
  5
7F
330
1F
100
AcDbEntity
  8
0
  6
Continuous
 62
     7
370
    25
100
AcDbCircle
 10
6.9579525105
 20
6.8063702839
 30
0.0
 40
0.0023622047244096
100
AcDbArc
 50
180.0
 51
270.0
  0
LINE
  5
80
330
1F
100
AcDbEntity
  8
0
  6
Continuous
 62
     7
370
    25
100
AcDbLine
 10
7.1177952371
 20
6.80637018
 30
0.0
 11
7.1177952371
 21
6.8370790092
 31
0.0
  0
LINE
  5
81
330
1F
100
AcDbEntity
  8
0
  6
Continuous
 62
     7
370
    25
100
AcDbLine
 10
6.9555903482
 20
6.8370790092
 30
0.0
 11
6.9555903482
 21
6.80637018
 31
0.0
  0
ARC
  5
82
330
1F
100
AcDbEntity
  8
0
  6
Continuous
 62
     7
370
    25
100
AcDbCircle
 10
6.9579525105
 20
1.6528269769
 30
0.0
 40
0.0023622047244105
100
AcDbArc
 50
180.0000000001
 51
270.0
  0
ARC
  5
83
330
1F
100
AcDbEntity
  8
0
  6
Continuous
 62
     7
370
    25
100
AcDbCircle
 10
7.1154328255
 20
1.6528269769
 30
0.0
 40
0.0023622047244096
100
AcDbArc
 50
270.0
 51
0.0
  0
ARC
  5
84
330
1F
100
AcDbEntity
  8
0
  6
Continuous
 62
     7
370
    25
100
AcDbCircle
 10
6.9579525105
 20
1.6835356383
 30
0.0
 40
0.0023622047244096
100
AcDbArc
 50
90.0
 51
180.0000000001
  0
ARC
  5
85
330
1F
100
AcDbEntity
  8
0
  6
Continuous
 62
     7
370
    25
100
AcDbCircle
 10
7.1154328255
 20
1.6835356383
 30
0.0
 40
0.0023622047244096
100
AcDbArc
 50
0.0
 51
90.0
  0
LINE
  5
86
330
1F
100
AcDbEntity
  8
0
  6
Continuous
 62
     7
370
    25
100
AcDbLine
 10
6.9555903482
 20
1.6835358767
 30
0.0
 11
6.9555903482
 21
1.6528268128
 31
0.0
  0
LINE
  5
87
330
1F
100
AcDbEntity
  8
0
  6
Continuous
 62
     7
370
    25
100
AcDbLine
 10
7.1177952371
 20
1.6528268128
 30
0.0
 11
7.1177952371
 21
1.6835358767
 31
0.0
  0
ARC
  5
88
330
1F
100
AcDbEntity
  8
0
  6
Continuous
 62
     7
370
    25
100
AcDbCircle
 10
7.1154328255
 20
1.6882600477
 30
0.0
 40
0.002362204724409
100
AcDbArc
 50
270.0
 51
0.0
  0
ARC
  5
89
330
1F
100
AcDbEntity
  8
0
  6
Continuous
 62
     7
370
    25
100
AcDbCircle
 10
6.9579525105
 20
1.6882600477
 30
0.0
 40
0.0023622047244114
100
AcDbArc
 50
180.0
 51
270.0
  0
ARC
  5
8A
330
1F
100
AcDbEntity
  8
0
  6
Continuous
 62
     7
370
    25
100
AcDbCircle
 10
7.1154328255
 20
6.8016458745
 30
0.0
 40
0.0023622047244096
100
AcDbArc
 50
0.0
 51
90.0
  0
ARC
  5
8B
330
1F
100
AcDbEntity
  8
0
  6
Continuous
 62
     7
370
    25
100
AcDbCircle
 10
6.9579525105
 20
6.8016458745
 30
0.0
 40
0.0023622047244096
100
AcDbArc
 50
90.0
 51
180.0
  0
LINE
  5
8C
330
1F
100
AcDbEntity
  8
0
  6
Continuous
 62
     7
370
    25
100
AcDbLine
 10
7.1177952371
 20
1.6882601315
 30
0.0
 11
7.1177952371
 21
4.0458392539
 31
0.0
  0
LINE
  5
8D
330
1F
100
AcDbEntity
  8
0
  6
Continuous
 62
     7
370
    25
100
AcDbLine
 10
7.1177952371
 20
4.3109245756
 30
0.0
 11
7.1177952371
 21
6.8016459252
 31
0.0
  0
LINE
  5
8E
330
1F
100
AcDbEntity
  8
0
  6
Continuous
 62
     7
370
    25
100
AcDbLine
 10
6.9555903482
 20
6.8016459252
 30
0.0
 11
6.9555903482
 21
4.3112681236
 31
0.0
  0
LINE
  5
8F
330
1F
100
AcDbEntity
  8
0
  6
Continuous
 62
     7
370
    25
100
AcDbLine
 10
6.9555903482
 20
4.0495098675
 30
0.0
 11
6.9555903482
 21
4.0467736857
 31
0.0
  0
LINE
  5
90
330
1F
100
AcDbEntity
  8
0
  6
Continuous
 62
     7
370
    25
100
AcDbLine
 10
6.9555903482
 20
4.0467647685
 30
0.0
 11
6.9555903482
 21
1.6882601315
 31
0.0
  0
LINE
  5
91
330
1F
100
AcDbEntity
  8
0
  6
Continuous
 62
     7
370
    25
100
AcDbLine
 10
6.8650391596
 20
4.0557190757
 30
0.0
 11
6.871732245
 21
4.0557190757
 31
0.0
  0
LINE
  5
92
330
1F
100
AcDbEntity
  8
0
  6
Continuous
 62
     7
370
    25
100
AcDbLine
 10
6.871732245
 20
4.3013883017
 30
0.0
 11
6.8650391596
 21
4.3013883017
 31
0.0
  0
LINE
  5
93
330
1F
100
AcDbEntity
  8
0
  6
Continuous
 62
     7
370
    25
100
AcDbLine
 10
7.1252753854
 20
4.0446955017
 30
0.0
 11
7.2024408726
 21
4.0446955017
 31
0.0
  0
LINE
  5
94
330
1F
100
AcDbEntity
  8
0
  6
Continuous
 62
     7
370
    25
100
AcDbLine
 10
6.871732245
 20
4.0446955017
 30
0.0
 11
6.9481102
 21
4.0446955017
 31
0.0
  0
LINE
  5
95
330
1F
100
AcDbEntity
  8
0
  6
Continuous
 62
     7
370
    25
100
AcDbLine
 10
6.9481102
 20
4.3124118757
 30
0.0
 11
6.871732245
 21
4.3124118757
 31
0.0
  0
LINE
  5
96
330
1F
100
AcDbEntity
  8
0
  6
Continuous
 62
     7
370
    25
100
AcDbLine
 10
7.2024408726
 20
4.3124118757
 30
0.0
 11
7.1252753854
 21
4.3124118757
 31
0.0
  0
SPLINE
  5
97
330
1F
100
AcDbEntity
  8
0
  6
Continuous
 62
     7
370
    25
100
AcDbSpline
210
0.0
220
0.0
230
1.0
 70
     8
 71
     3
 72
    10
 73
     6
 74
     0
 42
0.000000001
 43
0.00000001
 40
0.0
 40
0.0
 40
0.0
 40
0.0
 40
0.2287424191748905
 40
0.4987105439200286
 40
0.9999999999999999
 40
0.9999999999999999
 40
0.9999999999999999
 40
0.9999999999999999
 10
6.949750501033576
 20
4.045774486612014
 30
0.0
 10
6.949919845386816
 20
4.045624634954246
 30
0.0
 10
6.950289054625831
 20
4.045297924228606
 30
0.0
 10
6.951179376393388
 20
4.044834583753246
 30
0.0
 10
6.951943824850409
 20
4.044750289773151
 30
0.0
 10
6.952440688622966
 20
4.044695501743206
 30
0.0
  0
SPLINE
  5
98
330
1F
100
AcDbEntity
  8
0
  6
Continuous
 62
     7
370
    25
100
AcDbSpline
210
0.0
220
0.0
230
1.0
 70
     8
 71
     3
 72
    10
 73
     6
 74
     0
 42
0.000000001
 43
0.00000001
 40
0.0
 40
0.0
 40
0.0
 40
0.0
 40
0.501540392419421
 40
0.7715598102698081
 40
1.0
 40
1.0
 40
1.0
 40
1.0
 10
7.120944427386731
 20
4.044695501743206
 30
0.0
 10
7.121441440808872
 20
4.044750280408618
 30
0.0
 10
7.12220603641769
 20
4.044834550822985
 30
0.0
 10
7.123096284571554
 20
4.045297688522905
 30
0.0
 10
7.123465113978571
 20
4.045624323154343
 30
0.0
 10
7.123634145648209
 20
4.045774017284103
 30
0.0
  0
SPLINE
  5
99
330
1F
100
AcDbEntity
  8
0
  6
Continuous
 62
     7
370
    25
100
AcDbSpline
210
0.0
220
0.0
230
1.0
 70
     8
 71
     3
 72
    10
 73
     6
 74
     0
 42
0.000000001
 43
0.00000001
 40
0.0
 40
0.0
 40
0.0
 40
0.0
 40
0.5014148843161639
 40
0.771523943665974
 40
1.0
 40
1.0
 40
1.0
 40
1.0
 10
6.952440688622966
 20
4.312411875727475
 30
0.0
 10
6.951943759362898
 20
4.312357201133612
 30
0.0
 10
6.951179137421186
 20
4.312273073678298
 30
0.0
 10
6.950289520237352
 20
4.31180899736286
 30
0.0
 10
6.949920207499314
 20
4.311482827260966
 30
0.0
 10
6.949750970361489
 20
4.311333360186579
 30
0.0
  0
SPLINE
  5
9A
330
1F
100
AcDbEntity
  8
0
  6
Continuous
 62
     7
370
    25
100
AcDbSpline
210
0.0
220
0.0
230
1.0
 70
     8
 71
     3
 72
    10
 73
     6
 74
     0
 42
0.000000001
 43
0.00000001
 40
0.0
 40
0.0
 40
0.0
 40
0.0
 40
0.2287068177459376
 40
0.4986329249538625
 40
1.0
 40
1.0
 40
1.0
 40
1.0
 10
7.123635084304032
 20
4.311332890858666
 30
0.0
 10
7.123465739974758
 20
4.311482742419122
 30
0.0
 10
7.12309653078781
 20
4.311809452932763
 30
0.0
 10
7.122206069848464
 20
4.312272867891003
 30
0.0
 10
7.121441453978992
 20
4.312357113309948
 30
0.0
 10
7.120944427386731
 20
4.312411875727475
 30
0.0
  0
LINE
  5
9B
330
1F
100
AcDbEntity
  8
0
  6
Continuous
 62
     7
370
    25
100
AcDbLine
 10
6.8650391596
 20
4.3124118757
 30
0.0
 11
6.785630285
 21
4.3124118757
 31
0.0
  0
LINE
  5
9C
330
1F
100
AcDbEntity
  8
0
  6
Continuous
 62
     7
370
    25
100
AcDbLine
 10
6.8010866611
 20
4.0446955017
 30
0.0
 11
6.8650391596
 21
4.0446955017
 31
0.0
  0
LINE
  5
9D
330
1F
100
AcDbEntity
  8
0
  6
Continuous
 62
     7
370
    25
100
AcDbLine
 10
6.6523829282
 20
4.0675386299
 30
0.0
 11
6.6594139297
 21
4.070783563
 31
0.0
  0
SPLINE
  5
9E
330
1F
100
AcDbEntity
  8
0
  6
Continuous
 62
     7
370
    25
100
AcDbSpline
210
0.0
220
0.0
230
1.0
 70
     8
 71
     3
 72
    10
 73
     6
 74
     0
 42
0.000000001
 43
0.00000001
 40
0.0
 40
0.0
 40
0.0
 40
0.0
 40
0.3292665035007326
 40
0.7521661793730231
 40
1.0
 40
1.0
 40
1.0
 40
1.0
 10
6.631855933378749
 20
4.077571921951994
 30
0.0
 10
6.631862955779905
 20
4.077295557487653
 30
0.0
 10
6.631878997535115
 20
4.076664239084329
 30
0.0
 10
6.632226297550718
 20
4.075878808595585
 30
0.0
 10
6.632555243463456
 20
4.075426966739053
 30
0.0
 10
6.632676787896168
 20
4.075260012659368
 30
0.0
  0
SPLINE
  5
9F
330
1F
100
AcDbEntity
  8
0
  6
Continuous
 62
     7
370
    25
100
AcDbSpline
210
0.0
220
0.0
230
1.0
 70
     8
 71
     3
 72
    10
 73
     6
 74
     0
 42
0.000000001
 43
0.00000001
 40
0.0
 40
0.0
 40
0.0
 40
0.0
 40
0.4524546086796706
 40
0.7579586217563543
 40
1.0
 40
1.0
 40
1.0
 40
1.0
 10
6.633337132267812
 20
4.28249081337814
 30
0.0
 10
6.632962536112477
 20
4.282123049904698
 30
0.0
 10
6.632335007118042
 20
4.281506967119562
 30
0.0
 10
6.631869331495413
 20
4.280412274741525
 30
0.0
 10
6.631865247810382
 20
4.279777875092326
 30
0.0
 10
6.631863442625336
 20
4.279497439957846
 30
0.0
  0
LINE
  5
A0
330
1F
100
AcDbEntity
  8
0
  6
Continuous
 62
     7
370
    25
100
AcDbLine
 10
6.6430409562
 20
4.2880842634
 30
0.0
 11
6.6334999891
 21
4.282606268
 31
0.0
  0
LINE
  5
A1
330
1F
100
AcDbEntity
  8
0
  6
Continuous
 62
     7
370
    25
100
AcDbLine
 10
6.633504213
 20
4.0744987628
 30
0.0
 11
6.6430409562
 21
4.0690221754
 31
0.0
  0
SPLINE
  5
A2
330
1F
100
AcDbEntity
  8
0
  6
Continuous
 62
     7
370
    25
100
AcDbSpline
210
0.0
220
0.0
230
1.0
 70
     8
 71
     3
 72
     9
 73
     5
 74
     0
 42
0.000000001
 43
0.00000001
 40
0.0
 40
0.0
 40
0.0
 40
0.0
 40
0.4326921884031006
 40
1.0
 40
1.0
 40
1.0
 40
1.0
 10
6.643472268519188
 20
4.068871990454346
 30
0.0
 10
6.643641821011724
 20
4.068777700392101
 30
0.0
 10
6.64403367576917
 20
4.068559785521503
 30
0.0
 10
6.644483688701062
 20
4.068539188575552
 30
0.0
 10
6.644738984552642
 20
4.068527503767219
 30
0.0
  0
LINE
  5
A3
330
1F
100
AcDbEntity
  8
0
  6
Continuous
 62
     7
370
    25
100
AcDbLine
 10
6.6743441892
 20
4.290316387
 30
0.0
 11
6.6444728756
 21
4.2885254317
 31
0.0
  0
LINE
  5
A4
330
1F
100
AcDbEntity
  8
0
  6
Continuous
 62
     7
370
    25
100
AcDbLine
 10
6.644786856
 20
4.068562234
 30
0.0
 11
6.6521975437
 21
4.068106986
 31
0.0
  0
SPLINE
  5
A5
330
1F
100
AcDbEntity
  8
0
  6
Continuous
 62
     7
370
    25
100
AcDbSpline
210
0.0
220
0.0
230
1.0
 70
     8
 71
     3
 72
     9
 73
     5
 74
     0
 42
0.000000001
 43
0.00000001
 40
0.0
 40
0.0
 40
0.0
 40
0.0
 40
0.6739555943743568
 40
1.0
 40
1.0
 40
1.0
 40
1.0
 10
6.652030932315439
 20
4.06806380779054
 30
0.0
 10
6.652540599270169
 20
4.06805997620772
 30
0.0
 10
6.653296831518976
 20
4.068054290992175
 30
0.0
 10
6.653980887817093
 20
4.068358061806027
 30
0.0
 10
6.654203920546228
 20
4.068457104580475
 30
0.0
  0
LINE
  5
A6
330
1F
100
AcDbEntity
  8
0
  6
Continuous
 62
     7
370
    25
100
AcDbLine
 10
6.6743183762
 20
4.290314979
 30
0.0
 11
6.6444709983
 21
4.2885254317
 31
0.0
  0
LINE
  5
A7
330
1F
100
AcDbEntity
  8
0
  6
Continuous
 62
     7
370
    25
100
AcDbLine
 10
6.6446371404
 20
4.0685716206
 30
0.0
 11
6.6521975437
 21
4.068106986
 31
0.0
  0
SPLINE
  5
A8
330
1F
100
AcDbEntity
  8
0
  6
Continuous
 62
     7
370
    25
100
AcDbSpline
210
0.0
220
0.0
230
1.0
 70
     8
 71
     3
 72
    10
 73
     6
 74
     0
 42
0.000000001
 43
0.00000001
 40
0.0
 40
0.0
 40
0.0
 40
0.0
 40
0.3393281041178909
 40
0.7558839077041529
 40
1.0
 40
1.0
 40
1.0
 40
1.0
 10
6.63185311741128
 20
4.077609937512835
 30
0.0
 10
6.631859941601821
 20
4.077320715448482
 30
0.0
 10
6.631875143100756
 20
4.076676447256298
 30
0.0
 10
6.632226088661245
 20
4.07587877269452
 30
0.0
 10
6.632555187104085
 20
4.075426957052776
 30
0.0
 10
6.632676787896168
 20
4.075260012659368
 30
0.0
  0
ARC
  5
A9
330
1F
100
AcDbEntity
  8
0
  6
Continuous
 62
     7
370
    25
100
AcDbCircle
 10
7.4272438491
 20
4.0486322942
 30
0.0
 40
0.0039370078740157
100
AcDbArc
 50
270.0
 51
0.0
  0
ARC
  5
AA
330
1F
100
AcDbEntity
  8
0
  6
Continuous
 62
     7
370
    25
100
AcDbCircle
 10
7.4272438491
 20
4.3084748139
 30
0.0
 40
0.0039370078740166
100
AcDbArc
 50
0.0
 51
90.0
  0
LINE
  5
AB
330
1F
100
AcDbEntity
  8
0
  6
Continuous
 62
     7
370
    25
100
AcDbLine
 10
7.3713383775
 20
4.0446955017
 30
0.0
 11
7.4272437797
 21
4.0446955017
 31
0.0
  0
LINE
  5
AC
330
1F
100
AcDbEntity
  8
0
  6
Continuous
 62
     7
370
    25
100
AcDbLine
 10
7.2028341694
 20
4.0446955017
 30
0.0
 11
7.3240944219
 21
4.0446955017
 31
0.0
  0
LINE
  5
AD
330
1F
100
AcDbEntity
  8
0
  6
Continuous
 62
     7
370
    25
100
AcDbLine
 10
7.4272437797
 20
4.3124118757
 30
0.0
 11
7.2028341694
 21
4.3124118757
 31
0.0
  0
LINE
  5
AE
330
1F
100
AcDbEntity
  8
0
  6
Continuous
 62
     7
370
    25
100
AcDbLine
 10
7.3240944219
 20
4.0446955017
 30
0.0
 11
7.3240944219
 21
3.8625934561
 31
0.0
  0
LINE
  5
AF
330
1F
100
AcDbEntity
  8
0
  6
Continuous
 62
     7
370
    25
100
AcDbLine
 10
7.3713383775
 20
3.8625934561
 30
0.0
 11
7.3713383775
 21
4.0446955017
 31
0.0
  0
ARC
  5
B0
330
1F
100
AcDbEntity
  8
0
  6
Continuous
 62
     7
370
    25
100
AcDbCircle
 10
7.3280312507
 20
3.8625936366
 30
0.0
 40
0.0039370078740157
100
AcDbArc
 50
180.0000006715
 51
267.1050687991
  0
ARC
  5
B1
330
1F
100
AcDbEntity
  8
0
  6
Continuous
 62
     7
370
    25
100
AcDbCircle
 10
7.3674013294
 20
3.8625936366
 30
0.0
 40
0.0039370078740155
100
AcDbArc
 50
272.8949312009
 51
359.9999993285
  0
ARC
  5
B2
330
1F
100
AcDbEntity
  8
0
  6
Continuous
 62
     7
370
    25
100
AcDbCircle
 10
7.3477162901
 20
4.2518600017
 30
0.0
 40
0.3937007874015628
100
AcDbArc
 50
267.105042414
 51
272.894957586
  0
ARC
  5
B3
330
1F
100
AcDbEntity
  8
0
  6
Continuous
 62
     7
370
    25
100
AcDbCircle
 10
7.036692668
 20
1.8827482367
 30
0.0
 40
0.2204724409448821
100
AcDbArc
 50
111.3613805987
 51
248.4164777048
  0
ARC
  5
B4
330
1F
100
AcDbEntity
  8
0
  6
Continuous
 62
     7
370
    25
100
AcDbCircle
 10
7.036692668
 20
1.8827482367
 30
0.0
 40
0.2204724409448823
100
AcDbArc
 50
291.5835222952
 51
68.4164777048
  0
ARC
  5
B5
330
1F
100
AcDbEntity
  8
0
  6
Continuous
 62
     7
370
    25
100
AcDbCircle
 10
7.036692668
 20
6.6071576855
 30
0.0
 40
0.2204724409448828
100
AcDbArc
 50
291.5835222952
 51
68.4164777048
  0
ARC
  5
B6
330
1F
100
AcDbEntity
  8
0
  6
Continuous
 62
     7
370
    25
100
AcDbCircle
 10
7.036692668
 20
6.6071576855
 30
0.0
 40
0.2204724409448828
100
AcDbArc
 50
111.5835222952
 51
248.4164777048
  0
SPLINE
  5
B7
330
1F
100
AcDbEntity
  8
0
  6
Continuous
 62
     7
370
    25
100
AcDbSpline
210
0.0
220
0.0
230
1.0
 70
    24
 71
     3
 72
    15
 73
    11
 74
     0
 42
0.000000001
 43
0.00000001
 40
0.0
 40
0.0
 40
0.0
 40
0.0
 40
0.1165157197643312
 40
0.2400116941947724
 40
0.368641269433334
 40
0.5000004064831377
 40
0.6313586295014569
 40
0.7599901763193234
 40
0.8834837575177622
 40
1.0
 40
1.0
 40
1.0
 40
1.0
 10
7.115432640392697
 20
6.839441136603147
 30
0.0
 10
7.115178010337686
 20
6.839441136603147
 30
0.0
 10
7.114653495782736
 20
6.839441136603147
 30
0.0
 10
7.110274115353042
 20
6.839441136603147
 30
0.0
 10
7.103011912898983
 20
6.839441136603146
 30
0.0
 10
7.09277182591185
 20
6.839441136603147
 30
0.0
 10
7.080184321881202
 20
6.839441136603147
 30
0.0
 10
7.066072699730227
 20
6.839441136603146
 30
0.0
 10
7.051398381770353
 20
6.839441136603147
 30
0.0
 10
7.04150583334919
 20
6.839441136603147
 30
0.0
 10
7.036703352546816
 20
6.839441136603147
 30
0.0
  0
SPLINE
  5
B8
330
1F
100
AcDbEntity
  8
0
  6
Continuous
 62
     7
370
    25
100
AcDbSpline
210
0.0
220
0.0
230
1.0
 70
    24
 71
     3
 72
    16
 73
    12
 74
     0
 42
0.000000001
 43
0.00000001
 40
0.0
 40
0.0
 40
0.0
 40
0.0
 40
0.1165070107550931
 40
0.2399918631953061
 40
0.368608122177549
 40
0.4999581766187963
 40
0.631305127566814
 40
0.7599233505533283
 40
0.8834080639173468
 40
0.9999139181671539
 40
1.0
 40
1.0
 40
1.0
 40
1.0
 10
7.036703352546816
 20
6.839441136603147
 30
0.0
 10
7.031900808620829
 20
6.839441136603147
 30
0.0
 10
7.022008086651526
 20
6.839441136603147
 30
0.0
 10
7.007331907593948
 20
6.839441136603146
 30
0.0
 10
6.993220981922408
 20
6.83944113660315
 30
0.0
 10
6.980621175473361
 20
6.839441136603146
 30
0.0
 10
6.9704118510325
 20
6.839441136603154
 30
0.0
 10
6.963023054564582
 20
6.839441136603122
 30
0.0
 10
6.959070369596003
 20
6.839441136603236
 30
0.0
 10
6.957529030952144
 20
6.839441136602966
 30
0.0
 10
6.957953101174479
 20
6.839441136603147
 30
0.0
 10
6.957953414272823
 20
6.839441136603147
 30
0.0
  0
SPLINE
  5
B9
330
1F
100
AcDbEntity
  8
0
  6
Continuous
 62
     7
370
    25
100
AcDbSpline
210
0.0
220
0.0
230
1.0
 70
    24
 71
     3
 72
    10
 73
     6
 74
     0
 42
0.000000001
 43
0.00000001
 40
0.0
 40
0.0
 40
0.0
 40
0.0
 40
0.4999999999999999
 40
0.4999999999999999
 40
0.9999999999999999
 40
0.9999999999999999
 40
0.9999999999999999
 40
0.9999999999999999
 10
7.036703326924475
 20
6.804008079218274
 30
0.0
 10
7.015820730959501
 20
6.804008079218274
 30
0.0
 10
6.995790732905074
 20
6.804008079218274
 30
0.0
 10
6.966254283632831
 20
6.804008079218274
 30
0.0
 10
6.957955339647853
 20
6.804008079218274
 30
0.0
 10
6.95795251126724
 20
6.804008079218274
 30
0.0
  0
SPLINE
  5
BA
330
1F
100
AcDbEntity
  8
0
  6
Continuous
 62
     7
370
    25
100
AcDbSpline
210
0.0
220
0.0
230
1.0
 70
    24
 71
     3
 72
    15
 73
    11
 74
     0
 42
0.000000001
 43
0.00000001
 40
0.0
 40
0.0
 40
0.0
 40
0.0
 40
0.1165262465417104
 40
0.2400304308724204
 40
0.3686730219671789
 40
0.5000425233742213
 40
0.6314129388912266
 40
0.7600535582374012
 40
0.8835601360055958
 40
1.0
 40
1.0
 40
1.0
 40
1.0
 10
7.036703352546816
 20
6.804008052595824
 30
0.0
 10
7.041505833373194
 20
6.804008052595824
 30
0.0
 10
7.051398381843807
 20
6.804008052595823
 30
0.0
 10
7.066072699410286
 20
6.804008052595825
 30
0.0
 10
7.080184323145632
 20
6.804008052595823
 30
0.0
 10
7.092771821087065
 20
6.804008052595824
 30
0.0
 10
7.103011930733361
 20
6.804008052595824
 30
0.0
 10
7.110274051430093
 20
6.804008052595824
 30
0.0
 10
7.114652698523706
 20
6.804008052595824
 30
0.0
 10
7.115177182899514
 20
6.804008052595824
 30
0.0
 10
7.115431701736875
 20
6.804008052595824
 30
0.0
  0
SPLINE
  5
BB
330
1F
100
AcDbEntity
  8
0
  6
Continuous
 62
     7
370
    25
100
AcDbSpline
210
0.0
220
0.0
230
1.0
 70
    24
 71
     3
 72
    21
 73
    17
 74
     0
 42
0.000000001
 43
0.00000001
 40
0.0
 40
0.0
 40
0.0
 40
0.0
 40
0.0545805551263823
 40
0.1307069947857974
 40
0.2068337452225589
 40
0.2813772885262362
 40
0.3529465428876004
 40
0.4204705333902624
 40
0.4879964663947228
 40
0.5595647985512552
 40
0.6341101484267884
 40
0.7102358836890926
 40
0.7863614674685004
 40
0.8609064842531845
 40
0.9324751706219351
 40
0.9999999999999999
 40
0.9999999999999999
 40
0.9999999999999999
 40
0.9999999999999999
 10
6.958267394645694
 20
1.650465154763149
 30
0.0
 10
6.958308365454155
 20
1.650465154763149
 30
0.0
 10
6.95840648045565
 20
1.650465154763149
 30
0.0
 10
6.962386904245048
 20
1.650465154763149
 30
0.0
 10
6.969462806263205
 20
1.65046515476315
 30
0.0
 10
6.97925097226494
 20
1.650465154763146
 30
0.0
 10
6.990814331762364
 20
1.650465154763152
 30
0.0
 10
7.003602857379612
 20
1.650465154763146
 30
0.0
 10
7.017516371913637
 20
1.650465154763149
 30
0.0
 10
7.032611771254009
 20
1.650465154763149
 30
0.0
 10
7.048487850734479
 20
1.65046515476315
 30
0.0
 10
7.064199569014155
 20
1.650465154763145
 30
0.0
 10
7.078766423125603
 20
1.65046515476315
 30
0.0
 10
7.091263350705037
 20
1.650465154763146
 30
0.0
 10
7.101375952755907
 20
1.650465154763149
 30
0.0
 10
7.105988361873909
 20
1.650465154763149
 30
0.0
 10
7.108227518293549
 20
1.650465154763146
 30
0.0
  0
SPLINE
  5
BC
330
1F
100
AcDbEntity
  8
0
  6
Continuous
 62
     7
370
    25
100
AcDbSpline
210
0.0
220
0.0
230
1.0
 70
    24
 71
     3
 72
    21
 73
    17
 74
     0
 42
0.000000001
 43
0.00000001
 40
0.0
 40
0.0
 40
0.0
 40
0.0
 40
0.0675248293780648
 40
0.1390935157468154
 40
0.2136385325314995
 40
0.2897641163109072
 40
0.3658898515732115
 40
0.4404352014487447
 40
0.512003533605277
 40
0.5795294666097375
 40
0.6470534571123995
 40
0.7186227114737638
 40
0.7931662547774411
 40
0.8692930052142025
 40
0.9454194448736177
 40
1.0
 40
1.0
 40
1.0
 40
1.0
 10
7.10822751829355
 20
1.685897534778604
 30
0.0
 10
7.105988361873909
 20
1.685897534778603
 30
0.0
 10
7.101375952755905
 20
1.6858975347786
 30
0.0
 10
7.09126335070504
 20
1.685897534778606
 30
0.0
 10
7.0787664231256
 20
1.685897534778603
 30
0.0
 10
7.064199569014156
 20
1.685897534778606
 30
0.0
 10
7.048487850734479
 20
1.685897534778604
 30
0.0
 10
7.032611771254008
 20
1.685897534778603
 30
0.0
 10
7.017516371913639
 20
1.685897534778608
 30
0.0
 10
7.00360285737961
 20
1.685897534778603
 30
0.0
 10
6.990814331762363
 20
1.685897534778606
 30
0.0
 10
6.97925097226494
 20
1.685897534778603
 30
0.0
 10
6.969462806263205
 20
1.685897534778604
 30
0.0
 10
6.962386904245048
 20
1.685897534778604
 30
0.0
 10
6.95840648045565
 20
1.685897534778604
 30
0.0
 10
6.958308365454155
 20
1.685897534778604
 30
0.0
 10
6.958267394645694
 20
1.685897534778604
 30
0.0
  0
SPLINE
  5
BD
330
1F
100
AcDbEntity
  8
0
  6
Continuous
 62
     7
370
    25
100
AcDbSpline
210
0.0
220
0.0
230
1.0
 70
    24
 71
     3
 72
    15
 73
    11
 74
     0
 42
0.000000001
 43
0.00000001
 40
0.0
 40
0.0
 40
0.0
 40
0.0
 40
0.125000119544761
 40
0.2500003675893639
 40
0.3750003623320307
 40
0.4999998231891885
 40
0.6249978073302546
 40
0.7499973441669143
 40
0.8749984575488798
 40
1.0
 40
1.0
 40
1.0
 40
1.0
 10
7.108740024373035
 20
6.804008052595824
 30
0.0
 10
7.108471837716271
 20
6.804008052595824
 30
0.0
 10
7.107935464127048
 20
6.804008052595824
 30
0.0
 10
7.103651158112053
 20
6.804008052595824
 30
0.0
 10
7.096992687693935
 20
6.804008052595824
 30
0.0
 10
7.087963645197807
 20
6.804008052595824
 30
0.0
 10
7.076978775631559
 20
6.804008052595824
 30
0.0
 10
7.064441667565434
 20
6.804008052595822
 30
0.0
 10
7.050839090974507
 20
6.804008052595824
 30
0.0
 10
7.041408074390088
 20
6.804008052595824
 30
0.0
 10
7.036692558004849
 20
6.804008052595824
 30
0.0
  0
SPLINE
  5
BE
330
1F
100
AcDbEntity
  8
0
  6
Continuous
 62
     7
370
    25
100
AcDbSpline
210
0.0
220
0.0
230
1.0
 70
    24
 71
     3
 72
    15
 73
    11
 74
     0
 42
0.000000001
 43
0.00000001
 40
0.0
 40
0.0
 40
0.0
 40
0.0
 40
0.1249975749790694
 40
0.2499988546083335
 40
0.3749985576901951
 40
0.4999999189387807
 40
0.6249995460410392
 40
0.7499997070295169
 40
0.8750001213202675
 40
0.9999999999999999
 40
0.9999999999999999
 40
0.9999999999999999
 40
0.9999999999999999
 10
7.036692558004847
 20
6.804008052595824
 30
0.0
 10
7.031977201548002
 20
6.804008052595824
 30
0.0
 10
7.022546348881629
 20
6.804008052595822
 30
0.0
 10
7.008943898437046
 20
6.804008052595824
 30
0.0
 10
6.996406775236841
 20
6.804008052595824
 30
0.0
 10
6.985421486494411
 20
6.804008052595824
 30
0.0
 10
6.976392436455287
 20
6.804008052595822
 30
0.0
 10
6.969733986967
 20
6.804008052595824
 30
0.0
 10
6.965449532116795
 20
6.804008052595824
 30
0.0
 10
6.964913550965877
 20
6.804008052595824
 30
0.0
 10
6.964645560964573
 20
6.804008052595824
 30
0.0
  0
SPLINE
  5
BF
330
1F
100
AcDbEntity
  8
0
  6
Continuous
 62
     7
370
    25
100
AcDbSpline
210
0.0
220
0.0
230
1.0
 70
    24
 71
     3
 72
    15
 73
    11
 74
     0
 42
0.000000001
 43
0.00000001
 40
0.0
 40
0.0
 40
0.0
 40
0.0
 40
0.1249998786797324
 40
0.250000292970483
 40
0.3750004539589607
 40
0.5000000810612193
 40
0.6250014423098048
 40
0.7500011453916664
 40
0.8750024250209305
 40
0.9999999999999999
 40
0.9999999999999999
 40
0.9999999999999999
 40
0.9999999999999999
 10
6.964645560964573
 20
1.685897534778604
 30
0.0
 10
6.964913550965878
 20
1.685897534778604
 30
0.0
 10
6.965449532116795
 20
1.685897534778606
 30
0.0
 10
6.969733986966999
 20
1.685897534778603
 30
0.0
 10
6.976392436455289
 20
1.685897534778604
 30
0.0
 10
6.985421486494409
 20
1.685897534778604
 30
0.0
 10
6.996406775236842
 20
1.685897534778604
 30
0.0
 10
7.008943898437044
 20
1.685897534778606
 30
0.0
 10
7.02254634888163
 20
1.685897534778603
 30
0.0
 10
7.031977201548002
 20
1.685897534778603
 30
0.0
 10
7.036692558004849
 20
1.685897534778604
 30
0.0
  0
SPLINE
  5
C0
330
1F
100
AcDbEntity
  8
0
  6
Continuous
 62
     7
370
    25
100
AcDbSpline
210
0.0
220
0.0
230
1.0
 70
    24
 71
     3
 72
    15
 73
    11
 74
     0
 42
0.000000001
 43
0.00000001
 40
0.0
 40
0.0
 40
0.0
 40
0.0
 40
0.1250015424511202
 40
0.2500026558330857
 40
0.3750021926697454
 40
0.5000001768108117
 40
0.6249996376679694
 40
0.749999632410636
 40
0.874999880455239
 40
1.0
 40
1.0
 40
1.0
 40
1.0
 10
7.036692558004849
 20
1.685897534778604
 30
0.0
 10
7.041408074390088
 20
1.685897534778604
 30
0.0
 10
7.050839090974506
 20
1.685897534778604
 30
0.0
 10
7.064441667565435
 20
1.685897534778603
 30
0.0
 10
7.076978775631559
 20
1.685897534778606
 30
0.0
 10
7.087963645197807
 20
1.685897534778603
 30
0.0
 10
7.096992687693936
 20
1.685897534778606
 30
0.0
 10
7.103651158112053
 20
1.685897534778604
 30
0.0
 10
7.107935464127047
 20
1.685897534778604
 30
0.0
 10
7.108471837716272
 20
1.685897534778603
 30
0.0
 10
7.108740024373035
 20
1.685897534778604
 30
0.0
  0
SPLINE
  5
C1
330
1F
100
AcDbEntity
  8
0
  6
Continuous
 62
     7
370
    25
100
AcDbSpline
210
0.0
220
0.0
230
1.0
 70
    24
 71
     3
 72
    14
 73
    10
 74
     0
 42
0.000000001
 43
0.00000001
 40
0.0
 40
0.0
 40
0.0
 40
0.0
 40
0.2499999999999999
 40
0.2499999999999999
 40
0.5
 40
0.5
 40
0.7500000000000001
 40
0.7500000000000001
 40
1.0
 40
1.0
 40
1.0
 40
1.0
 10
6.957952766465869
 20
1.685897843011663
 30
0.0
 10
6.957952766465869
 20
1.685897843011663
 30
0.0
 10
6.966248971611725
 20
1.685897843011663
 30
0.0
 10
6.99578132775556
 20
1.685897843011663
 30
0.0
 10
7.015810138734915
 20
1.685897843011663
 30
0.0
 10
7.057575197322359
 20
1.685897843011663
 30
0.0
 10
7.077604008301716
 20
1.685897843011663
 30
0.0
 10
7.10713636444555
 20
1.685897843011663
 30
0.0
 10
7.115432569591405
 20
1.685897843011663
 30
0.0
 10
7.115432569591405
 20
1.685897843011663
 30
0.0
  0
SPLINE
  5
C2
330
1F
100
AcDbEntity
  8
0
  6
Continuous
 62
     7
370
    25
100
AcDbSpline
210
0.0
220
0.0
230
1.0
 70
    24
 71
     3
 72
    14
 73
    10
 74
     0
 42
0.000000001
 43
0.00000001
 40
0.0
 40
0.0
 40
0.0
 40
0.0
 40
0.2500000000000001
 40
0.2500000000000001
 40
0.5000000000000001
 40
0.5000000000000001
 40
0.7500000000000001
 40
0.7500000000000001
 40
0.9999999999999999
 40
0.9999999999999999
 40
0.9999999999999999
 40
0.9999999999999999
 10
7.115432568782674
 20
6.804008079204323
 30
0.0
 10
7.115432568782674
 20
6.804008079204323
 30
0.0
 10
7.107136363722028
 20
6.804008079204323
 30
0.0
 10
7.077604007881518
 20
6.804008079204323
 30
0.0
 10
7.057575197107876
 20
6.804008079204323
 30
0.0
 10
7.015810138949398
 20
6.804008079204323
 30
0.0
 10
6.995781328175756
 20
6.804008079204323
 30
0.0
 10
6.966248972335246
 20
6.804008079204323
 30
0.0
 10
6.957952767274599
 20
6.804008079204323
 30
0.0
 10
6.957952767274599
 20
6.804008079204323
 30
0.0
  0
LWPOLYLINE
  5
C3
330
1F
100
AcDbEntity
  8
0
  6
Continuous
 62
     7
370
    25
100
AcDbPolyline
 90
       36
 70
   128
 43
0.0
 10
6.9481102
 20
4.0446955017
 10
6.9483523732
 20
4.0448555426
 10
6.9503268357
 20
4.0461518263
 10
6.9520689809
 20
4.0472819679
 10
6.9541847111
 20
4.0486355096
 10
6.9597166792
 20
4.0520766218
 10
6.9631061654
 20
4.0541102197
 10
6.9670696396
 20
4.0564122731
 10
6.9714329812
 20
4.0588457383
 10
6.9762342058
 20
4.0613937195
 10
6.9814141779
 20
4.0639811243
 10
6.987608837
 20
4.0668379233
 10
6.9942554589
 20
4.0695947554
 10
7.001464805
 20
4.0721948321
 10
7.0091303377
 20
4.0744823363
 10
7.0146059865
 20
4.0757969238
 10
7.0261462905
 20
4.0776456064
 10
7.0321616663
 20
4.0780961612
 10
7.0380155934
 20
4.0781895575
 10
7.0498778564
 20
4.07733585
 10
7.0557932654
 20
4.0763967249
 10
7.061161438
 20
4.0752586047
 10
7.071582395
 20
4.0723065321
 10
7.0765929397
 20
4.070557347
 10
7.0822290986
 20
4.0683505671
 10
7.0927946086
 20
4.0635817262
 10
7.0976864134
 20
4.061116816
 10
7.1030114079
 20
4.0582651797
 10
7.1078952341
 20
4.0555050622
 10
7.1123594812
 20
4.0528693167
 10
7.1162727374
 20
4.050475275
 10
7.1188624888
 20
4.0488499924
 10
7.1228461441
 20
4.046290278
 10
7.1241644862
 20
4.0454276533
 10
7.1252753854
 20
4.0446955017
 10
7.1252753854
 20
4.0446955017
  0
LWPOLYLINE
  5
C4
330
1F
100
AcDbEntity
  8
0
  6
Continuous
 62
     7
370
    25
100
AcDbPolyline
 90
       36
 70
   128
 43
0.0
 10
7.1252753854
 20
4.3124118757
 10
7.1250332122
 20
4.3122518349
 10
7.1230587496
 20
4.3109550819
 10
7.1213161351
 20
4.3098254096
 10
7.1192008742
 20
4.3084718679
 10
7.1136689061
 20
4.3050307557
 10
7.1102789506
 20
4.3029966885
 10
7.1063159457
 20
4.3006951044
 10
7.1019526041
 20
4.2982616392
 10
7.0971513796
 20
4.2957131886
 10
7.0919709381
 20
4.2931257839
 10
7.0857767483
 20
4.2902689849
 10
7.0791296571
 20
4.287512622
 10
7.0719203111
 20
4.2849120761
 10
7.0642552476
 20
4.2826250412
 10
7.0587791295
 20
4.2813104537
 10
7.0472392948
 20
4.2794613017
 10
7.041223919
 20
4.2790107469
 10
7.0353699919
 20
4.2789173507
 10
7.023507729
 20
4.2797710581
 10
7.0175918507
 20
4.2807101833
 10
7.012223678
 20
4.2818487728
 10
7.0018031904
 20
4.284800376
 10
6.9967926456
 20
4.2865495612
 10
6.9911564867
 20
4.288756341
 10
6.9805909768
 20
4.2935256512
 10
6.9756991719
 20
4.2959900921
 10
6.9703741775
 20
4.2988421978
 10
6.9654898819
 20
4.3016023153
 10
6.9610261041
 20
4.3042380608
 10
6.957112848
 20
4.3066321025
 10
6.9545226272
 20
4.3082573851
 10
6.9505394413
 20
4.3108166302
 10
6.9492210991
 20
4.3116792549
 10
6.9481102
 20
4.3124118757
 10
6.9481102
 20
4.3124118757
  0
LINE
  5
C5
330
1F
100
AcDbEntity
  8
0
  6
Continuous
 62
     7
370
    25
100
AcDbLine
 10
7.2024408726
 20
4.0446955017
 30
0.0
 11
7.2024408726
 21
4.3124118757
 31
0.0
  0
LINE
  5
C6
330
1F
100
AcDbEntity
  8
0
  6
Continuous
 62
     7
370
    25
100
AcDbLine
 10
6.871732245
 20
4.3124118757
 30
0.0
 11
6.871732245
 21
4.0446955017
 31
0.0
  0
SPLINE
  5
C7
330
1F
100
AcDbEntity
  8
0
  6
Continuous
 62
     7
370
    25
100
AcDbSpline
210
0.0
220
0.0
230
1.0
 70
     8
 71
     3
 72
    15
 73
    11
 74
     0
 42
0.000000001
 43
0.00000001
 40
0.0
 40
0.0
 40
0.0
 40
0.0
 40
0.1040439042456052
 40
0.2192185847413173
 40
0.348395348394536
 40
0.4890462348989197
 40
0.6285728167778469
 40
0.7592863449290816
 40
0.8820843541797029
 40
1.0
 40
1.0
 40
1.0
 40
1.0
 10
7.036692558004847
 20
4.07665673252434
 30
0.0
 10
7.031873753689869
 20
4.076440569616999
 30
0.0
 10
7.021720621992877
 20
4.075985118363372
 30
0.0
 10
7.006456747354923
 20
4.072326650697583
 30
0.0
 10
6.99130165350621
 20
4.066735538503172
 30
0.0
 10
6.977469292730397
 20
4.059961649660731
 30
0.0
 10
6.96616690284961
 20
4.053487237093227
 30
0.0
 10
6.958197879493904
 20
4.048495781421307
 30
0.0
 10
6.953328694456224
 20
4.045291621670009
 30
0.0
 10
6.952732660810015
 20
4.04489150320204
 30
0.0
 10
6.952440688622966
 20
4.044695501743206
 30
0.0
  0
SPLINE
  5
C8
330
1F
100
AcDbEntity
  8
0
  6
Continuous
 62
     7
370
    25
100
AcDbSpline
210
0.0
220
0.0
230
1.0
 70
     8
 71
     3
 72
    10
 73
     6
 74
     0
 42
0.000000001
 43
0.00000001
 40
0.0
 40
0.0
 40
0.0
 40
0.0
 40
0.5
 40
0.5
 40
1.0
 40
1.0
 40
1.0
 40
1.0
 10
7.036692669283982
 20
4.076656948239983
 30
0.0
 10
7.036692669070811
 20
4.076986835478333
 30
0.0
 10
7.036692668838993
 20
4.077423566111969
 30
0.0
 10
7.036692668397444
 20
4.078460640625526
 30
0.0
 10
7.036692668189815
 20
4.079058878711112
 30
0.0
 10
7.036692668028119
 20
4.07965391017987
 30
0.0
  0
SPLINE
  5
C9
330
1F
100
AcDbEntity
  8
0
  6
Continuous
 62
     7
370
    25
100
AcDbSpline
210
0.0
220
0.0
230
1.0
 70
     8
 71
     3
 72
    15
 73
    11
 74
     0
 42
0.000000001
 43
0.00000001
 40
0.0
 40
0.0
 40
0.0
 40
0.0
 40
0.1179142582583819
 40
0.2407115296436424
 40
0.3714242213389994
 40
0.5109523291532297
 40
0.6516007669728087
 40
0.7807716118920518
 40
0.8959494702431591
 40
1.0
 40
1.0
 40
1.0
 40
1.0
 10
7.120944427386731
 20
4.044695501743206
 30
0.0
 10
7.120652713833143
 20
4.044891509385762
 30
0.0
 10
7.120057206413275
 20
4.045291641652704
 30
0.0
 10
7.115186834618743
 20
4.048495721345054
 30
0.0
 10
7.107218990566038
 20
4.053487511691778
 30
0.0
 10
7.095915693603442
 20
4.059960725600512
 30
0.0
 10
7.082084069523952
 20
4.066735617678568
 30
0.0
 10
7.066929465478168
 20
4.072326819888571
 30
0.0
 10
7.051665262068908
 20
4.075985145426904
 30
0.0
 10
7.041511671481371
 20
4.076440575548417
 30
0.0
 10
7.036692558004849
 20
4.076656732524341
 30
0.0
  0
SPLINE
  5
CA
330
1F
100
AcDbEntity
  8
0
  6
Continuous
 62
     7
370
    25
100
AcDbSpline
210
0.0
220
0.0
230
1.0
 70
     8
 71
     3
 72
    14
 73
    10
 74
     0
 42
0.000000001
 43
0.00000001
 40
0.0
 40
0.0
 40
0.0
 40
0.0
 40
0.1339252381937367
 40
0.280308298640135
 40
0.4375226406053337
 40
0.5971268254776076
 40
0.7449959250792765
 40
0.8777135371090219
 40
1.0
 40
1.0
 40
1.0
 40
1.0
 10
6.956332355666097
 20
4.047247237598669
 30
0.0
 10
6.957585218627046
 20
4.048041009312708
 30
0.0
 10
6.960207486765219
 20
4.049702389958151
 30
0.0
 10
6.968082613978106
 20
4.054449279904186
 30
0.0
 10
6.978930349189302
 20
4.060401722630711
 30
0.0
 10
6.992352792646018
 20
4.066695000132952
 30
0.0
 10
7.007064532833649
 20
4.07187574732878
 30
0.0
 10
7.021974388725057
 20
4.075292304664936
 30
0.0
 10
7.031922141890266
 20
4.075719966378501
 30
0.0
 10
7.036692558004849
 20
4.075925050310129
 30
0.0
  0
SPLINE
  5
CB
330
1F
100
AcDbEntity
  8
0
  6
Continuous
 62
     7
370
    25
100
AcDbSpline
210
0.0
220
0.0
230
1.0
 70
    24
 71
     3
 72
    14
 73
    10
 74
     0
 42
0.000000001
 43
0.00000001
 40
0.0
 40
0.0
 40
0.0
 40
0.0
 40
0.25
 40
0.25
 40
0.5
 40
0.5
 40
0.75
 40
0.75
 40
1.0
 40
1.0
 40
1.0
 40
1.0
 10
7.036692667449647
 20
4.074703419931302
 30
0.0
 10
7.036692667378913
 20
4.074553869364862
 30
0.0
 10
7.036692667316957
 20
4.07442287821253
 30
0.0
 10
7.036692667269312
 20
4.074322129872684
 30
0.0
 10
7.036692667287527
 20
4.07436062720761
 30
0.0
 10
7.036692667422283
 20
4.074645515876624
 30
0.0
 10
7.036692667536609
 20
4.07488721866365
 30
0.0
 10
7.036692667784861
 20
4.075412063863101
 30
0.0
 10
7.036692667915462
 20
4.075688183436778
 30
0.0
 10
7.036692668027569
 20
4.075925202079089
 30
0.0
  0
SPLINE
  5
CC
330
1F
100
AcDbEntity
  8
0
  6
Continuous
 62
     7
370
    25
100
AcDbSpline
210
0.0
220
0.0
230
1.0
 70
     8
 71
     3
 72
     9
 73
     5
 74
     0
 42
0.000000001
 43
0.00000001
 40
0.0
 40
0.0
 40
0.0
 40
0.0
 40
0.8261054484787986
 40
0.9999999999999999
 40
0.9999999999999999
 40
0.9999999999999999
 40
0.9999999999999999
 10
6.953234791449423
 20
4.044699725694411
 30
0.0
 10
6.953327291724229
 20
4.044766742741256
 30
0.0
 10
6.953439263234614
 20
4.044847866824105
 30
0.0
 10
6.955271697843352
 20
4.045985051649852
 30
0.0
 10
6.95559034823783
 20
4.046182801895121
 30
0.0
  0
SPLINE
  5
CD
330
1F
100
AcDbEntity
  8
0
  6
Continuous
 62
     7
370
    25
100
AcDbSpline
210
0.0
220
0.0
230
1.0
 70
     8
 71
     3
 72
    14
 73
    10
 74
     0
 42
0.000000001
 43
0.00000001
 40
0.0
 40
0.0
 40
0.0
 40
0.0
 40
0.1223237517178946
 40
0.2550256565696682
 40
0.402885994169523
 40
0.5624686585398172
 40
0.7196833055670994
 40
0.8660712952040673
 40
1.0
 40
1.0
 40
1.0
 40
1.0
 10
7.036692558004849
 20
4.075925050310129
 30
0.0
 10
7.041464554612808
 20
4.075719639440348
 30
0.0
 10
7.051413412058742
 20
4.075291390296609
 30
0.0
 10
7.066324249229661
 20
4.071875581920419
 30
0.0
 10
7.081034036110882
 20
4.066693778596632
 30
0.0
 10
7.094456415341319
 20
4.060401755812014
 30
0.0
 10
7.105303573737448
 20
4.054448514205085
 30
0.0
 10
7.113178532787949
 20
4.049701989325279
 30
0.0
 10
7.115800828134621
 20
4.048040560009741
 30
0.0
 10
7.117053698999424
 20
4.047246768270757
 30
0.0
  0
SPLINE
  5
CE
330
1F
100
AcDbEntity
  8
0
  6
Continuous
 62
     7
370
    25
100
AcDbSpline
210
0.0
220
0.0
230
1.0
 70
     8
 71
     3
 72
    10
 73
     6
 74
     0
 42
0.000000001
 43
0.00000001
 40
0.0
 40
0.0
 40
0.0
 40
0.0
 40
0.2022590732476476
 40
0.9963531969710991
 40
1.0
 40
1.0
 40
1.0
 40
1.0
 10
7.117599527360635
 20
4.046303888496318
 30
0.0
 10
7.117980435600922
 20
4.046067633632385
 30
0.0
 10
7.119856836678355
 20
4.044903812968125
 30
0.0
 10
7.120667779170207
 20
4.04438921864844
 30
0.0
 10
7.120152679294405
 20
4.044698312697937
 30
0.0
 10
7.120150324560274
 20
4.044699725694409
 30
0.0
  0
SPLINE
  5
CF
330
1F
100
AcDbEntity
  8
0
  6
Continuous
 62
     7
370
    25
100
AcDbSpline
210
0.0
220
0.0
230
1.0
 70
     8
 71
     3
 72
     9
 73
     5
 74
     0
 42
0.000000001
 43
0.00000001
 40
0.0
 40
0.0
 40
0.0
 40
0.0
 40
0.1648354791712526
 40
1.0
 40
1.0
 40
1.0
 40
1.0
 10
6.954800469362578
 20
4.310856053700464
 30
0.0
 10
6.954494768980545
 20
4.311054734386518
 30
0.0
 10
6.952640190199506
 20
4.312260061583388
 30
0.0
 10
6.952531479740975
 20
4.312342786670083
 30
0.0
 10
6.952440688622966
 20
4.312411875727475
 30
0.0
  0
SPLINE
  5
D0
330
1F
100
AcDbEntity
  8
0
  6
Continuous
 62
     7
370
    25
100
AcDbSpline
210
0.0
220
0.0
230
1.0
 70
     8
 71
     3
 72
    10
 73
     6
 74
     0
 42
0.000000001
 43
0.00000001
 40
0.0
 40
0.0
 40
0.0
 40
0.0
 40
0.5
 40
0.5
 40
1.0
 40
1.0
 40
1.0
 40
1.0
 10
7.036692666776214
 20
4.277453197967163
 30
0.0
 10
7.03669266693749
 20
4.278048229122713
 30
0.0
 10
7.036692667144575
 20
4.278646466789184
 30
0.0
 10
7.036692667584969
 20
4.279683540591071
 30
0.0
 10
7.036692667816184
 20
4.280120270941799
 30
0.0
 10
7.036692668028798
 20
4.280450158028131
 30
0.0
  0
SPLINE
  5
D1
330
1F
100
AcDbEntity
  8
0
  6
Continuous
 62
     7
370
    25
100
AcDbSpline
210
0.0
220
0.0
230
1.0
 70
     8
 71
     3
 72
     9
 73
     5
 74
     0
 42
0.000000001
 43
0.00000001
 40
0.0
 40
0.0
 40
0.0
 40
0.0
 40
0.8351494892038798
 40
1.0
 40
1.0
 40
1.0
 40
1.0
 10
7.120944427386731
 20
4.312411875727475
 30
0.0
 10
7.120854114720526
 20
4.312342738427108
 30
0.0
 10
7.120745975198953
 20
4.312259954085789
 30
0.0
 10
7.118890519471543
 20
4.311054734727326
 30
0.0
 10
7.118584646647119
 20
4.310856053700464
 30
0.0
  0
SPLINE
  5
D2
330
1F
100
AcDbEntity
  8
0
  6
Continuous
 62
     7
370
    25
100
AcDbSpline
210
0.0
220
0.0
230
1.0
 70
     8
 71
     3
 72
    16
 73
    12
 74
     0
 42
0.000000001
 43
0.00000001
 40
0.0
 40
0.0
 40
0.0
 40
0.0
 40
0.1071772935920445
 40
0.2235867663368329
 40
0.3533993298402597
 40
0.4937636158741042
 40
0.6323494712097849
 40
0.7617160531014434
 40
0.8830322972637165
 40
0.9994663593819089
 40
1.0
 40
1.0
 40
1.0
 40
1.0
 10
7.036692558004849
 20
4.282403518386579
 30
0.0
 10
7.041554163839828
 20
4.282611288631921
 30
0.0
 10
7.051696150928853
 20
4.283044726310182
 30
0.0
 10
7.066896913859081
 20
4.286502682074629
 30
0.0
 10
7.081899081478006
 20
4.291750140788611
 30
0.0
 10
7.095573844244351
 20
4.298114534035132
 30
0.0
 10
7.106660178219014
 20
4.304158438747426
 30
0.0
 10
7.114627440307276
 20
4.308923503035627
 30
0.0
 10
7.118903837847474
 20
4.311617858714076
 30
0.0
 10
7.120669139610131
 20
4.312718972299856
 30
0.0
 10
7.120152680795328
 20
4.312409065660332
 30
0.0
 10
7.120150324560274
 20
4.312407651776271
 30
0.0
  0
SPLINE
  5
D3
330
1F
100
AcDbEntity
  8
0
  6
Continuous
 62
     7
370
    25
100
AcDbSpline
210
0.0
220
0.0
230
1.0
 70
     8
 71
     3
 72
    15
 73
    11
 74
     0
 42
0.000000001
 43
0.00000001
 40
0.0
 40
0.0
 40
0.0
 40
0.0
 40
0.1160325159667713
 40
0.2374812562576823
 40
0.366991952252441
 40
0.505724392231053
 40
0.6462188994462073
 40
0.7761667177517038
 40
0.8926833999867201
 40
1.0
 40
1.0
 40
1.0
 40
1.0
 10
6.953234791449423
 20
4.312407651776271
 30
0.0
 10
6.953519561129502
 20
4.312224925187628
 30
0.0
 10
6.954102393112467
 20
4.311850942606444
 30
0.0
 10
6.958869725428806
 20
4.308854707076211
 30
0.0
 10
6.966691356172142
 20
4.304179585617149
 30
0.0
 10
6.977820143476186
 20
4.298109770534905
 30
0.0
 10
6.991482348229606
 20
4.291751610505042
 30
0.0
 10
7.006486342917975
 20
4.286502933697917
 30
0.0
 10
7.021686892406963
 20
4.283045683505239
 30
0.0
 10
7.031829633090295
 20
4.282611626499772
 30
0.0
 10
7.036692558004849
 20
4.282403518386579
 30
0.0
  0
SPLINE
  5
D4
330
1F
100
AcDbEntity
  8
0
  6
Continuous
 62
     7
370
    25
100
AcDbSpline
210
0.0
220
0.0
230
1.0
 70
     8
 71
     3
 72
    14
 73
    10
 74
     0
 42
0.000000001
 43
0.00000001
 40
0.0
 40
0.0
 40
0.0
 40
0.0
 40
0.133925509934154
 40
0.2803049119993895
 40
0.4375199725313102
 40
0.5971269777641517
 40
0.7449932329401584
 40
0.8777095704573186
 40
0.9999999999999999
 40
0.9999999999999999
 40
0.9999999999999999
 40
0.9999999999999999
 10
7.117053229671512
 20
4.309860139872012
 30
0.0
 10
7.115800149728126
 20
4.309066123199338
 30
0.0
 10
7.11317746445008
 20
4.307404253301142
 30
0.0
 10
7.105302987586372
 20
4.302658447774989
 30
0.0
 10
7.094455266034998
 20
4.296704648121506
 30
0.0
 10
7.081032337387314
 20
4.290412996022848
 30
0.0
 10
7.066321128004764
 20
4.285230686130523
 30
0.0
 10
7.051410941118516
 20
4.281815356770199
 30
0.0
 10
7.041463113973331
 20
4.28138718895592
 30
0.0
 10
7.036692558004847
 20
4.281181857832639
 30
0.0
  0
SPLINE
  5
D5
330
1F
100
AcDbEntity
  8
0
  6
Continuous
 62
     7
370
    25
100
AcDbSpline
210
0.0
220
0.0
230
1.0
 70
    24
 71
     3
 72
    14
 73
    10
 74
     0
 42
0.000000001
 43
0.00000001
 40
0.0
 40
0.0
 40
0.0
 40
0.0
 40
0.25
 40
0.25
 40
0.5
 40
0.5
 40
0.75
 40
0.75
 40
1.0
 40
1.0
 40
1.0
 40
1.0
 10
7.036692668816895
 20
4.281181917916564
 30
0.0
 10
7.036692668659227
 20
4.281418937610124
 30
0.0
 10
7.036692668476082
 20
4.28169505863697
 30
0.0
 10
7.036692668129804
 20
4.28221990581558
 30
0.0
 10
7.036692667971391
 20
4.282461608919681
 30
0.0
 10
7.036692667787646
 20
4.282746495351562
 30
0.0
 10
7.03669266776534
 20
4.282784990194968
 30
0.0
 10
7.036692667838083
 20
4.282684236921775
 30
0.0
 10
7.036692667927623
 20
4.2825532435045
 30
0.0
 10
7.036692668028877
 20
4.282403691527628
 30
0.0
  0
SPLINE
  5
D6
330
1F
100
AcDbEntity
  8
0
  6
Continuous
 62
     7
370
    25
100
AcDbSpline
210
0.0
220
0.0
230
1.0
 70
     8
 71
     3
 72
    14
 73
    10
 74
     0
 42
0.000000001
 43
0.00000001
 40
0.0
 40
0.0
 40
0.0
 40
0.0
 40
0.1223199376000899
 40
0.255022712933125
 40
0.4028829459683866
 40
0.562470716791112
 40
0.7196852260113343
 40
0.8660729997316309
 40
0.9999999999999999
 40
0.9999999999999999
 40
0.9999999999999999
 40
0.9999999999999999
 10
7.036692558004849
 20
4.281181857832641
 30
0.0
 10
7.031920712643038
 20
4.281387234872666
 30
0.0
 10
7.021971975145761
 20
4.281815421895558
 30
0.0
 10
7.007061406892605
 20
4.285231950230142
 30
0.0
 10
6.992351375747336
 20
4.290413676516186
 30
0.0
 10
6.978928829816677
 20
4.296705493467531
 30
0.0
 10
6.968081541137915
 20
4.302658878160343
 30
0.0
 10
6.960206620910268
 20
4.307405361906536
 30
0.0
 10
6.957584295078126
 20
4.309066812134163
 30
0.0
 10
6.956331417010273
 20
4.309860609199924
 30
0.0
  0
LINE
  5
D7
330
1F
100
AcDbEntity
  8
0
  6
Continuous
 62
     7
370
    25
100
AcDbLine
 10
6.6318019607
 20
4.2795011946
 30
0.0
 11
6.6318019607
 21
4.0776057136
 31
0.0
  0
SPLINE
  5
D8
330
1F
100
AcDbEntity
  8
0
  6
Continuous
 62
     7
370
    25
100
AcDbSpline
210
0.0
220
0.0
230
1.0
 70
     8
 71
     3
 72
    19
 73
    15
 74
     0
 42
0.000000001
 43
0.00000001
 40
0.0
 40
0.0
 40
0.0
 40
0.0
 40
0.0588919917288088
 40
0.1148557688662215
 40
0.1680904406775066
 40
0.3113784407405963
 40
0.4459866209623164
 40
0.5127574310691122
 40
0.5795330586184463
 40
0.6461716609429725
 40
0.7146340973860609
 40
0.833691322698727
 40
0.9142067910995888
 40
1.0
 40
1.0
 40
1.0
 40
1.0
 10
6.631801775844464
 20
4.279501322658309
 30
0.0
 10
6.63167242116113
 20
4.27553934203755
 30
0.0
 10
6.631420143539423
 20
4.267812377520443
 30
0.0
 10
6.63110522902184
 20
4.256502344336401
 30
0.0
 10
6.630689008088987
 20
4.239512232489588
 30
0.0
 10
6.630290628183205
 20
4.217226543404061
 30
0.0
 10
6.630094853141462
 20
4.194026996172516
 30
0.0
 10
6.630069009322136
 20
4.17597708714971
 30
0.0
 10
6.63011228077129
 20
4.162502362266555
 30
0.0
 10
6.630218435920655
 20
4.148914134063798
 30
0.0
 10
6.630431736005759
 20
4.131807644262187
 30
0.0
 10
6.63077310618212
 20
4.11376888273273
 30
0.0
 10
6.631256601320309
 20
4.094566498645036
 30
0.0
 10
6.631616246121689
 20
4.08337781529946
 30
0.0
 10
6.631801775115578
 20
4.077605939392775
 30
0.0
  0
LINE
  5
D9
330
1F
100
AcDbEntity
  8
0
  6
Continuous
 62
     7
370
    25
100
AcDbLine
 10
6.6357349286
 20
4.2824171289
 30
0.0
 11
6.6357349286
 21
4.0746841473
 31
0.0
  0
SPLINE
  5
DA
330
1F
100
AcDbEntity
  8
0
  6
Continuous
 62
     7
370
    25
100
AcDbSpline
210
0.0
220
0.0
230
1.0
 70
     8
 71
     3
 72
     8
 73
     4
 74
     0
 42
0.000000001
 43
0.00000001
 40
0.0
 40
0.0
 40
0.0
 40
0.0
 40
1.0
 40
1.0
 40
1.0
 40
1.0
 10
6.633012485317955
 20
4.075532305939248
 30
0.0
 10
6.633736354603452
 20
4.074994583272177
 30
0.0
 10
6.634732938425234
 20
4.07468410567183
 30
0.0
 10
6.635735045036816
 20
4.074684117454074
 30
0.0
  0
SPLINE
  5
DB
330
1F
100
AcDbEntity
  8
0
  6
Continuous
 62
     7
370
    25
100
AcDbSpline
210
0.0
220
0.0
230
1.0
 70
     8
 71
     3
 72
     9
 73
     5
 74
     0
 42
0.000000001
 43
0.00000001
 40
0.0
 40
0.0
 40
0.0
 40
0.0
 40
0.4999441704614629
 40
0.9999999999999999
 40
0.9999999999999999
 40
0.9999999999999999
 40
0.9999999999999999
 10
6.631801960668912
 20
4.077605713561629
 30
0.0
 10
6.631874531817243
 20
4.077214825714202
 30
0.0
 10
6.632019690322169
 20
4.076432962717247
 30
0.0
 10
6.632681443712449
 20
4.075832491820496
 30
0.0
 10
6.633012357352975
 20
4.075532222848105
 30
0.0
  0
SPLINE
  5
DC
330
1F
100
AcDbEntity
  8
0
  6
Continuous
 62
     7
370
    25
100
AcDbSpline
210
0.0
220
0.0
230
1.0
 70
     8
 71
     3
 72
    10
 73
     6
 74
     0
 42
0.000000001
 43
0.00000001
 40
0.0
 40
0.0
 40
0.0
 40
0.0
 40
0.5
 40
0.5
 40
1.0
 40
1.0
 40
1.0
 40
1.0
 10
6.635735045036816
 20
4.282417008193028
 30
0.0
 10
6.634732937104771
 20
4.282418041274459
 30
0.0
 10
6.633736351998507
 20
4.282108601162451
 30
0.0
 10
6.632288612914404
 20
4.281035209326406
 30
0.0
 10
6.631845437728551
 20
4.280277183386209
 30
0.0
 10
6.631801775844481
 20
4.27950132265831
 30
0.0
  0
SPLINE
  5
DD
330
1F
100
AcDbEntity
  8
0
  6
Continuous
 62
     7
370
    25
100
AcDbSpline
210
0.0
220
0.0
230
1.0
 70
     8
 71
     3
 72
    11
 73
     7
 74
     0
 42
0.000000001
 43
0.00000001
 40
0.0
 40
0.0
 40
0.0
 40
0.0
 40
0.2660125529473977
 40
0.5213426041290461
 40
0.7660009824249171
 40
1.0
 40
1.0
 40
1.0
 40
1.0
 10
6.644982524395558
 20
4.287885465427292
 30
0.0
 10
6.644153802505901
 20
4.287424280550542
 30
0.0
 10
6.64252963844573
 20
4.286520431006726
 30
0.0
 10
6.640161393372598
 20
4.285139528749187
 30
0.0
 10
6.637904905056772
 20
4.28378289539044
 30
0.0
 10
6.636447513350251
 20
4.28286549396581
 30
0.0
 10
6.635735045036817
 20
4.282417008193028
 30
0.0
  0
SPLINE
  5
DE
330
1F
100
AcDbEntity
  8
0
  6
Continuous
 62
     7
370
    25
100
AcDbSpline
210
0.0
220
0.0
230
1.0
 70
     8
 71
     3
 72
     8
 73
     4
 74
     0
 42
0.000000001
 43
0.00000001
 40
0.0
 40
0.0
 40
0.0
 40
0.0
 40
1.0
 40
1.0
 40
1.0
 40
1.0
 10
6.644982524395592
 20
4.287885478968541
 30
0.0
 10
6.656640623205202
 20
4.288627422494395
 30
0.0
 10
6.668300034503835
 20
4.289347161860779
 30
0.0
 10
6.679960603165089
 20
4.290045871722068
 30
0.0
  0
SPLINE
  5
DF
330
1F
100
AcDbEntity
  8
0
  6
Continuous
 62
     7
370
    25
100
AcDbSpline
210
0.0
220
0.0
230
1.0
 70
     8
 71
     3
 72
    29
 73
    25
 74
     0
 42
0.000000001
 43
0.00000001
 40
0.0
 40
0.0
 40
0.0
 40
0.0
 40
0.0003981752062787
 40
0.0403228715345469
 40
0.1011091631234728
 40
0.1381314754517773
 40
0.1942421497851718
 40
0.2511638241575933
 40
0.311005863092752
 40
0.3513417609177009
 40
0.4124629436352654
 40
0.4797662602550083
 40
0.5253232493590465
 40
0.5599582373531052
 40
0.5947451336867045
 40
0.6315222250540532
 40
0.6872314725098542
 40
0.7438497974991625
 40
0.780667068115877
 40
0.8366582635826794
 40
0.8938223627619071
 40
0.9288714638287898
 40
0.9643087155375175
 40
1.0
 40
1.0
 40
1.0
 40
1.0
 10
6.785630284964317
 20
4.312409529087917
 30
0.0
 10
6.78563154615061
 20
4.312410317262725
 30
0.0
 10
6.785759265436243
 20
4.312490135069161
 30
0.0
 10
6.785335429516134
 20
4.312230360589768
 30
0.0
 10
6.784467773289858
 20
4.311715377756519
 30
0.0
 10
6.782633724521598
 20
4.310635727352651
 30
0.0
 10
6.780224415371903
 20
4.30923943103181
 30
0.0
 10
6.776594006239641
 20
4.307195228817874
 30
0.0
 10
6.772564133890327
 20
4.305017552583026
 30
0.0
 10
6.767838372279221
 20
4.302583132559854
 30
0.0
 10
6.762300365760479
 20
4.299886725228262
 30
0.0
 10
6.755877901552786
 20
4.29704220958929
 30
0.0
 10
6.749945127411132
 20
4.294701104618054
 30
0.0
 10
6.745063104578539
 20
4.292963330458416
 30
0.0
 10
6.7403577610871
 20
4.291457042685273
 30
0.0
 10
6.734491099971923
 20
4.289815933181687
 30
0.0
 10
6.727298330649653
 20
4.288205191461
 30
0.0
 10
6.719794111075305
 20
4.287094156770793
 30
0.0
 10
6.71212313305109
 20
4.286477569913648
 30
0.0
 10
6.704336808936672
 20
4.286387945659641
 30
0.0
 10
6.696696971703569
 20
4.286944248141351
 30
0.0
 10
6.690268521424885
 20
4.287842951446788
 30
0.0
 10
6.685030873667783
 20
4.288813469180064
 30
0.0
 10
6.681654734695386
 20
4.289634215372069
 30
0.0
 10
6.679960636335782
 20
4.290046054099355
 30
0.0
  0
SPLINE
  5
E0
330
1F
100
AcDbEntity
  8
0
  6
Continuous
 62
     7
370
    25
100
AcDbSpline
210
0.0
220
0.0
230
1.0
 70
     8
 71
     3
 72
    15
 73
    11
 74
     0
 42
0.000000001
 43
0.00000001
 40
0.0
 40
0.0
 40
0.0
 40
0.0
 40
0.1211014316871757
 40
0.2542937414092029
 40
0.404036759116189
 40
0.5512651189589733
 40
0.6715042784238997
 40
0.7780918582807189
 40
0.8924531062717805
 40
0.9999999999999999
 40
0.9999999999999999
 40
0.9999999999999999
 40
0.9999999999999999
 10
6.801086661077608
 20
4.044698787038588
 30
0.0
 10
6.800434395790727
 20
4.045172000164928
 30
0.0
 10
6.799064742452356
 20
4.046165672450253
 30
0.0
 10
6.787762190722325
 20
4.054071169811609
 30
0.0
 10
6.76983651236142
 20
4.065363875429357
 30
0.0
 10
6.747054394311016
 20
4.076705799745843
 30
0.0
 10
6.722662624878401
 20
4.083664526019906
 30
0.0
 10
6.698656394579677
 20
4.084420222047906
 30
0.0
 10
6.676249060464984
 20
4.079633719052616
 30
0.0
 10
6.663977960080733
 20
4.073881236925408
 30
0.0
 10
6.658030820337555
 20
4.071093319460029
 30
0.0
  0
SPLINE
  5
E1
330
1F
100
AcDbEntity
  8
0
  6
Continuous
 62
     7
370
    25
100
AcDbSpline
210
0.0
220
0.0
230
1.0
 70
     8
 71
     3
 72
     8
 73
     4
 74
     0
 42
0.000000001
 43
0.00000001
 40
0.0
 40
0.0
 40
0.0
 40
0.0
 40
1.0
 40
1.0
 40
1.0
 40
1.0
 10
6.644983656537525
 20
4.069221467826942
 30
0.0
 10
6.647471464808549
 20
4.069063436982154
 30
0.0
 10
6.649959273079573
 20
4.068906092806778
 30
0.0
 10
6.652447081350597
 20
4.068749438265427
 30
0.0
  0
SPLINE
  5
E2
330
1F
100
AcDbEntity
  8
0
  6
Continuous
 62
     7
370
    25
100
AcDbSpline
210
0.0
220
0.0
230
1.0
 70
     8
 71
     3
 72
    10
 73
     6
 74
     0
 42
0.000000001
 43
0.00000001
 40
0.0
 40
0.0
 40
0.0
 40
0.0
 40
0.3235130029270811
 40
0.6568386680832852
 40
0.9999999999999999
 40
0.9999999999999999
 40
0.9999999999999999
 40
0.9999999999999999
 10
6.635735045036817
 20
4.074684117454076
 30
0.0
 10
6.636722340664796
 20
4.074067673715366
 30
0.0
 10
6.638726878162262
 20
4.072816088522131
 30
0.0
 10
6.641810580066248
 20
4.070994150535723
 30
0.0
 10
6.643915761737722
 20
4.069818061909546
 30
0.0
 10
6.644983656537525
 20
4.069221467826942
 30
0.0
  0
LINE
  5
E3
330
1F
100
AcDbEntity
  8
0
  6
Continuous
 62
     7
370
    25
100
AcDbLine
 10
6.8650391596
 20
4.0446955017
 30
0.0
 11
6.8650391596
 21
4.3124118757
 31
0.0
  0
SPLINE
  5
E4
330
1F
100
AcDbEntity
  8
0
  6
Continuous
 62
     7
370
    25
100
AcDbSpline
210
0.0
220
0.0
230
1.0
 70
     8
 71
     3
 72
     9
 73
     5
 74
     0
 42
0.000000001
 43
0.00000001
 40
0.0
 40
0.0
 40
0.0
 40
0.0
 40
0.8966968571068684
 40
1.0
 40
1.0
 40
1.0
 40
1.0
 10
6.679960636335782
 20
4.290046054099355
 30
0.0
 10
6.678246366902888
 20
4.290391861568104
 30
0.0
 10
6.676334606624811
 20
4.290777507470626
 30
0.0
 10
6.67453480741185
 20
4.290313620539885
 30
0.0
 10
6.674348882496575
 20
4.290265699561992
 30
0.0
  0
SPLINE
  5
E5
330
1F
100
AcDbEntity
  8
0
  6
Continuous
 62
     7
370
    25
100
AcDbSpline
210
0.0
220
0.0
230
1.0
 70
     8
 71
     3
 72
    10
 73
     6
 74
     0
 42
0.000000001
 43
0.00000001
 40
0.0
 40
0.0
 40
0.0
 40
0.0
 40
0.5
 40
0.5
 40
1.0
 40
1.0
 40
1.0
 40
1.0
 10
6.633364095979265
 20
4.282448797522281
 30
0.0
 10
6.633629973132322
 20
4.282779210560932
 30
0.0
 10
6.634030671982691
 20
4.282926265423339
 30
0.0
 10
6.634889997434881
 20
4.282867956898306
 30
0.0
 10
6.635340288310207
 20
4.282673803116778
 30
0.0
 10
6.635735045134223
 20
4.282417069738889
 30
0.0
  0
SPLINE
  5
E6
330
1F
100
AcDbEntity
  8
0
  6
Continuous
 62
     7
370
    25
100
AcDbSpline
210
0.0
220
0.0
230
1.0
 70
     8
 71
     3
 72
    11
 73
     7
 74
     0
 42
0.000000001
 43
0.00000001
 40
0.0
 40
0.0
 40
0.0
 40
0.0
 40
0.1118349920719882
 40
0.4322958512341349
 40
0.7259795483611672
 40
0.9999999999999999
 40
0.9999999999999999
 40
0.9999999999999999
 40
0.9999999999999999
 10
6.642997778000542
 20
4.288029821391047
 30
0.0
 10
6.643050539739029
 20
4.288076748783012
 30
0.0
 10
6.643254489149046
 20
4.288258145647086
 30
0.0
 10
6.643711706974774
 20
4.288315870091784
 30
0.0
 10
6.644360546723552
 20
4.288236865521023
 30
0.0
 10
6.644780069659417
 20
4.287999729589083
 30
0.0
 10
6.644982565738771
 20
4.287885268394269
 30
0.0
  0
SPLINE
  5
E7
330
1F
100
AcDbEntity
  8
0
  6
Continuous
 62
     7
370
    25
100
AcDbSpline
210
0.0
220
0.0
230
1.0
 70
     8
 71
     3
 72
    10
 73
     6
 74
     0
 42
0.000000001
 43
0.00000001
 40
0.0
 40
0.0
 40
0.0
 40
0.0
 40
0.5
 40
0.5
 40
1.0
 40
1.0
 40
1.0
 40
1.0
 10
6.642708653033242
 20
4.069322805397949
 30
0.0
 10
6.642969119105961
 20
4.068982359221969
 30
0.0
 10
6.64335059525979
 20
4.068811983286563
 30
0.0
 10
6.644170685963024
 20
4.06881723311778
 30
0.0
 10
6.644601996356856
 20
4.068983617601178
 30
0.0
 10
6.64498365662589
 20
4.069221261989217
 30
0.0
  0
SPLINE
  5
E8
330
1F
100
AcDbEntity
  8
0
  6
Continuous
 62
     7
370
    25
100
AcDbSpline
210
0.0
220
0.0
230
1.0
 70
     8
 71
     3
 72
    10
 73
     6
 74
     0
 42
0.000000001
 43
0.00000001
 40
0.0
 40
0.0
 40
0.0
 40
0.0
 40
0.5
 40
0.5
 40
1.0
 40
1.0
 40
1.0
 40
1.0
 10
6.644609359367697
 20
4.288156746075449
 30
0.0
 10
6.644648680388696
 20
4.288523581932229
 30
0.0
 10
6.644711922763126
 20
4.288655782102712
 30
0.0
 10
6.64484855107895
 20
4.288495309501632
 30
0.0
 10
6.644920331860891
 20
4.288219518936746
 30
0.0
 10
6.644982524395592
 20
4.287885478968541
 30
0.0
  0
ARC
  5
E9
330
1F
100
AcDbEntity
  8
0
  6
Continuous
 62
     7
370
    25
100
AcDbCircle
 10
6.6529634231
 20
4.0685445474
 30
0.0
 40
0.0008877459214373
100
AcDbArc
 50
183.0400466023
 51
211.7844796611
  0
LINE
  5
EA
330
1F
100
AcDbEntity
  8
0
  6
Continuous
 62
     7
370
    25
100
AcDbLine
 10
7.2024408726
 20
4.1308772475
 30
0.0
 11
7.2028341694
 21
4.1308772475
 31
0.0
  0
LINE
  5
EB
330
1F
100
AcDbEntity
  8
0
  6
Continuous
 62
     7
370
    25
100
AcDbLine
 10
7.2028341694
 20
4.22623013
 30
0.0
 11
7.2024408726
 21
4.22623013
 31
0.0
  0
LINE
  5
EC
330
1F
100
AcDbEntity
  8
0
  6
Continuous
 62
     7
370
    25
100
AcDbLine
 10
7.2028341694
 20
4.2447319749
 30
0.0
 11
7.2024408726
 21
4.2447352602
 31
0.0
  0
LINE
  5
ED
330
1F
100
AcDbEntity
  8
0
  6
Continuous
 62
     7
370
    25
100
AcDbLine
 10
7.2024408726
 20
4.1123716479
 30
0.0
 11
7.2028341694
 21
4.1123749332
 31
0.0
  0
LINE
  5
EE
330
1F
100
AcDbEntity
  8
0
  6
Continuous
 62
     7
370
    25
100
AcDbLine
 10
7.2024408726
 20
4.2494149288
 30
0.0
 11
7.2028341694
 21
4.2494149288
 31
0.0
  0
LINE
  5
EF
330
1F
100
AcDbEntity
  8
0
  6
Continuous
 62
     7
370
    25
100
AcDbLine
 10
7.2028341694
 20
4.1076919793
 30
0.0
 11
7.2024408726
 21
4.1076919793
 31
0.0
  0
LINE
  5
F0
330
1F
100
AcDbEntity
  8
0
  6
Continuous
 62
     7
370
    25
100
AcDbLine
 10
7.2028341694
 20
4.2970916047
 30
0.0
 11
7.2024408726
 21
4.2970916047
 31
0.0
  0
LINE
  5
F1
330
1F
100
AcDbEntity
  8
0
  6
Continuous
 62
     7
370
    25
100
AcDbLine
 10
7.2024408726
 20
4.0600157728
 30
0.0
 11
7.2028341694
 21
4.0600157728
 31
0.0
  0
SPLINE
  5
F2
330
1F
100
AcDbEntity
  8
0
  6
Continuous
 62
     7
370
    25
100
AcDbSpline
210
0.0
220
0.0
230
1.0
 70
    24
 71
     3
 72
    14
 73
    10
 74
     0
 42
0.000000001
 43
0.00000001
 40
0.0
 40
0.0
 40
0.0
 40
0.0
 40
0.25
 40
0.25
 40
0.5
 40
0.5
 40
0.7500000000000003
 40
0.7500000000000003
 40
1.0
 40
1.0
 40
1.0
 40
1.0
 10
7.431180857005005
 20
4.048632297343518
 30
0.0
 10
7.431180857005005
 20
4.048632297343518
 30
0.0
 10
7.431180857005005
 20
4.062321079996876
 30
0.0
 10
7.431180857005005
 20
4.111049624842037
 30
0.0
 10
7.431180857005005
 20
4.144097269576151
 30
0.0
 10
7.431180857005005
 20
4.213009838570885
 30
0.0
 10
7.431180857005005
 20
4.246057483304998
 30
0.0
 10
7.431180857005005
 20
4.294786028150161
 30
0.0
 10
7.431180857005005
 20
4.308474810803519
 30
0.0
 10
7.431180857005005
 20
4.308474810803519
 30
0.0
  0
LINE
  5
F3
330
1F
100
AcDbEntity
  8
0
  6
Continuous
 62
     7
370
    25
100
AcDbLine
 10
7.2028341694
 20
4.3124118757
 30
0.0
 11
7.2028341694
 21
4.0446955017
 31
0.0
  0
LINE
  5
F4
330
1F
100
AcDbEntity
  8
0
  6
Continuous
 62
     7
370
    25
100
AcDbLine
 10
7.3713383775
 20
4.0446955017
 30
0.0
 11
7.3240944219
 21
4.0446955017
 31
0.0
  0
SPLINE
  5
F5
330
1F
100
AcDbEntity
  8
0
  6
Continuous
 62
     7
370
    25
100
AcDbSpline
210
0.0
220
0.0
230
1.0
 70
     8
 71
     3
 72
    26
 73
    22
 74
     0
 42
0.000000001
 43
0.00000001
 40
0.0
 40
0.0
 40
0.0
 40
0.0
 40
0.0098004972608073
 40
0.0534223178315453
 40
0.097052193242656
 40
0.1397658793316561
 40
0.1824868954238786
 40
0.2644056870400024
 40
0.3416948163933857
 40
0.3932413452728067
 40
0.4463904180081443
 40
0.5010348805665409
 40
0.5437481762032801
 40
0.5864691409055923
 40
0.6736049574792456
 40
0.717225940513446
 40
0.7608566063491745
 40
0.8035689817512609
 40
0.8462899978434834
 40
0.9282093611193216
 40
1.0
 40
1.0
 40
1.0
 40
1.0
 10
6.957332493445753
 20
1.68600360288663
 30
0.0
 10
6.955757434812617
 20
1.686472894966009
 30
0.0
 10
6.94717182117858
 20
1.689030996861578
 30
0.0
 10
6.932865459901462
 20
1.697078887912359
 30
0.0
 10
6.91429344215864
 20
1.70839092721429
 30
0.0
 10
6.897250141665648
 20
1.72180411758232
 30
0.0
 10
6.876977889704414
 20
1.741216618392342
 30
0.0
 10
6.85612273665664
 20
1.768155564117043
 30
0.0
 10
6.840032846146915
 20
1.799811354118015
 30
0.0
 10
6.830478563225463
 20
1.828839689053858
 30
0.0
 10
6.825313862399155
 20
1.855104284807945
 30
0.0
 10
6.823636800006377
 20
1.880336832104893
 30
0.0
 10
6.824773643671839
 20
1.903818869057496
 30
0.0
 10
6.82909124006235
 20
1.932445494570325
 30
0.0
 10
6.837846804893728
 20
1.960418139333613
 30
0.0
 10
6.850781483946326
 20
1.986661234122687
 30
0.0
 10
6.862399880005317
 20
2.005122644957385
 30
0.0
 10
6.875728083595932
 20
2.022206325459937
 30
0.0
 10
6.895191219668797
 20
2.042409195524762
 30
0.0
 10
6.921210664611149
 20
2.063118529312713
 30
0.0
 10
6.944645193311782
 20
2.073954529797268
 30
0.0
 10
6.95559034823783
 20
2.079015510779533
 30
0.0
  0
SPLINE
  5
F6
330
1F
100
AcDbEntity
  8
0
  6
Continuous
 62
     7
370
    25
100
AcDbSpline
210
0.0
220
0.0
230
1.0
 70
     8
 71
     3
 72
    26
 73
    22
 74
     0
 42
0.000000001
 43
0.00000001
 40
0.0
 40
0.0
 40
0.0
 40
0.0
 40
0.0061573350168496
 40
0.0496978787308026
 40
0.0932464622772239
 40
0.135879829145265
 40
0.1785212467736634
 40
0.2602879766135335
 40
0.3374330996550455
 40
0.3888832948415428
 40
0.441933339395194
 40
0.496475987538251
 40
0.5391096539559505
 40
0.5817510202901891
 40
0.6687235945843424
 40
0.7122641382982954
 40
0.7558135107966031
 40
0.7984468776646441
 40
0.8410882952930424
 40
0.9228544545383234
 40
1.0
 40
1.0
 40
1.0
 40
1.0
 10
7.117795237099779
 20
2.07894792756026
 30
0.0
 10
7.11878502664866
 20
2.078648269984142
 30
0.0
 10
7.126773944067424
 20
2.07622963500035
 30
0.0
 10
7.14050965111023
 20
2.068389995345275
 30
0.0
 10
7.159094836826372
 20
2.057112832952814
 30
0.0
 10
7.176134300492891
 20
2.043690276813157
 30
0.0
 10
7.196407676788339
 20
2.024280771178748
 30
0.0
 10
7.217262691455792
 20
1.997340654075283
 30
0.0
 10
7.233352969673075
 20
1.965685232449483
 30
0.0
 10
7.242906395699147
 20
1.936656624478285
 30
0.0
 10
7.24807135883766
 20
1.910392149138191
 30
0.0
 10
7.249748087738986
 20
1.885159602383125
 30
0.0
 10
7.248612096566111
 20
1.861677538161097
 30
0.0
 10
7.244294314391136
 20
1.833051068758446
 30
0.0
 10
7.235538564042891
 20
1.805078487756887
 30
0.0
 10
7.222604146582698
 20
1.778835403421054
 30
0.0
 10
7.210985974210687
 20
1.760373217746394
 30
0.0
 10
7.197656157512015
 20
1.743291708225639
 30
0.0
 10
7.178198371451681
 20
1.723079664483677
 30
0.0
 10
7.15141356706452
 20
1.701855147166422
 30
0.0
 10
7.127123272921317
 20
1.69066207901123
 30
0.0
 10
7.115331265563789
 20
1.685228273176638
 30
0.0
  0
SPLINE
  5
F7
330
1F
100
AcDbEntity
  8
0
  6
Continuous
 62
     7
370
    25
100
AcDbSpline
210
0.0
220
0.0
230
1.0
 70
     8
 71
     3
 72
    26
 73
    22
 74
     0
 42
0.000000001
 43
0.00000001
 40
0.0
 40
0.0
 40
0.0
 40
0.0
 40
0.0404878106149577
 40
0.0831817842282137
 40
0.1702614714639752
 40
0.2138555615651896
 40
0.2574575138213219
 40
0.3001436292885613
 40
0.3428374007393531
 40
0.4247043486646904
 40
0.5019443001164602
 40
0.5534577975286763
 40
0.6065726670768766
 40
0.6611828696976456
 40
0.7038683002320654
 40
0.7465622738453214
 40
0.8336422552648615
 40
0.877236345366076
 40
0.9208385726872755
 40
0.9635244528255639
 40
1.0
 40
1.0
 40
1.0
 40
1.0
 10
7.115955002358328
 20
6.80437107773546
 30
0.0
 10
7.122194971858824
 20
6.801684049561179
 30
0.0
 10
7.135014924054241
 20
6.79616357822886
 30
0.0
 10
7.159631088694709
 20
6.78159293523709
 30
0.0
 10
7.182409902491925
 20
6.763180309976481
 30
0.0
 10
7.202001528487354
 20
6.741444768955022
 30
0.0
 10
7.214860103976517
 20
6.723823493845433
 30
0.0
 10
7.225788897616087
 20
6.705120947311491
 30
0.0
 10
7.237424272909082
 20
6.679566152735248
 30
0.0
 10
7.246845122254282
 20
6.646833539460265
 30
0.0
 10
7.250082055793425
 20
6.611468541256976
 30
0.0
 10
7.24822068200819
 20
6.580965674446998
 30
0.0
 10
7.243304622830894
 20
6.554653294255796
 30
0.0
 10
7.235528888080139
 20
6.530590290104612
 30
0.0
 10
7.225787603835157
 20
6.509194037878411
 30
0.0
 10
7.211187707979238
 20
6.484194133591387
 30
0.0
 10
7.192703456327979
 20
6.461449708419043
 30
0.0
 10
7.170985352774289
 20
6.441839144305143
 30
0.0
 10
7.153343319690179
 20
6.429024309194029
 30
0.0
 10
7.135608267209823
 20
6.418471477822163
 30
0.0
 10
7.123414028346958
 20
6.413207754155578
 30
0.0
 10
7.117795237099779
 20
6.41078236583918
 30
0.0
  0
SPLINE
  5
F8
330
1F
100
AcDbEntity
  8
0
  6
Continuous
 62
     7
370
    25
100
AcDbSpline
210
0.0
220
0.0
230
1.0
 70
     8
 71
     3
 72
    26
 73
    22
 74
     0
 42
0.000000001
 43
0.00000001
 40
0.0
 40
0.0
 40
0.0
 40
0.0
 40
0.0364740514953821
 40
0.0791744742083312
 40
0.1662684788937055
 40
0.2098693901298938
 40
0.2534794384811717
 40
0.2961721015736394
 40
0.338873279461562
 40
0.4207529813832676
 40
0.4980057177287299
 40
0.5495281506662236
 40
0.6026519247320178
 40
0.6572708194069498
 40
0.6999636550010783
 40
0.742664648263065
 40
0.8297585849732719
 40
0.873359462276386
 40
0.9169688585793824
 40
0.9596615216718501
 40
1.0
 40
1.0
 40
1.0
 40
1.0
 10
6.95559034823783
 20
6.41078236583918
 30
0.0
 10
6.949972713152072
 20
6.413208272694783
 30
0.0
 10
6.937778474070474
 20
6.418474205375585
 30
0.0
 10
6.913761297274694
 20
6.432736381794919
 30
0.0
 10
6.890974637670182
 20
6.45113291961392
 30
0.0
 10
6.871384206302127
 20
6.472871079785901
 30
0.0
 10
6.858524854799032
 20
6.490491523662532
 30
0.0
 10
6.847596923466535
 20
6.509194814382041
 30
0.0
 10
6.835960450923904
 20
6.534748921364106
 30
0.0
 10
6.826540861929899
 20
6.567481941547392
 30
0.0
 10
6.823303000614308
 20
6.602846699584875
 30
0.0
 10
6.825164245166857
 20
6.633349789594764
 30
0.0
 10
6.830081315254882
 20
6.65966198330602
 30
0.0
 10
6.837855931847824
 20
6.683725397630842
 30
0.0
 10
6.847598119393165
 20
6.705121307740165
 30
0.0
 10
6.862197754870001
 20
6.730121228842148
 30
0.0
 10
6.880681952579716
 20
6.752866157531694
 30
0.0
 10
6.902400502246671
 20
6.7724748455696
 30
0.0
 10
6.920038750837839
 20
6.785297267538904
 30
0.0
 10
6.938344727300237
 20
6.796153424308942
 30
0.0
 10
6.951139177046049
 20
6.801660914208154
 30
0.0
 10
6.957355021185511
 20
6.804336582133956
 30
0.0
  0
LINE
  5
F9
330
1F
100
AcDbEntity
  8
0
  6
Continuous
 62
     7
370
    25
100
AcDbLine
 10
6.9555903482
 20
6.8370790092
 30
0.0
 11
7.1177952371
 21
6.8370790092
 31
0.0
  0
LINE
  5
FA
330
1F
100
AcDbEntity
  8
0
  6
Continuous
 62
     7
370
    25
100
AcDbLine
 10
6.9555903482
 20
6.80637018
 30
0.0
 11
7.1177952371
 21
6.80637018
 31
0.0
  0
LINE
  5
FB
330
1F
100
AcDbEntity
  8
0
  6
Continuous
 62
     7
370
    25
100
AcDbLine
 10
7.1105567927
 20
1.6528268128
 30
0.0
 11
6.9555903482
 21
1.6528268128
 31
0.0
  0
LINE
  5
FC
330
1F
100
AcDbEntity
  8
0
  6
Continuous
 62
     7
370
    25
100
AcDbLine
 10
7.1177952371
 20
1.6528268128
 30
0.0
 11
7.1105567927
 21
1.6528268128
 31
0.0
  0
LINE
  5
FD
330
1F
100
AcDbEntity
  8
0
  6
Continuous
 62
     7
370
    25
100
AcDbLine
 10
7.0027995735
 20
1.6835358767
 30
0.0
 11
6.9555903482
 21
1.6835358767
 31
0.0
  0
LINE
  5
FE
330
1F
100
AcDbEntity
  8
0
  6
Continuous
 62
     7
370
    25
100
AcDbLine
 10
7.1177952371
 20
1.6835358767
 30
0.0
 11
7.0027995735
 21
1.6835358767
 31
0.0
  0
LINE
  5
FF
330
1F
100
AcDbEntity
  8
0
  6
Continuous
 62
     7
370
    25
100
AcDbLine
 10
6.9555903482
 20
1.6882601315
 30
0.0
 11
7.1177952371
 21
1.6882601315
 31
0.0
  0
LINE
  5
100
330
1F
100
AcDbEntity
  8
0
  6
Continuous
 62
     7
370
    25
100
AcDbLine
 10
7.1177952371
 20
6.8016459252
 30
0.0
 11
6.9555903482
 21
6.8016459252
 31
0.0
  0
SPLINE
  5
101
330
1F
100
AcDbEntity
  8
0
  6
Continuous
 62
     7
370
    25
100
AcDbSpline
210
0.0
220
0.0
230
1.0
 70
     8
 71
     3
 72
    21
 73
    17
 74
     0
 42
0.000000001
 43
0.00000001
 40
0.0
 40
0.0
 40
0.0
 40
0.0
 40
0.0000048151904928
 40
0.1178722946705979
 40
0.2405917034045925
 40
0.3712359194672507
 40
0.5106935950080451
 40
0.65122769972306
 40
0.716927755379084
 40
0.7805024228404789
 40
0.8389901787349564
 40
0.8957994122076289
 40
0.9221012474764522
 40
0.9481792548344331
 40
0.9741171478345798
 40
1.0
 40
1.0
 40
1.0
 40
1.0
 10
6.952440699534755
 20
4.31241182178761
 30
0.0
 10
6.952440699538176
 20
4.312411821785897
 30
0.0
 10
6.952440783280205
 20
4.312411779847086
 30
0.0
 10
6.953470061125421
 20
4.311720687968728
 30
0.0
 10
6.958158460133476
 20
4.308637709730203
 30
0.0
 10
6.966181573564196
 20
4.303610593347397
 30
0.0
 10
6.977465431198302
 20
4.297145124423688
 30
0.0
 10
6.989167782986815
 20
4.291426455986031
 30
0.0
 10
6.999419078635313
 20
4.287362198437644
 30
0.0
 10
7.007032896576515
 20
4.2848451343653
 30
0.0
 10
7.014671224094633
 20
4.282852353250639
 30
0.0
 10
7.02096860987903
 20
4.281674563447821
 30
0.0
 10
7.025920200413621
 20
4.281030495487488
 30
0.0
 10
7.029507134682402
 20
4.280698114358149
 30
0.0
 10
7.033098421396055
 20
4.280489080327484
 30
0.0
 10
7.035495434471495
 20
4.280463122167403
 30
0.0
 10
7.036692668028676
 20
4.280450156872949
 30
0.0
  0
SPLINE
  5
102
330
1F
100
AcDbEntity
  8
0
  6
Continuous
 62
     7
370
    25
100
AcDbSpline
210
0.0
220
0.0
230
1.0
 70
     8
 71
     3
 72
    16
 73
    12
 74
     0
 42
0.000000001
 43
0.00000001
 40
0.0
 40
0.0
 40
0.0
 40
0.0
 40
0.1040416074857149
 40
0.2192241078478364
 40
0.3483987287744333
 40
0.489016335607626
 40
0.628551016328939
 40
0.7592681427415162
 40
0.8820600487359493
 40
0.9999925963892949
 40
1.0
 40
1.0
 40
1.0
 40
1.0
 10
7.036692558004849
 20
4.280450175618429
 30
0.0
 10
7.041511181399897
 20
4.280666363735196
 30
0.0
 10
7.051664411827248
 20
4.281121889636528
 30
0.0
 10
7.066928642588869
 20
4.284780163082314
 30
0.0
 10
7.082081422282175
 20
4.290370308235014
 30
0.0
 10
7.095916927772699
 20
4.297146982233793
 30
0.0
 10
7.107204339784901
 20
4.303609885020014
 30
0.0
 10
7.115226378201386
 20
4.308637442532315
 30
0.0
 10
7.119915493186378
 20
4.311720997127183
 30
0.0
 10
7.120944437928099
 20
4.312411882800204
 30
0.0
 10
7.120944427387394
 20
4.31241187572792
 30
0.0
 10
7.120944427386731
 20
4.312411875727475
 30
0.0
  0
LINE
  5
103
330
1F
100
AcDbEntity
  8
0
  6
Continuous
 62
     7
370
    25
100
AcDbLine
 10
6.6580308203
 20
4.0710933195
 30
0.0
 11
6.6524472262
 21
4.0687494959
 31
0.0
  0
SPLINE
  5
104
330
1F
100
AcDbEntity
  8
0
  6
Continuous
 62
     7
370
    25
100
AcDbSpline
210
0.0
220
0.0
230
1.0
 70
     8
 71
     3
 72
    11
 73
     7
 74
     0
 42
0.000000001
 43
0.00000001
 40
0.0
 40
0.0
 40
0.0
 40
0.0
 40
0.2715215241279532
 40
0.5542463290494084
 40
0.8711341398663045
 40
0.9999999999999999
 40
0.9999999999999999
 40
0.9999999999999999
 40
0.9999999999999999
 10
6.652447226173044
 20
4.068749495869413
 30
0.0
 10
6.652636963814475
 20
4.06863739886963
 30
0.0
 10
6.653024267883952
 20
4.068408579622881
 30
0.0
 10
6.6536212525782
 20
4.068308773161119
 30
0.0
 10
6.654062457338478
 20
4.06834511029819
 30
0.0
 10
6.654267219182966
 20
4.068512813077519
 30
0.0
 10
6.65432641513116
 20
4.068561295376854
 30
0.0
  0
SPLINE
  5
105
330
1F
100
AcDbEntity
  8
0
  6
Continuous
 62
     7
370
    25
100
AcDbSpline
210
0.0
220
0.0
230
1.0
 70
     8
 71
     3
 72
    11
 73
     7
 74
     0
 42
0.000000001
 43
0.00000001
 40
0.0
 40
0.0
 40
0.0
 40
0.0
 40
0.2641620102340991
 40
0.502249051979322
 40
0.7540859677850634
 40
1.0
 40
1.0
 40
1.0
 40
1.0
 10
6.635734928568265
 20
4.074684147311814
 30
0.0
 10
6.635484354486828
 20
4.07454361651033
 30
0.0
 10
6.635007940051833
 20
4.074276426456175
 30
0.0
 10
6.634345369748375
 20
4.074171483978025
 30
0.0
 10
6.633776439055936
 20
4.074266847942701
 30
0.0
 10
6.633506589691238
 20
4.074524794450336
 30
0.0
 10
6.633373270517007
 20
4.074652233013822
 30
0.0
  0
SPLINE
  5
106
330
1F
100
AcDbEntity
  8
0
  6
Continuous
 62
     7
370
    25
100
AcDbSpline
210
0.0
220
0.0
230
1.0
 70
     8
 71
     3
 72
    10
 73
     6
 74
     0
 42
0.000000001
 43
0.00000001
 40
0.0
 40
0.0
 40
0.0
 40
0.0
 40
0.4226307974049437
 40
0.8661195901035987
 40
1.0
 40
1.0
 40
1.0
 40
1.0
 10
6.644983504394595
 20
4.0692216397485
 30
0.0
 10
6.644942650892953
 20
4.06905042336573
 30
0.0
 10
6.644858927656708
 20
4.06869954059956
 30
0.0
 10
6.64478989201826
 20
4.068488853397549
 30
0.0
 10
6.644750090940827
 20
4.068529753131844
 30
0.0
 10
6.64474086186429
 20
4.068539236965009
 30
0.0
  0
SPLINE
  5
107
330
1F
100
AcDbEntity
  8
0
  6
Continuous
 62
     7
370
    25
100
AcDbSpline
210
0.0
220
0.0
230
1.0
 70
     8
 71
     3
 72
    10
 73
     6
 74
     0
 42
0.000000001
 43
0.00000001
 40
0.0
 40
0.0
 40
0.0
 40
0.0
 40
0.4608117522827429
 40
0.8893665671030395
 40
1.0
 40
1.0
 40
1.0
 40
1.0
 10
6.652447226173044
 20
4.068749495869413
 30
0.0
 10
6.652408170814688
 20
4.068568437782165
 30
0.0
 10
6.652332793982789
 20
4.068218995718881
 30
0.0
 10
6.652251277083333
 20
4.068025294921114
 30
0.0
 10
6.652216038108937
 20
4.068068154767209
 30
0.0
 10
6.652208807593943
 20
4.068076948972066
 30
0.0
  0
LINE
  5
108
330
1F
100
AcDbEntity
  8
0
  6
Continuous
 62
     7
370
    25
100
AcDbLine
 10
7.4272437797
 20
4.0446955017
 30
0.0
 11
7.4272437797
 21
4.3124118757
 31
0.0
  0
LINE
  5
109
330
1F
100
AcDbEntity
  8
0
  6
Continuous
 62
     7
370
    25
100
AcDbLine
 10
7.3240944219
 20
3.8625934561
 30
0.0
 11
7.3713383775
 21
3.8625934561
 31
0.0
  0
LINE
  5
10A
330
1F
100
AcDbEntity
  8
0
  6
Continuous
 62
     7
370
    25
100
AcDbLine
 10
7.3482192846
 20
3.8586614268
 30
0.0
 11
7.3676001807
 21
3.8586614268
 31
0.0
  0
LINE
  5
10B
330
1F
100
AcDbEntity
  8
0
  6
Continuous
 62
     7
370
    25
100
AcDbLine
 10
7.3278326187
 20
3.8586614268
 30
0.0
 11
7.3482192846
 21
3.8586614268
 31
0.0
  0
ARC
  5
10C
330
1F
100
AcDbEntity
  8
0
  6
Continuous
 62
     7
370
    25
100
AcDbCircle
 10
4.6804039673
 20
1.6662128036
 30
0.0
 40
0.0039370078740157
100
AcDbArc
 50
180.0
 51
270.0
  0
ARC
  5
10D
330
1F
100
AcDbEntity
  8
0
  6
Continuous
 62
     7
370
    25
100
AcDbCircle
 10
4.6804039673
 20
2.0992836698
 30
0.0
 40
0.0039370078740166
100
AcDbArc
 50
90.0
 51
180.0
  0
ARC
  5
10E
330
1F
100
AcDbEntity
  8
0
  6
Continuous
 62
     7
370
    25
100
AcDbCircle
 10
4.75678192
 20
1.6701498115
 30
0.0
 40
0.0078740157480315
100
AcDbArc
 50
270.0
 51
0.0
  0
ARC
  5
10F
330
1F
100
AcDbEntity
  8
0
  6
Continuous
 62
     7
370
    25
100
AcDbCircle
 10
4.75678192
 20
2.0953466619
 30
0.0
 40
0.0078740157480328
100
AcDbArc
 50
0.0
 51
90.0
  0
LINE
  5
110
330
1F
100
AcDbEntity
  8
0
  6
Continuous
 62
     7
370
    25
100
AcDbLine
 10
4.6804039673
 20
1.6622757958
 30
0.0
 11
4.75678192
 21
1.6622757958
 31
0.0
  0
LINE
  5
111
330
1F
100
AcDbEntity
  8
0
  6
Continuous
 62
     7
370
    25
100
AcDbLine
 10
4.75678192
 20
2.1032206776
 30
0.0
 11
4.6804039673
 21
2.1032206776
 31
0.0
  0
ARC
  5
112
330
1F
100
AcDbEntity
  8
0
  6
Continuous
 62
     7
370
    25
100
AcDbCircle
 10
4.7804039673
 20
1.9633200668
 30
0.0
 40
0.0157480314960636
100
AcDbArc
 50
180.0
 51
269.500000041
  0
ARC
  5
113
330
1F
100
AcDbEntity
  8
0
  6
Continuous
 62
     7
370
    25
100
AcDbCircle
 10
4.7804039673
 20
1.8021764066
 30
0.0
 40
0.015748031496063
100
AcDbArc
 50
90.499999959
 51
180.0
  0
LINE
  5
114
330
1F
100
AcDbEntity
  8
0
  6
Continuous
 62
     7
370
    25
100
AcDbLine
 10
4.7802665415
 20
1.8179238385
 30
0.0
 11
5.0434543931
 21
1.8202206441
 31
0.0
  0
LINE
  5
115
330
1F
100
AcDbEntity
  8
0
  6
Continuous
 62
     7
370
    25
100
AcDbLine
 10
5.0434543931
 20
1.9452758293
 30
0.0
 11
4.7802665415
 21
1.9475726349
 31
0.0
  0
ARC
  5
116
330
1F
100
AcDbEntity
  8
0
  6
Continuous
 62
     7
370
    25
100
AcDbCircle
 10
4.6804039673
 20
6.3906222524
 30
0.0
 40
0.0039370078740157
100
AcDbArc
 50
180.0
 51
270.0
  0
ARC
  5
117
330
1F
100
AcDbEntity
  8
0
  6
Continuous
 62
     7
370
    25
100
AcDbCircle
 10
4.6804039673
 20
6.8236931186
 30
0.0
 40
0.0039370078740166
100
AcDbArc
 50
90.0
 51
180.0
  0
ARC
  5
118
330
1F
100
AcDbEntity
  8
0
  6
Continuous
 62
     7
370
    25
100
AcDbCircle
 10
4.75678192
 20
6.3945592603
 30
0.0
 40
0.0078740157480315
100
AcDbArc
 50
270.0
 51
0.0
  0
ARC
  5
119
330
1F
100
AcDbEntity
  8
0
  6
Continuous
 62
     7
370
    25
100
AcDbCircle
 10
4.75678192
 20
6.8197561107
 30
0.0
 40
0.0078740157480315
100
AcDbArc
 50
0.0
 51
90.0
  0
LINE
  5
11A
330
1F
100
AcDbEntity
  8
0
  6
Continuous
 62
     7
370
    25
100
AcDbLine
 10
4.6804039673
 20
6.3866852446
 30
0.0
 11
4.75678192
 21
6.3866852446
 31
0.0
  0
LINE
  5
11B
330
1F
100
AcDbEntity
  8
0
  6
Continuous
 62
     7
370
    25
100
AcDbLine
 10
4.75678192
 20
6.8276301265
 30
0.0
 11
4.6804039673
 21
6.8276301265
 31
0.0
  0
ARC
  5
11C
330
1F
100
AcDbEntity
  8
0
  6
Continuous
 62
     7
370
    25
100
AcDbCircle
 10
4.7804039673
 20
6.6877295156
 30
0.0
 40
0.0157480314960642
100
AcDbArc
 50
180.0
 51
269.500000041
  0
ARC
  5
11D
330
1F
100
AcDbEntity
  8
0
  6
Continuous
 62
     7
370
    25
100
AcDbCircle
 10
4.7804039673
 20
6.5265858554
 30
0.0
 40
0.0157480314960633
100
AcDbArc
 50
90.499999959
 51
180.0
  0
LINE
  5
11E
330
1F
100
AcDbEntity
  8
0
  6
Continuous
 62
     7
370
    25
100
AcDbLine
 10
4.7802665415
 20
6.5423332873
 30
0.0
 11
5.0398527876
 21
6.5445986621
 31
0.0
  0
LINE
  5
11F
330
1F
100
AcDbEntity
  8
0
  6
Continuous
 62
     7
370
    25
100
AcDbLine
 10
5.0398527875
 20
6.6697167089
 30
0.0
 11
4.7802665415
 21
6.6719820837
 31
0.0
  0
ARC
  5
120
330
1F
100
AcDbEntity
  8
0
  6
Continuous
 62
     7
370
    25
100
AcDbCircle
 10
5.2036323137
 20
6.8370789454
 30
0.0
 40
0.0023622047244096
100
AcDbArc
 50
0.0
 51
90.0
  0
ARC
  5
121
330
1F
100
AcDbEntity
  8
0
  6
Continuous
 62
     7
370
    25
100
AcDbCircle
 10
5.0461519988
 20
6.8370789454
 30
0.0
 40
0.0023622047244096
100
AcDbArc
 50
90.0
 51
180.0
  0
ARC
  5
122
330
1F
100
AcDbEntity
  8
0
  6
Continuous
 62
     7
370
    25
100
AcDbCircle
 10
5.2036323137
 20
6.8063702839
 30
0.0
 40
0.0023622047244096
100
AcDbArc
 50
270.0
 51
0.0
  0
ARC
  5
123
330
1F
100
AcDbEntity
  8
0
  6
Continuous
 62
     7
370
    25
100
AcDbCircle
 10
5.0461519988
 20
6.8063702839
 30
0.0
 40
0.0023622047244105
100
AcDbArc
 50
180.0
 51
270.0
  0
LINE
  5
124
330
1F
100
AcDbEntity
  8
0
  6
Continuous
 62
     7
370
    25
100
AcDbLine
 10
5.2059945185
 20
6.8063702839
 30
0.0
 11
5.2059945185
 21
6.8370789454
 31
0.0
  0
LINE
  5
125
330
1F
100
AcDbEntity
  8
0
  6
Continuous
 62
     7
370
    25
100
AcDbLine
 10
5.0437897941
 20
6.8370789454
 30
0.0
 11
5.0437897941
 21
6.8063702839
 31
0.0
  0
ARC
  5
126
330
1F
100
AcDbEntity
  8
0
  6
Continuous
 62
     7
370
    25
100
AcDbCircle
 10
5.0461519988
 20
1.6528269769
 30
0.0
 40
0.0023622047244096
100
AcDbArc
 50
180.0000000001
 51
270.0
  0
ARC
  5
127
330
1F
100
AcDbEntity
  8
0
  6
Continuous
 62
     7
370
    25
100
AcDbCircle
 10
5.2036323137
 20
1.6528269769
 30
0.0
 40
0.002362204724409
100
AcDbArc
 50
270.0
 51
0.0
  0
ARC
  5
128
330
1F
100
AcDbEntity
  8
0
  6
Continuous
 62
     7
370
    25
100
AcDbCircle
 10
5.0461519988
 20
1.6835356383
 30
0.0
 40
0.0023622047244105
100
AcDbArc
 50
90.0
 51
180.0000000001
  0
ARC
  5
129
330
1F
100
AcDbEntity
  8
0
  6
Continuous
 62
     7
370
    25
100
AcDbCircle
 10
5.2036323137
 20
1.6835356383
 30
0.0
 40
0.0023622047244105
100
AcDbArc
 50
0.0
 51
90.0
  0
LINE
  5
12A
330
1F
100
AcDbEntity
  8
0
  6
Continuous
 62
     7
370
    25
100
AcDbLine
 10
5.0437897941
 20
1.6835356383
 30
0.0
 11
5.0437897941
 21
1.6528269769
 31
0.0
  0
LINE
  5
12B
330
1F
100
AcDbEntity
  8
0
  6
Continuous
 62
     7
370
    25
100
AcDbLine
 10
5.2059945185
 20
1.6528269769
 30
0.0
 11
5.2059945185
 21
1.6835356383
 31
0.0
  0
ARC
  5
12C
330
1F
100
AcDbEntity
  8
0
  6
Continuous
 62
     7
370
    25
100
AcDbCircle
 10
5.2036323137
 20
6.8016458745
 30
0.0
 40
0.0023622047244096
100
AcDbArc
 50
0.0
 51
90.0
  0
ARC
  5
12D
330
1F
100
AcDbEntity
  8
0
  6
Continuous
 62
     7
370
    25
100
AcDbCircle
 10
5.0461519988
 20
6.8016458745
 30
0.0
 40
0.0023622047244096
100
AcDbArc
 50
90.0
 51
180.0
  0
ARC
  5
12E
330
1F
100
AcDbEntity
  8
0
  6
Continuous
 62
     7
370
    25
100
AcDbCircle
 10
5.2036323137
 20
1.6882600477
 30
0.0
 40
0.0023622047244096
100
AcDbArc
 50
270.0
 51
0.0
  0
ARC
  5
12F
330
1F
100
AcDbEntity
  8
0
  6
Continuous
 62
     7
370
    25
100
AcDbCircle
 10
5.0461519988
 20
1.6882600477
 30
0.0
 40
0.0023622047244096
100
AcDbArc
 50
180.0
 51
270.0
  0
LINE
  5
130
330
1F
100
AcDbEntity
  8
0
  6
Continuous
 62
     7
370
    25
100
AcDbLine
 10
5.2059945185
 20
1.6882600477
 30
0.0
 11
5.2059945185
 21
4.0720620395
 31
0.0
  0
LINE
  5
131
330
1F
100
AcDbEntity
  8
0
  6
Continuous
 62
     7
370
    25
100
AcDbLine
 10
5.2059945185
 20
4.2850450687
 30
0.0
 11
5.2059945185
 21
6.8016458745
 31
0.0
  0
LINE
  5
132
330
1F
100
AcDbEntity
  8
0
  6
Continuous
 62
     7
370
    25
100
AcDbLine
 10
5.0437897941
 20
1.8202235711
 30
0.0
 11
5.0437897941
 21
1.6882600477
 31
0.0
  0
LINE
  5
133
330
1F
100
AcDbEntity
  8
0
  6
Continuous
 62
     7
370
    25
100
AcDbLine
 10
5.0437897941
 20
6.5500210499
 30
0.0
 11
5.0437897941
 21
4.2850450687
 31
0.0
  0
LINE
  5
134
330
1F
100
AcDbEntity
  8
0
  6
Continuous
 62
     7
370
    25
100
AcDbLine
 10
5.0437897941
 20
4.0720620395
 30
0.0
 11
5.0437897941
 21
1.9269642406
 31
0.0
  0
LINE
  5
135
330
1F
100
AcDbEntity
  8
0
  6
Continuous
 62
     7
370
    25
100
AcDbLine
 10
5.0437897941
 20
6.8016458745
 30
0.0
 11
5.0437897941
 21
6.6642834089
 31
0.0
  0
SPLINE
  5
136
330
1F
100
AcDbEntity
  8
0
  6
Continuous
 62
     7
370
    25
100
AcDbSpline
210
0.0
220
0.0
230
1.0
 70
     8
 71
     3
 72
     9
 73
     5
 74
     0
 42
0.000000001
 43
0.00000001
 40
0.0
 40
0.0
 40
0.0
 40
0.0
 40
0.503832229675153
 40
1.0
 40
1.0
 40
1.0
 40
1.0
 10
5.212821122012962
 20
4.278860208397377
 30
0.0
 10
5.212646797395312
 20
4.279198697910824
 30
0.0
 10
5.212300800042655
 20
4.279870527725416
 30
0.0
 10
5.211451165362617
 20
4.280635574099251
 30
0.0
 10
5.211029604017833
 20
4.281015165452753
 30
0.0
  0
SPLINE
  5
137
330
1F
100
AcDbEntity
  8
0
  6
Continuous
 62
     7
370
    25
100
AcDbSpline
210
0.0
220
0.0
230
1.0
 70
     8
 71
     3
 72
     9
 73
     5
 74
     0
 42
0.000000001
 43
0.00000001
 40
0.0
 40
0.0
 40
0.0
 40
0.0
 40
0.503810548915743
 40
1.0
 40
1.0
 40
1.0
 40
1.0
 10
5.212816057911023
 20
4.27887337334427
 30
0.0
 10
5.212642423577044
 20
4.279208598227444
 30
0.0
 10
5.212297781460373
 20
4.27987397707649
 30
0.0
 10
5.211458861574691
 20
4.28062940107471
 30
0.0
 10
5.21104259837711
 20
4.281004234493723
 30
0.0
  0
SPLINE
  5
138
330
1F
100
AcDbEntity
  8
0
  6
Continuous
 62
     7
370
    25
100
AcDbSpline
210
0.0
220
0.0
230
1.0
 70
     8
 71
     3
 72
     9
 73
     5
 74
     0
 42
0.000000001
 43
0.00000001
 40
0.0
 40
0.0
 40
0.0
 40
0.0
 40
0.2104361471098325
 40
1.0
 40
1.0
 40
1.0
 40
1.0
 10
5.051546938524431
 20
4.068194374114046
 30
0.0
 10
5.051610308796103
 20
4.068198886000189
 30
0.0
 10
5.051911446564221
 20
4.068220326642417
 30
0.0
 10
5.05218156596852
 20
4.068366506764439
 30
0.0
 10
5.05239484248612
 20
4.068481925304797
 30
0.0
  0
SPLINE
  5
139
330
1F
100
AcDbEntity
  8
0
  6
Continuous
 62
     7
370
    25
100
AcDbSpline
210
0.0
220
0.0
230
1.0
 70
     8
 71
     3
 72
    10
 73
     6
 74
     0
 42
0.000000001
 43
0.00000001
 40
0.0
 40
0.0
 40
0.0
 40
0.0
 40
0.0983699368463012
 40
0.6302653285829458
 40
1.0
 40
1.0
 40
1.0
 40
1.0
 10
5.198605625602612
 20
4.068122524936642
 30
0.0
 10
5.198675145111317
 20
4.068100300638409
 30
0.0
 10
5.199120563065237
 20
4.067957907493941
 30
0.0
 10
5.199905120019493
 20
4.068037202151495
 30
0.0
 10
5.200509041715053
 20
4.068320173171476
 30
0.0
 10
5.200756694049191
 20
4.068436212111799
 30
0.0
  0
SPLINE
  5
13A
330
1F
100
AcDbEntity
  8
0
  6
Continuous
 62
     7
370
    25
100
AcDbSpline
210
0.0
220
0.0
230
1.0
 70
    24
 71
     3
 72
     8
 73
     4
 74
     0
 42
0.000000001
 43
0.00000001
 40
0.0
 40
0.0
 40
0.0
 40
0.0
 40
1.0
 40
1.0
 40
1.0
 40
1.0
 10
4.67646695941834
 20
2.099283263951526
 30
0.0
 10
4.67646695941834
 20
2.099230452439654
 30
0.0
 10
4.67646695941834
 20
2.09401977862105
 30
0.0
 10
4.67646695941834
 20
2.083925720823479
 30
0.0
  0
SPLINE
  5
13B
330
1F
100
AcDbEntity
  8
0
  6
Continuous
 62
     7
370
    25
100
AcDbSpline
210
0.0
220
0.0
230
1.0
 70
    24
 71
     3
 72
    25
 73
    21
 74
     0
 42
0.000000001
 43
0.00000001
 40
0.0
 40
0.0
 40
0.0
 40
0.0
 40
0.0662242375898011
 40
0.1364152811751201
 40
0.1730202644482735
 40
0.2096183082091659
 40
0.2842789517117223
 40
0.3589395952142806
 40
0.3955445779284131
 40
0.4321426211310797
 40
0.5023336647164011
 40
0.5685579023062001
 40
0.6347821398960012
 40
0.7049731834813213
 40
0.7415781667544422
 40
0.7781762105153672
 40
0.8528368540179236
 40
0.9274974975204824
 40
0.9641024802351174
 40
1.0
 40
1.0
 40
1.0
 40
1.0
 10
4.67646695941834
 20
2.083925720823479
 30
0.0
 10
4.67646695941834
 20
2.07839141956079
 30
0.0
 10
4.67646695941834
 20
2.066991314548881
 30
0.0
 10
4.67646695941834
 20
2.045374307961412
 30
0.0
 10
4.676466959418341
 20
2.024785815726096
 30
0.0
 10
4.676466959418341
 20
2.00153319715655
 30
0.0
 10
4.676466959418341
 20
1.968980271765848
 30
0.0
 10
4.676466959418342
 20
1.9333690115509
 30
0.0
 10
4.676466959418342
 20
1.904207738430537
 30
0.0
 10
4.676466959418342
 20
1.875640880794231
 30
0.0
 10
4.676466959418342
 20
1.841117175926089
 30
0.0
 10
4.676466959418342
 20
1.802205696854827
 30
0.0
 10
4.676466959418342
 20
1.766032900292265
 30
0.0
 10
4.676466959418342
 20
1.738605117499124
 30
0.0
 10
4.676466959418342
 20
1.718806502717401
 30
0.0
 10
4.676466959418342
 20
1.700652414822289
 30
0.0
 10
4.676466959418342
 20
1.682415685868035
 30
0.0
 10
4.676466959418342
 20
1.671364491933647
 30
0.0
 10
4.676466959418342
 20
1.666824655816151
 30
0.0
 10
4.676466959418342
 20
1.666429251795561
 30
0.0
 10
4.676466959418342
 20
1.666233478916577
 30
0.0
  0
SPLINE
  5
13C
330
1F
100
AcDbEntity
  8
0
  6
Continuous
 62
     7
370
    25
100
AcDbSpline
210
0.0
220
0.0
230
1.0
 70
    24
 71
     3
 72
    14
 73
    10
 74
     0
 42
0.000000001
 43
0.00000001
 40
0.0
 40
0.0
 40
0.0
 40
0.0
 40
0.2499999999999998
 40
0.2499999999999998
 40
0.4999999999999999
 40
0.4999999999999999
 40
0.75
 40
0.75
 40
1.0
 40
1.0
 40
1.0
 40
1.0
 10
4.764655935796292
 20
2.080267948620615
 30
0.0
 10
4.764655935796293
 20
2.06196901016565
 30
0.0
 10
4.764655935796293
 20
2.028209164974266
 30
0.0
 10
4.764655935796294
 20
1.941414965170311
 30
0.0
 10
4.764655935796294
 20
1.891087241383741
 30
0.0
 10
4.764655935796294
 20
1.7939338454833
 30
0.0
 10
4.764655935796294
 20
1.750137850200241
 30
0.0
 10
4.764655935796294
 20
1.687217087611728
 30
0.0
 10
4.764655935796294
 20
1.670054470726487
 30
0.0
 10
4.764655935796294
 20
1.670150209687389
 30
0.0
  0
SPLINE
  5
13D
330
1F
100
AcDbEntity
  8
0
  6
Continuous
 62
     7
370
    25
100
AcDbSpline
210
0.0
220
0.0
230
1.0
 70
    24
 71
     3
 72
    11
 73
     7
 74
     0
 42
0.000000001
 43
0.00000001
 40
0.0
 40
0.0
 40
0.0
 40
0.0
 40
0.321859799265678
 40
0.653701220656535
 40
0.9948952283073221
 40
1.0
 40
1.0
 40
1.0
 40
1.0
 10
4.764655935796292
 20
2.080267948555579
 30
0.0
 10
4.764655935796292
 20
2.083197269246275
 30
0.0
 10
4.764655935796292
 20
2.089146755685939
 30
0.0
 10
4.764655935796292
 20
2.093885137899441
 30
0.0
 10
4.764655935796292
 20
2.09579013979067
 30
0.0
 10
4.764655935796292
 20
2.095333099939399
 30
0.0
 10
4.764655935796292
 20
2.095326362739518
 30
0.0
  0
LINE
  5
13E
330
1F
100
AcDbEntity
  8
0
  6
Continuous
 62
     7
370
    25
100
AcDbLine
 10
5.0434498064
 20
1.8207462322
 30
0.0
 11
5.0441498776
 21
1.8208693191
 31
0.0
  0
SPLINE
  5
13F
330
1F
100
AcDbEntity
  8
0
  6
Continuous
 62
     7
370
    25
100
AcDbSpline
210
0.0
220
0.0
230
1.0
 70
     8
 71
     3
 72
    13
 73
     9
 74
     0
 42
0.000000001
 43
0.00000001
 40
0.0
 40
0.0
 40
0.0
 40
0.0
 40
0.2050734188656413
 40
0.4089594352280331
 40
0.5873753959940664
 40
0.7629748633456543
 40
0.9259200804579399
 40
1.0
 40
1.0
 40
1.0
 40
1.0
 10
5.065443337371097
 20
1.876357641358111
 30
0.0
 10
5.062811677866516
 20
1.883576242404406
 30
0.0
 10
5.057563596517603
 20
1.897971647832171
 30
0.0
 10
5.048048723893209
 20
1.91641837095778
 30
0.0
 10
5.041468021130158
 20
1.931609934589337
 30
0.0
 10
5.039202102774712
 20
1.94142987499907
 30
0.0
 10
5.040592555752017
 20
1.945643504732864
 30
0.0
 10
5.043302812890755
 20
1.944869166300772
 30
0.0
 10
5.044149877609755
 20
1.944627154294969
 30
0.0
  0
LINE
  5
140
330
1F
100
AcDbEntity
  8
0
  6
Continuous
 62
     7
370
    25
100
AcDbLine
 10
5.0654433374
 20
1.8537256909
 30
0.0
 11
5.0654433374
 21
1.8763576414
 31
0.0
  0
SPLINE
  5
141
330
1F
100
AcDbEntity
  8
0
  6
Continuous
 62
     7
370
    25
100
AcDbSpline
210
0.0
220
0.0
230
1.0
 70
    24
 71
     3
 72
    14
 73
    10
 74
     0
 42
0.000000001
 43
0.00000001
 40
0.0
 40
0.0
 40
0.0
 40
0.0
 40
0.25
 40
0.25
 40
0.5
 40
0.5
 40
0.75
 40
0.75
 40
1.0
 40
1.0
 40
1.0
 40
1.0
 10
4.676466959418281
 20
6.823693118258578
 30
0.0
 10
4.676466959418281
 20
6.823693106889259
 30
0.0
 10
4.676466959418281
 20
6.800878457717318
 30
0.0
 10
4.676466959418281
 20
6.719664198408104
 30
0.0
 10
4.676466959418281
 20
6.66458478476546
 30
0.0
 10
4.676466959418281
 20
6.549730500530926
 30
0.0
 10
4.676466959418281
 20
6.494651095921882
 30
0.0
 10
4.676466959418281
 20
6.413436868769963
 30
0.0
 10
4.676466959418281
 20
6.390622241407062
 30
0.0
 10
4.676466959418281
 20
6.390622252776382
 30
0.0
  0
SPLINE
  5
142
330
1F
100
AcDbEntity
  8
0
  6
Continuous
 62
     7
370
    25
100
AcDbSpline
210
0.0
220
0.0
230
1.0
 70
    24
 71
     3
 72
    14
 73
    10
 74
     0
 42
0.000000001
 43
0.00000001
 40
0.0
 40
0.0
 40
0.0
 40
0.0
 40
0.2499999999999999
 40
0.2499999999999999
 40
0.4999999999999998
 40
0.4999999999999998
 40
0.7499999999999998
 40
0.7499999999999998
 40
1.0
 40
1.0
 40
1.0
 40
1.0
 10
4.764655935796234
 20
6.394559260460633
 30
0.0
 10
4.764655935796234
 20
6.394559249298029
 30
0.0
 10
4.764655935796234
 20
6.416959065273693
 30
0.0
 10
4.764655935796234
 20
6.496696670182685
 30
0.0
 10
4.764655935796234
 20
6.55077463111831
 30
0.0
 10
4.764655935796234
 20
6.663540655736962
 30
0.0
 10
4.764655935796234
 20
6.717618625541939
 30
0.0
 10
4.764655935796234
 20
6.797356262023544
 30
0.0
 10
4.764655935796234
 20
6.819756099411722
 30
0.0
 10
4.764655935796234
 20
6.819756110574326
 30
0.0
  0
SPLINE
  5
143
330
1F
100
AcDbEntity
  8
0
  6
Continuous
 62
     7
370
    25
100
AcDbSpline
210
0.0
220
0.0
230
1.0
 70
     8
 71
     3
 72
    26
 73
    22
 74
     0
 42
0.000000001
 43
0.00000001
 40
0.0
 40
0.0
 40
0.0
 40
0.0
 40
0.1249999999999633
 40
0.1249999999999633
 40
0.2499999999999265
 40
0.2499999999999265
 40
0.3749999999998898
 40
0.3749999999998898
 40
0.499999999999853
 40
0.499999999999853
 40
0.5624999999998497
 40
0.5624999999998497
 40
0.6249999999998465
 40
0.6249999999998465
 40
0.7499999999998654
 40
0.7499999999998654
 40
0.8124999999998915
 40
0.8124999999998915
 40
0.8749999999999177
 40
0.8749999999999177
 40
1.0
 40
1.0
 40
1.0
 40
1.0
 10
5.065443337371039
 20
6.624156410535274
 30
0.0
 10
5.064465411394873
 20
6.627494510528456
 30
0.0
 10
5.063287173161265
 20
6.630633414660106
 30
0.0
 10
5.060712141524125
 20
6.636614011572573
 30
0.0
 10
5.059313976641134
 20
6.639454744451649
 30
0.0
 10
5.056417100988284
 20
6.644882817765956
 30
0.0
 10
5.054933388521412
 20
6.647439597341806
 30
0.0
 10
5.052038605724358
 20
6.652188797404218
 30
0.0
 10
5.05061878960328
 20
6.654395743381446
 30
0.0
 10
5.048586985270222
 20
6.657455323242
 30
0.0
 10
5.047923556423902
 20
6.65843654270706
 30
0.0
 10
5.046657845721511
 20
6.660283580145868
 30
0.0
 10
5.046054032499256
 20
6.661151818317957
 30
0.0
 10
5.044340896859526
 20
6.663589494000005
 30
0.0
 10
5.043329099695383
 20
6.664993598426646
 30
0.0
 10
5.042060201828858
 20
6.666735433861345
 30
0.0
 10
5.04167992980984
 20
6.667253436527951
 30
0.0
 10
5.041027275320194
 20
6.668138715030118
 30
0.0
 10
5.040752236571809
 20
6.668509635563499
 30
0.0
 10
5.040086002405945
 20
6.669405928735936
 30
0.0
 10
5.039852786191901
 20
6.669716708192915
 30
0.0
 10
5.039852786189935
 20
6.669716708908921
 30
0.0
  0
LINE
  5
144
330
1F
100
AcDbEntity
  8
0
  6
Continuous
 62
     7
370
    25
100
AcDbLine
 10
5.0654433374
 20
6.5901589368
 30
0.0
 11
5.0654433374
 21
6.6241564105
 31
0.0
  0
SPLINE
  5
145
330
1F
100
AcDbEntity
  8
0
  6
Continuous
 62
     7
370
    25
100
AcDbSpline
210
0.0
220
0.0
230
1.0
 70
     8
 71
     3
 72
    24
 73
    20
 74
     0
 42
0.000000001
 43
0.00000001
 40
0.0
 40
0.0
 40
0.0
 40
0.0
 40
0.1250000000000246
 40
0.1250000000000246
 40
0.1875000000000231
 40
0.1875000000000231
 40
0.2500000000000215
 40
0.2500000000000215
 40
0.3750000000000179
 40
0.3750000000000179
 40
0.5000000000000142
 40
0.5000000000000142
 40
0.6250000000000107
 40
0.6250000000000107
 40
0.7500000000000071
 40
0.7500000000000071
 40
0.8750000000000036
 40
0.8750000000000036
 40
1.0
 40
1.0
 40
1.0
 40
1.0
 10
5.039852786234094
 20
6.544598662082262
 30
0.0
 10
5.039852786233415
 20
6.544598661369487
 30
0.0
 10
5.040085069410564
 20
6.544908189144161
 30
0.0
 10
5.040751461234826
 20
6.545804685115837
 30
0.0
 10
5.041026802028306
 20
6.546176007152803
 30
0.0
 10
5.04168098216483
 20
6.547063356367843
 30
0.0
 10
5.04206139900732
 20
6.547581577625313
 30
0.0
 10
5.043324505941248
 20
6.549315447939354
 30
0.0
 10
5.044334278448912
 20
6.550716534798211
 30
0.0
 10
5.046623667900245
 20
6.553974006401536
 30
0.0
 10
5.047909507678063
 20
6.555840073894334
 30
0.0
 10
5.050606588085991
 20
6.559901023159282
 30
0.0
 10
5.052026801450284
 20
6.562107428218589
 30
0.0
 10
5.054936955221104
 20
6.566881369053463
 30
0.0
 10
5.056422932410765
 20
6.569444285031704
 30
0.0
 10
5.059292147188183
 20
6.574818881909567
 30
0.0
 10
5.060686486676009
 20
6.577646201646335
 30
0.0
 10
5.063271588541233
 20
6.583641359909888
 30
0.0
 10
5.064468083012792
 20
6.58682995656013
 30
0.0
 10
5.065443337371039
 20
6.590158936752926
 30
0.0
  0
SPLINE
  5
146
330
1F
100
AcDbEntity
  8
0
  6
Continuous
 62
     7
370
    25
100
AcDbSpline
210
0.0
220
0.0
230
1.0
 70
    24
 71
     3
 72
    14
 73
    10
 74
     0
 42
0.000000001
 43
0.00000001
 40
0.0
 40
0.0
 40
0.0
 40
0.0
 40
0.25
 40
0.25
 40
0.5
 40
0.5
 40
0.75
 40
0.75
 40
1.0
 40
1.0
 40
1.0
 40
1.0
 10
5.046151999518079
 20
6.839441150084417
 30
0.0
 10
5.046154826353018
 20
6.839441150084417
 30
0.0
 10
5.054453769654453
 20
6.839441150084417
 30
0.0
 10
5.083990219257889
 20
6.839441150084417
 30
0.0
 10
5.104020218192696
 20
6.839441150084417
 30
0.0
 10
5.145785412136348
 20
6.839441150084417
 30
0.0
 10
5.165813164982837
 20
6.839441150084417
 30
0.0
 10
5.195341619089657
 20
6.839441150084417
 30
0.0
 10
5.203635139854209
 20
6.839441150084417
 30
0.0
 10
5.203632313019271
 20
6.839441150084417
 30
0.0
  0
SPLINE
  5
147
330
1F
100
AcDbEntity
  8
0
  6
Continuous
 62
     7
370
    25
100
AcDbSpline
210
0.0
220
0.0
230
1.0
 70
    24
 71
     3
 72
    14
 73
    10
 74
     0
 42
0.000000001
 43
0.00000001
 40
0.0
 40
0.0
 40
0.0
 40
0.0
 40
0.2500000000000001
 40
0.2500000000000001
 40
0.5
 40
0.5
 40
0.75
 40
0.75
 40
1.0
 40
1.0
 40
1.0
 40
1.0
 10
5.203632313030861
 20
6.804008079218274
 30
0.0
 10
5.203635139865797
 20
6.804008079218274
 30
0.0
 10
5.19534161910002
 20
6.804008079218274
 30
0.0
 10
5.165813164988851
 20
6.804008079218274
 30
0.0
 10
5.145785412139415
 20
6.804008079218274
 30
0.0
 10
5.104020218189615
 20
6.804008079218274
 30
0.0
 10
5.083990219251861
 20
6.804008079218274
 30
0.0
 10
5.054453769644081
 20
6.804008079218274
 30
0.0
 10
5.046154826341427
 20
6.804008079218274
 30
0.0
 10
5.04615199950649
 20
6.804008079218274
 30
0.0
  0
SPLINE
  5
148
330
1F
100
AcDbEntity
  8
0
  6
Continuous
 62
     7
370
    25
100
AcDbSpline
210
0.0
220
0.0
230
1.0
 70
    24
 71
     3
 72
    18
 73
    14
 74
     0
 42
0.000000001
 43
0.00000001
 40
0.0
 40
0.0
 40
0.0
 40
0.0
 40
0.0914238544058066
 40
0.1883239620232675
 40
0.2892525894074206
 40
0.3923230670730294
 40
0.4953935447386419
 40
0.5963221721227944
 40
0.6932222797402546
 40
0.7846461341460622
 40
0.8760699885518696
 40
0.972970096169331
 40
1.0
 40
1.0
 40
1.0
 40
1.0
 10
5.091986263917269
 20
1.650464772131659
 30
0.0
 10
5.096456035922234
 20
1.650464772131659
 30
0.0
 10
5.105663317531468
 20
1.650464772131661
 30
0.0
 10
5.120826381294837
 20
1.650464772131656
 30
0.0
 10
5.136682333333946
 20
1.650464772131659
 30
0.0
 10
5.152402808006088
 20
1.650464772131659
 30
0.0
 10
5.166955707063145
 20
1.650464772131659
 30
0.0
 10
5.179498629952849
 20
1.650464772131661
 30
0.0
 10
5.189450928761063
 20
1.650464772131659
 30
0.0
 10
5.196863378726062
 20
1.650464772131661
 30
0.0
 10
5.201604456296069
 20
1.650464772131656
 30
0.0
 10
5.203840419139907
 20
1.650464772131665
 30
0.0
 10
5.20341115865539
 20
1.650464772131659
 30
0.0
 10
5.203317534282414
 20
1.650464772131659
 30
0.0
  0
SPLINE
  5
149
330
1F
100
AcDbEntity
  8
0
  6
Continuous
 62
     7
370
    25
100
AcDbSpline
210
0.0
220
0.0
230
1.0
 70
    24
 71
     3
 72
    13
 73
     9
 74
     0
 42
0.000000001
 43
0.00000001
 40
0.0
 40
0.0
 40
0.0
 40
0.0
 40
0.1298080575996113
 40
0.3108582551981537
 40
0.4919084527966975
 40
0.6691963469164225
 40
0.8394078762388986
 40
0.9999999999999999
 40
0.9999999999999999
 40
0.9999999999999999
 40
0.9999999999999999
 10
5.046466778254937
 20
1.650464772131659
 30
0.0
 10
5.046507819327141
 20
1.650464772131661
 30
0.0
 10
5.046606102564196
 20
1.650464772131661
 30
0.0
 10
5.050587609495226
 20
1.650464772131657
 30
0.0
 10
5.057657888533494
 20
1.650464772131661
 30
0.0
 10
5.067465736836446
 20
1.650464772131659
 30
0.0
 10
5.078961444102081
 20
1.650464772131659
 30
0.0
 10
5.087729647205669
 20
1.650464772131661
 30
0.0
 10
5.091986263917269
 20
1.650464772131659
 30
0.0
  0
SPLINE
  5
14A
330
1F
100
AcDbEntity
  8
0
  6
Continuous
 62
     7
370
    25
100
AcDbSpline
210
0.0
220
0.0
230
1.0
 70
    24
 71
     3
 72
    13
 73
     9
 74
     0
 42
0.000000001
 43
0.00000001
 40
0.0
 40
0.0
 40
0.0
 40
0.0
 40
0.1605921237627655
 40
0.3308036530870105
 40
0.5080915472085747
 40
0.6891417448090087
 40
0.8701919424094259
 40
1.0
 40
1.0
 40
1.0
 40
1.0
 10
5.091986263908963
 20
1.685897842997801
 30
0.0
 10
5.087729647196289
 20
1.685897842997801
 30
0.0
 10
5.078961444090488
 20
1.685897842997801
 30
0.0
 10
5.067465736821953
 20
1.685897842997799
 30
0.0
 10
5.057657888516521
 20
1.685897842997801
 30
0.0
 10
5.05058760947648
 20
1.685897842997802
 30
0.0
 10
5.046606102544495
 20
1.685897842997799
 30
0.0
 10
5.046507819307402
 20
1.685897842997799
 30
0.0
 10
5.046466778235185
 20
1.685897842997801
 30
0.0
  0
SPLINE
  5
14B
330
1F
100
AcDbEntity
  8
0
  6
Continuous
 62
     7
370
    25
100
AcDbSpline
210
0.0
220
0.0
230
1.0
 70
    24
 71
     3
 72
    18
 73
    14
 74
     0
 42
0.000000001
 43
0.00000001
 40
0.0
 40
0.0
 40
0.0
 40
0.0
 40
0.0270299038364323
 40
0.123930011453316
 40
0.2153538658585831
 40
0.3067777202638466
 40
0.4036778278807343
 40
0.5046064552642898
 40
0.6076769329292915
 40
0.7107474105942919
 40
0.8116760379778475
 40
0.9085761455947361
 40
0.9999999999999999
 40
0.9999999999999999
 40
0.9999999999999999
 40
0.9999999999999999
 10
5.203317534302165
 20
1.685897842997799
 30
0.0
 10
5.203411158675189
 20
1.685897842997799
 30
0.0
 10
5.203840419159857
 20
1.685897842997801
 30
0.0
 10
5.201604456315446
 20
1.685897842997802
 30
0.0
 10
5.196863378744223
 20
1.685897842997801
 30
0.0
 10
5.189450928777358
 20
1.685897842997801
 30
0.0
 10
5.179498629966631
 20
1.685897842997799
 30
0.0
 10
5.166955707073761
 20
1.685897842997802
 30
0.0
 10
5.152402808013033
 20
1.685897842997801
 30
0.0
 10
5.136682333336922
 20
1.685897842997799
 30
0.0
 10
5.12082638129381
 20
1.685897842997802
 30
0.0
 10
5.105663317526615
 20
1.685897842997797
 30
0.0
 10
5.096456035915057
 20
1.685897842997802
 30
0.0
 10
5.091986263908963
 20
1.685897842997801
 30
0.0
  0
LINE
  5
14C
330
1F
100
AcDbEntity
  8
0
  6
Continuous
 62
     7
370
    25
100
AcDbLine
 10
4.6764669594
 20
2.0855041422
 30
0.0
 11
4.6764669594
 21
2.0854986289
 31
0.0
  0
SPLINE
  5
14D
330
1F
100
AcDbEntity
  8
0
  6
Continuous
 62
     7
370
    25
100
AcDbSpline
210
0.0
220
0.0
230
1.0
 70
     8
 71
     3
 72
    28
 73
    24
 74
     0
 42
0.000000001
 43
0.00000001
 40
0.0
 40
0.0
 40
0.0
 40
0.0
 40
0.0041205394319228
 40
0.1282102011968954
 40
0.2522997612847732
 40
0.2891035658456086
 40
0.3259088440199979
 40
0.3631474196490166
 40
0.398901815396223
 40
0.4501838898446246
 40
0.5014644121404873
 40
0.5359008699257907
 40
0.569967133255786
 40
0.640075340955744
 40
0.7138887070968665
 40
0.7880661506048713
 40
0.8156749122466874
 40
0.8433301696468135
 40
0.8752822779958368
 40
0.8975743553584284
 40
0.9317163899120775
 40
0.9658594824707857
 40
1.0
 40
1.0
 40
1.0
 40
1.0
 10
5.124892156268682
 20
4.205076552720834
 30
0.0
 10
5.125006329775808
 20
4.205076099048614
 30
0.0
 10
5.128558827831395
 20
4.205061983079656
 30
0.0
 10
5.135603330479673
 20
4.203574958079258
 30
0.0
 10
5.142293629440979
 20
4.198979735308665
 30
0.0
 10
5.145896358908113
 20
4.194842957733751
 30
0.0
 10
5.147647283095663
 20
4.192309873372405
 30
0.0
 10
5.149064186813222
 20
4.189609107411283
 30
0.0
 10
5.150317878499393
 20
4.186394995412661
 30
0.0
 10
5.151218683250933
 20
4.182651013139584
 30
0.0
 10
5.151492300729253
 20
4.178847559985264
 30
0.0
 10
5.15129685612315
 20
4.175527975989365
 30
0.0
 10
5.150655142798775
 20
4.171734360223565
 30
0.0
 10
5.149032758366247
 20
4.167030915713538
 30
0.0
 10
5.145812621889697
 20
4.16185483697449
 30
0.0
 10
5.142319060626943
 20
4.158397230920012
 30
0.0
 10
5.139401851352556
 20
4.156304676160728
 30
0.0
 10
5.137318191245877
 20
4.155073579809182
 30
0.0
 10
5.135260885414171
 20
4.15410613439534
 30
0.0
 10
5.132964097109852
 20
4.15325008828234
 30
0.0
 10
5.130539352139959
 20
4.152586014283958
 30
0.0
 10
5.127731970890224
 20
4.152114609292948
 30
0.0
 10
5.125838737344073
 20
4.15205857267739
 30
0.0
 10
5.124892156268673
 20
4.152030555426203
 30
0.0
  0
SPLINE
  5
14E
330
1F
100
AcDbEntity
  8
0
  6
Continuous
 62
     7
370
    25
100
AcDbSpline
210
0.0
220
0.0
230
1.0
 70
     8
 71
     3
 72
    14
 73
    10
 74
     0
 42
0.000000001
 43
0.00000001
 40
0.0
 40
0.0
 40
0.0
 40
0.0
 40
0.2499999999999999
 40
0.2499999999999999
 40
0.5
 40
0.5
 40
0.7500000000000001
 40
0.7500000000000001
 40
1.0
 40
1.0
 40
1.0
 40
1.0
 10
5.124892156268682
 20
4.152030555426203
 30
0.0
 10
5.117858018744795
 20
4.152030555426203
 30
0.0
 10
5.111111450410704
 20
4.15482507552966
 30
0.0
 10
5.101163677724824
 20
4.164772848215539
 30
0.0
 10
5.098369157621367
 20
4.171519416549629
 30
0.0
 10
5.098369157621367
 20
4.185587691597406
 30
0.0
 10
5.101163677724824
 20
4.192334259931497
 30
0.0
 10
5.111111450410704
 20
4.202282032617377
 30
0.0
 10
5.117858018744794
 20
4.205076552720834
 30
0.0
 10
5.124892156268682
 20
4.205076552720834
 30
0.0
  0
SPLINE
  5
14F
330
1F
100
AcDbEntity
  8
0
  6
Continuous
 62
     7
370
    25
100
AcDbSpline
210
0.0
220
0.0
230
1.0
 70
     8
 71
     3
 72
    12
 73
     8
 74
     0
 42
0.000000001
 43
0.00000001
 40
0.0
 40
0.0
 40
0.0
 40
0.0
 40
0.2025236556766849
 40
0.4037850251313091
 40
0.6037845720884659
 40
0.8025227505371406
 40
1.0
 40
1.0
 40
1.0
 40
1.0
 10
5.128829164142699
 20
4.174616546199503
 30
0.0
 10
5.128829161036359
 20
4.173813451947426
 30
0.0
 10
5.128829154843041
 20
4.172212268956362
 30
0.0
 10
5.128829137273122
 20
4.169824840695613
 30
0.0
 10
5.128829137453442
 20
4.167460441016042
 30
0.0
 10
5.128829155036523
 20
4.165120098080295
 30
0.0
 10
5.128829161113754
 20
4.163575409122117
 30
0.0
 10
5.128829164142699
 20
4.162805522577454
 30
0.0
  0
SPLINE
  5
150
330
1F
100
AcDbEntity
  8
0
  6
Continuous
 62
     7
370
    25
100
AcDbSpline
210
0.0
220
0.0
230
1.0
 70
    24
 71
     3
 72
     8
 73
     4
 74
     0
 42
0.000000001
 43
0.00000001
 40
0.0
 40
0.0
 40
0.0
 40
0.0
 40
1.0
 40
1.0
 40
1.0
 40
1.0
 10
5.140640187764745
 20
4.174616546199502
 30
0.0
 10
5.136746055282421
 20
4.174616546199502
 30
0.0
 10
5.132798820124918
 20
4.174616546199502
 30
0.0
 10
5.128829164142699
 20
4.174616546199502
 30
0.0
  0
SPLINE
  5
151
330
1F
100
AcDbEntity
  8
0
  6
Continuous
 62
     7
370
    25
100
AcDbSpline
210
0.0
220
0.0
230
1.0
 70
     8
 71
     3
 72
    11
 73
     7
 74
     0
 42
0.000000001
 43
0.00000001
 40
0.0
 40
0.0
 40
0.0
 40
0.0
 40
0.2500032663250494
 40
0.5
 40
0.7499967336749505
 40
1.0
 40
1.0
 40
1.0
 40
1.0
 10
5.140640187764747
 20
4.182490561947534
 30
0.0
 10
5.1406401839978
 20
4.181834706173492
 30
0.0
 10
5.140640176464003
 20
4.18052301176309
 30
0.0
 10
5.140640161768984
 20
4.178553554073518
 30
0.0
 10
5.140640176464003
 20
4.176584096383947
 30
0.0
 10
5.1406401839978
 20
4.175272401973545
 30
0.0
 10
5.140640187764747
 20
4.174616546199502
 30
0.0
  0
SPLINE
  5
152
330
1F
100
AcDbEntity
  8
0
  6
Continuous
 62
     7
370
    25
100
AcDbSpline
210
0.0
220
0.0
230
1.0
 70
    24
 71
     3
 72
     8
 73
     4
 74
     0
 42
0.000000001
 43
0.00000001
 40
0.0
 40
0.0
 40
0.0
 40
0.0
 40
1.0
 40
1.0
 40
1.0
 40
1.0
 10
5.128829164142699
 20
4.182490561947534
 30
0.0
 10
5.132798820124918
 20
4.182490561947534
 30
0.0
 10
5.136746055282421
 20
4.182490561947534
 30
0.0
 10
5.140640187764745
 20
4.182490561947534
 30
0.0
  0
SPLINE
  5
153
330
1F
100
AcDbEntity
  8
0
  6
Continuous
 62
     7
370
    25
100
AcDbSpline
210
0.0
220
0.0
230
1.0
 70
     8
 71
     3
 72
    12
 73
     8
 74
     0
 42
0.000000001
 43
0.00000001
 40
0.0
 40
0.0
 40
0.0
 40
0.0
 40
0.197477249462874
 40
0.3962154279116358
 40
0.5962149748688073
 40
0.7974763443233733
 40
1.0
 40
1.0
 40
1.0
 40
1.0
 10
5.128829164142699
 20
4.194301585569582
 30
0.0
 10
5.128829161113754
 20
4.193531699024918
 30
0.0
 10
5.128829155036523
 20
4.191987010066739
 30
0.0
 10
5.128829137453442
 20
4.189646667130994
 30
0.0
 10
5.128829137273122
 20
4.187282267451424
 30
0.0
 10
5.128829154843041
 20
4.184894839190672
 30
0.0
 10
5.128829161036359
 20
4.18329365619961
 30
0.0
 10
5.128829164142699
 20
4.182490561947534
 30
0.0
  0
SPLINE
  5
154
330
1F
100
AcDbEntity
  8
0
  6
Continuous
 62
     7
370
    25
100
AcDbSpline
210
0.0
220
0.0
230
1.0
 70
    24
 71
     3
 72
     8
 73
     4
 74
     0
 42
0.000000001
 43
0.00000001
 40
0.0
 40
0.0
 40
0.0
 40
0.0
 40
1.0
 40
1.0
 40
1.0
 40
1.0
 10
5.124892156268682
 20
4.194301585569582
 30
0.0
 10
5.126210207662399
 20
4.194301585569582
 30
0.0
 10
5.127512830080518
 20
4.194301585569582
 30
0.0
 10
5.128829164142699
 20
4.194301585569582
 30
0.0
  0
SPLINE
  5
155
330
1F
100
AcDbEntity
  8
0
  6
Continuous
 62
     7
370
    25
100
AcDbSpline
210
0.0
220
0.0
230
1.0
 70
    24
 71
     3
 72
     8
 73
     4
 74
     0
 42
0.000000001
 43
0.00000001
 40
0.0
 40
0.0
 40
0.0
 40
0.0
 40
1.0
 40
1.0
 40
1.0
 40
1.0
 10
5.120955148394667
 20
4.194301585569582
 30
0.0
 10
5.122271482456847
 20
4.194301585569582
 30
0.0
 10
5.123574104874967
 20
4.194301585569582
 30
0.0
 10
5.124892156268683
 20
4.194301585569582
 30
0.0
  0
SPLINE
  5
156
330
1F
100
AcDbEntity
  8
0
  6
Continuous
 62
     7
370
    25
100
AcDbSpline
210
0.0
220
0.0
230
1.0
 70
     8
 71
     3
 72
    12
 73
     8
 74
     0
 42
0.000000001
 43
0.00000001
 40
0.0
 40
0.0
 40
0.0
 40
0.0
 40
0.2025236556766265
 40
0.4037850251312655
 40
0.6037845720884368
 40
0.8025227505371261
 40
1.0
 40
1.0
 40
1.0
 40
1.0
 10
5.120955148394667
 20
4.182490561947534
 30
0.0
 10
5.120955151501007
 20
4.18329365619961
 30
0.0
 10
5.120955157694325
 20
4.184894839190674
 30
0.0
 10
5.120955175264242
 20
4.187282267451424
 30
0.0
 10
5.120955175083923
 20
4.189646667130996
 30
0.0
 10
5.120955157500843
 20
4.19198701006674
 30
0.0
 10
5.120955151423613
 20
4.193531699024918
 30
0.0
 10
5.120955148394667
 20
4.194301585569581
 30
0.0
  0
SPLINE
  5
157
330
1F
100
AcDbEntity
  8
0
  6
Continuous
 62
     7
370
    25
100
AcDbSpline
210
0.0
220
0.0
230
1.0
 70
    24
 71
     3
 72
     8
 73
     4
 74
     0
 42
0.000000001
 43
0.00000001
 40
0.0
 40
0.0
 40
0.0
 40
0.0
 40
1.0
 40
1.0
 40
1.0
 40
1.0
 10
5.109144124772619
 20
4.182490561947534
 30
0.0
 10
5.113038257254944
 20
4.182490561947534
 30
0.0
 10
5.116985492412446
 20
4.182490561947534
 30
0.0
 10
5.120955148394667
 20
4.182490561947534
 30
0.0
  0
SPLINE
  5
158
330
1F
100
AcDbEntity
  8
0
  6
Continuous
 62
     7
370
    25
100
AcDbSpline
210
0.0
220
0.0
230
1.0
 70
     8
 71
     3
 72
    11
 73
     7
 74
     0
 42
0.000000001
 43
0.00000001
 40
0.0
 40
0.0
 40
0.0
 40
0.0
 40
0.2500032663250494
 40
0.5
 40
0.7499967336749505
 40
1.0
 40
1.0
 40
1.0
 40
1.0
 10
5.109144124772619
 20
4.174616546199502
 30
0.0
 10
5.109144128539566
 20
4.175272401973545
 30
0.0
 10
5.109144136073362
 20
4.176584096383948
 30
0.0
 10
5.109144150768381
 20
4.178553554073519
 30
0.0
 10
5.109144136073362
 20
4.18052301176309
 30
0.0
 10
5.109144128539566
 20
4.181834706173492
 30
0.0
 10
5.109144124772619
 20
4.182490561947534
 30
0.0
  0
SPLINE
  5
159
330
1F
100
AcDbEntity
  8
0
  6
Continuous
 62
     7
370
    25
100
AcDbSpline
210
0.0
220
0.0
230
1.0
 70
    24
 71
     3
 72
     8
 73
     4
 74
     0
 42
0.000000001
 43
0.00000001
 40
0.0
 40
0.0
 40
0.0
 40
0.0
 40
1.0
 40
1.0
 40
1.0
 40
1.0
 10
5.120955148394667
 20
4.174616546199503
 30
0.0
 10
5.116985492412446
 20
4.174616546199503
 30
0.0
 10
5.113038257254944
 20
4.174616546199503
 30
0.0
 10
5.109144124772619
 20
4.174616546199503
 30
0.0
  0
SPLINE
  5
15A
330
1F
100
AcDbEntity
  8
0
  6
Continuous
 62
     7
370
    25
100
AcDbSpline
210
0.0
220
0.0
230
1.0
 70
     8
 71
     3
 72
    12
 73
     8
 74
     0
 42
0.000000001
 43
0.00000001
 40
0.0
 40
0.0
 40
0.0
 40
0.0
 40
0.1974772494628596
 40
0.3962154279116069
 40
0.5962149748687637
 40
0.797476344323315
 40
1.0
 40
1.0
 40
1.0
 40
1.0
 10
5.120955148394667
 20
4.162805522577454
 30
0.0
 10
5.120955151423613
 20
4.163575409122117
 30
0.0
 10
5.120955157500843
 20
4.165120098080297
 30
0.0
 10
5.120955175083923
 20
4.167460441016043
 30
0.0
 10
5.120955175264242
 20
4.169824840695612
 30
0.0
 10
5.120955157694325
 20
4.172212268956364
 30
0.0
 10
5.120955151501007
 20
4.173813451947426
 30
0.0
 10
5.120955148394667
 20
4.174616546199503
 30
0.0
  0
SPLINE
  5
15B
330
1F
100
AcDbEntity
  8
0
  6
Continuous
 62
     7
370
    25
100
AcDbSpline
210
0.0
220
0.0
230
1.0
 70
    24
 71
     3
 72
     8
 73
     4
 74
     0
 42
0.000000001
 43
0.00000001
 40
0.0
 40
0.0
 40
0.0
 40
0.0
 40
1.0
 40
1.0
 40
1.0
 40
1.0
 10
5.124892156268672
 20
4.162805522577454
 30
0.0
 10
5.12357410487496
 20
4.162805522577454
 30
0.0
 10
5.122271482456844
 20
4.162805522577454
 30
0.0
 10
5.120955148394667
 20
4.162805522577454
 30
0.0
  0
SPLINE
  5
15C
330
1F
100
AcDbEntity
  8
0
  6
Continuous
 62
     7
370
    25
100
AcDbSpline
210
0.0
220
0.0
230
1.0
 70
    24
 71
     3
 72
     8
 73
     4
 74
     0
 42
0.000000001
 43
0.00000001
 40
0.0
 40
0.0
 40
0.0
 40
0.0
 40
1.0
 40
1.0
 40
1.0
 40
1.0
 10
5.128829164142699
 20
4.162805522577454
 30
0.0
 10
5.127512830080518
 20
4.162805522577454
 30
0.0
 10
5.126210207662399
 20
4.162805522577454
 30
0.0
 10
5.124892156268682
 20
4.162805522577454
 30
0.0
  0
CIRCLE
  5
15D
330
1F
100
AcDbEntity
  8
0
  6
Continuous
 62
     7
370
    25
100
AcDbCircle
 10
5.1248921563
 20
4.1785535541
 30
0.0
 40
0.0291338582677172
  0
SPLINE
  5
15E
330
1F
100
AcDbEntity
  8
0
  6
Continuous
 62
     7
370
    25
100
AcDbSpline
210
0.0
220
0.0
230
1.0
 70
    24
 71
     3
 72
    22
 73
    18
 74
     0
 42
0.000000001
 43
0.00000001
 40
0.0
 40
0.0
 40
0.0
 40
0.0
 40
0.125
 40
0.125
 40
0.25
 40
0.25
 40
0.375
 40
0.375
 40
0.5
 40
0.5
 40
0.625
 40
0.625
 40
0.75
 40
0.75
 40
0.875
 40
0.875
 40
1.0
 40
1.0
 40
1.0
 40
1.0
 10
5.196939368725486
 20
6.804008073917498
 30
0.0
 10
5.196939368725486
 20
6.804008073917497
 30
0.0
 10
5.195064172631726
 20
6.804008073917498
 30
0.0
 10
5.187846029832303
 20
6.804008073917497
 30
0.0
 10
5.182505923157604
 20
6.804008073917498
 30
0.0
 10
5.169168534367344
 20
6.804008073917496
 30
0.0
 10
5.161176499944739
 20
6.804008073917498
 30
0.0
 10
5.143750361703229
 20
6.804008073917496
 30
0.0
 10
5.134323114325589
 20
6.804008073917498
 30
0.0
 10
5.115461198211761
 20
6.804008073917496
 30
0.0
 10
5.106033950834121
 20
6.804008073917497
 30
0.0
 10
5.08860781259261
 20
6.804008073917496
 30
0.0
 10
5.080615778170007
 20
6.804008073917497
 30
0.0
 10
5.067278389379747
 20
6.804008073917496
 30
0.0
 10
5.061938282705047
 20
6.804008073917497
 30
0.0
 10
5.054720139905625
 20
6.804008073917496
 30
0.0
 10
5.052844943811865
 20
6.804008073917497
 30
0.0
 10
5.052844943811865
 20
6.804008073917498
 30
0.0
  0
SPLINE
  5
15F
330
1F
100
AcDbEntity
  8
0
  6
Continuous
 62
     7
370
    25
100
AcDbSpline
210
0.0
220
0.0
230
1.0
 70
    24
 71
     3
 72
    22
 73
    18
 74
     0
 42
0.000000001
 43
0.00000001
 40
0.0
 40
0.0
 40
0.0
 40
0.0
 40
0.125
 40
0.125
 40
0.25
 40
0.25
 40
0.375
 40
0.375
 40
0.5
 40
0.5
 40
0.625
 40
0.625
 40
0.75
 40
0.75
 40
0.875
 40
0.875
 40
1.0
 40
1.0
 40
1.0
 40
1.0
 10
5.052844943812016
 20
1.68589784829874
 30
0.0
 10
5.052844943812016
 20
1.685897848298741
 30
0.0
 10
5.054720139905771
 20
1.68589784829874
 30
0.0
 10
5.061938282705178
 20
1.68589784829874
 30
0.0
 10
5.067278389379867
 20
1.68589784829874
 30
0.0
 10
5.0806157781701
 20
1.68589784829874
 30
0.0
 10
5.088607812592687
 20
1.68589784829874
 30
0.0
 10
5.106033950834162
 20
1.68589784829874
 30
0.0
 10
5.115461198211781
 20
1.68589784829874
 30
0.0
 10
5.13432311432557
 20
1.68589784829874
 30
0.0
 10
5.143750361703189
 20
1.68589784829874
 30
0.0
 10
5.161176499944664
 20
1.68589784829874
 30
0.0
 10
5.169168534367251
 20
1.68589784829874
 30
0.0
 10
5.182505923157484
 20
1.68589784829874
 30
0.0
 10
5.187846029832172
 20
1.68589784829874
 30
0.0
 10
5.195064172631579
 20
1.68589784829874
 30
0.0
 10
5.196939368725335
 20
1.685897848298738
 30
0.0
 10
5.196939368725335
 20
1.68589784829874
 30
0.0
  0
SPLINE
  5
160
330
1F
100
AcDbEntity
  8
0
  6
Continuous
 62
     7
370
    25
100
AcDbSpline
210
0.0
220
0.0
230
1.0
 70
    24
 71
     3
 72
    10
 73
     6
 74
     0
 42
0.000000001
 43
0.00000001
 40
0.0
 40
0.0
 40
0.0
 40
0.0
 40
0.5
 40
0.5
 40
1.0
 40
1.0
 40
1.0
 40
1.0
 10
5.203632057022713
 20
6.804008079204323
 30
0.0
 10
5.203632057022713
 20
6.804008079204323
 30
0.0
 10
5.195335851962065
 20
6.804008079204323
 30
0.0
 10
5.165803496121555
 20
6.804008079204323
 30
0.0
 10
5.145774685347915
 20
6.804008079204323
 30
0.0
 10
5.124892156268674
 20
6.804008079204323
 30
0.0
  0
SPLINE
  5
161
330
1F
100
AcDbEntity
  8
0
  6
Continuous
 62
     7
370
    25
100
AcDbSpline
210
0.0
220
0.0
230
1.0
 70
    24
 71
     3
 72
    10
 73
     6
 74
     0
 42
0.000000001
 43
0.00000001
 40
0.0
 40
0.0
 40
0.0
 40
0.0
 40
0.5
 40
0.5
 40
1.0
 40
1.0
 40
1.0
 40
1.0
 10
5.124892156268674
 20
6.804008079204323
 30
0.0
 10
5.104009627189435
 20
6.804008079204323
 30
0.0
 10
5.083980816415791
 20
6.804008079204323
 30
0.0
 10
5.05444846057528
 20
6.804008079204323
 30
0.0
 10
5.046152255514634
 20
6.804008079204323
 30
0.0
 10
5.046152255514634
 20
6.804008079204323
 30
0.0
  0
SPLINE
  5
162
330
1F
100
AcDbEntity
  8
0
  6
Continuous
 62
     7
370
    25
100
AcDbSpline
210
0.0
220
0.0
230
1.0
 70
    24
 71
     3
 72
    10
 73
     6
 74
     0
 42
0.000000001
 43
0.00000001
 40
0.0
 40
0.0
 40
0.0
 40
0.0
 40
0.5
 40
0.5
 40
1.0
 40
1.0
 40
1.0
 40
1.0
 10
5.046152254710887
 20
1.685897843011663
 30
0.0
 10
5.046152254710887
 20
1.685897843011663
 30
0.0
 10
5.05444845985622
 20
1.685897843011663
 30
0.0
 10
5.083980815998186
 20
1.685897843011663
 30
0.0
 10
5.104009626976274
 20
1.685897843011663
 30
0.0
 10
5.124892156268674
 20
1.685897843011663
 30
0.0
  0
SPLINE
  5
163
330
1F
100
AcDbEntity
  8
0
  6
Continuous
 62
     7
370
    25
100
AcDbSpline
210
0.0
220
0.0
230
1.0
 70
    24
 71
     3
 72
    10
 73
     6
 74
     0
 42
0.000000001
 43
0.00000001
 40
0.0
 40
0.0
 40
0.0
 40
0.0
 40
0.5000000000000001
 40
0.5000000000000001
 40
1.0
 40
1.0
 40
1.0
 40
1.0
 10
5.124892156268674
 20
1.685897843011663
 30
0.0
 10
5.145774685562397
 20
1.685897843011663
 30
0.0
 10
5.165803496541754
 20
1.685897843011663
 30
0.0
 10
5.195335852685588
 20
1.685897843011663
 30
0.0
 10
5.203632057831444
 20
1.685897843011663
 30
0.0
 10
5.203632057831443
 20
1.685897843011663
 30
0.0
  0
LWPOLYLINE
  5
164
330
1F
100
AcDbEntity
  8
0
  6
Continuous
 62
     7
370
    25
100
AcDbPolyline
 90
        3
 70
   128
 43
0.0
 10
5.0513531402
 20
4.066705224
 10
5.0510334823
 20
4.0669160509
 10
5.0440016001
 20
4.0719010634
  0
LWPOLYLINE
  5
165
330
1F
100
AcDbEntity
  8
0
  6
Continuous
 62
     7
370
    25
100
AcDbPolyline
 90
        3
 70
   128
 43
0.0
 10
5.0420793922
 20
4.2837204782
 10
5.0430815016
 20
4.2845019029
 10
5.0440065122
 20
4.2852097701
  0
LWPOLYLINE
  5
166
330
1F
100
AcDbEntity
  8
0
  6
Continuous
 62
     7
370
    25
100
AcDbPolyline
 90
        3
 70
   128
 43
0.0
 10
5.2057873678
 20
4.2852025137
 10
5.2067028109
 20
4.2845019029
 10
5.2079849113
 20
4.2834993968
  0
LWPOLYLINE
  5
167
330
1F
100
AcDbEntity
  8
0
  6
Continuous
 62
     7
370
    25
100
AcDbPolyline
 90
        3
 70
   128
 43
0.0
 10
5.2064542377
 20
4.0724137278
 10
5.1987508302
 20
4.0669160509
 10
5.1947308315
 20
4.0643581282
  0
LWPOLYLINE
  5
168
330
1F
100
AcDbEntity
  8
0
  6
Continuous
 62
     7
370
    25
100
AcDbPolyline
 90
        3
 70
   128
 43
0.0
 10
5.1547806646
 20
4.0480747707
 10
5.1443820764
 20
4.0461217646
 10
5.1248921563
 20
4.0446952864
  0
LINE
  5
169
330
1F
100
AcDbEntity
  8
0
  6
Continuous
 62
     7
370
    25
100
AcDbLine
 10
5.2042656777
 20
4.0708465569
 30
0.0
 11
5.2029376847
 21
4.0699026408
 31
0.0
  0
LINE
  5
16A
330
1F
100
AcDbEntity
  8
0
  6
Continuous
 62
     7
370
    25
100
AcDbLine
 10
5.0467800419
 20
4.0699499592
 30
0.0
 11
5.0455185894
 21
4.0708465744
 31
0.0
  0
SPLINE
  5
16B
330
1F
100
AcDbEntity
  8
0
  6
Continuous
 62
     7
370
    25
100
AcDbSpline
210
0.0
220
0.0
230
1.0
 70
     8
 71
     3
 72
     9
 73
     5
 74
     0
 42
0.000000001
 43
0.00000001
 40
0.0
 40
0.0
 40
0.0
 40
0.0
 40
0.589537770645526
 40
1.0
 40
1.0
 40
1.0
 40
1.0
 10
5.038766629890996
 20
4.281021840499118
 30
0.0
 10
5.038847529789607
 20
4.281097420278719
 30
0.0
 10
5.038984755770095
 20
4.281225622038411
 30
0.0
 10
5.04010918444063
 20
4.282119441404079
 30
0.0
 10
5.040570719939489
 20
4.28248632049355
 30
0.0
  0
SPLINE
  5
16C
330
1F
100
AcDbEntity
  8
0
  6
Continuous
 62
     7
370
    25
100
AcDbSpline
210
0.0
220
0.0
230
1.0
 70
     8
 71
     3
 72
     9
 73
     5
 74
     0
 42
0.000000001
 43
0.00000001
 40
0.0
 40
0.0
 40
0.0
 40
0.0
 40
0.4131858189627939
 40
1.0
 40
1.0
 40
1.0
 40
1.0
 10
5.209213854105381
 20
4.282486110127002
 30
0.0
 10
5.209675625055827
 20
4.282119052872741
 30
0.0
 10
5.210793211694222
 20
4.281230694082542
 30
0.0
 10
5.210930381898359
 20
4.281102684671862
 30
0.0
 10
5.211010875319364
 20
4.281027566934368
 30
0.0
  0
SPLINE
  5
16D
330
1F
100
AcDbEntity
  8
0
  6
Continuous
 62
     7
370
    25
100
AcDbSpline
210
0.0
220
0.0
230
1.0
 70
     8
 71
     3
 72
    13
 73
     9
 74
     0
 42
0.000000001
 43
0.00000001
 40
0.0
 40
0.0
 40
0.0
 40
0.0
 40
0.1316471524251694
 40
0.258123875312583
 40
0.3805721030938576
 40
0.5004327965889203
 40
0.7495866239824232
 40
1.0
 40
1.0
 40
1.0
 40
1.0
 10
5.203723984246767
 20
4.279433331181494
 30
0.0
 10
5.203827807374549
 20
4.279438329152473
 30
0.0
 10
5.204031375986529
 20
4.279448128799597
 30
0.0
 10
5.204384479824784
 20
4.279460976604401
 30
0.0
 10
5.204756802315234
 20
4.279472207332086
 30
0.0
 10
5.205290254023409
 20
4.279484527001006
 30
0.0
 10
5.206022000254981
 20
4.279498573611711
 30
0.0
 10
5.206640933522623
 20
4.279500404770486
 30
0.0
 10
5.20695118040837
 20
4.279501322658306
 30
0.0
  0
SPLINE
  5
16E
330
1F
100
AcDbEntity
  8
0
  6
Continuous
 62
     7
370
    25
100
AcDbSpline
210
0.0
220
0.0
230
1.0
 70
     8
 71
     3
 72
    19
 73
    15
 74
     0
 42
0.000000001
 43
0.00000001
 40
0.0
 40
0.0
 40
0.0
 40
0.0
 40
0.0588919917288088
 40
0.1148557688662215
 40
0.1680904406775066
 40
0.3113784407405963
 40
0.4459866209623164
 40
0.5127574310691122
 40
0.5795330586184463
 40
0.6461716609429725
 40
0.7146340973860609
 40
0.833691322698727
 40
0.9142067910995888
 40
1.0
 40
1.0
 40
1.0
 40
1.0
 10
5.206951180408372
 20
4.279501322658309
 30
0.0
 10
5.206963005083954
 20
4.27553934203755
 30
0.0
 10
5.206986066491212
 20
4.267812377520443
 30
0.0
 10
5.207013998683957
 20
4.256502344336401
 30
0.0
 10
5.207047134956994
 20
4.239512232489588
 30
0.0
 10
5.207085987931152
 20
4.217226543404061
 30
0.0
 10
5.207101855880778
 20
4.194026996172516
 30
0.0
 10
5.207105154224
 20
4.17597708714971
 30
0.0
 10
5.207102940000345
 20
4.162502362266555
 30
0.0
 10
5.207082400728608
 20
4.148914134063798
 30
0.0
 10
5.207076606161094
 20
4.131807644262187
 30
0.0
 10
5.207040964435787
 20
4.11376888273273
 30
0.0
 10
5.206999824363304
 20
4.094566498645036
 30
0.0
 10
5.206967841933297
 20
4.08337781529946
 30
0.0
 10
5.206951343243371
 20
4.077605939392775
 30
0.0
  0
SPLINE
  5
16F
330
1F
100
AcDbEntity
  8
0
  6
Continuous
 62
     7
370
    25
100
AcDbSpline
210
0.0
220
0.0
230
1.0
 70
     8
 71
     3
 72
    12
 73
     8
 74
     0
 42
0.000000001
 43
0.00000001
 40
0.0
 40
0.0
 40
0.0
 40
0.0
 40
0.1479165368304469
 40
0.3147828017369267
 40
0.5011062401700237
 40
0.7172490702368567
 40
0.9999999999999999
 40
0.9999999999999999
 40
0.9999999999999999
 40
0.9999999999999999
 10
5.206951343243345
 20
4.077605939392806
 30
0.0
 10
5.206768590945597
 20
4.077607292677285
 30
0.0
 10
5.206379673779594
 20
4.077610172616801
 30
0.0
 10
5.205769493569966
 20
4.077615582112453
 30
0.0
 10
5.205109670438955
 20
4.077622769158471
 30
0.0
 10
5.204373247587046
 20
4.077644146417967
 30
0.0
 10
5.203959156324778
 20
4.077659104835629
 30
0.0
 10
5.203724467701988
 20
4.07766758260553
 30
0.0
  0
SPLINE
  5
170
330
1F
100
AcDbEntity
  8
0
  6
Continuous
 62
     7
370
    25
100
AcDbSpline
210
0.0
220
0.0
230
1.0
 70
     8
 71
     3
 72
    10
 73
     6
 74
     0
 42
0.000000001
 43
0.00000001
 40
0.0
 40
0.0
 40
0.0
 40
0.0
 40
0.5
 40
0.5
 40
1.0
 40
1.0
 40
1.0
 40
1.0
 10
5.203723946986651
 20
4.279433332011448
 30
0.0
 10
5.203820458838565
 20
4.245818583160879
 30
0.0
 10
5.20387334261509
 20
4.212184070615472
 30
0.0
 10
5.203875896229107
 20
4.144916389281351
 30
0.0
 10
5.203825246568138
 20
4.111281865812614
 30
0.0
 10
5.203724467690225
 20
4.077667582606028
 30
0.0
  0
SPLINE
  5
171
330
1F
100
AcDbEntity
  8
0
  6
Continuous
 62
     7
370
    25
100
AcDbSpline
210
0.0
220
0.0
230
1.0
 70
     8
 71
     3
 72
    13
 73
     9
 74
     0
 42
0.000000001
 43
0.00000001
 40
0.0
 40
0.0
 40
0.0
 40
0.0
 40
0.1288403157351189
 40
0.2536643957856948
 40
0.3768364298741324
 40
0.5007685481095253
 40
0.7447100851308477
 40
1.0
 40
1.0
 40
1.0
 40
1.0
 10
5.042830369552245
 20
4.27950020180554
 30
0.0
 10
5.042989719666528
 20
4.279499125031851
 30
0.0
 10
5.043303452601961
 20
4.279497005049874
 30
0.0
 10
5.043764667556454
 20
4.279494715821402
 30
0.0
 10
5.044208857479576
 20
4.279490212207753
 30
0.0
 10
5.044770952699068
 20
4.279480024775586
 30
0.0
 10
5.045438954567071
 20
4.279467197736508
 30
0.0
 10
5.045850109262355
 20
4.27945143839978
 30
0.0
 10
5.046060359731871
 20
4.279443379613185
 30
0.0
  0
SPLINE
  5
172
330
1F
100
AcDbEntity
  8
0
  6
Continuous
 62
     7
370
    25
100
AcDbSpline
210
0.0
220
0.0
230
1.0
 70
     8
 71
     3
 72
    10
 73
     6
 74
     0
 42
0.000000001
 43
0.00000001
 40
0.0
 40
0.0
 40
0.0
 40
0.0
 40
0.5
 40
0.5
 40
1.0
 40
1.0
 40
1.0
 40
1.0
 10
5.046060398153925
 20
4.279443379821851
 30
0.0
 10
5.04596391280827
 20
4.245826838495919
 30
0.0
 10
5.045911055197168
 20
4.212190707599662
 30
0.0
 10
5.045908832200498
 20
4.144919301197144
 30
0.0
 10
5.045960143727094
 20
4.11128306980613
 30
0.0
 10
5.046060225571034
 20
4.077666940880054
 30
0.0
  0
SPLINE
  5
173
330
1F
100
AcDbEntity
  8
0
  6
Continuous
 62
     7
370
    25
100
AcDbSpline
210
0.0
220
0.0
230
1.0
 70
     8
 71
     3
 72
    13
 73
     9
 74
     0
 42
0.000000001
 43
0.00000001
 40
0.0
 40
0.0
 40
0.0
 40
0.0
 40
0.1514236174043801
 40
0.2853361549249551
 40
0.4016271756089164
 40
0.5004369082142971
 40
0.77259960141637
 40
1.0
 40
1.0
 40
1.0
 40
1.0
 10
5.046060217968626
 20
4.07766694105573
 30
0.0
 10
5.045940010978152
 20
4.077662166180846
 30
0.0
 10
5.04571349809301
 20
4.077653168611884
 30
0.0
 10
5.045333190958899
 20
4.077642675387362
 30
0.0
 10
5.044975373469862
 20
4.077632051799521
 30
0.0
 10
5.044444104595809
 20
4.077618486355761
 30
0.0
 10
5.043732855632393
 20
4.077612269524195
 30
0.0
 10
5.04311446537772
 20
4.077607713397533
 30
0.0
 10
5.042832975026041
 20
4.07760563945525
 30
0.0
  0
SPLINE
  5
174
330
1F
100
AcDbEntity
  8
0
  6
Continuous
 62
     7
370
    25
100
AcDbSpline
210
0.0
220
0.0
230
1.0
 70
     8
 71
     3
 72
    21
 73
    17
 74
     0
 42
0.000000001
 43
0.00000001
 40
0.0
 40
0.0
 40
0.0
 40
0.0
 40
0.0630181653328628
 40
0.1230717395494142
 40
0.1805407786284496
 40
0.235899052216824
 40
0.2985333879361441
 40
0.35923034929652
 40
0.419303890596508
 40
0.478556095593457
 40
0.5378729024185182
 40
0.5975993594344632
 40
0.7185784855365396
 40
0.8485948268442456
 40
0.9216727899369218
 40
0.9999999999999999
 40
0.9999999999999999
 40
0.9999999999999999
 40
0.9999999999999999
 10
5.042832975025799
 20
4.077605639454948
 30
0.0
 10
5.04282092973086
 20
4.081845207943643
 30
0.0
 10
5.042797405793062
 20
4.090124901046207
 30
0.0
 10
5.042770258937428
 20
4.102272768689982
 30
0.0
 10
5.042745824815981
 20
4.113906284684126
 30
0.0
 10
5.042721051752148
 20
4.125714468391284
 30
0.0
 10
5.042710228311476
 20
4.137740762217534
 30
0.0
 10
5.04268915105785
 20
4.150085121336144
 30
0.0
 10
5.042691815123958
 20
4.162202344226959
 30
0.0
 10
5.042675571582638
 20
4.174226942194865
 30
0.0
 10
5.04268771518192
 20
4.186228257481453
 30
0.0
 10
5.04268369832266
 20
4.202384309893109
 30
0.0
 10
5.042707946277136
 20
4.223298385705888
 30
0.0
 10
5.0427478942433
 20
4.245108213761575
 30
0.0
 10
5.042786146510179
 20
4.264044717861097
 30
0.0
 10
5.042815291694732
 20
4.274230657673685
 30
0.0
 10
5.042830369521635
 20
4.279500201842891
 30
0.0
  0
SPLINE
  5
175
330
1F
100
AcDbEntity
  8
0
  6
Continuous
 62
     7
370
    25
100
AcDbSpline
210
0.0
220
0.0
230
1.0
 70
     8
 71
     3
 72
    22
 73
    18
 74
     0
 42
0.000000001
 43
0.00000001
 40
0.0
 40
0.0
 40
0.0
 40
0.0
 40
0.125
 40
0.125
 40
0.25
 40
0.25
 40
0.375
 40
0.375
 40
0.5
 40
0.5
 40
0.625
 40
0.625
 40
0.75
 40
0.75
 40
0.875
 40
0.875
 40
1.0
 40
1.0
 40
1.0
 40
1.0
 10
5.042832975025948
 20
4.077605639455128
 30
0.0
 10
5.035360824499435
 20
4.083679613112709
 30
0.0
 10
5.028566121679694
 20
4.090586364848451
 30
0.0
 10
5.01666420181315
 20
4.105727353329842
 30
0.0
 10
5.011557465966979
 20
4.113960977932063
 30
0.0
 10
5.003282410239495
 20
4.131351468212037
 30
0.0
 10
5.000114424926033
 20
4.140507630797517
 30
0.0
 10
4.995872609106654
 20
4.159293614104032
 30
0.0
 10
4.994798950105672
 20
4.16892267531127
 30
0.0
 10
4.994798686265887
 20
4.188181611962497
 30
0.0
 10
4.995872081446641
 20
4.197810708769266
 30
0.0
 10
5.00011338792661
 20
4.216596832135085
 30
0.0
 10
5.003281127758825
 20
4.225753099170758
 30
0.0
 10
5.011555728002358
 20
4.243143860319991
 30
0.0
 10
5.016662253880297
 20
4.251377651322689
 30
0.0
 10
5.028563804208779
 20
4.266519023555267
 30
0.0
 10
5.035358347487613
 20
4.273425992615223
 30
0.0
 10
5.042830369524145
 20
4.279500201839804
 30
0.0
  0
ARC
  5
176
330
1F
100
AcDbEntity
  8
0
  6
Continuous
 62
     7
370
    25
100
AcDbCircle
 10
5.1248921563
 20
4.1785535541
 30
0.0
 40
0.1300927954385127
100
AcDbArc
 50
309.1072752597
 51
50.8928231452
  0
SPLINE
  5
177
330
1F
100
AcDbEntity
  8
0
  6
Continuous
 62
     7
370
    25
100
AcDbSpline
210
0.0
220
0.0
230
1.0
 70
     8
 71
     3
 72
    10
 73
     6
 74
     0
 42
0.000000001
 43
0.00000001
 40
0.0
 40
0.0
 40
0.0
 40
0.0
 40
0.5
 40
0.5
 40
1.0
 40
1.0
 40
1.0
 40
1.0
 10
5.042830369524145
 20
4.279500201839804
 30
0.0
 10
5.042200220221557
 20
4.280277966435742
 30
0.0
 10
5.041584630485602
 20
4.281037886110074
 30
0.0
 10
5.040713235668932
 20
4.282115202980527
 30
0.0
 10
5.040462243062886
 20
4.28242667665573
 30
0.0
 10
5.040463552158448
 20
4.282427740684383
 30
0.0
  0
SPLINE
  5
178
330
1F
100
AcDbEntity
  8
0
  6
Continuous
 62
     7
370
    25
100
AcDbSpline
210
0.0
220
0.0
230
1.0
 70
     8
 71
     3
 72
    10
 73
     6
 74
     0
 42
0.000000001
 43
0.00000001
 40
0.0
 40
0.0
 40
0.0
 40
0.0
 40
0.5
 40
0.5
 40
1.0
 40
1.0
 40
1.0
 40
1.0
 10
5.040463498050564
 20
4.282427807374019
 30
0.0
 10
5.040777931602768
 20
4.28268246139429
 30
0.0
 10
5.041216018857189
 20
4.282874246082064
 30
0.0
 10
5.042303682831088
 20
4.282929494984823
 30
0.0
 10
5.042951313595399
 20
4.282781952423307
 30
0.0
 10
5.043569740992553
 20
4.282452456084566
 30
0.0
  0
SPLINE
  5
179
330
1F
100
AcDbEntity
  8
0
  6
Continuous
 62
     7
370
    25
100
AcDbSpline
210
0.0
220
0.0
230
1.0
 70
     8
 71
     3
 72
    10
 73
     6
 74
     0
 42
0.000000001
 43
0.00000001
 40
0.0
 40
0.0
 40
0.0
 40
0.0
 40
0.5
 40
0.5
 40
1.0
 40
1.0
 40
1.0
 40
1.0
 10
5.043569740992553
 20
4.282452456084566
 30
0.0
 10
5.04418860631375
 20
4.282122726421154
 30
0.0
 10
5.044764140213815
 20
4.281618272639938
 30
0.0
 10
5.04561912946131
 20
4.280527033330819
 30
0.0
 10
5.045901075682987
 20
4.279951001532079
 30
0.0
 10
5.046060364730567
 20
4.279443379734561
 30
0.0
  0
SPLINE
  5
17A
330
1F
100
AcDbEntity
  8
0
  6
Continuous
 62
     7
370
    25
100
AcDbSpline
210
0.0
220
0.0
230
1.0
 70
     8
 71
     3
 72
    10
 73
     6
 74
     0
 42
0.000000001
 43
0.00000001
 40
0.0
 40
0.0
 40
0.0
 40
0.0
 40
0.5
 40
0.5
 40
1.0
 40
1.0
 40
1.0
 40
1.0
 10
5.206219070651581
 20
4.282448797522281
 30
0.0
 10
5.206840050758096
 20
4.282779210560932
 30
0.0
 10
5.207490385960697
 20
4.282926265423339
 30
0.0
 10
5.208581218649571
 20
4.282867956898306
 30
0.0
 10
5.209019797912638
 20
4.282673803116778
 30
0.0
 10
5.20933401322591
 20
4.282417069738889
 30
0.0
  0
SPLINE
  5
17B
330
1F
100
AcDbEntity
  8
0
  6
Continuous
 62
     7
370
    25
100
AcDbSpline
210
0.0
220
0.0
230
1.0
 70
     8
 71
     3
 72
    10
 73
     6
 74
     0
 42
0.000000001
 43
0.00000001
 40
0.0
 40
0.0
 40
0.0
 40
0.0
 40
0.5
 40
0.5
 40
1.0
 40
1.0
 40
1.0
 40
1.0
 10
5.209333963061503
 20
4.282417008193028
 30
0.0
 10
5.209332692370956
 20
4.282418041274459
 30
0.0
 10
5.209079006218677
 20
4.282108601162451
 30
0.0
 10
5.208202209039342
 20
4.281035209326406
 30
0.0
 10
5.207583917803659
 20
4.280277183386209
 30
0.0
 10
5.206951180408371
 20
4.27950132265831
 30
0.0
  0
SPLINE
  5
17C
330
1F
100
AcDbEntity
  8
0
  6
Continuous
 62
     7
370
    25
100
AcDbSpline
210
0.0
220
0.0
230
1.0
 70
     8
 71
     3
 72
    10
 73
     6
 74
     0
 42
0.000000001
 43
0.00000001
 40
0.0
 40
0.0
 40
0.0
 40
0.0
 40
0.5
 40
0.5
 40
1.0
 40
1.0
 40
1.0
 40
1.0
 10
5.203723978668508
 20
4.279433331294348
 30
0.0
 10
5.203882788853035
 20
4.279941387351888
 30
0.0
 10
5.20416459736275
 20
4.280518515988999
 30
0.0
 10
5.205021047328271
 20
4.281612483850072
 30
0.0
 10
5.205598250472387
 20
4.282118469578259
 30
0.0
 10
5.206219070651581
 20
4.282448797522281
 30
0.0
  0
SPLINE
  5
17D
330
1F
100
AcDbEntity
  8
0
  6
Continuous
 62
     7
370
    25
100
AcDbSpline
210
0.0
220
0.0
230
1.0
 70
     8
 71
     3
 72
     8
 73
     4
 74
     0
 42
0.000000001
 43
0.00000001
 40
0.0
 40
0.0
 40
0.0
 40
0.0
 40
1.0
 40
1.0
 40
1.0
 40
1.0
 10
5.206951343243367
 20
4.077605939392781
 30
0.0
 10
5.207582865503283
 20
4.076829081780105
 30
0.0
 10
5.208199911737056
 20
4.076070033015514
 30
0.0
 10
5.208637048312812
 20
4.075532305939248
 30
0.0
  0
SPLINE
  5
17E
330
1F
100
AcDbEntity
  8
0
  6
Continuous
 62
     7
370
    25
100
AcDbSpline
210
0.0
220
0.0
230
1.0
 70
     8
 71
     3
 72
     8
 73
     4
 74
     0
 42
0.000000001
 43
0.00000001
 40
0.0
 40
0.0
 40
0.0
 40
0.0
 40
1.0
 40
1.0
 40
1.0
 40
1.0
 10
5.208637048312812
 20
4.075532305939248
 30
0.0
 10
5.209074181304184
 20
4.074994583272177
 30
0.0
 10
5.209326589557485
 20
4.07468410567183
 30
0.0
 10
5.209326604051749
 20
4.074684117454074
 30
0.0
  0
SPLINE
  5
17F
330
1F
100
AcDbEntity
  8
0
  6
Continuous
 62
     7
370
    25
100
AcDbSpline
210
0.0
220
0.0
230
1.0
 70
     8
 71
     3
 72
    14
 73
    10
 74
     0
 42
0.000000001
 43
0.00000001
 40
0.0
 40
0.0
 40
0.0
 40
0.0
 40
0.25
 40
0.25
 40
0.5
 40
0.5
 40
0.75
 40
0.75
 40
1.0
 40
1.0
 40
1.0
 40
1.0
 10
5.209326721467643
 20
4.074683973028247
 30
0.0
 10
5.209012384887219
 20
4.07442842421155
 30
0.0
 10
5.208574079307613
 20
4.07423562757447
 30
0.0
 10
5.207485021560324
 20
4.074179113972246
 30
0.0
 10
5.206836204250847
 20
4.074326492820101
 30
0.0
 10
5.205597126066163
 20
4.07498638217017
 30
0.0
 10
5.205021021307413
 20
4.07549135341496
 30
0.0
 10
5.204165518778312
 20
4.076583481089641
 30
0.0
 10
5.203883605505153
 20
4.077159851489542
 30
0.0
 10
5.203724458021587
 20
4.077667582383597
 30
0.0
  0
SPLINE
  5
180
330
1F
100
AcDbEntity
  8
0
  6
Continuous
 62
     7
370
    25
100
AcDbSpline
210
0.0
220
0.0
230
1.0
 70
     8
 71
     3
 72
     8
 73
     4
 74
     0
 42
0.000000001
 43
0.00000001
 40
0.0
 40
0.0
 40
0.0
 40
0.0
 40
1.0
 40
1.0
 40
1.0
 40
1.0
 10
5.203724458021587
 20
4.077667582383597
 30
0.0
 10
5.201424650476601
 20
4.075797249496071
 30
0.0
 10
5.1990920152172
 20
4.074030994510839
 30
0.0
 10
5.196732362321118
 20
4.072363726553058
 30
0.0
  0
SPLINE
  5
181
330
1F
100
AcDbEntity
  8
0
  6
Continuous
 62
     7
370
    25
100
AcDbSpline
210
0.0
220
0.0
230
1.0
 70
     8
 71
     3
 72
    10
 73
     6
 74
     0
 42
0.000000001
 43
0.00000001
 40
0.0
 40
0.0
 40
0.0
 40
0.0
 40
0.5
 40
0.5
 40
1.0
 40
1.0
 40
1.0
 40
1.0
 10
5.196732266684356
 20
4.284739960577547
 30
0.0
 10
5.196842834390663
 20
4.24936078613239
 30
0.0
 10
5.196900246615143
 20
4.213955922728721
 30
0.0
 10
5.196900266832833
 20
4.143147466508412
 30
0.0
 10
5.196842494692267
 20
4.107744829120872
 30
0.0
 10
5.196732326756488
 20
4.072363725690168
 30
0.0
  0
SPLINE
  5
182
330
1F
100
AcDbEntity
  8
0
  6
Continuous
 62
     7
370
    25
100
AcDbSpline
210
0.0
220
0.0
230
1.0
 70
     8
 71
     3
 72
     8
 73
     4
 74
     0
 42
0.000000001
 43
0.00000001
 40
0.0
 40
0.0
 40
0.0
 40
0.0
 40
1.0
 40
1.0
 40
1.0
 40
1.0
 10
5.196732282380576
 20
4.284739960559418
 30
0.0
 10
5.199091501122945
 20
4.283071869566188
 30
0.0
 10
5.201424103941091
 20
4.281304763954862
 30
0.0
 10
5.203723978668508
 20
4.279433331294348
 30
0.0
  0
SPLINE
  5
183
330
1F
100
AcDbEntity
  8
0
  6
Continuous
 62
     7
370
    25
100
AcDbSpline
210
0.0
220
0.0
230
1.0
 70
     8
 71
     3
 72
    10
 73
     6
 74
     0
 42
0.000000001
 43
0.00000001
 40
0.0
 40
0.0
 40
0.0
 40
0.0
 40
0.5
 40
0.5
 40
1.0
 40
1.0
 40
1.0
 40
1.0
 10
5.053051994157224
 20
4.072360956975721
 30
0.0
 10
5.052941719214709
 20
4.107743785960193
 30
0.0
 10
5.05288399240645
 20
4.143148731468292
 30
0.0
 10
5.052884058933052
 20
4.213961165718131
 30
0.0
 10
5.052941494143933
 20
4.249367987113751
 30
0.0
 10
5.053052067521227
 20
4.284749160386363
 30
0.0
  0
SPLINE
  5
184
330
1F
100
AcDbEntity
  8
0
  6
Continuous
 62
     7
370
    25
100
AcDbSpline
210
0.0
220
0.0
230
1.0
 70
     8
 71
     3
 72
     8
 73
     4
 74
     0
 42
0.000000001
 43
0.00000001
 40
0.0
 40
0.0
 40
0.0
 40
0.0
 40
1.0
 40
1.0
 40
1.0
 40
1.0
 10
5.053051970121577
 20
4.072360958931995
 30
0.0
 10
5.050692732381561
 20
4.074028909099225
 30
0.0
 10
5.048360111735715
 20
4.07579580000136
 30
0.0
 10
5.046060222869872
 20
4.077666940942347
 30
0.0
  0
SPLINE
  5
185
330
1F
100
AcDbEntity
  8
0
  6
Continuous
 62
     7
370
    25
100
AcDbSpline
210
0.0
220
0.0
230
1.0
 70
     8
 71
     3
 72
     8
 73
     4
 74
     0
 42
0.000000001
 43
0.00000001
 40
0.0
 40
0.0
 40
0.0
 40
0.0
 40
1.0
 40
1.0
 40
1.0
 40
1.0
 10
5.046060364730567
 20
4.279443379734561
 30
0.0
 10
5.048360237381305
 20
4.281314515399031
 30
0.0
 10
5.050692812500412
 20
4.283081316141605
 30
0.0
 10
5.053052060085406
 20
4.284749160202858
 30
0.0
  0
SPLINE
  5
186
330
1F
100
AcDbEntity
  8
0
  6
Continuous
 62
     7
370
    25
100
AcDbSpline
210
0.0
220
0.0
230
1.0
 70
     8
 71
     3
 72
     8
 73
     4
 74
     0
 42
0.000000001
 43
0.00000001
 40
0.0
 40
0.0
 40
0.0
 40
0.0
 40
1.0
 40
1.0
 40
1.0
 40
1.0
 10
5.040457818826297
 20
4.074684027759314
 30
0.0
 10
5.040457840699198
 20
4.074684009979086
 30
0.0
 10
5.040710255995057
 20
4.07499448185396
 30
0.0
 10
5.04114739561848
 20
4.075532199128922
 30
0.0
  0
SPLINE
  5
187
330
1F
100
AcDbEntity
  8
0
  6
Continuous
 62
     7
370
    25
100
AcDbSpline
210
0.0
220
0.0
230
1.0
 70
     8
 71
     3
 72
     8
 73
     4
 74
     0
 42
0.000000001
 43
0.00000001
 40
0.0
 40
0.0
 40
0.0
 40
0.0
 40
1.0
 40
1.0
 40
1.0
 40
1.0
 10
5.04114739561848
 20
4.075532199128922
 30
0.0
 10
5.041584505478684
 20
4.076069879792707
 30
0.0
 10
5.042201496533159
 20
4.076828847969455
 30
0.0
 10
5.042832975025948
 20
4.077605639455128
 30
0.0
  0
SPLINE
  5
188
330
1F
100
AcDbEntity
  8
0
  6
Continuous
 62
     7
370
    25
100
AcDbSpline
210
0.0
220
0.0
230
1.0
 70
     8
 71
     3
 72
    14
 73
    10
 74
     0
 42
0.000000001
 43
0.00000001
 40
0.0
 40
0.0
 40
0.0
 40
0.0
 40
0.25
 40
0.25
 40
0.5
 40
0.5
 40
0.75
 40
0.75
 40
1.0
 40
1.0
 40
1.0
 40
1.0
 10
5.046060222869872
 20
4.077666940942347
 30
0.0
 10
5.045901004305227
 20
4.077159237564217
 30
0.0
 10
5.045619020738782
 20
4.076582918195327
 30
0.0
 10
5.044763426642294
 20
4.075490940614687
 30
0.0
 10
5.044187304379424
 20
4.074986067404843
 30
0.0
 10
5.042948240339647
 20
4.074326345605359
 30
0.0
 10
5.042299450492026
 20
4.074179031104529
 30
0.0
 10
5.04121042190288
 20
4.074235609842143
 30
0.0
 10
5.040772116481483
 20
4.074428410807828
 30
0.0
 10
5.04045776170474
 20
4.074683957492518
 30
0.0
  0
ARC
  5
189
330
1F
100
AcDbEntity
  8
0
  6
Continuous
 62
     7
370
    25
100
AcDbCircle
 10
5.1248921563
 20
4.1785535541
 30
0.0
 40
0.1338582677165358
100
AcDbArc
 50
309.1073232313
 51
50.8886173229
  0
ARC
  5
18A
330
1F
100
AcDbEntity
  8
0
  6
Continuous
 62
     7
370
    25
100
AcDbCircle
 10
5.1248921563
 20
4.1785535541
 30
0.0
 40
0.1338582677165355
100
AcDbArc
 50
129.1040998564
 51
230.8927376341
  0
SPLINE
  5
18B
330
1F
100
AcDbEntity
  8
0
  6
Continuous
 62
     7
370
    25
100
AcDbSpline
210
0.0
220
0.0
230
1.0
 70
     8
 71
     3
 72
    20
 73
    16
 74
     0
 42
0.000000001
 43
0.00000001
 40
0.0
 40
0.0
 40
0.0
 40
0.0
 40
0.0526345901759648
 40
0.0948747327368725
 40
0.1270806045850317
 40
0.1941074436141025
 40
0.2550675267424051
 40
0.4201976169755882
 40
0.5100848834360342
 40
0.6307096070716264
 40
0.7637756328764761
 40
0.822083532933433
 40
0.8859718055879608
 40
0.9454589682642938
 40
1.0
 40
1.0
 40
1.0
 40
1.0
 10
5.196732283158559
 20
4.284739960543323
 30
0.0
 10
5.196773669123291
 20
4.28486667859088
 30
0.0
 10
5.19684826801976
 20
4.285095089999698
 30
0.0
 10
5.196972075180589
 20
4.285403292524065
 30
0.0
 10
5.197125425883224
 20
4.285742817537094
 30
0.0
 10
5.19733338426972
 20
4.286114804342382
 30
0.0
 10
5.197780604804579
 20
4.286754383946019
 30
0.0
 10
5.198383094771748
 20
4.287354187374651
 30
0.0
 10
5.199174392589031
 20
4.287880684504248
 30
0.0
 10
5.19993427697657
 20
4.288209044003095
 30
0.0
 10
5.200632200679566
 20
4.288308142867992
 30
0.0
 10
5.20116225403047
 20
4.288272801313186
 30
0.0
 10
5.201514073443751
 20
4.28819586925747
 30
0.0
 10
5.201832041358356
 20
4.288073339808503
 30
0.0
 10
5.202028709408561
 20
4.287946252361608
 30
0.0
 10
5.202122778059064
 20
4.287885464935218
 30
0.0
  0
SPLINE
  5
18C
330
1F
100
AcDbEntity
  8
0
  6
Continuous
 62
     7
370
    25
100
AcDbSpline
210
0.0
220
0.0
230
1.0
 70
     8
 71
     3
 72
    11
 73
     7
 74
     0
 42
0.000000001
 43
0.00000001
 40
0.0
 40
0.0
 40
0.0
 40
0.0
 40
0.2660125529473977
 40
0.5213426041290461
 40
0.7660009824249171
 40
1.0
 40
1.0
 40
1.0
 40
1.0
 10
5.202122778406551
 20
4.287885465427292
 30
0.0
 10
5.202768714914771
 20
4.287424280550542
 30
0.0
 10
5.204034648486575
 20
4.286520431006726
 30
0.0
 10
5.205879367611816
 20
4.285139528749187
 30
0.0
 10
5.207637989251421
 20
4.28378289539044
 30
0.0
 10
5.208777094144162
 20
4.28286549396581
 30
0.0
 10
5.209333963061503
 20
4.282417008193028
 30
0.0
  0
SPLINE
  5
18D
330
1F
100
AcDbEntity
  8
0
  6
Continuous
 62
     7
370
    25
100
AcDbSpline
210
0.0
220
0.0
230
1.0
 70
     8
 71
     3
 72
    14
 73
    10
 74
     0
 42
0.000000001
 43
0.00000001
 40
0.0
 40
0.0
 40
0.0
 40
0.0
 40
0.25
 40
0.25
 40
0.5
 40
0.5
 40
0.75
 40
0.75
 40
1.0
 40
1.0
 40
1.0
 40
1.0
 10
5.053052060085406
 20
4.284749160202858
 30
0.0
 10
5.052912431157063
 20
4.285254220824666
 30
0.0
 10
5.052659528257668
 20
4.28582494490364
 30
0.0
 10
5.051876985606163
 20
4.286914351121952
 30
0.0
 10
5.051344458786232
 20
4.287423808012494
 30
0.0
 10
5.050171632986879
 20
4.288116256442518
 30
0.0
 10
5.049543120881665
 20
4.288291471946096
 30
0.0
 10
5.048455449222183
 20
4.288290671109066
 30
0.0
 10
5.0479996247454
 20
4.288124087175732
 30
0.0
 10
5.04766116289826
 20
4.287885201825627
 30
0.0
  0
SPLINE
  5
18E
330
1F
100
AcDbEntity
  8
0
  6
Continuous
 62
     7
370
    25
100
AcDbSpline
210
0.0
220
0.0
230
1.0
 70
     8
 71
     3
 72
    10
 73
     6
 74
     0
 42
0.000000001
 43
0.00000001
 40
0.0
 40
0.0
 40
0.0
 40
0.0
 40
0.3380714175699979
 40
0.6713981922789425
 40
1.0
 40
1.0
 40
1.0
 40
1.0
 10
5.040463552158448
 20
4.282427740684383
 30
0.0
 10
5.041265386853568
 20
4.283070318401261
 30
0.0
 10
5.04285780294328
 20
4.284346455616916
 30
0.0
 10
5.045259424280768
 20
4.286164817238305
 30
0.0
 10
5.046864401804368
 20
4.287314476397143
 30
0.0
 10
5.047661162254975
 20
4.287885202738148
 30
0.0
  0
SPLINE
  5
18F
330
1F
100
AcDbEntity
  8
0
  6
Continuous
 62
     7
370
    25
100
AcDbSpline
210
0.0
220
0.0
230
1.0
 70
     8
 71
     3
 72
    10
 73
     6
 74
     0
 42
0.000000001
 43
0.00000001
 40
0.0
 40
0.0
 40
0.0
 40
0.0
 40
0.5
 40
0.5
 40
1.0
 40
1.0
 40
1.0
 40
1.0
 10
5.19904881609409
 20
4.069322805397949
 30
0.0
 10
5.199632816313414
 20
4.068982359221969
 30
0.0
 10
5.200256568301997
 20
4.068811983286563
 30
0.0
 10
5.201335165394884
 20
4.06881723311778
 30
0.0
 10
5.201786887682878
 20
4.068983617601178
 30
0.0
 10
5.202122676319589
 20
4.069221261989217
 30
0.0
  0
SPLINE
  5
190
330
1F
100
AcDbEntity
  8
0
  6
Continuous
 62
     7
370
    25
100
AcDbSpline
210
0.0
220
0.0
230
1.0
 70
     8
 71
     3
 72
    10
 73
     6
 74
     0
 42
0.000000001
 43
0.00000001
 40
0.0
 40
0.0
 40
0.0
 40
0.0
 40
0.5
 40
0.5
 40
1.0
 40
1.0
 40
1.0
 40
1.0
 10
5.196732362321118
 20
4.072363726553058
 30
0.0
 10
5.196872087219992
 20
4.071854664508727
 30
0.0
 10
5.197126865587069
 20
4.07127857494175
 30
0.0
 10
5.197917744143537
 20
4.070180382338376
 30
0.0
 10
5.198456768391448
 20
4.069667942899088
 30
0.0
 10
5.19904881609409
 20
4.069322805397949
 30
0.0
  0
SPLINE
  5
191
330
1F
100
AcDbEntity
  8
0
  6
Continuous
 62
     7
370
    25
100
AcDbSpline
210
0.0
220
0.0
230
1.0
 70
     8
 71
     3
 72
    10
 73
     6
 74
     0
 42
0.000000001
 43
0.00000001
 40
0.0
 40
0.0
 40
0.0
 40
0.0
 40
0.3235130029270811
 40
0.6568386680832852
 40
0.9999999999999999
 40
0.9999999999999999
 40
0.9999999999999999
 40
0.9999999999999999
 10
5.209326604051749
 20
4.074684117454076
 30
0.0
 10
5.208557858814691
 20
4.074067673715366
 30
0.0
 10
5.20699705107888
 20
4.072816088522131
 30
0.0
 10
5.204595925013829
 20
4.070994150535723
 30
0.0
 10
5.202954948449189
 20
4.069818061909546
 30
0.0
 10
5.202122530818099
 20
4.069221467826942
 30
0.0
  0
SPLINE
  5
192
330
1F
100
AcDbEntity
  8
0
  6
Continuous
 62
     7
370
    25
100
AcDbSpline
210
0.0
220
0.0
230
1.0
 70
     8
 71
     3
 72
    10
 73
     6
 74
     0
 42
0.000000001
 43
0.00000001
 40
0.0
 40
0.0
 40
0.0
 40
0.0
 40
0.5
 40
0.5
 40
1.0
 40
1.0
 40
1.0
 40
1.0
 10
5.050734604494156
 20
4.0693233218243
 30
0.0
 10
5.051326446855652
 20
4.069667986628651
 30
0.0
 10
5.051865387184562
 20
4.070179720618162
 30
0.0
 10
5.0526566006744
 20
4.071276662094454
 30
0.0
 10
5.052911775745976
 20
4.071852228343396
 30
0.0
 10
5.053051970121577
 20
4.072360958931995
 30
0.0
  0
SPLINE
  5
193
330
1F
100
AcDbEntity
  8
0
  6
Continuous
 62
     7
370
    25
100
AcDbSpline
210
0.0
220
0.0
230
1.0
 70
     8
 71
     3
 72
    10
 73
     6
 74
     0
 42
0.000000001
 43
0.00000001
 40
0.0
 40
0.0
 40
0.0
 40
0.0
 40
0.5
 40
0.5
 40
1.0
 40
1.0
 40
1.0
 40
1.0
 10
5.047661365296183
 20
4.069221760738494
 30
0.0
 10
5.047997408366336
 20
4.068984399861969
 30
0.0
 10
5.048449200591879
 20
4.068818324143716
 30
0.0
 10
5.049527497746654
 20
4.068813217759891
 30
0.0
 10
5.050150883440694
 20
4.068983386537854
 30
0.0
 10
5.050734604494156
 20
4.0693233218243
 30
0.0
  0
SPLINE
  5
194
330
1F
100
AcDbEntity
  8
0
  6
Continuous
 62
     7
370
    25
100
AcDbSpline
210
0.0
220
0.0
230
1.0
 70
     8
 71
     3
 72
    10
 73
     6
 74
     0
 42
0.000000001
 43
0.00000001
 40
0.0
 40
0.0
 40
0.0
 40
0.0
 40
0.339598737986916
 40
0.6729244140705691
 40
1.0
 40
1.0
 40
1.0
 40
1.0
 10
5.047661365882475
 20
4.069221761568349
 30
0.0
 10
5.046837699009599
 20
4.069812007551452
 30
0.0
 10
5.045205580023808
 20
4.070981596504259
 30
0.0
 10
5.042803958643586
 20
4.072802945836715
 30
0.0
 10
5.041234915582551
 20
4.074060969129336
 30
0.0
 10
5.040457818826297
 20
4.074684027759315
 30
0.0
  0
SPLINE
  5
195
330
1F
100
AcDbEntity
  8
0
  6
Continuous
 62
     7
370
    25
100
AcDbSpline
210
0.0
220
0.0
230
1.0
 70
     8
 71
     3
 72
     8
 73
     4
 74
     0
 42
0.000000001
 43
0.00000001
 40
0.0
 40
0.0
 40
0.0
 40
0.0
 40
1.0
 40
1.0
 40
1.0
 40
1.0
 10
5.053052012765501
 20
4.072360957893779
 30
0.0
 10
5.05350161010953
 20
4.072383310889025
 30
0.0
 10
5.053790764860642
 20
4.072410785705424
 30
0.0
 10
5.053854929667721
 20
4.072437286202337
 30
0.0
  0
SPLINE
  5
196
330
1F
100
AcDbEntity
  8
0
  6
Continuous
 62
     7
370
    25
100
AcDbSpline
210
0.0
220
0.0
230
1.0
 70
     8
 71
     3
 72
    14
 73
    10
 74
     0
 42
0.000000001
 43
0.00000001
 40
0.0
 40
0.0
 40
0.0
 40
0.0
 40
0.25
 40
0.25
 40
0.5
 40
0.5
 40
0.75
 40
0.75
 40
1.0
 40
1.0
 40
1.0
 40
1.0
 10
5.053854929667496
 20
4.072437286202337
 30
0.0
 10
5.053851800515106
 20
4.071856135420273
 30
0.0
 10
5.053714152937489
 20
4.071185147294027
 30
0.0
 10
5.053007773017036
 20
4.069908172232961
 30
0.0
 10
5.052429079742353
 20
4.069317225920911
 30
0.0
 10
5.05101609055638
 20
4.068583647736435
 30
0.0
 10
5.05020193593591
 20
4.068451471717951
 30
0.0
 10
5.048757784457466
 20
4.068611947909014
 30
0.0
 10
5.048134207974784
 20
4.068887722045932
 30
0.0
 10
5.047661356317956
 20
4.069221748028598
 30
0.0
  0
SPLINE
  5
197
330
1F
100
AcDbEntity
  8
0
  6
Continuous
 62
     7
370
    25
100
AcDbSpline
210
0.0
220
0.0
230
1.0
 70
     8
 71
     3
 72
     8
 73
     4
 74
     0
 42
0.000000001
 43
0.00000001
 40
0.0
 40
0.0
 40
0.0
 40
0.0
 40
1.0
 40
1.0
 40
1.0
 40
1.0
 10
5.195929390869739
 20
4.072437289011311
 30
0.0
 10
5.195993561722112
 20
4.072411710444672
 30
0.0
 10
5.196282723393626
 20
4.072385159205053
 30
0.0
 10
5.196732326756488
 20
4.072363725690168
 30
0.0
  0
SPLINE
  5
198
330
1F
100
AcDbEntity
  8
0
  6
Continuous
 62
     7
370
    25
100
AcDbSpline
210
0.0
220
0.0
230
1.0
 70
     8
 71
     3
 72
    10
 73
     6
 74
     0
 42
0.000000001
 43
0.00000001
 40
0.0
 40
0.0
 40
0.0
 40
0.0
 40
0.5
 40
0.5
 40
1.0
 40
1.0
 40
1.0
 40
1.0
 10
5.195929393069103
 20
4.072437288084703
 30
0.0
 10
5.196039489150424
 20
4.107794611628536
 30
0.0
 10
5.196097223990672
 20
4.143174223176593
 30
0.0
 10
5.196097199982134
 20
4.213933492502973
 30
0.0
 10
5.196039828720051
 20
4.249312061181983
 30
0.0
 10
5.1959293214843
 20
4.284670083968087
 30
0.0
  0
SPLINE
  5
199
330
1F
100
AcDbEntity
  8
0
  6
Continuous
 62
     7
370
    25
100
AcDbSpline
210
0.0
220
0.0
230
1.0
 70
     8
 71
     3
 72
    11
 73
     7
 74
     0
 42
0.000000001
 43
0.00000001
 40
0.0
 40
0.0
 40
0.0
 40
0.0
 40
0.2440824179335653
 40
0.4902753209370966
 40
0.7413580560944013
 40
1.0
 40
1.0
 40
1.0
 40
1.0
 10
5.195929321496003
 20
4.284670083968082
 30
0.0
 10
5.195952436443143
 20
4.284676434495053
 30
0.0
 10
5.195998866203319
 20
4.28468919045951
 30
0.0
 10
5.196166143493784
 20
4.284705846654584
 30
0.0
 10
5.196401171691465
 20
4.284722180084136
 30
0.0
 10
5.196620826842084
 20
4.284733975415404
 30
0.0
 10
5.196732283158559
 20
4.284739960543321
 30
0.0
  0
SPLINE
  5
19A
330
1F
100
AcDbEntity
  8
0
  6
Continuous
 62
     7
370
    25
100
AcDbSpline
210
0.0
220
0.0
230
1.0
 70
     8
 71
     3
 72
    11
 73
     7
 74
     0
 42
0.000000001
 43
0.00000001
 40
0.0
 40
0.0
 40
0.0
 40
0.0
 40
0.2531343837029602
 40
0.5023962933591074
 40
0.7504348438673601
 40
1.0
 40
1.0
 40
1.0
 40
1.0
 10
5.053052059757568
 20
4.284749160194089
 30
0.0
 10
5.053161266432446
 20
4.284743023786349
 30
0.0
 10
5.053378009128034
 20
4.284730844846219
 30
0.0
 10
5.05361321936057
 20
4.284711054394037
 30
0.0
 10
5.0537837544488
 20
4.284690563467643
 30
0.0
 10
5.053831196712849
 20
4.284676924149463
 30
0.0
 10
5.053854990619278
 20
4.284670083568241
 30
0.0
  0
SPLINE
  5
19B
330
1F
100
AcDbEntity
  8
0
  6
Continuous
 62
     7
370
    25
100
AcDbSpline
210
0.0
220
0.0
230
1.0
 70
     8
 71
     3
 72
    10
 73
     6
 74
     0
 42
0.000000001
 43
0.00000001
 40
0.0
 40
0.0
 40
0.0
 40
0.0
 40
0.5
 40
0.5
 40
1.0
 40
1.0
 40
1.0
 40
1.0
 10
5.053854994411425
 20
4.284670082012802
 30
0.0
 10
5.053744496351824
 20
4.249312063190847
 30
0.0
 10
5.05368711277297
 20
4.213933480686996
 30
0.0
 10
5.053687048937832
 20
4.143174199945416
 30
0.0
 10
5.053744734673246
 20
4.107794685832413
 30
0.0
 10
5.053854929667721
 20
4.072437286202336
 30
0.0
  0
SPLINE
  5
19C
330
1F
100
AcDbEntity
  8
0
  6
Continuous
 62
     7
370
    25
100
AcDbSpline
210
0.0
220
0.0
230
1.0
 70
     8
 71
     3
 72
    10
 73
     6
 74
     0
 42
0.000000001
 43
0.00000001
 40
0.0
 40
0.0
 40
0.0
 40
0.0
 40
0.5
 40
0.5
 40
1.0
 40
1.0
 40
1.0
 40
1.0
 10
5.05172263997516
 20
4.288156613953659
 30
0.0
 10
5.052429083890203
 20
4.287789848604798
 30
0.0
 10
5.053007742261201
 20
4.28719896766117
 30
0.0
 10
5.053714129662076
 20
4.285922123747288
 30
0.0
 10
5.053851815199824
 20
4.285251196488286
 30
0.0
 10
5.053854990620834
 20
4.284670083568241
 30
0.0
  0
SPLINE
  5
19D
330
1F
100
AcDbEntity
  8
0
  6
Continuous
 62
     7
370
    25
100
AcDbSpline
210
0.0
220
0.0
230
1.0
 70
     8
 71
     3
 72
    10
 73
     6
 74
     0
 42
0.000000001
 43
0.00000001
 40
0.0
 40
0.0
 40
0.0
 40
0.0
 40
0.5
 40
0.5
 40
1.0
 40
1.0
 40
1.0
 40
1.0
 10
5.047661152715029
 20
4.28788521624245
 30
0.0
 10
5.04813402497129
 20
4.28821927781465
 30
0.0
 10
5.04875763741085
 20
4.288495089901708
 30
0.0
 10
5.050201887292198
 20
4.288655605871839
 30
0.0
 10
5.051016103033596
 20
4.288523427599212
 30
0.0
 10
5.05172263997516
 20
4.288156613953659
 30
0.0
  0
SPLINE
  5
19E
330
1F
100
AcDbEntity
  8
0
  6
Continuous
 62
     7
370
    25
100
AcDbSpline
210
0.0
220
0.0
230
1.0
 70
     8
 71
     3
 72
    10
 73
     6
 74
     0
 42
0.000000001
 43
0.00000001
 40
0.0
 40
0.0
 40
0.0
 40
0.0
 40
0.5
 40
0.5
 40
1.0
 40
1.0
 40
1.0
 40
1.0
 10
5.198061485523627
 20
4.288156746075449
 30
0.0
 10
5.198767991793336
 20
4.288523581932229
 30
0.0
 10
5.199582176992364
 20
4.288655782102712
 30
0.0
 10
5.201026365370486
 20
4.288495309501632
 30
0.0
 10
5.201649946846581
 20
4.288219518936746
 30
0.0
 10
5.202122787972568
 20
4.287885478968541
 30
0.0
  0
SPLINE
  5
19F
330
1F
100
AcDbEntity
  8
0
  6
Continuous
 62
     7
370
    25
100
AcDbSpline
210
0.0
220
0.0
230
1.0
 70
     8
 71
     3
 72
    10
 73
     6
 74
     0
 42
0.000000001
 43
0.00000001
 40
0.0
 40
0.0
 40
0.0
 40
0.0
 40
0.5
 40
0.5
 40
1.0
 40
1.0
 40
1.0
 40
1.0
 10
5.195929321494455
 20
4.284670083968085
 30
0.0
 10
5.195932465839412
 20
4.285251218836946
 30
0.0
 10
5.196070120291624
 20
4.285922168042116
 30
0.0
 10
5.19677644548604
 20
4.287199055856541
 30
0.0
 10
5.197355072734713
 20
4.287789958756255
 30
0.0
 10
5.198061485523627
 20
4.288156746075449
 30
0.0
  0
SPLINE
  5
1A0
330
1F
100
AcDbEntity
  8
0
  6
Continuous
 62
     7
370
    25
100
AcDbSpline
210
0.0
220
0.0
230
1.0
 70
     8
 71
     3
 72
    14
 73
    10
 74
     0
 42
0.000000001
 43
0.00000001
 40
0.0
 40
0.0
 40
0.0
 40
0.0
 40
0.25
 40
0.25
 40
0.5
 40
0.5
 40
0.75
 40
0.75
 40
1.0
 40
1.0
 40
1.0
 40
1.0
 10
5.202122540365261
 20
4.069221454311363
 30
0.0
 10
5.201649713960733
 20
4.06888745748959
 30
0.0
 10
5.2010261647709
 20
4.068611716121058
 30
0.0
 10
5.199582079077763
 20
4.068451305884282
 30
0.0
 10
5.198767963454271
 20
4.068583514295905
 30
0.0
 10
5.197355056659747
 20
4.069317144789362
 30
0.0
 10
5.1967764056159
 20
4.069908110839962
 30
0.0
 10
5.196070101121505
 20
4.071185119572364
 30
0.0
 10
5.195932486967313
 20
4.071856122487886
 30
0.0
 10
5.195929388670494
 20
4.072437289888005
 30
0.0
  0
SPLINE
  5
1A1
330
1F
100
AcDbEntity
  8
0
  6
Continuous
 62
     7
370
    25
100
AcDbSpline
210
0.0
220
0.0
230
1.0
 70
     8
 71
     3
 72
     8
 73
     4
 74
     0
 42
0.000000001
 43
0.00000001
 40
0.0
 40
0.0
 40
0.0
 40
0.0
 40
1.0
 40
1.0
 40
1.0
 40
1.0
 10
5.053854990620834
 20
4.284670083568241
 30
0.0
 10
5.054516506605156
 20
4.285137508556752
 30
0.0
 10
5.05517807366255
 20
4.285595699871584
 30
0.0
 10
5.055839687919955
 20
4.286044985960537
 30
0.0
  0
SPLINE
  5
1A2
330
1F
100
AcDbEntity
  8
0
  6
Continuous
 62
     7
370
    25
100
AcDbSpline
210
0.0
220
0.0
230
1.0
 70
     8
 71
     3
 72
    14
 73
    10
 74
     0
 42
0.000000001
 43
0.00000001
 40
0.0
 40
0.0
 40
0.0
 40
0.0
 40
0.1274042654186019
 40
0.2599595238257991
 40
0.397665677291808
 40
0.5405227341544511
 40
0.6885307852094078
 40
0.8416898761025043
 40
1.0
 40
1.0
 40
1.0
 40
1.0
 10
5.055839689067112
 20
4.286044985960605
 30
0.0
 10
5.055777888778112
 20
4.276958434850489
 30
0.0
 10
5.05565178959573
 20
4.258417960620339
 30
0.0
 10
5.055466149653165
 20
4.230049779456369
 30
0.0
 10
5.055278083347912
 20
4.200575212114373
 30
0.0
 10
5.055088110148446
 20
4.169993885477394
 30
0.0
 10
5.054896098841583
 20
4.138306004626667
 30
0.0
 10
5.05470167075803
 20
4.105511952974346
 30
0.0
 10
5.054573408379426
 20
4.083278888467651
 30
0.0
 10
5.054508216597753
 20
4.071978512605329
 30
0.0
  0
LINE
  5
1A3
330
1F
100
AcDbEntity
  8
0
  6
Continuous
 62
     7
370
    25
100
AcDbLine
 10
5.0545082161
 20
4.0719785126
 30
0.0
 11
5.0538549297
 21
4.0724372862
 31
0.0
  0
SPLINE
  5
1A4
330
1F
100
AcDbEntity
  8
0
  6
Continuous
 62
     7
370
    25
100
AcDbSpline
210
0.0
220
0.0
230
1.0
 70
     8
 71
     3
 72
    13
 73
     9
 74
     0
 42
0.000000001
 43
0.00000001
 40
0.0
 40
0.0
 40
0.0
 40
0.0
 40
0.1841945590520787
 40
0.3613779030008418
 40
0.5315500397769862
 40
0.6947110764395218
 40
0.8508611078309308
 40
0.9999999999999999
 40
0.9999999999999999
 40
0.9999999999999999
 40
0.9999999999999999
 10
5.195276095939493
 20
4.071978512616117
 30
0.0
 10
5.195200174353555
 20
4.085126498381263
 30
0.0
 10
5.195051221074697
 20
4.110922002596731
 30
0.0
 10
5.194825004781157
 20
4.148859065580055
 30
0.0
 10
5.194602110916853
 20
4.185290489384313
 30
0.0
 10
5.194381711884673
 20
4.220215440072947
 30
0.0
 10
5.194164703016109
 20
4.253634594785709
 30
0.0
 10
5.194016851495958
 20
4.27540820348035
 30
0.0
 10
5.193944623484331
 20
4.286044985979268
 30
0.0
  0
SPLINE
  5
1A5
330
1F
100
AcDbEntity
  8
0
  6
Continuous
 62
     7
370
    25
100
AcDbSpline
210
0.0
220
0.0
230
1.0
 70
     8
 71
     3
 72
     8
 73
     4
 74
     0
 42
0.000000001
 43
0.00000001
 40
0.0
 40
0.0
 40
0.0
 40
0.0
 40
1.0
 40
1.0
 40
1.0
 40
1.0
 10
5.193944624641298
 20
4.286044985979197
 30
0.0
 10
5.194606238755592
 20
4.28559570001885
 30
0.0
 10
5.195267805665847
 20
4.285137508832472
 30
0.0
 10
5.195929321494455
 20
4.284670083968085
 30
0.0
  0
LINE
  5
1A6
330
1F
100
AcDbEntity
  8
0
  6
Continuous
 62
     7
370
    25
100
AcDbLine
 10
5.1959293887
 20
4.0724372899
 30
0.0
 11
5.1952760964
 21
4.0719785126
 31
0.0
  0
SPLINE
  5
1A7
330
1F
100
AcDbEntity
  8
0
  6
Continuous
 62
     7
370
    25
100
AcDbSpline
210
0.0
220
0.0
230
1.0
 70
     8
 71
     3
 72
    14
 73
    10
 74
     0
 42
0.000000001
 43
0.00000001
 40
0.0
 40
0.0
 40
0.0
 40
0.0
 40
0.25
 40
0.25
 40
0.5
 40
0.5
 40
0.75
 40
0.75
 40
1.0
 40
1.0
 40
1.0
 40
1.0
 10
5.055389756378829
 20
4.288368723992897
 30
0.0
 10
5.055052191408461
 20
4.28900219128724
 30
0.0
 10
5.054654361448881
 20
4.28942742792028
 30
0.0
 10
5.053849662490713
 20
4.290058737298126
 30
0.0
 10
5.053445806688726
 20
4.290254075102719
 30
0.0
 10
5.05264913100455
 20
4.290478876935669
 30
0.0
 10
5.052257837023042
 20
4.290504725906112
 30
0.0
 10
5.051513267235737
 20
4.290400537148769
 30
0.0
 10
5.051156596329688
 20
4.290273217843305
 30
0.0
 10
5.050814569839913
 20
4.290045963217206
 30
0.0
  0
SPLINE
  5
1A8
330
1F
100
AcDbEntity
  8
0
  6
Continuous
 62
     7
370
    25
100
AcDbSpline
210
0.0
220
0.0
230
1.0
 70
     8
 71
     3
 72
    11
 73
     7
 74
     0
 42
0.000000001
 43
0.00000001
 40
0.0
 40
0.0
 40
0.0
 40
0.0
 40
0.2136425276849837
 40
0.4731612093003897
 40
0.7347544041556142
 40
1.0
 40
1.0
 40
1.0
 40
1.0
 10
5.055389751252394
 20
4.288368730564792
 30
0.0
 10
5.055465701753534
 20
4.288211013658215
 30
0.0
 10
5.055633911853632
 20
4.287861712781413
 30
0.0
 10
5.055786405568998
 20
4.28729272994691
 30
0.0
 10
5.055870665093964
 20
4.286678004442862
 30
0.0
 10
5.055850062020852
 20
4.286256965097373
 30
0.0
 10
5.055839689067112
 20
4.286044985960605
 30
0.0
  0
SPLINE
  5
1A9
330
1F
100
AcDbEntity
  8
0
  6
Continuous
 62
     7
370
    25
100
AcDbSpline
210
0.0
220
0.0
230
1.0
 70
     8
 71
     3
 72
     9
 73
     5
 74
     0
 42
0.000000001
 43
0.00000001
 40
0.0
 40
0.0
 40
0.0
 40
0.0
 40
0.4957381759262988
 40
1.0
 40
1.0
 40
1.0
 40
1.0
 10
5.047661162254975
 20
4.287885202738148
 30
0.0
 10
5.048182189395861
 20
4.288250434792449
 30
0.0
 10
5.049233202140469
 20
4.288987178646433
 30
0.0
 10
5.050284382959589
 20
4.28969095312843
 30
0.0
 10
5.050814453316869
 20
4.290045839732458
 30
0.0
  0
SPLINE
  5
1AA
330
1F
100
AcDbEntity
  8
0
  6
Continuous
 62
     7
370
    25
100
AcDbSpline
210
0.0
220
0.0
230
1.0
 70
     8
 71
     3
 72
    12
 73
     8
 74
     0
 42
0.000000001
 43
0.00000001
 40
0.0
 40
0.0
 40
0.0
 40
0.0
 40
0.1749181286910263
 40
0.3506698786197564
 40
0.526861280936639
 40
0.7629656346981852
 40
0.9999999999999999
 40
0.9999999999999999
 40
0.9999999999999999
 40
0.9999999999999999
 10
5.193944623484331
 20
4.286044985979268
 30
0.0
 10
5.193935971476542
 20
4.286183161447133
 30
0.0
 10
5.193918626227402
 20
4.286460170896683
 30
0.0
 10
5.193943018851854
 20
4.286874989637116
 30
0.0
 10
5.194012007211325
 20
4.287342116836628
 30
0.0
 10
5.19414281175118
 20
4.287848121937816
 30
0.0
 10
5.194310534908606
 20
4.288194967160528
 30
0.0
 10
5.194394561327422
 20
4.288368730655063
 30
0.0
  0
SPLINE
  5
1AB
330
1F
100
AcDbEntity
  8
0
  6
Continuous
 62
     7
370
    25
100
AcDbSpline
210
0.0
220
0.0
230
1.0
 70
     8
 71
     3
 72
    14
 73
    10
 74
     0
 42
0.000000001
 43
0.00000001
 40
0.0
 40
0.0
 40
0.0
 40
0.0
 40
0.25
 40
0.25
 40
0.5
 40
0.5
 40
0.75
 40
0.75
 40
1.0
 40
1.0
 40
1.0
 40
1.0
 10
5.198969742682019
 20
4.290045963266253
 30
0.0
 10
5.198627473630433
 20
4.290273379057036
 30
0.0
 10
5.198271017630339
 20
4.290400448402334
 30
0.0
 10
5.197527774038155
 20
4.290504636747714
 30
0.0
 10
5.19713913178164
 20
4.290479657124072
 30
0.0
 10
5.196339191300927
 20
4.29025460115285
 30
0.0
 10
5.195933852167597
 20
4.290058526415264
 30
0.0
 10
5.195126824595601
 20
4.289424558098462
 30
0.0
 10
5.19473225395125
 20
4.289002440124093
 30
0.0
 10
5.194394556827895
 20
4.288368725302133
 30
0.0
  0
SPLINE
  5
1AC
330
1F
100
AcDbEntity
  8
0
  6
Continuous
 62
     7
370
    25
100
AcDbSpline
210
0.0
220
0.0
230
1.0
 70
     8
 71
     3
 72
     8
 73
     4
 74
     0
 42
0.000000001
 43
0.00000001
 40
0.0
 40
0.0
 40
0.0
 40
0.0
 40
1.0
 40
1.0
 40
1.0
 40
1.0
 10
5.202122787972568
 20
4.287885478968541
 30
0.0
 10
5.201072489780234
 20
4.288627422494395
 30
0.0
 10
5.200021517153696
 20
4.289347161860779
 30
0.0
 10
5.198969880455412
 20
4.290045871722068
 30
0.0
  0
SPLINE
  5
1AD
330
1F
100
AcDbEntity
  8
0
  6
Continuous
 62
     7
370
    25
100
AcDbSpline
210
0.0
220
0.0
230
1.0
 70
     8
 71
     3
 72
    10
 73
     6
 74
     0
 42
0.000000001
 43
0.00000001
 40
0.0
 40
0.0
 40
0.0
 40
0.0
 40
0.5
 40
0.5
 40
1.0
 40
1.0
 40
1.0
 40
1.0
 10
5.052386841714728
 20
4.068497394561907
 30
0.0
 10
5.051754705047831
 20
4.068166717526312
 30
0.0
 10
5.051032449715875
 20
4.068012523664486
 30
0.0
 10
5.049612555924908
 20
4.068100836885756
 30
0.0
 10
5.048916965010409
 20
4.068343216628404
 30
0.0
 10
5.048334375367688
 20
4.06874944660227
 30
0.0
  0
SPLINE
  5
1AE
330
1F
100
AcDbEntity
  8
0
  6
Continuous
 62
     7
370
    25
100
AcDbSpline
210
0.0
220
0.0
230
1.0
 70
     8
 71
     3
 72
    22
 73
    18
 74
     0
 42
0.000000001
 43
0.00000001
 40
0.0
 40
0.0
 40
0.0
 40
0.0
 40
0.1285982823342132
 40
0.2483585727216944
 40
0.3592780924102512
 40
0.4613542662758185
 40
0.5545847231591673
 40
0.6389672963943684
 40
0.7145000243884477
 40
0.7811811511511935
 40
0.8390091267080431
 40
0.8879826073646634
 40
0.9281004558191664
 40
0.9593617411310915
 40
0.9817657385587701
 40
0.9953119292782411
 40
1.0
 40
1.0
 40
1.0
 40
1.0
 10
5.054508216114255
 20
4.071978512605344
 30
0.0
 10
5.054499856300147
 20
4.071795093548511
 30
0.0
 10
5.054483711205031
 20
4.07144086101649
 30
0.0
 10
5.05437263156889
 20
4.070938181531043
 30
0.0
 10
5.054217076785019
 20
4.070488592007863
 30
0.0
 10
5.054026198678267
 20
4.070094209288267
 30
0.0
 10
5.053815131861215
 20
4.069754460347153
 30
0.0
 10
5.053595476308767
 20
4.069466800590425
 30
0.0
 10
5.053377429870872
 20
4.069227355566113
 30
0.0
 10
5.053169326881425
 20
4.069031478357087
 30
0.0
 10
5.05297789284814
 20
4.068874214545417
 30
0.0
 10
5.052808401388968
 20
4.068750673330887
 30
0.0
 10
5.052664878767629
 20
4.068656325015743
 30
0.0
 10
5.052550312288096
 20
4.068587200499108
 30
0.0
 10
5.052466806100918
 20
4.068540098550223
 30
0.0
 10
5.052415790032508
 20
4.068512585645661
 30
0.0
 10
5.052392762218806
 20
4.068500501439273
 30
0.0
 10
5.052386841714728
 20
4.068497394561907
 30
0.0
  0
SPLINE
  5
1AF
330
1F
100
AcDbEntity
  8
0
  6
Continuous
 62
     7
370
    25
100
AcDbSpline
210
0.0
220
0.0
230
1.0
 70
     8
 71
     3
 72
     8
 73
     4
 74
     0
 42
0.000000001
 43
0.00000001
 40
0.0
 40
0.0
 40
0.0
 40
0.0
 40
1.0
 40
1.0
 40
1.0
 40
1.0
 10
5.048334375363332
 20
4.068749446596065
 30
0.0
 10
5.04810955605248
 20
4.068906195445802
 30
0.0
 10
5.047885218148203
 20
4.069063634759889
 30
0.0
 10
5.047661365882475
 20
4.069221761568349
 30
0.0
  0
SPLINE
  5
1B0
330
1F
100
AcDbEntity
  8
0
  6
Continuous
 62
     7
370
    25
100
AcDbSpline
210
0.0
220
0.0
230
1.0
 70
     8
 71
     3
 72
    10
 73
     6
 74
     0
 42
0.000000001
 43
0.00000001
 40
0.0
 40
0.0
 40
0.0
 40
0.0
 40
0.5
 40
0.5
 40
1.0
 40
1.0
 40
1.0
 40
1.0
 10
5.197397470821406
 20
4.068497394559863
 30
0.0
 10
5.196765414849952
 20
4.068828028229562
 30
0.0
 10
5.196225278216309
 20
4.069334146682912
 30
0.0
 10
5.195482005567378
 20
4.070553837233954
 30
0.0
 10
5.195279940835217
 20
4.071265651372009
 30
0.0
 10
5.19527609642109
 20
4.07197851261613
 30
0.0
  0
SPLINE
  5
1B1
330
1F
100
AcDbEntity
  8
0
  6
Continuous
 62
     7
370
    25
100
AcDbSpline
210
0.0
220
0.0
230
1.0
 70
     8
 71
     3
 72
    20
 73
    16
 74
     0
 42
0.000000001
 43
0.00000001
 40
0.0
 40
0.0
 40
0.0
 40
0.0
 40
0.1318101665569879
 40
0.2590703251605597
 40
0.381779692609677
 40
0.4999375137100969
 40
0.6474062830520819
 40
0.7545974739118109
 40
0.8789357198231063
 40
0.9399157427438388
 40
0.9700521943255168
 40
0.9850256312979633
 40
0.9924878951766959
 40
0.9962128215041652
 40
1.0
 40
1.0
 40
1.0
 40
1.0
 10
5.201449925217653
 20
4.068749438276924
 30
0.0
 10
5.20129186136609
 20
4.068648725515649
 30
0.0
 10
5.200981189932386
 20
4.068450776537261
 30
0.0
 10
5.200476766868356
 20
4.068245138477823
 30
0.0
 10
5.19997031833829
 20
4.068110302070266
 30
0.0
 10
5.199421274117575
 20
4.068040630688443
 30
0.0
 10
5.198888681878131
 20
4.068050326843388
 30
0.0
 10
5.19835483818161
 20
4.06813490616092
 30
0.0
 10
5.197953402477564
 20
4.068251655269083
 30
0.0
 10
5.197668514595374
 20
4.068366681864402
 30
0.0
 10
5.197531229013961
 20
4.068430168145324
 30
0.0
 10
5.197463988311243
 20
4.068463279824147
 30
0.0
 10
5.197430732826377
 20
4.068480166748833
 30
0.0
 10
5.197411751930676
 20
4.068489942105474
 30
0.0
 10
5.197402257417901
 20
4.06849489672224
 30
0.0
 10
5.197397470821407
 20
4.068497394559863
 30
0.0
  0
SPLINE
  5
1B2
330
1F
100
AcDbEntity
  8
0
  6
Continuous
 62
     7
370
    25
100
AcDbSpline
210
0.0
220
0.0
230
1.0
 70
     8
 71
     3
 72
     8
 73
     4
 74
     0
 42
0.000000001
 43
0.00000001
 40
0.0
 40
0.0
 40
0.0
 40
0.0
 40
1.0
 40
1.0
 40
1.0
 40
1.0
 10
5.202122530818099
 20
4.069221467826942
 30
0.0
 10
5.201898812597737
 20
4.069063436982154
 30
0.0
 10
5.201674609325487
 20
4.068906092806778
 30
0.0
 10
5.201449925225693
 20
4.068749438265427
 30
0.0
  0
SPLINE
  5
1B3
330
1F
100
AcDbEntity
  8
0
  6
Continuous
 62
     7
370
    25
100
AcDbSpline
210
0.0
220
0.0
230
1.0
 70
     8
 71
     3
 72
    15
 73
    11
 74
     0
 42
0.000000001
 43
0.00000001
 40
0.0
 40
0.0
 40
0.0
 40
0.0
 40
0.0468701912107547
 40
0.2141625179611991
 40
0.3629679876895233
 40
0.4984552095399597
 40
0.6339022106530317
 40
0.7826470172503498
 40
0.9498747564303887
 40
0.9999999999999999
 40
0.9999999999999999
 40
0.9999999999999999
 40
0.9999999999999999
 10
5.04881799669992
 20
4.068744928586113
 30
0.0
 10
5.050201406382901
 20
4.067683171028976
 30
0.0
 10
5.056522577545764
 20
4.062831714996321
 30
0.0
 10
5.073833191037171
 20
4.053959916974947
 30
0.0
 10
5.098654518364975
 20
4.046437468871881
 30
0.0
 10
5.124851482033607
 20
4.043868866669097
 30
0.0
 10
5.151045584455389
 20
4.046421193539968
 30
0.0
 10
5.17588291512842
 20
4.05392926954201
 30
0.0
 10
5.193320978201479
 20
4.062866806308381
 30
0.0
 10
5.199730918741801
 20
4.067792091628947
 30
0.0
 10
5.201209158546868
 20
4.068927945037628
 30
0.0
  0
SPLINE
  5
1B4
330
1F
100
AcDbEntity
  8
0
  6
Continuous
 62
     7
370
    25
100
AcDbSpline
210
0.0
220
0.0
230
1.0
 70
     8
 71
     3
 72
    10
 73
     6
 74
     0
 42
0.000000001
 43
0.00000001
 40
0.0
 40
0.0
 40
0.0
 40
0.0
 40
0.5
 40
0.5
 40
1.0
 40
1.0
 40
1.0
 40
1.0
 10
5.054508216597753
 20
4.071978512605329
 30
0.0
 10
5.054548766941366
 20
4.071947661556006
 30
0.0
 10
5.054505377157589
 20
4.071915777825968
 30
0.0
 10
5.054242511144919
 20
4.071856141201065
 30
0.0
 10
5.054023594535822
 20
4.071828514284844
 30
0.0
 10
5.053745347271072
 20
4.071805394604655
 30
0.0
  0
SPLINE
  5
1B5
330
1F
100
AcDbEntity
  8
0
  6
Continuous
 62
     7
370
    25
100
AcDbSpline
210
0.0
220
0.0
230
1.0
 70
     8
 71
     3
 72
    10
 73
     6
 74
     0
 42
0.000000001
 43
0.00000001
 40
0.0
 40
0.0
 40
0.0
 40
0.0
 40
0.5
 40
0.5
 40
1.0
 40
1.0
 40
1.0
 40
1.0
 10
5.196038975811918
 20
4.071805312983472
 30
0.0
 10
5.195760725397943
 20
4.07182844616268
 30
0.0
 10
5.195541805898976
 20
4.071856086652018
 30
0.0
 10
5.195278936088318
 20
4.071915750518415
 30
0.0
 10
5.195235545425533
 20
4.071947647913464
 30
0.0
 10
5.195276095939493
 20
4.071978512616117
 30
0.0
  0
SPLINE
  5
1B6
330
1F
100
AcDbEntity
  8
0
  6
Continuous
 62
     7
370
    25
100
AcDbSpline
210
0.0
220
0.0
230
1.0
 70
    11
 71
     3
 72
    70
 73
    66
 74
     0
 42
0.000000001
 43
0.00000001
 40
0.0
 40
0.0
 40
0.0
 40
0.0
 40
0.03125
 40
0.03125
 40
0.0625
 40
0.0625
 40
0.09375
 40
0.09375
 40
0.125
 40
0.125
 40
0.15625
 40
0.15625
 40
0.1875
 40
0.1875
 40
0.21875
 40
0.21875
 40
0.25
 40
0.25
 40
0.28125
 40
0.28125
 40
0.3125
 40
0.3125
 40
0.34375
 40
0.34375
 40
0.375
 40
0.375
 40
0.40625
 40
0.40625
 40
0.4375
 40
0.4375
 40
0.46875
 40
0.46875
 40
0.5
 40
0.5
 40
0.53125
 40
0.53125
 40
0.5625
 40
0.5625
 40
0.59375
 40
0.59375
 40
0.625
 40
0.625
 40
0.65625
 40
0.65625
 40
0.6875
 40
0.6875
 40
0.71875
 40
0.71875
 40
0.75
 40
0.75
 40
0.78125
 40
0.78125
 40
0.8125
 40
0.8125
 40
0.84375
 40
0.84375
 40
0.875
 40
0.875
 40
0.90625
 40
0.90625
 40
0.9375
 40
0.9375
 40
0.96875
 40
0.96875
 40
1.0
 40
1.0
 40
1.0
 40
1.0
 10
5.124892156268682
 20
4.210049617065645
 30
0.0
 10
5.122790747593636
 20
4.210049617065645
 30
0.0
 10
5.120727518667186
 20
4.209841443631382
 30
0.0
 10
5.116673350311413
 20
4.209028584310973
 30
0.0
 10
5.114660860359355
 20
4.208413128947334
 30
0.0
 10
5.110846582777115
 20
4.20682006239914
 30
0.0
 10
5.109040120232769
 20
4.205847392078414
 30
0.0
 10
5.105621965177449
 20
4.203551561490689
 30
0.0
 10
5.104017010261668
 20
4.202226560181439
 30
0.0
 10
5.101131411444519
 20
4.199328778365953
 30
0.0
 10
5.099831714712216
 20
4.197744529598615
 30
0.0
 10
5.097527798952375
 20
4.19428604342757
 30
0.0
 10
5.096561869342194
 20
4.192468790115941
 30
0.0
 10
5.094991751096044
 20
4.188663189178978
 30
0.0
 10
5.094383062764811
 20
4.186649265256506
 30
0.0
 10
5.093582355035783
 20
4.18255875977893
 30
0.0
 10
5.093387814424597
 20
4.180498607632781
 30
0.0
 10
5.093404906488223
 20
4.176349038335231
 30
0.0
 10
5.093623664604448
 20
4.174249575593112
 30
0.0
 10
5.094450295764234
 20
4.170214733368896
 30
0.0
 10
5.095056239107557
 20
4.168253794994562
 30
0.0
 10
5.09665661641831
 20
4.164446063889648
 30
0.0
 10
5.09762603175193
 20
4.162657938325294
 30
0.0
 10
5.099888952315453
 20
4.159293441450496
 30
0.0
 10
5.101198538242033
 20
4.157703238114363
 30
0.0
 10
5.104071288178463
 20
4.154834054442222
 30
0.0
 10
5.105633174983447
 20
4.153548551542516
 30
0.0
 10
5.109017559511384
 20
4.151274336901583
 30
0.0
 10
5.110851168951871
 20
4.150286155705626
 30
0.0
 10
5.114629512843233
 20
4.14870605358785
 30
0.0
 10
5.116592268996049
 20
4.148099438813758
 30
0.0
 10
5.120675383211005
 20
4.147271608961791
 30
0.0
 10
5.122772321945217
 20
4.147058665177373
 30
0.0
 10
5.126976956896524
 20
4.14705632672758
 30
0.0
 10
5.129040504668721
 20
4.147263587212198
 30
0.0
 10
5.133092558008784
 20
4.148073655255913
 30
0.0
 10
5.13510276847533
 20
4.148687466971053
 30
0.0
 10
5.138903395359322
 20
4.150270609750276
 30
0.0
 10
5.140701883178288
 20
4.15123612998594
 30
0.0
 10
5.144103603358989
 20
4.153511401122278
 30
0.0
 10
5.1456937257297
 20
4.154817703167674
 30
0.0
 10
5.148559843803979
 20
4.157674462211141
 30
0.0
 10
5.149857078539496
 20
4.159241756132119
 30
0.0
 10
5.152146907949864
 20
4.162635909947757
 30
0.0
 10
5.153112987930928
 20
4.16442099535598
 30
0.0
 10
5.154697214956522
 20
4.168170730169207
 30
0.0
 10
5.155319632360579
 20
4.170160495304351
 30
0.0
 10
5.156155577952835
 20
4.174209224271984
 30
0.0
 10
5.156372722433805
 20
4.176257397926335
 30
0.0
 10
5.156402131026676
 20
4.18040284309352
 30
0.0
 10
5.156206817274514
 20
4.182515557199959
 30
0.0
 10
5.155416634931816
 20
4.186588581455424
 30
0.0
 10
5.154824972736098
 20
4.188572952054688
 30
0.0
 10
5.15324035873937
 20
4.192436682476653
 30
0.0
 10
5.152267649489281
 20
4.194263555906902
 30
0.0
 10
5.149995160018885
 20
4.197686274460156
 30
0.0
 10
5.148676235243191
 20
4.199303031137056
 30
0.0
 10
5.145779073815506
 20
4.202217025637686
 30
0.0
 10
5.144203392883925
 20
4.203519754694134
 30
0.0
 10
5.14079137737159
 20
4.205819829971771
 30
0.0
 10
5.138949153620668
 20
4.206813640524882
 30
0.0
 10
5.135154827435445
 20
4.208401656882828
 30
0.0
 10
5.133184123483517
 20
4.20901034563449
 30
0.0
 10
5.129085747444491
 20
4.209839120482497
 30
0.0
 10
5.12699356494373
 20
4.210049617065644
 30
0.0
 10
5.124892156268682
 20
4.210049617065645
 30
0.0
  0
SPLINE
  5
1B7
330
1F
100
AcDbEntity
  8
0
  6
Continuous
 62
     7
370
    25
100
AcDbSpline
210
0.0
220
0.0
230
1.0
 70
     8
 71
     3
 72
    18
 73
    14
 74
     0
 42
0.000000001
 43
0.00000001
 40
0.0
 40
0.0
 40
0.0
 40
0.0
 40
0.0677679492439662
 40
0.1608795992323444
 40
0.267490787214986
 40
0.3933438854306615
 40
0.4564286488414606
 40
0.5194628337818861
 40
0.6287446613788947
 40
0.7315577516335433
 40
0.8421142577020645
 40
0.9669216523911657
 40
0.9999999999999999
 40
0.9999999999999999
 40
0.9999999999999999
 40
0.9999999999999999
 10
5.046342196904459
 20
4.286939191829688
 30
0.0
 10
5.046380907762633
 20
4.286973004100855
 30
0.0
 10
5.046472806476087
 20
4.287053273678069
 30
0.0
 10
5.053676249736983
 20
4.292106422073842
 30
0.0
 10
5.067069124111192
 20
4.299775395632511
 30
0.0
 10
5.084486669773294
 20
4.306701149363898
 30
0.0
 10
5.10182157211001
 20
4.310626790628374
 30
0.0
 10
5.11914697704352
 20
4.312783722451289
 30
0.0
 10
5.140302043002321
 20
4.31225023945197
 30
0.0
 10
5.163188216933619
 20
4.307414734747414
 30
0.0
 10
5.18262663176685
 20
4.299907365282651
 30
0.0
 10
5.195119349383398
 20
4.292659656596694
 30
0.0
 10
5.198199794614206
 20
4.290516082929143
 30
0.0
 10
5.198845172953324
 20
4.290066986805146
 30
0.0
  0
SPLINE
  5
1B8
330
1F
100
AcDbEntity
  8
0
  6
Continuous
 62
     7
370
    25
100
AcDbSpline
210
0.0
220
0.0
230
1.0
 70
     8
 71
     3
 72
     9
 73
     5
 74
     0
 42
0.000000001
 43
0.00000001
 40
0.0
 40
0.0
 40
0.0
 40
0.0
 40
0.3111869586611813
 40
1.0
 40
1.0
 40
1.0
 40
1.0
 10
5.201838667257583
 20
4.288036528363545
 30
0.0
 10
5.202394154892644
 20
4.287659689821707
 30
0.0
 10
5.204179215672349
 20
4.286448718309729
 30
0.0
 10
5.20361215328332
 20
4.286834923216867
 30
0.0
 10
5.203221553314504
 20
4.287100946193535
 30
0.0
  0
LINE
  5
1B9
330
1F
100
AcDbEntity
  8
0
  6
Continuous
 62
     7
370
    25
100
AcDbLine
 10
4.6804039673
 20
1.8011969353
 30
0.0
 11
4.6804039673
 21
1.6622757958
 31
0.0
  0
LINE
  5
1BA
330
1F
100
AcDbEntity
  8
0
  6
Continuous
 62
     7
370
    25
100
AcDbLine
 10
4.6804039673
 20
2.1032206776
 30
0.0
 11
4.6804039673
 21
1.8011969353
 31
0.0
  0
LINE
  5
1BB
330
1F
100
AcDbEntity
  8
0
  6
Continuous
 62
     7
370
    25
100
AcDbLine
 10
4.75678192
 20
2.0880745614
 30
0.0
 11
4.75678192
 21
1.6622757958
 31
0.0
  0
LINE
  5
1BC
330
1F
100
AcDbEntity
  8
0
  6
Continuous
 62
     7
370
    25
100
AcDbLine
 10
4.75678192
 20
2.1032206776
 30
0.0
 11
4.75678192
 21
2.0880745614
 31
0.0
  0
LINE
  5
1BD
330
1F
100
AcDbEntity
  8
0
  6
Continuous
 62
     7
370
    25
100
AcDbLine
 10
4.7802665415
 20
1.9475726349
 30
0.0
 11
4.7802665415
 21
1.8179238385
 31
0.0
  0
LINE
  5
1BE
330
1F
100
AcDbEntity
  8
0
  6
Continuous
 62
     7
370
    25
100
AcDbLine
 10
4.6804039673
 20
6.8276301265
 30
0.0
 11
4.6804039673
 21
6.3866852446
 31
0.0
  0
LINE
  5
1BF
330
1F
100
AcDbEntity
  8
0
  6
Continuous
 62
     7
370
    25
100
AcDbLine
 10
4.75678192
 20
6.8276301265
 30
0.0
 11
4.75678192
 21
6.3866893031
 31
0.0
  0
LINE
  5
1C0
330
1F
100
AcDbEntity
  8
0
  6
Continuous
 62
     7
370
    25
100
AcDbLine
 10
4.7802665415
 20
6.6719749883
 30
0.0
 11
4.7802665415
 21
6.5423332873
 31
0.0
  0
LINE
  5
1C1
330
1F
100
AcDbEntity
  8
0
  6
Continuous
 62
     7
370
    25
100
AcDbLine
 10
5.0437909371
 20
6.8370789454
 30
0.0
 11
5.2059945185
 21
6.8370789454
 31
0.0
  0
LINE
  5
1C2
330
1F
100
AcDbEntity
  8
0
  6
Continuous
 62
     7
370
    25
100
AcDbLine
 10
5.1249031349
 20
6.8063702839
 30
0.0
 11
5.2059945185
 21
6.8063702839
 31
0.0
  0
LINE
  5
1C3
330
1F
100
AcDbEntity
  8
0
  6
Continuous
 62
     7
370
    25
100
AcDbLine
 10
5.2059945185
 20
1.6528269769
 30
0.0
 11
5.0437897941
 21
1.6528269769
 31
0.0
  0
LINE
  5
1C4
330
1F
100
AcDbEntity
  8
0
  6
Continuous
 62
     7
370
    25
100
AcDbLine
 10
5.1985729069
 20
1.6835356383
 30
0.0
 11
5.0437897941
 21
1.6835356383
 31
0.0
  0
LINE
  5
1C5
330
1F
100
AcDbEntity
  8
0
  6
Continuous
 62
     7
370
    25
100
AcDbLine
 10
5.2059945185
 20
1.6835356383
 30
0.0
 11
5.1985729069
 21
1.6835356383
 31
0.0
  0
LINE
  5
1C6
330
1F
100
AcDbEntity
  8
0
  6
Continuous
 62
     7
370
    25
100
AcDbLine
 10
5.2059945185
 20
6.8016458745
 30
0.0
 11
5.0437897941
 21
6.8016458745
 31
0.0
  0
LINE
  5
1C7
330
1F
100
AcDbEntity
  8
0
  6
Continuous
 62
     7
370
    25
100
AcDbLine
 10
5.0437897941
 20
1.6882600477
 30
0.0
 11
5.2059945185
 21
1.6882600477
 31
0.0
  0
SPLINE
  5
1C8
330
1F
100
AcDbEntity
  8
0
  6
Continuous
 62
     7
370
    25
100
AcDbSpline
210
0.0
220
0.0
230
1.0
 70
     8
 71
     3
 72
    15
 73
    11
 74
     0
 42
0.000000001
 43
0.00000001
 40
0.0
 40
0.0
 40
0.0
 40
0.0
 40
0.0489719148825265
 40
0.2174202075318719
 40
0.3658793360416346
 40
0.500209103497297
 40
0.6345812039477726
 40
0.7831040593557378
 40
0.9516223174085794
 40
1.0
 40
1.0
 40
1.0
 40
1.0
 10
5.195653106304815
 20
4.071856070002821
 30
0.0
 10
5.194332242175841
 20
4.070795546232707
 30
0.0
 10
5.188468012571347
 20
4.066087147577198
 30
0.0
 10
5.172396712254788
 20
4.057466588890792
 30
0.0
 10
5.149290180156309
 20
4.050149780151937
 30
0.0
 10
5.124853668830085
 20
4.047654443295211
 30
0.0
 10
5.100417268619217
 20
4.050165555297462
 30
0.0
 10
5.077316923515023
 20
4.057497192224244
 30
0.0
 10
5.061274467324167
 20
4.066114127988596
 30
0.0
 10
5.055430580595445
 20
4.070808515256443
 30
0.0
 10
5.054127127444489
 20
4.071855577624373
 30
0.0
  0
SPLINE
  5
1C9
330
1F
100
AcDbEntity
  8
0
  6
Continuous
 62
     7
370
    25
100
AcDbSpline
210
0.0
220
0.0
230
1.0
 70
     8
 71
     3
 72
    12
 73
     8
 74
     0
 42
0.000000001
 43
0.00000001
 40
0.0
 40
0.0
 40
0.0
 40
0.0
 40
0.0573654667848196
 40
0.2992558161221244
 40
0.5541010410083701
 40
0.781528789643862
 40
1.0
 40
1.0
 40
1.0
 40
1.0
 10
5.051470420318898
 20
4.068860593669103
 30
0.0
 10
5.05141015636606
 20
4.068818733913452
 30
0.0
 10
5.051095780149846
 20
4.068600366033915
 30
0.0
 10
5.050459470462826
 20
4.068394966484043
 30
0.0
 10
5.049646223592244
 20
4.068299008738777
 30
0.0
 10
5.048921433241292
 20
4.068410706932743
 30
0.0
 10
5.048527423234844
 20
4.068638055590133
 30
0.0
 10
5.048334375367688
 20
4.06874944660227
 30
0.0
  0
CIRCLE
  5
1CA
330
1F
100
AcDbEntity
  8
0
  6
Continuous
 62
     7
370
    18
100
AcDbCircle
 10
5.1248921563
 20
4.1785535541
 30
0.0
 40
0.1338582677165367
  0
ENDSEC
  0
SECTION
  2
OBJECTS
  0
DICTIONARY
  5
C
330
0
100
AcDbDictionary
281
     1
  3
ACAD_GROUP
350
D
  3
ACAD_LAYOUT
350
1A
  3
ACAD_MLINESTYLE
350
17
  3
ACAD_PLOTSETTINGS
350
19
  3
ACAD_PLOTSTYLENAME
350
E
  3
ACAD_SCALELIST
350
47
  0
DICTIONARY
  5
D
102
{ACAD_REACTORS
330
C
102
}
330
C
100
AcDbDictionary
281
     1
  0
DICTIONARY
  5
1A
102
{ACAD_REACTORS
330
C
102
}
330
C
100
AcDbDictionary
281
     1
  3
Layout1
350
1E
  3
Layout2
350
26
  3
Model
350
22
  0
DICTIONARY
  5
17
102
{ACAD_REACTORS
330
C
102
}
330
C
100
AcDbDictionary
281
     1
  3
Standard
350
18
  0
DICTIONARY
  5
19
102
{ACAD_REACTORS
330
C
102
}
330
C
100
AcDbDictionary
281
     1
  0
ACDBDICTIONARYWDFLT
  5
E
102
{ACAD_REACTORS
330
C
102
}
330
C
100
AcDbDictionary
281
     1
  3
Normal
350
F
100
AcDbDictionaryWithDefault
340
F
  0
DICTIONARY
  5
47
102
{ACAD_REACTORS
330
C
102
}
330
C
100
AcDbDictionary
281
     1
  3
A0
350
48
  3
A1
350
49
  3
A2
350
4A
  3
A3
350
4B
  3
A4
350
4C
  3
A5
350
4D
  3
A6
350
4E
  3
A7
350
4F
  3
A8
350
50
  3
A9
350
51
  3
B0
350
52
  3
B1
350
53
  3
B2
350
54
  3
B3
350
55
  3
B4
350
56
  3
B5
350
57
  3
B6
350
58
  3
B7
350
59
  3
B8
350
5A
  3
B9
350
5B
  3
C0
350
5C
  3
C1
350
5D
  3
C2
350
5E
  3
C3
350
5F
  3
C4
350
60
  3
C5
350
61
  3
C6
350
62
  3
C7
350
63
  3
C8
350
64
  3
C9
350
65
  3
D0
350
66
  3
D1
350
67
  3
D2
350
68
  0
LAYOUT
  5
1E
102
{ACAD_REACTORS
330
1A
102
}
330
1A
100
AcDbPlotSettings
  1

  2
none_device
  4

  6

 40
0.0
 41
0.0
 42
0.0
 43
0.0
 44
0.0
 45
0.0
 46
0.0
 47
0.0
 48
0.0
 49
0.0
140
0.0
141
0.0
142
1.0
143
1.0
 70
   688
 72
     0
 73
     0
 74
     5
  7

 75
    16
147
1.0
148
0.0
149
0.0
100
AcDbLayout
  1
Layout1
 70
     1
 71
     1
 10
0.0
 20
0.0
 11
12.0
 21
9.0
 12
0.0
 22
0.0
 32
0.0
 14
1.0000000000E+20
 24
1.0000000000E+20
 34
1.0000000000E+20
 15
-1.0000000000E+20
 25
-1.0000000000E+20
 35
-1.0000000000E+20
146
0.0
 13
0.0
 23
0.0
 33
0.0
 16
1.0
 26
0.0
 36
0.0
 17
0.0
 27
1.0
 37
0.0
 76
     0
330
1B
  0
LAYOUT
  5
26
102
{ACAD_REACTORS
330
1A
102
}
330
1A
100
AcDbPlotSettings
  1

  2
none_device
  4

  6

 40
0.0
 41
0.0
 42
0.0
 43
0.0
 44
0.0
 45
0.0
 46
0.0
 47
0.0
 48
0.0
 49
0.0
140
0.0
141
0.0
142
1.0
143
1.0
 70
   688
 72
     0
 73
     0
 74
     5
  7

 75
    16
147
1.0
148
0.0
149
0.0
100
AcDbLayout
  1
Layout2
 70
     1
 71
     2
 10
0.0
 20
0.0
 11
0.0
 21
0.0
 12
0.0
 22
0.0
 32
0.0
 14
0.0
 24
0.0
 34
0.0
 15
0.0
 25
0.0
 35
0.0
146
0.0
 13
0.0
 23
0.0
 33
0.0
 16
1.0
 26
0.0
 36
0.0
 17
0.0
 27
1.0
 37
0.0
 76
     0
330
23
  0
LAYOUT
  5
22
102
{ACAD_REACTORS
330
1A
102
}
330
1A
100
AcDbPlotSettings
  1

  2
none_device
  4
Letter_(8.50_x_11.00_Inches)
  6

 40
6.35
 41
6.35
 42
6.35000508
 43
6.35000508
 44
215.9
 45
279.4
 46
0.0
 47
0.0
 48
0.0
 49
0.0
140
0.0
141
0.0
142
1.0
143
1.0
 70
  1712
 72
     0
 73
     0
 74
     0
  7

 75
     0
147
1.0
148
0.0
149
0.0
100
AcDbLayout
  1
Model
 70
     1
 71
     0
 10
0.0
 20
0.0
 11
11.0
 21
8.5
 12
0.0
 22
0.0
 32
0.0
 14
0.0
 24
0.0
 34
0.0
 15
11.0
 25
8.5
 35
0.0
146
0.0
 13
0.0
 23
0.0
 33
0.0
 16
1.0
 26
0.0
 36
0.0
 17
0.0
 27
1.0
 37
0.0
 76
     0
330
1F
331
29
  0
MLINESTYLE
  5
18
102
{ACAD_REACTORS
330
17
102
}
330
17
100
AcDbMlineStyle
  2
Standard
 70
     0
  3

 62
   256
 51
90.0
 52
90.0
 71
     2
 49
0.5
 62
   256
  6
BYLAYER
 49
-0.5
 62
   256
  6
BYLAYER
  0
ACDBPLACEHOLDER
  5
F
102
{ACAD_REACTORS
330
E
102
}
330
E
  0
SCALE
  5
48
102
{ACAD_REACTORS
330
47
102
}
330
47
100
AcDbScale
 70
     0
300
1:1
140
1.0
141
1.0
290
     1
  0
SCALE
  5
49
102
{ACAD_REACTORS
330
47
102
}
330
47
100
AcDbScale
 70
     0
300
1:2
140
1.0
141
2.0
290
     0
  0
SCALE
  5
4A
102
{ACAD_REACTORS
330
47
102
}
330
47
100
AcDbScale
 70
     0
300
1:4
140
1.0
141
4.0
290
     0
  0
SCALE
  5
4B
102
{ACAD_REACTORS
330
47
102
}
330
47
100
AcDbScale
 70
     0
300
1:5
140
1.0
141
5.0
290
     0
  0
SCALE
  5
4C
102
{ACAD_REACTORS
330
47
102
}
330
47
100
AcDbScale
 70
     0
300
1:8
140
1.0
141
8.0
290
     0
  0
SCALE
  5
4D
102
{ACAD_REACTORS
330
47
102
}
330
47
100
AcDbScale
 70
     0
300
1:10
140
1.0
141
10.0
290
     0
  0
SCALE
  5
4E
102
{ACAD_REACTORS
330
47
102
}
330
47
100
AcDbScale
 70
     0
300
1:16
140
1.0
141
16.0
290
     0
  0
SCALE
  5
4F
102
{ACAD_REACTORS
330
47
102
}
330
47
100
AcDbScale
 70
     0
300
1:20
140
1.0
141
20.0
290
     0
  0
SCALE
  5
50
102
{ACAD_REACTORS
330
47
102
}
330
47
100
AcDbScale
 70
     0
300
1:30
140
1.0
141
30.0
290
     0
  0
SCALE
  5
51
102
{ACAD_REACTORS
330
47
102
}
330
47
100
AcDbScale
 70
     0
300
1:40
140
1.0
141
40.0
290
     0
  0
SCALE
  5
52
102
{ACAD_REACTORS
330
47
102
}
330
47
100
AcDbScale
 70
     0
300
1:50
140
1.0
141
50.0
290
     0
  0
SCALE
  5
53
102
{ACAD_REACTORS
330
47
102
}
330
47
100
AcDbScale
 70
     0
300
1:100
140
1.0
141
100.0
290
     0
  0
SCALE
  5
54
102
{ACAD_REACTORS
330
47
102
}
330
47
100
AcDbScale
 70
     0
300
2:1
140
2.0
141
1.0
290
     0
  0
SCALE
  5
55
102
{ACAD_REACTORS
330
47
102
}
330
47
100
AcDbScale
 70
     0
300
4:1
140
4.0
141
1.0
290
     0
  0
SCALE
  5
56
102
{ACAD_REACTORS
330
47
102
}
330
47
100
AcDbScale
 70
     0
300
8:1
140
8.0
141
1.0
290
     0
  0
SCALE
  5
57
102
{ACAD_REACTORS
330
47
102
}
330
47
100
AcDbScale
 70
     0
300
10:1
140
10.0
141
1.0
290
     0
  0
SCALE
  5
58
102
{ACAD_REACTORS
330
47
102
}
330
47
100
AcDbScale
 70
     0
300
100:1
140
100.0
141
1.0
290
     0
  0
SCALE
  5
59
102
{ACAD_REACTORS
330
47
102
}
330
47
100
AcDbScale
 70
     0
300
1/128" = 1'-0"
140
0.0078125
141
12.0
290
     0
  0
SCALE
  5
5A
102
{ACAD_REACTORS
330
47
102
}
330
47
100
AcDbScale
 70
     0
300
1/64" = 1'-0"
140
0.015625
141
12.0
290
     0
  0
SCALE
  5
5B
102
{ACAD_REACTORS
330
47
102
}
330
47
100
AcDbScale
 70
     0
300
1/32" = 1'-0"
140
0.03125
141
12.0
290
     0
  0
SCALE
  5
5C
102
{ACAD_REACTORS
330
47
102
}
330
47
100
AcDbScale
 70
     0
300
1/16" = 1'-0"
140
0.0625
141
12.0
290
     0
  0
SCALE
  5
5D
102
{ACAD_REACTORS
330
47
102
}
330
47
100
AcDbScale
 70
     0
300
3/32" = 1'-0"
140
0.09375
141
12.0
290
     0
  0
SCALE
  5
5E
102
{ACAD_REACTORS
330
47
102
}
330
47
100
AcDbScale
 70
     0
300
1/8" = 1'-0"
140
0.125
141
12.0
290
     0
  0
SCALE
  5
5F
102
{ACAD_REACTORS
330
47
102
}
330
47
100
AcDbScale
 70
     0
300
3/16" = 1'-0"
140
0.1875
141
12.0
290
     0
  0
SCALE
  5
60
102
{ACAD_REACTORS
330
47
102
}
330
47
100
AcDbScale
 70
     0
300
1/4" = 1'-0"
140
0.25
141
12.0
290
     0
  0
SCALE
  5
61
102
{ACAD_REACTORS
330
47
102
}
330
47
100
AcDbScale
 70
     0
300
3/8" = 1'-0"
140
0.375
141
12.0
290
     0
  0
SCALE
  5
62
102
{ACAD_REACTORS
330
47
102
}
330
47
100
AcDbScale
 70
     0
300
1/2" = 1'-0"
140
0.5
141
12.0
290
     0
  0
SCALE
  5
63
102
{ACAD_REACTORS
330
47
102
}
330
47
100
AcDbScale
 70
     0
300
3/4" = 1'-0"
140
0.75
141
12.0
290
     0
  0
SCALE
  5
64
102
{ACAD_REACTORS
330
47
102
}
330
47
100
AcDbScale
 70
     0
300
1" = 1'-0"
140
1.0
141
12.0
290
     0
  0
SCALE
  5
65
102
{ACAD_REACTORS
330
47
102
}
330
47
100
AcDbScale
 70
     0
300
1-1/2" = 1'-0"
140
1.5
141
12.0
290
     0
  0
SCALE
  5
66
102
{ACAD_REACTORS
330
47
102
}
330
47
100
AcDbScale
 70
     0
300
3" = 1'-0"
140
3.0
141
12.0
290
     0
  0
SCALE
  5
67
102
{ACAD_REACTORS
330
47
102
}
330
47
100
AcDbScale
 70
     0
300
6" = 1'-0"
140
6.0
141
12.0
290
     0
  0
SCALE
  5
68
102
{ACAD_REACTORS
330
47
102
}
330
47
100
AcDbScale
 70
     0
300
1'-0" = 1'-0"
140
12.0
141
12.0
290
     0
  0
ENDSEC
  0
EOF
