  0
SECTION
  2
HEADER
  9
$ACADVER
  1
AC1015
  9
$ACADMAINTVER
 70
     6
  9
$DWGCODEPAGE
  3
ANSI_1252
  9
$INSBASE
 10
0.0
 20
0.0
 30
0.0
  9
$EXTMIN
 10
0.0
 20
0.0
 30
0.0
  9
$EXTMAX
 10
11.0
 20
8.5
 30
0.0
  9
$LIMMIN
 10
0.0
 20
0.0
  9
$LIMMAX
 10
11.0
 20
8.5
  9
$ORTHOMODE
 70
     0
  9
$REGENMODE
 70
     1
  9
$FILLMODE
 70
     1
  9
$QTEXTMODE
 70
     0
  9
$MIRRTEXT
 70
     1
  9
$LTSCALE
 40
1.0
  9
$ATTMODE
 70
     1
  9
$TEXTSIZE
 40
0.1377952756
  9
$TRACEWID
 40
0.05
  9
$TEXTSTYLE
  7
Standard
  9
$CLAYER
  8
0
  9
$CELTYPE
  6
ByLayer
  9
$CECOLOR
 62
   256
  9
$CELTSCALE
 40
1.0
  9
$DISPSILH
 70
     0
  9
$DIMSCALE
 40
1.0
  9
$DIMASZ
 40
0.13
  9
$DIMEXO
 40
0.0393700787
  9
$DIMDLI
 40
0.38
  9
$DIMRND
 40
0.0
  9
$DIMDLE
 40
0.0
  9
$DIMEXE
 40
0.0393700787
  9
$DIMTP
 40
0.0
  9
$DIMTM
 40
0.0
  9
$DIMTXT
 40
0.1377952756
  9
$DIMCEN
 40
0.09
  9
$DIMTSZ
 40
0.0
  9
$DIMTOL
 70
     0
  9
$DIMLIM
 70
     0
  9
$DIMTIH
 70
     1
  9
$DIMTOH
 70
     1
  9
$DIMSE1
 70
     0
  9
$DIMSE2
 70
     0
  9
$DIMTAD
 70
     1
  9
$DIMZIN
 70
     0
  9
$DIMBLK
  1

  9
$DIMASO
 70
     1
  9
$DIMSHO
 70
     1
  9
$DIMPOST
  1

  9
$DIMAPOST
  1

  9
$DIMALT
 70
     0
  9
$DIMALTD
 70
     2
  9
$DIMALTF
 40
25.4
  9
$DIMLFAC
 40
2.0
  9
$DIMTOFL
 70
     0
  9
$DIMTVP
 40
0.0
  9
$DIMTIX
 70
     0
  9
$DIMSOXD
 70
     0
  9
$DIMSAH
 70
     0
  9
$DIMBLK1
  1

  9
$DIMBLK2
  1

  9
$DIMSTYLE
  2
Standard
  9
$DIMCLRD
 70
     0
  9
$DIMCLRE
 70
     0
  9
$DIMCLRT
 70
     0
  9
$DIMTFAC
 40
1.0
  9
$DIMGAP
 40
0.06
  9
$DIMJUST
 70
     0
  9
$DIMSD1
 70
     0
  9
$DIMSD2
 70
     0
  9
$DIMTOLJ
 70
     1
  9
$DIMTZIN
 70
     0
  9
$DIMALTZ
 70
     0
  9
$DIMALTTZ
 70
     0
  9
$DIMUPT
 70
     0
  9
$DIMDEC
 70
     2
  9
$DIMTDEC
 70
     2
  9
$DIMALTU
 70
     2
  9
$DIMALTTD
 70
     2
  9
$DIMTXSTY
  7
Standard
  9
$DIMAUNIT
 70
     0
  9
$DIMADEC
 70
     2
  9
$DIMALTRND
 40
0.0
  9
$DIMAZIN
 70
     0
  9
$DIMDSEP
 70
    46
  9
$DIMATFIT
 70
     3
  9
$DIMFRAC
 70
     0
  9
$DIMLDRBLK
  1

  9
$DIMLUNIT
 70
     2
  9
$DIMLWD
 70
    -2
  9
$DIMLWE
 70
    -2
  9
$DIMTMOVE
 70
     0
  9
$LUNITS
 70
     2
  9
$LUPREC
 70
     2
  9
$SKETCHINC
 40
0.1
  9
$FILLETRAD
 40
0.5
  9
$AUNITS
 70
     0
  9
$AUPREC
 70
     2
  9
$MENU
  1
.
  9
$ELEVATION
 40
0.0
  9
$PELEVATION
 40
0.0
  9
$THICKNESS
 40
0.0
  9
$LIMCHECK
 70
     0
  9
$CHAMFERA
 40
0.0
  9
$CHAMFERB
 40
0.0
  9
$CHAMFERC
 40
0.0
  9
$CHAMFERD
 40
0.0
  9
$SKPOLY
 70
     0
  9
$TDCREATE
 40
2459276.594622384
  9
$TDUCREATE
 40
2459276.802955718
  9
$TDUPDATE
 40
2459276.594623264
  9
$TDUUPDATE
 40
2459276.802956597
  9
$TDINDWG
 40
0.0000000116
  9
$TDUSRTIMER
 40
0.0000000116
  9
$USRTIMER
 70
     1
  9
$ANGBASE
 50
0.0
  9
$ANGDIR
 70
     0
  9
$PDMODE
 70
     0
  9
$PDSIZE
 40
-1.0
  9
$PLINEWID
 40
0.0
  9
$SPLFRAME
 70
     0
  9
$SPLINETYPE
 70
     6
  9
$SPLINESEGS
 70
     8
  9
$HANDSEED
  5
211
  9
$SURFTAB1
 70
     6
  9
$SURFTAB2
 70
     6
  9
$SURFTYPE
 70
     6
  9
$SURFU
 70
     6
  9
$SURFV
 70
     6
  9
$UCSBASE
  2

  9
$UCSNAME
  2

  9
$UCSORG
 10
0.0
 20
0.0
 30
0.0
  9
$UCSXDIR
 10
1.0
 20
0.0
 30
0.0
  9
$UCSYDIR
 10
0.0
 20
1.0
 30
0.0
  9
$UCSORTHOREF
  2

  9
$UCSORTHOVIEW
 70
     0
  9
$UCSORGTOP
 10
0.0
 20
0.0
 30
0.0
  9
$UCSORGBOTTOM
 10
0.0
 20
0.0
 30
0.0
  9
$UCSORGLEFT
 10
0.0
 20
0.0
 30
0.0
  9
$UCSORGRIGHT
 10
0.0
 20
0.0
 30
0.0
  9
$UCSORGFRONT
 10
0.0
 20
0.0
 30
0.0
  9
$UCSORGBACK
 10
0.0
 20
0.0
 30
0.0
  9
$PUCSBASE
  2

  9
$PUCSNAME
  2

  9
$PUCSORG
 10
0.0
 20
0.0
 30
0.0
  9
$PUCSXDIR
 10
1.0
 20
0.0
 30
0.0
  9
$PUCSYDIR
 10
0.0
 20
1.0
 30
0.0
  9
$PUCSORTHOREF
  2

  9
$PUCSORTHOVIEW
 70
     0
  9
$PUCSORGTOP
 10
0.0
 20
0.0
 30
0.0
  9
$PUCSORGBOTTOM
 10
0.0
 20
0.0
 30
0.0
  9
$PUCSORGLEFT
 10
0.0
 20
0.0
 30
0.0
  9
$PUCSORGRIGHT
 10
0.0
 20
0.0
 30
0.0
  9
$PUCSORGFRONT
 10
0.0
 20
0.0
 30
0.0
  9
$PUCSORGBACK
 10
0.0
 20
0.0
 30
0.0
  9
$USERI1
 70
     0
  9
$USERI2
 70
     0
  9
$USERI3
 70
     0
  9
$USERI4
 70
     0
  9
$USERI5
 70
     0
  9
$USERR1
 40
0.0
  9
$USERR2
 40
0.0
  9
$USERR3
 40
0.0
  9
$USERR4
 40
0.0
  9
$USERR5
 40
0.0
  9
$WORLDVIEW
 70
     1
  9
$SHADEDGE
 70
     3
  9
$SHADEDIF
 70
    70
  9
$TILEMODE
 70
     1
  9
$MAXACTVP
 70
    64
  9
$PINSBASE
 10
0.0
 20
0.0
 30
0.0
  9
$PLIMCHECK
 70
     0
  9
$PEXTMIN
 10
1.0000000000E+20
 20
1.0000000000E+20
 30
1.0000000000E+20
  9
$PEXTMAX
 10
-1.0000000000E+20
 20
-1.0000000000E+20
 30
-1.0000000000E+20
  9
$PLIMMIN
 10
0.0
 20
0.0
  9
$PLIMMAX
 10
12.0
 20
9.0
  9
$UNITMODE
 70
     0
  9
$VISRETAIN
 70
     1
  9
$PLINEGEN
 70
     0
  9
$PSLTSCALE
 70
     1
  9
$TREEDEPTH
 70
  3020
  9
$CMLSTYLE
  2
Standard
  9
$CMLJUST
 70
     0
  9
$CMLSCALE
 40
1.0
  9
$PROXYGRAPHICS
 70
     1
  9
$MEASUREMENT
 70
     0
  9
$CELWEIGHT
370
    -1
  9
$ENDCAPS
280
     0
  9
$JOINSTYLE
280
     0
  9
$LWDISPLAY
290
     1
  9
$INSUNITS
 70
     1
  9
$HYPERLINKBASE
  1

  9
$STYLESHEET
  1

  9
$XEDIT
290
     1
  9
$CEPSNTYPE
380
     0
  9
$PSTYLEMODE
290
     1
  9
$FINGERPRINTGUID
  2
{D850AB54-7A95-4BBE-A605-B3E994B5BA7B}
  9
$VERSIONGUID
  2
{FAEB1C32-E019-11D5-929B-00C0DF256EC4}
  9
$EXTNAMES
290
     1
  9
$PSVPSCALE
 40
0.0
  9
$OLESTARTUP
290
     0
  0
ENDSEC
  0
SECTION
  2
CLASSES
  0
CLASS
  1
ACDBDICTIONARYWDFLT
  2
AcDbDictionaryWithDefault
  3
ObjectDBX Classes
 90
        0
280
     0
281
     0
  0
CLASS
  1
VISUALSTYLE
  2
AcDbVisualStyle
  3
ObjectDBX Classes
 90
     4095
280
     0
281
     0
  0
CLASS
  1
MATERIAL
  2
AcDbMaterial
  3
ObjectDBX Classes
 90
     1153
280
     0
281
     0
  0
CLASS
  1
SCALE
  2
AcDbScale
  3
ObjectDBX Classes
 90
     1153
280
     0
281
     0
  0
CLASS
  1
TABLESTYLE
  2
AcDbTableStyle
  3
ObjectDBX Classes
 90
     4095
280
     0
281
     0
  0
CLASS
  1
MLEADERSTYLE
  2
AcDbMLeaderStyle
  3
ACDB_MLEADERSTYLE_CLASS
 90
     4095
280
     0
281
     0
  0
CLASS
  1
SUN
  2
AcDbSun
  3
SCENEOE
 90
     1153
280
     0
281
     0
  0
CLASS
  1
ACDBPLACEHOLDER
  2
AcDbPlaceHolder
  3
ObjectDBX Classes
 90
        0
280
     0
281
     0
  0
CLASS
  1
LAYOUT
  2
AcDbLayout
  3
ObjectDBX Classes
 90
        0
280
     0
281
     0
  0
ENDSEC
  0
SECTION
  2
TABLES
  0
TABLE
  2
VPORT
  5
8
330
0
100
AcDbSymbolTable
 70
     1
  0
VPORT
  5
29
330
8
100
AcDbSymbolTableRecord
100
AcDbViewportTableRecord
  2
*Active
 70
     0
 10
0.0
 20
0.0
 11
1.0
 21
1.0
 12
5.5
 22
4.25
 13
0.0
 23
0.0
 14
0.5
 24
0.5
 15
0.5
 25
0.5
 16
0.0
 26
0.0
 36
1.0
 17
0.0
 27
0.0
 37
0.0
 40
8.5
 41
1.2941176471
 42
50.0
 43
0.0
 44
0.0
 50
0.0
 51
0.0
 71
     0
 72
  2000
 73
     1
 74
     3
 75
     0
 76
     0
 77
     0
 78
     0
281
     0
 65
     1
110
0.0
120
0.0
130
0.0
111
1.0
121
0.0
131
0.0
112
0.0
122
1.0
132
0.0
 79
     0
146
0.0
  0
ENDTAB
  0
TABLE
  2
LTYPE
  5
5
330
0
100
AcDbSymbolTable
 70
     6
  0
LTYPE
  5
14
330
5
100
AcDbSymbolTableRecord
100
AcDbLinetypeTableRecord
  2
ByBlock
 70
     0
  3

 72
    65
 73
     0
 40
0.0
  0
LTYPE
  5
15
330
5
100
AcDbSymbolTableRecord
100
AcDbLinetypeTableRecord
  2
ByLayer
 70
     0
  3

 72
    65
 73
     0
 40
0.0
  0
LTYPE
  5
16
330
5
100
AcDbSymbolTableRecord
100
AcDbLinetypeTableRecord
  2
Continuous
 70
     0
  3
Solid line
 72
    65
 73
     0
 40
0.0
  0
LTYPE
  5
6E
330
5
100
AcDbSymbolTableRecord
100
AcDbLinetypeTableRecord
  2
HIDDEN
 70
     0
  3
Hidden __ __ __ __ __ __ __ __ __ __ __ __ __ __
 72
    65
 73
     2
 40
0.075
 49
0.05
 74
     0
 49
-0.025
 74
     0
  0
LTYPE
  5
6F
330
5
100
AcDbSymbolTableRecord
100
AcDbLinetypeTableRecord
  2
PHANTOM
 70
     0
  3
Phantom ______  __  __  ______  __  __  ______
 72
    65
 73
     6
 40
0.5
 49
0.25
 74
     0
 49
-0.05
 74
     0
 49
0.05
 74
     0
 49
-0.05
 74
     0
 49
0.05
 74
     0
 49
-0.05
 74
     0
  0
LTYPE
  5
70
330
5
100
AcDbSymbolTableRecord
100
AcDbLinetypeTableRecord
  2
CENTER
 70
     0
  3
Center ____ _ ____ _ ____ _ ____ _ ____ _ ____
 72
    65
 73
     4
 40
0.4
 49
0.25
 74
     0
 49
-0.05
 74
     0
 49
0.05
 74
     0
 49
-0.05
 74
     0
  0
LTYPE
  5
71
330
5
100
AcDbSymbolTableRecord
100
AcDbLinetypeTableRecord
  2
CENTERX2
 70
     0
  3
Center (2x) ________  __  ________  __  _____
 72
    65
 73
     4
 40
0.8
 49
0.5
 74
     0
 49
-0.1
 74
     0
 49
0.1
 74
     0
 49
-0.1
 74
     0
  0
LTYPE
  5
72
330
5
100
AcDbSymbolTableRecord
100
AcDbLinetypeTableRecord
  2
DOT2
 70
     0
  3
Dot (.5x) ........................................
 72
    65
 73
     2
 40
0.025
 49
0.0
 74
     0
 49
-0.025
 74
     0
  0
ENDTAB
  0
TABLE
  2
LAYER
  5
2
330
0
100
AcDbSymbolTable
 70
     2
  0
LAYER
  5
10
330
2
100
AcDbSymbolTableRecord
100
AcDbLayerTableRecord
  2
0
 70
     0
 62
     7
  6
Continuous
370
    -3
390
F
  0
LAYER
  5
73
330
2
100
AcDbSymbolTableRecord
100
AcDbLayerTableRecord
  2
FORMAT
 70
     0
 62
     7
  6
Continuous
370
    -3
390
F
  0
ENDTAB
  0
TABLE
  2
STYLE
  5
3
330
0
100
AcDbSymbolTable
 70
     2
  0
STYLE
  5
11
330
3
100
AcDbSymbolTableRecord
100
AcDbTextStyleTableRecord
  2
Standard
 70
     0
 40
0.0
 41
1.0
 50
0.0
 71
     0
 42
0.1377952756
  3
txt
  4

  0
STYLE
  5
78
330
3
100
AcDbSymbolTableRecord
100
AcDbTextStyleTableRecord
  2
SLDTEXTSTYLE0
 70
     0
 40
0.0
 41
0.605
 50
0.0
 71
     0
 42
0.1377952756
  3
TXT
  4

  0
ENDTAB
  0
TABLE
  2
VIEW
  5
6
330
0
100
AcDbSymbolTable
 70
     0
  0
ENDTAB
  0
TABLE
  2
UCS
  5
7
330
0
100
AcDbSymbolTable
 70
     0
  0
ENDTAB
  0
TABLE
  2
APPID
  5
9
330
0
100
AcDbSymbolTable
 70
     1
  0
APPID
  5
12
330
9
100
AcDbSymbolTableRecord
100
AcDbRegAppTableRecord
  2
ACAD
 70
     0
  0
ENDTAB
  0
TABLE
  2
DIMSTYLE
  5
A
330
0
100
AcDbSymbolTable
 70
     1
100
AcDbDimStyleTable
  0
DIMSTYLE
105
27
330
A
100
AcDbSymbolTableRecord
100
AcDbDimStyleTableRecord
  2
Standard
 70
     0
178
     0
340
11
  0
ENDTAB
  0
TABLE
  2
BLOCK_RECORD
  5
1
330
0
100
AcDbSymbolTable
 70
     2
  0
BLOCK_RECORD
  5
1F
330
1
100
AcDbSymbolTableRecord
100
AcDbBlockTableRecord
  2
*Model_Space
340
22
  0
BLOCK_RECORD
  5
1B
330
1
100
AcDbSymbolTableRecord
100
AcDbBlockTableRecord
  2
*Paper_Space
340
1E
  0
BLOCK_RECORD
  5
23
330
1
100
AcDbSymbolTableRecord
100
AcDbBlockTableRecord
  2
*Paper_Space0
340
26
  0
BLOCK_RECORD
  5
75
330
1
100
AcDbSymbolTableRecord
100
AcDbBlockTableRecord
  2
SW_NOTE_0
340
0
102
{BLKREFS
331
7C
102
}
  0
ENDTAB
  0
ENDSEC
  0
SECTION
  2
BLOCKS
  0
BLOCK
  5
20
330
1F
100
AcDbEntity
  8
0
100
AcDbBlockBegin
  2
*Model_Space
 70
     0
 10
0.0
 20
0.0
 30
0.0
  3
*Model_Space
  1

  0
ENDBLK
  5
21
330
1F
100
AcDbEntity
  8
0
100
AcDbBlockEnd
  0
BLOCK
  5
1C
330
1B
100
AcDbEntity
 67
     1
  8
0
100
AcDbBlockBegin
  2
*Paper_Space
 70
     0
 10
0.0
 20
0.0
 30
0.0
  3
*Paper_Space
  1

  0
ENDBLK
  5
1D
330
1B
100
AcDbEntity
 67
     1
  8
0
100
AcDbBlockEnd
  0
BLOCK
  5
24
330
23
100
AcDbEntity
  8
0
100
AcDbBlockBegin
  2
*Paper_Space0
 70
     0
 10
0.0
 20
0.0
 30
0.0
  3
*Paper_Space0
  1

  0
ENDBLK
  5
25
330
23
100
AcDbEntity
  8
0
100
AcDbBlockEnd
  0
BLOCK
  5
76
330
75
100
AcDbEntity
  8
0
100
AcDbBlockBegin
  2
SW_NOTE_0
 70
     0
 10
0.0
 20
0.0
 30
0.0
  3
SW_NOTE_0
  1

  0
MTEXT
  5
79
330
75
100
AcDbEntity
  8
0
  6
Continuous
 62
     0
370
     0
100
AcDbMText
 10
0.0
 20
0.1611334675
 30
0.0
 40
0.125
 41
0.0
 71
     1
 72
     1
  1
TBW02012U
  7
SLDTEXTSTYLE0
 73
     1
 44
1.0
  0
MTEXT
  5
7A
330
75
100
AcDbEntity
  8
0
  6
Continuous
 62
     0
370
     0
100
AcDbMText
 10
0.0
 20
-0.0439810737
 30
0.0
 40
0.1041666667
 41
0.0
 71
     1
 72
     1
  1
Slide Bar - Square
  7
SLDTEXTSTYLE0
 73
     1
 44
1.0
  0
MTEXT
  5
7B
330
75
100
AcDbEntity
  8
0
  6
Continuous
 62
     0
370
     0
100
AcDbMText
 10
0.0
 20
-0.2213178443
 30
0.0
 40
0.0833333333
 41
0.0
 71
     1
 72
     1
  1
AD-01014, v01
  7
SLDTEXTSTYLE0
 73
     1
 44
1.0
  0
ENDBLK
  5
77
330
75
100
AcDbEntity
  8
0
100
AcDbBlockEnd
  0
ENDSEC
  0
SECTION
  2
ENTITIES
  0
LINE
  5
74
330
1F
100
AcDbEntity
  8
0
  6
Continuous
 62
     7
370
    18
100
AcDbLine
 10
4.5449510283
 20
6.6156104192
 30
0.0
 11
4.5287682968
 21
6.6156104192
 31
0.0
  0
INSERT
  5
7C
330
1F
100
AcDbEntity
  8
0
  6
Continuous
 62
     7
370
     0
100
AcDbBlockReference
  2
SW_NOTE_0
 10
3.7886422716
 20
1.4201095016
 30
0.0
  0
ARC
  5
7D
330
1F
100
AcDbEntity
  8
0
  6
Continuous
 62
     7
370
    25
100
AcDbCircle
 10
7.0971739012
 20
6.8261321984
 30
0.0
 40
0.0023622047244096
100
AcDbArc
 50
0.0
 51
90.0
  0
ARC
  5
7E
330
1F
100
AcDbEntity
  8
0
  6
Continuous
 62
     7
370
    25
100
AcDbCircle
 10
6.9396935862
 20
6.8261321984
 30
0.0
 40
0.0023622047244096
100
AcDbArc
 50
90.0
 51
180.0
  0
ARC
  5
7F
330
1F
100
AcDbEntity
  8
0
  6
Continuous
 62
     7
370
    25
100
AcDbCircle
 10
7.0971739012
 20
6.795423537
 30
0.0
 40
0.0023622047244096
100
AcDbArc
 50
270.0
 51
0.0
  0
ARC
  5
80
330
1F
100
AcDbEntity
  8
0
  6
Continuous
 62
     7
370
    25
100
AcDbCircle
 10
6.9396935862
 20
6.795423537
 30
0.0
 40
0.0023622047244096
100
AcDbArc
 50
180.0
 51
270.0
  0
LINE
  5
81
330
1F
100
AcDbEntity
  8
0
  6
Continuous
 62
     7
370
    25
100
AcDbLine
 10
7.0995363128
 20
6.7954234916
 30
0.0
 11
7.0995363128
 21
6.8261320862
 31
0.0
  0
LINE
  5
82
330
1F
100
AcDbEntity
  8
0
  6
Continuous
 62
     7
370
    25
100
AcDbLine
 10
6.9373314239
 20
6.8261320862
 30
0.0
 11
6.9373314239
 21
6.7954234916
 31
0.0
  0
ARC
  5
83
330
1F
100
AcDbEntity
  8
0
  6
Continuous
 62
     7
370
    25
100
AcDbCircle
 10
6.9396935862
 20
1.6418802299
 30
0.0
 40
0.0023622047244092
100
AcDbArc
 50
180.0000000001
 51
270.0
  0
ARC
  5
84
330
1F
100
AcDbEntity
  8
0
  6
Continuous
 62
     7
370
    25
100
AcDbCircle
 10
7.0971739012
 20
1.6418802299
 30
0.0
 40
0.0023622047244096
100
AcDbArc
 50
270.0
 51
0.0
  0
ARC
  5
85
330
1F
100
AcDbEntity
  8
0
  6
Continuous
 62
     7
370
    25
100
AcDbCircle
 10
6.9396935862
 20
1.6725888913
 30
0.0
 40
0.0023622047244096
100
AcDbArc
 50
90.0
 51
180.0000000001
  0
ARC
  5
86
330
1F
100
AcDbEntity
  8
0
  6
Continuous
 62
     7
370
    25
100
AcDbCircle
 10
7.0971739012
 20
1.6725888913
 30
0.0
 40
0.0023622047244114
100
AcDbArc
 50
0.0
 51
90.0
  0
LINE
  5
87
330
1F
100
AcDbEntity
  8
0
  6
Continuous
 62
     7
370
    25
100
AcDbLine
 10
6.9373314239
 20
1.6725884844
 30
0.0
 11
6.9373314239
 21
1.6418803592
 31
0.0
  0
LINE
  5
88
330
1F
100
AcDbEntity
  8
0
  6
Continuous
 62
     7
370
    25
100
AcDbLine
 10
7.0995363128
 20
1.6418803592
 30
0.0
 11
7.0995363128
 21
1.6725884844
 31
0.0
  0
ARC
  5
89
330
1F
100
AcDbEntity
  8
0
  6
Continuous
 62
     7
370
    25
100
AcDbCircle
 10
7.0971739012
 20
1.6773133008
 30
0.0
 40
0.0023622047244096
100
AcDbArc
 50
270.0
 51
0.0
  0
ARC
  5
8A
330
1F
100
AcDbEntity
  8
0
  6
Continuous
 62
     7
370
    25
100
AcDbCircle
 10
6.9396935862
 20
1.6773133008
 30
0.0
 40
0.0023622047244096
100
AcDbArc
 50
180.0000000001
 51
270.0
  0
ARC
  5
8B
330
1F
100
AcDbEntity
  8
0
  6
Continuous
 62
     7
370
    25
100
AcDbCircle
 10
7.0971739012
 20
6.7906991276
 30
0.0
 40
0.0023622047244096
100
AcDbArc
 50
0.0
 51
90.0
  0
ARC
  5
8C
330
1F
100
AcDbEntity
  8
0
  6
Continuous
 62
     7
370
    25
100
AcDbCircle
 10
6.9396935862
 20
6.7906991276
 30
0.0
 40
0.0023622047244096
100
AcDbArc
 50
90.0
 51
180.0
  0
LINE
  5
8D
330
1F
100
AcDbEntity
  8
0
  6
Continuous
 62
     7
370
    25
100
AcDbLine
 10
7.0995363128
 20
1.6773136778
 30
0.0
 11
7.0995363128
 21
4.2399628152
 31
0.0
  0
LINE
  5
8E
330
1F
100
AcDbEntity
  8
0
  6
Continuous
 62
     7
370
    25
100
AcDbLine
 10
7.0995363128
 20
4.2408977164
 30
0.0
 11
7.0995363128
 21
4.2436249809
 31
0.0
  0
LINE
  5
8F
330
1F
100
AcDbEntity
  8
0
  6
Continuous
 62
     7
370
    25
100
AcDbLine
 10
7.0995363128
 20
4.5050481369
 30
0.0
 11
7.0995363128
 21
6.7906992369
 31
0.0
  0
LINE
  5
90
330
1F
100
AcDbEntity
  8
0
  6
Continuous
 62
     7
370
    25
100
AcDbLine
 10
6.9373314239
 20
6.7906992369
 30
0.0
 11
6.9373314239
 21
4.505391685
 31
0.0
  0
LINE
  5
91
330
1F
100
AcDbEntity
  8
0
  6
Continuous
 62
     7
370
    25
100
AcDbLine
 10
6.9373314239
 20
4.2435841494
 30
0.0
 11
6.9373314239
 21
4.2408977164
 31
0.0
  0
LINE
  5
92
330
1F
100
AcDbEntity
  8
0
  6
Continuous
 62
     7
370
    25
100
AcDbLine
 10
6.9373314239
 20
4.2408883299
 30
0.0
 11
6.9373314239
 21
1.6773136778
 31
0.0
  0
LINE
  5
93
330
1F
100
AcDbEntity
  8
0
  6
Continuous
 62
     7
370
    25
100
AcDbLine
 10
6.8467802353
 20
4.2498426371
 30
0.0
 11
6.8534733206
 21
4.2498426371
 31
0.0
  0
LINE
  5
94
330
1F
100
AcDbEntity
  8
0
  6
Continuous
 62
     7
370
    25
100
AcDbLine
 10
6.8534733206
 20
4.4955118631
 30
0.0
 11
6.8467802353
 21
4.4955118631
 31
0.0
  0
LINE
  5
95
330
1F
100
AcDbEntity
  8
0
  6
Continuous
 62
     7
370
    25
100
AcDbLine
 10
7.107016461
 20
4.2388190631
 30
0.0
 11
7.1841819483
 21
4.2388190631
 31
0.0
  0
LINE
  5
96
330
1F
100
AcDbEntity
  8
0
  6
Continuous
 62
     7
370
    25
100
AcDbLine
 10
6.8534733206
 20
4.2388190631
 30
0.0
 11
6.9298512757
 21
4.2388190631
 31
0.0
  0
LINE
  5
97
330
1F
100
AcDbEntity
  8
0
  6
Continuous
 62
     7
370
    25
100
AcDbLine
 10
6.9298512757
 20
4.5065354371
 30
0.0
 11
6.8534733206
 21
4.5065354371
 31
0.0
  0
LINE
  5
98
330
1F
100
AcDbEntity
  8
0
  6
Continuous
 62
     7
370
    25
100
AcDbLine
 10
7.1841819483
 20
4.5065354371
 30
0.0
 11
7.107016461
 21
4.5065354371
 31
0.0
  0
SPLINE
  5
99
330
1F
100
AcDbEntity
  8
0
  6
Continuous
 62
     7
370
    25
100
AcDbSpline
210
0.0
220
0.0
230
1.0
 70
     8
 71
     3
 72
    10
 73
     6
 74
     0
 42
0.000000001
 43
0.00000001
 40
0.0
 40
0.0
 40
0.0
 40
0.0
 40
0.2270010546700675
 40
0.497578720146542
 40
1.0
 40
1.0
 40
1.0
 40
1.0
 10
6.931496739310198
 20
4.23989382401092
 30
0.0
 10
6.93166444075957
 20
4.239745480037259
 30
0.0
 10
6.932032036728083
 20
4.239420315008118
 30
0.0
 10
6.932920506143023
 20
4.238958214201503
 30
0.0
 10
6.933684921823542
 20
4.238873878342824
 30
0.0
 10
6.93418176429256
 20
4.238819063093317
 30
0.0
  0
SPLINE
  5
9A
330
1F
100
AcDbEntity
  8
0
  6
Continuous
 62
     7
370
    25
100
AcDbSpline
210
0.0
220
0.0
230
1.0
 70
     8
 71
     3
 72
    10
 73
     6
 74
     0
 42
0.000000001
 43
0.00000001
 40
0.0
 40
0.0
 40
0.0
 40
0.0
 40
0.5024988974899353
 40
0.7730343554939345
 40
1.0
 40
1.0
 40
1.0
 40
1.0
 10
7.102685503056324
 20
4.238819063093317
 30
0.0
 10
7.103182508336235
 20
4.238873852741153
 30
0.0
 10
7.103947091419209
 20
4.238958140050668
 30
0.0
 10
7.104835700023078
 20
4.239420315314951
 30
0.0
 10
7.105203295940584
 20
4.239745480133438
 30
0.0
 10
7.105370997366598
 20
4.23989382401092
 30
0.0
  0
SPLINE
  5
9B
330
1F
100
AcDbEntity
  8
0
  6
Continuous
 62
     7
370
    25
100
AcDbSpline
210
0.0
220
0.0
230
1.0
 70
     8
 71
     3
 72
    10
 73
     6
 74
     0
 42
0.000000001
 43
0.00000001
 40
0.0
 40
0.0
 40
0.0
 40
0.0
 40
0.5023595553689695
 40
0.7729039794679935
 40
1.0
 40
1.0
 40
1.0
 40
1.0
 10
6.93418176429256
 20
4.506535437077586
 30
0.0
 10
6.933684907774834
 20
4.506480639036968
 30
0.0
 10
6.932920470479534
 20
4.506396329654956
 30
0.0
 10
6.932031993012185
 20
4.505934048212471
 30
0.0
 10
6.931664138682214
 20
4.505609007194114
 30
0.0
 10
6.931496269982286
 20
4.505460676159982
 30
0.0
  0
SPLINE
  5
9C
330
1F
100
AcDbEntity
  8
0
  6
Continuous
 62
     7
370
    25
100
AcDbSpline
210
0.0
220
0.0
230
1.0
 70
     8
 71
     3
 72
    10
 73
     6
 74
     0
 42
0.000000001
 43
0.00000001
 40
0.0
 40
0.0
 40
0.0
 40
0.0
 40
0.2267928062762289
 40
0.4973887517208407
 40
0.9999999999999999
 40
0.9999999999999999
 40
0.9999999999999999
 40
0.9999999999999999
 10
7.105370528038686
 20
4.505461145487894
 30
0.0
 10
7.105202972008962
 20
4.505609318994244
 30
0.0
 10
7.104835497899728
 20
4.505934284483985
 30
0.0
 10
7.103947093322019
 20
4.506396362129378
 30
0.0
 10
7.103182509085852
 20
4.506480648221255
 30
0.0
 10
7.102685503056324
 20
4.506535437077586
 30
0.0
  0
LINE
  5
9D
330
1F
100
AcDbEntity
  8
0
  6
Continuous
 62
     7
370
    25
100
AcDbLine
 10
6.8467802353
 20
4.5065354371
 30
0.0
 11
6.7664871468
 21
4.5065354371
 31
0.0
  0
LINE
  5
9E
330
1F
100
AcDbEntity
  8
0
  6
Continuous
 62
     7
370
    25
100
AcDbLine
 10
6.7828277367
 20
4.2388190631
 30
0.0
 11
6.8467802353
 21
4.2388190631
 31
0.0
  0
LINE
  5
9F
330
1F
100
AcDbEntity
  8
0
  6
Continuous
 62
     7
370
    25
100
AcDbLine
 10
6.6341240039
 20
4.2616621912
 30
0.0
 11
6.6411550054
 21
4.2649071244
 31
0.0
  0
SPLINE
  5
A0
330
1F
100
AcDbEntity
  8
0
  6
Continuous
 62
     7
370
    25
100
AcDbSpline
210
0.0
220
0.0
230
1.0
 70
     8
 71
     3
 72
    10
 73
     6
 74
     0
 42
0.000000001
 43
0.00000001
 40
0.0
 40
0.0
 40
0.0
 40
0.0
 40
0.3290840276833094
 40
0.7521628708084845
 40
1.0
 40
1.0
 40
1.0
 40
1.0
 10
6.613597009048342
 20
4.271695483302105
 30
0.0
 10
6.613604065221281
 20
4.271419284123415
 30
0.0
 10
6.613620192990632
 20
4.270787996216129
 30
0.0
 10
6.613967263944367
 20
4.270002477881994
 30
0.0
 10
6.614296312611105
 20
4.269550525673377
 30
0.0
 10
6.614417863565761
 20
4.269383574009478
 30
0.0
  0
SPLINE
  5
A1
330
1F
100
AcDbEntity
  8
0
  6
Continuous
 62
     7
370
    25
100
AcDbSpline
210
0.0
220
0.0
230
1.0
 70
     8
 71
     3
 72
    10
 73
     6
 74
     0
 42
0.000000001
 43
0.00000001
 40
0.0
 40
0.0
 40
0.0
 40
0.0
 40
0.4523414590882631
 40
0.7579643292260708
 40
1.0
 40
1.0
 40
1.0
 40
1.0
 10
6.615078207937406
 20
4.476614374728253
 30
0.0
 10
6.614703572179462
 20
4.476246789987121
 30
0.0
 10
6.614075815127197
 20
4.475630847945668
 30
0.0
 10
6.613610468943329
 20
4.474535956507826
 30
0.0
 10
6.613606342126427
 20
4.47390142858253
 30
0.0
 10
6.613604518294927
 20
4.473621001307956
 30
0.0
  0
LINE
  5
A2
330
1F
100
AcDbEntity
  8
0
  6
Continuous
 62
     7
370
    25
100
AcDbLine
 10
6.6247820318
 20
4.4822078248
 30
0.0
 11
6.6152410647
 21
4.4767298294
 31
0.0
  0
LINE
  5
A3
330
1F
100
AcDbEntity
  8
0
  6
Continuous
 62
     7
370
    25
100
AcDbLine
 10
6.6152452887
 20
4.2686223241
 30
0.0
 11
6.6247820318
 21
4.2631462061
 31
0.0
  0
SPLINE
  5
A4
330
1F
100
AcDbEntity
  8
0
  6
Continuous
 62
     7
370
    25
100
AcDbSpline
210
0.0
220
0.0
230
1.0
 70
     8
 71
     3
 72
     9
 73
     5
 74
     0
 42
0.000000001
 43
0.00000001
 40
0.0
 40
0.0
 40
0.0
 40
0.0
 40
0.4326721513353737
 40
1.0
 40
1.0
 40
1.0
 40
1.0
 10
6.625213344188781
 20
4.262996021132368
 30
0.0
 10
6.62538290020374
 20
4.262901757009136
 30
0.0
 10
6.625774781249093
 20
4.262683891997622
 30
0.0
 10
6.626224769408076
 20
4.262662947509
 30
0.0
 10
6.626480060222236
 20
4.262651065117329
 30
0.0
  0
LINE
  5
A5
330
1F
100
AcDbEntity
  8
0
  6
Continuous
 62
     7
370
    25
100
AcDbLine
 10
6.6560852649
 20
4.4844399483
 30
0.0
 11
6.6262139513
 21
4.4826494623
 31
0.0
  0
LINE
  5
A6
330
1F
100
AcDbEntity
  8
0
  6
Continuous
 62
     7
370
    25
100
AcDbLine
 10
6.6265279317
 20
4.2626857954
 30
0.0
 11
6.6339386194
 21
4.2622310166
 31
0.0
  0
SPLINE
  5
A7
330
1F
100
AcDbEntity
  8
0
  6
Continuous
 62
     7
370
    25
100
AcDbSpline
210
0.0
220
0.0
230
1.0
 70
     8
 71
     3
 72
     9
 73
     5
 74
     0
 42
0.000000001
 43
0.00000001
 40
0.0
 40
0.0
 40
0.0
 40
0.0
 40
0.6739497031193071
 40
1.0
 40
1.0
 40
1.0
 40
1.0
 10
6.633772007985033
 20
4.262187838468563
 30
0.0
 10
6.634281679056976
 20
4.262183799780208
 30
0.0
 10
6.635037924025383
 20
4.262177807213796
 30
0.0
 10
6.635721964587473
 20
4.262481610710343
 30
0.0
 10
6.63594499621582
 20
4.262580665930587
 30
0.0
  0
LINE
  5
A8
330
1F
100
AcDbEntity
  8
0
  6
Continuous
 62
     7
370
    25
100
AcDbLine
 10
6.6561223418
 20
4.484442295
 30
0.0
 11
6.626525585
 21
4.4826677661
 31
0.0
  0
LINE
  5
A9
330
1F
100
AcDbEntity
  8
0
  6
Continuous
 62
     7
370
    25
100
AcDbLine
 10
6.626442514
 20
4.4826630729
 30
0.0
 11
6.626212074
 21
4.482648993
 31
0.0
  0
LINE
  5
AA
330
1F
100
AcDbEntity
  8
0
  6
Continuous
 62
     7
370
    25
100
AcDbLine
 10
6.6263782161
 20
4.2626951819
 30
0.0
 11
6.6339386194
 21
4.2622310166
 31
0.0
  0
SPLINE
  5
AB
330
1F
100
AcDbEntity
  8
0
  6
Continuous
 62
     7
370
    25
100
AcDbSpline
210
0.0
220
0.0
230
1.0
 70
     8
 71
     3
 72
    10
 73
     6
 74
     0
 42
0.000000001
 43
0.00000001
 40
0.0
 40
0.0
 40
0.0
 40
0.0
 40
0.3391484940500837
 40
0.75588069622047
 40
1.0
 40
1.0
 40
1.0
 40
1.0
 10
6.613594193080872
 20
4.271733498862946
 30
0.0
 10
6.613601052489702
 20
4.271444442564265
 30
0.0
 10
6.613616340467718
 20
4.270800205363961
 30
0.0
 10
6.61396705529675
 20
4.270002442060015
 30
0.0
 10
6.614296256327621
 20
4.269550516010264
 30
0.0
 10
6.614417863565761
 20
4.269383574009479
 30
0.0
  0
ARC
  5
AC
330
1F
100
AcDbEntity
  8
0
  6
Continuous
 62
     7
370
    25
100
AcDbCircle
 10
7.4089849248
 20
4.2427559959
 30
0.0
 40
0.0039370078740157
100
AcDbArc
 50
270.0
 51
0.0
  0
ARC
  5
AD
330
1F
100
AcDbEntity
  8
0
  6
Continuous
 62
     7
370
    25
100
AcDbCircle
 10
7.4089849248
 20
4.5025985156
 30
0.0
 40
0.0039370078740166
100
AcDbArc
 50
0.0
 51
90.0
  0
LINE
  5
AE
330
1F
100
AcDbEntity
  8
0
  6
Continuous
 62
     7
370
    25
100
AcDbLine
 10
7.3530794532
 20
4.2388190631
 30
0.0
 11
7.4089848553
 21
4.2388190631
 31
0.0
  0
LINE
  5
AF
330
1F
100
AcDbEntity
  8
0
  6
Continuous
 62
     7
370
    25
100
AcDbLine
 10
7.1845752451
 20
4.2388190631
 30
0.0
 11
7.3058354976
 21
4.2388190631
 31
0.0
  0
LINE
  5
B0
330
1F
100
AcDbEntity
  8
0
  6
Continuous
 62
     7
370
    25
100
AcDbLine
 10
7.4089848553
 20
4.5065354371
 30
0.0
 11
7.1845752451
 21
4.5065354371
 31
0.0
  0
LINE
  5
B1
330
1F
100
AcDbEntity
  8
0
  6
Continuous
 62
     7
370
    25
100
AcDbLine
 10
7.3058354976
 20
4.2388190631
 30
0.0
 11
7.3058354976
 21
4.0567174867
 31
0.0
  0
LINE
  5
B2
330
1F
100
AcDbEntity
  8
0
  6
Continuous
 62
     7
370
    25
100
AcDbLine
 10
7.3530794532
 20
4.0567174867
 30
0.0
 11
7.3530794532
 21
4.2388190631
 31
0.0
  0
ARC
  5
B3
330
1F
100
AcDbEntity
  8
0
  6
Continuous
 62
     7
370
    25
100
AcDbCircle
 10
7.3097723264
 20
4.0567173383
 30
0.0
 40
0.0039370078740163
100
AcDbArc
 50
180.0000006715
 51
267.1050687991
  0
ARC
  5
B4
330
1F
100
AcDbEntity
  8
0
  6
Continuous
 62
     7
370
    25
100
AcDbCircle
 10
7.3491424051
 20
4.0567173383
 30
0.0
 40
0.0039370078740163
100
AcDbArc
 50
272.8949312009
 51
359.9999993285
  0
ARC
  5
B5
330
1F
100
AcDbEntity
  8
0
  6
Continuous
 62
     7
370
    25
100
AcDbCircle
 10
7.3294573657
 20
4.4459837034
 30
0.0
 40
0.3937007874015632
100
AcDbArc
 50
267.105042414
 51
272.894957586
  0
LINE
  5
B6
330
1F
100
AcDbEntity
  8
0
  6
Continuous
 62
     7
370
    25
100
AcDbLine
 10
6.8137095133
 20
2.0843997911
 30
0.0
 11
6.8137095133
 21
2.0922737055
 31
0.0
  0
LINE
  5
B7
330
1F
100
AcDbEntity
  8
0
  6
Continuous
 62
     7
370
    25
100
AcDbLine
 10
6.8137095133
 20
2.0922737055
 30
0.0
 11
6.9373314239
 21
2.0922737055
 31
0.0
  0
LINE
  5
B8
330
1F
100
AcDbEntity
  8
0
  6
Continuous
 62
     7
370
    25
100
AcDbLine
 10
7.0995363128
 20
2.0922737055
 30
0.0
 11
7.2231582233
 21
2.0922737055
 31
0.0
  0
LINE
  5
B9
330
1F
100
AcDbEntity
  8
0
  6
Continuous
 62
     7
370
    25
100
AcDbLine
 10
7.2231582233
 20
2.0843997911
 30
0.0
 11
7.2231582233
 21
2.0922737055
 31
0.0
  0
ARC
  5
BA
330
1F
100
AcDbEntity
  8
0
  6
Continuous
 62
     7
370
    25
100
AcDbCircle
 10
6.8137093342
 20
2.0765258992
 30
0.0
 40
0.0078740157480315
100
AcDbArc
 50
90.0
 51
180.0
  0
LINE
  5
BB
330
1F
100
AcDbEntity
  8
0
  6
Continuous
 62
     7
370
    25
100
AcDbLine
 10
6.8058351296
 20
2.0765258768
 30
0.0
 11
6.7979612153
 21
2.0765258768
 31
0.0
  0
ARC
  5
BC
330
1F
100
AcDbEntity
  8
0
  6
Continuous
 62
     7
370
    25
100
AcDbCircle
 10
6.8137093342
 20
2.0765258992
 30
0.0
 40
0.015748031496063
100
AcDbArc
 50
90.0
 51
180.0
  0
ARC
  5
BD
330
1F
100
AcDbEntity
  8
0
  6
Continuous
 62
     7
370
    25
100
AcDbCircle
 10
6.8137093342
 20
1.6670770803
 30
0.0
 40
0.0078740157480308
100
AcDbArc
 50
180.0
 51
270.0
  0
LINE
  5
BE
330
1F
100
AcDbEntity
  8
0
  6
Continuous
 62
     7
370
    25
100
AcDbLine
 10
6.8137095133
 20
1.6513288687
 30
0.0
 11
6.8137095133
 21
1.6592032524
 31
0.0
  0
ARC
  5
BF
330
1F
100
AcDbEntity
  8
0
  6
Continuous
 62
     7
370
    25
100
AcDbCircle
 10
6.8137093342
 20
1.6670770803
 30
0.0
 40
0.015748031496063
100
AcDbArc
 50
180.0
 51
270.0
  0
LINE
  5
C0
330
1F
100
AcDbEntity
  8
0
  6
Continuous
 62
     7
370
    25
100
AcDbLine
 10
6.8058351296
 20
1.6670766974
 30
0.0
 11
6.7979612153
 21
1.6670766974
 31
0.0
  0
ARC
  5
C1
330
1F
100
AcDbEntity
  8
0
  6
Continuous
 62
     7
370
    25
100
AcDbCircle
 10
7.2231581531
 20
1.6670770803
 30
0.0
 40
0.0157480314960639
100
AcDbArc
 50
270.0
 51
0.0
  0
LINE
  5
C2
330
1F
100
AcDbEntity
  8
0
  6
Continuous
 62
     7
370
    25
100
AcDbLine
 10
7.2231582233
 20
1.6513288687
 30
0.0
 11
7.2231582233
 21
1.6592032524
 31
0.0
  0
ARC
  5
C3
330
1F
100
AcDbEntity
  8
0
  6
Continuous
 62
     7
370
    25
100
AcDbCircle
 10
7.2231581531
 20
1.6670770803
 30
0.0
 40
0.0078740157480324
100
AcDbArc
 50
270.0
 51
0.0
  0
LINE
  5
C4
330
1F
100
AcDbEntity
  8
0
  6
Continuous
 62
     7
370
    25
100
AcDbLine
 10
7.2389060521
 20
1.6670766974
 30
0.0
 11
7.2310321377
 21
1.6670766974
 31
0.0
  0
ARC
  5
C5
330
1F
100
AcDbEntity
  8
0
  6
Continuous
 62
     7
370
    25
100
AcDbCircle
 10
7.2231581531
 20
2.0765258992
 30
0.0
 40
0.0078740157480324
100
AcDbArc
 50
0.0
 51
90.0
  0
ARC
  5
C6
330
1F
100
AcDbEntity
  8
0
  6
Continuous
 62
     7
370
    25
100
AcDbCircle
 10
7.2231581531
 20
2.0765258992
 30
0.0
 40
0.0157480314960639
100
AcDbArc
 50
0.0
 51
90.0
  0
LINE
  5
C7
330
1F
100
AcDbEntity
  8
0
  6
Continuous
 62
     7
370
    25
100
AcDbLine
 10
7.2389060521
 20
2.0765258768
 30
0.0
 11
7.2310321377
 21
2.0765258768
 31
0.0
  0
LINE
  5
C8
330
1F
100
AcDbEntity
  8
0
  6
Continuous
 62
     7
370
    25
100
AcDbLine
 10
7.2231582233
 20
1.6513288687
 30
0.0
 11
7.0995363128
 21
1.6513288687
 31
0.0
  0
LINE
  5
C9
330
1F
100
AcDbEntity
  8
0
  6
Continuous
 62
     7
370
    25
100
AcDbLine
 10
6.9373314239
 20
1.6513288687
 30
0.0
 11
6.8137095133
 21
1.6513288687
 31
0.0
  0
LINE
  5
CA
330
1F
100
AcDbEntity
  8
0
  6
Continuous
 62
     7
370
    25
100
AcDbLine
 10
6.8058351296
 20
2.0765258768
 30
0.0
 11
6.8058351296
 21
1.6670766974
 31
0.0
  0
LINE
  5
CB
330
1F
100
AcDbEntity
  8
0
  6
Continuous
 62
     7
370
    25
100
AcDbLine
 10
6.7979612153
 20
1.6670766974
 30
0.0
 11
6.7979612153
 21
2.0765258768
 31
0.0
  0
LINE
  5
CC
330
1F
100
AcDbEntity
  8
0
  6
Continuous
 62
     7
370
    25
100
AcDbLine
 10
7.2389060521
 20
2.0765258768
 30
0.0
 11
7.2389060521
 21
1.6670766974
 31
0.0
  0
LINE
  5
CD
330
1F
100
AcDbEntity
  8
0
  6
Continuous
 62
     7
370
    25
100
AcDbLine
 10
7.2310321377
 20
1.6670766974
 30
0.0
 11
7.2310321377
 21
2.0765258768
 31
0.0
  0
SPLINE
  5
CE
330
1F
100
AcDbEntity
  8
0
  6
Continuous
 62
     7
370
    25
100
AcDbSpline
210
0.0
220
0.0
230
1.0
 70
    24
 71
     3
 72
    15
 73
    11
 74
     0
 42
0.000000001
 43
0.00000001
 40
0.0
 40
0.0
 40
0.0
 40
0.0
 40
0.1165161293131406
 40
0.2400105367496663
 40
0.3686397755596942
 40
0.499999670626872
 40
0.6313578949453561
 40
0.7599889303795749
 40
0.8834815485987366
 40
1.0
 40
1.0
 40
1.0
 40
1.0
 10
7.097173716062291
 20
6.828494448275615
 30
0.0
 10
7.096918214508103
 20
6.828494448275615
 30
0.0
 10
7.096391909132855
 20
6.828494448275615
 30
0.0
 10
7.092011580025961
 20
6.828494448275615
 30
0.0
 10
7.08474725711036
 20
6.828494448275615
 30
0.0
 10
7.074505344352846
 20
6.828494448275615
 30
0.0
 10
7.061916441861438
 20
6.828494448275615
 30
0.0
 10
7.04780388839707
 20
6.828494448275615
 30
0.0
 10
7.033128933799744
 20
6.828494448275617
 30
0.0
 10
7.023236247518508
 20
6.828494448275615
 30
0.0
 10
7.018433633674442
 20
6.828494448275615
 30
0.0
  0
SPLINE
  5
CF
330
1F
100
AcDbEntity
  8
0
  6
Continuous
 62
     7
370
    25
100
AcDbSpline
210
0.0
220
0.0
230
1.0
 70
    24
 71
     3
 72
    10
 73
     6
 74
     0
 42
0.000000001
 43
0.00000001
 40
0.0
 40
0.0
 40
0.0
 40
0.0
 40
0.5000000000000001
 40
0.5000000000000001
 40
1.0
 40
1.0
 40
1.0
 40
1.0
 10
6.939693586226199
 20
6.828494403146968
 30
0.0
 10
6.939693582916354
 20
6.828494403146968
 30
0.0
 10
6.947989813565212
 20
6.828494403146968
 30
0.0
 10
6.977522266406121
 20
6.828494403146968
 30
0.0
 10
6.99755114437444
 20
6.828494403146968
 30
0.0
 10
7.01843374369824
 20
6.828494403146968
 30
0.0
  0
SPLINE
  5
D0
330
1F
100
AcDbEntity
  8
0
  6
Continuous
 62
     7
370
    25
100
AcDbSpline
210
0.0
220
0.0
230
1.0
 70
    24
 71
     3
 72
    10
 73
     6
 74
     0
 42
0.000000001
 43
0.00000001
 40
0.0
 40
0.0
 40
0.0
 40
0.0
 40
0.4999999999999999
 40
0.4999999999999999
 40
1.0
 40
1.0
 40
1.0
 40
1.0
 10
7.018433743698231
 20
6.793061332280826
 30
0.0
 10
6.997551144371788
 20
6.793061332280826
 30
0.0
 10
6.977522266400901
 20
6.793061332280826
 30
0.0
 10
6.947989813555792
 20
6.793061332280826
 30
0.0
 10
6.939693582905423
 20
6.793061332280826
 30
0.0
 10
6.93969358621461
 20
6.793061332280826
 30
0.0
  0
SPLINE
  5
D1
330
1F
100
AcDbEntity
  8
0
  6
Continuous
 62
     7
370
    25
100
AcDbSpline
210
0.0
220
0.0
230
1.0
 70
    24
 71
     3
 72
    15
 73
    11
 74
     0
 42
0.000000001
 43
0.00000001
 40
0.0
 40
0.0
 40
0.0
 40
0.0
 40
0.1165183694864541
 40
0.2400109008878276
 40
0.3686418458918478
 40
0.4999999778628647
 40
0.6313597805814006
 40
0.7599889289624929
 40
0.8834842997954021
 40
1.0
 40
1.0
 40
1.0
 40
1.0
 10
7.018433633674442
 20
6.793061364268292
 30
0.0
 10
7.023236247595437
 20
6.793061364268292
 30
0.0
 10
7.033128934035139
 20
6.793061364268292
 30
0.0
 10
7.047803887371793
 20
6.793061364268291
 30
0.0
 10
7.061916445913392
 20
6.793061364268294
 30
0.0
 10
7.074505328891395
 20
6.793061364268292
 30
0.0
 10
7.084747314262358
 20
6.793061364268292
 30
0.0
 10
7.092011395074963
 20
6.793061364268292
 30
0.0
 10
7.096392640247714
 20
6.793061364268292
 30
0.0
 10
7.096918454458427
 20
6.793061364268292
 30
0.0
 10
7.097173716062291
 20
6.793061364268292
 30
0.0
  0
SPLINE
  5
D2
330
1F
100
AcDbEntity
  8
0
  6
Continuous
 62
     7
370
    25
100
AcDbSpline
210
0.0
220
0.0
230
1.0
 70
    24
 71
     3
 72
    21
 73
    17
 74
     0
 42
0.000000001
 43
0.00000001
 40
0.0
 40
0.0
 40
0.0
 40
0.0
 40
0.0628304606307464
 40
0.1382922817176017
 40
0.2137540372655128
 40
0.2876485336493532
 40
0.3585936242013207
 40
0.4255275777460679
 40
0.4924640887817315
 40
0.5634075985182019
 40
0.6373016779546842
 40
0.7127635323492602
 40
0.788225787661785
 40
0.8621208032447572
 40
0.9330645870444501
 40
1.0
 40
1.0
 40
1.0
 40
1.0
 10
6.939897708928147
 20
1.639517762443749
 30
0.0
 10
6.94003833142494
 20
1.639517762443749
 30
0.0
 10
6.940347846996642
 20
1.639517762443749
 30
0.0
 10
6.9447803645203
 20
1.639517762443747
 30
0.0
 10
6.952214987592022
 20
1.639517762443749
 30
0.0
 10
6.962290895037568
 20
1.639517762443749
 30
0.0
 10
6.97408659527642
 20
1.639517762443751
 30
0.0
 10
6.987044357113346
 20
1.639517762443747
 30
0.0
 10
7.001069585321425
 20
1.639517762443751
 30
0.0
 10
7.016214763789873
 20
1.639517762443746
 30
0.0
 10
7.032068913409951
 20
1.639517762443749
 30
0.0
 10
7.047681497828153
 20
1.639517762443749
 30
0.0
 10
7.062076127665224
 20
1.639517762443747
 30
0.0
 10
7.074339743438938
 20
1.639517762443749
 30
0.0
 10
7.084178956058407
 20
1.639517762443747
 30
0.0
 10
7.088583894637569
 20
1.639517762443749
 30
0.0
 10
7.090722334589199
 20
1.639517762443749
 30
0.0
  0
SPLINE
  5
D3
330
1F
100
AcDbEntity
  8
0
  6
Continuous
 62
     7
370
    25
100
AcDbSpline
210
0.0
220
0.0
230
1.0
 70
    24
 71
     3
 72
    21
 73
    17
 74
     0
 42
0.000000001
 43
0.00000001
 40
0.0
 40
0.0
 40
0.0
 40
0.0
 40
0.0669338810898475
 40
0.1378760412893504
 40
0.2117693657310425
 40
0.287229894034864
 40
0.362690021429912
 40
0.4365824097465387
 40
0.5075242958890912
 40
0.5744592750339221
 40
0.6413916967463666
 40
0.7123351636682381
 40
0.7862279689226808
 40
0.861687997473326
 40
0.9371480915614155
 40
0.9999999999999999
 40
0.9999999999999999
 40
0.9999999999999999
 40
0.9999999999999999
 10
7.090722334589199
 20
1.674951081115028
 30
0.0
 10
7.088583894637576
 20
1.674951081115028
 30
0.0
 10
7.084178956058427
 20
1.67495108111503
 30
0.0
 10
7.074339743438852
 20
1.674951081115027
 30
0.0
 10
7.06207612766556
 20
1.67495108111503
 30
0.0
 10
7.047681497826875
 20
1.67495108111503
 30
0.0
 10
7.032068913414673
 20
1.674951081115028
 30
0.0
 10
7.01621476377295
 20
1.67495108111503
 30
0.0
 10
7.001069585380396
 20
1.674951081115027
 30
0.0
 10
6.987044356906779
 20
1.67495108111503
 30
0.0
 10
6.97408659606844
 20
1.67495108111503
 30
0.0
 10
6.962290891827617
 20
1.674951081115027
 30
0.0
 10
6.952215000215308
 20
1.67495108111503
 30
0.0
 10
6.944780316368885
 20
1.674951081115027
 30
0.0
 10
6.940347539291739
 20
1.674951081115028
 30
0.0
 10
6.940037931809113
 20
1.67495108111503
 30
0.0
 10
6.939897239600235
 20
1.674951081115028
 30
0.0
  0
ARC
  5
D4
330
1F
100
AcDbEntity
  8
0
  6
Continuous
 62
     7
370
    25
100
AcDbCircle
 10
6.8137093342
 20
6.3914865291
 30
0.0
 40
0.0078740157480324
100
AcDbArc
 50
180.0
 51
270.0
  0
LINE
  5
D5
330
1F
100
AcDbEntity
  8
0
  6
Continuous
 62
     7
370
    25
100
AcDbLine
 10
6.8137095133
 20
6.3757385052
 30
0.0
 11
6.8137095133
 21
6.3836124196
 31
0.0
  0
ARC
  5
D6
330
1F
100
AcDbEntity
  8
0
  6
Continuous
 62
     7
370
    25
100
AcDbCircle
 10
6.8137093342
 20
6.3914865291
 30
0.0
 40
0.0157480314960639
100
AcDbArc
 50
180.0
 51
270.0
  0
LINE
  5
D7
330
1F
100
AcDbEntity
  8
0
  6
Continuous
 62
     7
370
    25
100
AcDbLine
 10
6.8058351296
 20
6.3914865686
 30
0.0
 11
6.7979612153
 21
6.3914865686
 31
0.0
  0
LINE
  5
D8
330
1F
100
AcDbEntity
  8
0
  6
Continuous
 62
     7
370
    25
100
AcDbLine
 10
7.2231582233
 20
6.3757385052
 30
0.0
 11
7.0995363128
 21
6.3757385052
 31
0.0
  0
LINE
  5
D9
330
1F
100
AcDbEntity
  8
0
  6
Continuous
 62
     7
370
    25
100
AcDbLine
 10
6.9373314239
 20
6.3757385052
 30
0.0
 11
6.8137095133
 21
6.3757385052
 31
0.0
  0
LINE
  5
DA
330
1F
100
AcDbEntity
  8
0
  6
Continuous
 62
     7
370
    25
100
AcDbLine
 10
7.2231582233
 20
6.3757385052
 30
0.0
 11
7.2231582233
 21
6.3836124196
 31
0.0
  0
LINE
  5
DB
330
1F
100
AcDbEntity
  8
0
  6
Continuous
 62
     7
370
    25
100
AcDbLine
 10
6.8058351296
 20
6.8009352786
 30
0.0
 11
6.8058351296
 21
6.3914865686
 31
0.0
  0
LINE
  5
DC
330
1F
100
AcDbEntity
  8
0
  6
Continuous
 62
     7
370
    25
100
AcDbLine
 10
6.7979612153
 20
6.3914865686
 30
0.0
 11
6.7979612153
 21
6.8009352786
 31
0.0
  0
LINE
  5
DD
330
1F
100
AcDbEntity
  8
0
  6
Continuous
 62
     7
370
    25
100
AcDbLine
 10
6.8058351296
 20
6.8009352786
 30
0.0
 11
6.7979612153
 21
6.8009352786
 31
0.0
  0
LINE
  5
DE
330
1F
100
AcDbEntity
  8
0
  6
Continuous
 62
     7
370
    25
100
AcDbLine
 10
6.8137095133
 20
6.8088094277
 30
0.0
 11
6.8137095133
 21
6.8166833421
 31
0.0
  0
LINE
  5
DF
330
1F
100
AcDbEntity
  8
0
  6
Continuous
 62
     7
370
    25
100
AcDbLine
 10
6.8137095133
 20
6.8166833421
 30
0.0
 11
6.9373314239
 21
6.8166833421
 31
0.0
  0
LINE
  5
E0
330
1F
100
AcDbEntity
  8
0
  6
Continuous
 62
     7
370
    25
100
AcDbLine
 10
7.0995363128
 20
6.8166833421
 30
0.0
 11
7.2231582233
 21
6.8166833421
 31
0.0
  0
LINE
  5
E1
330
1F
100
AcDbEntity
  8
0
  6
Continuous
 62
     7
370
    25
100
AcDbLine
 10
7.2231582233
 20
6.8088094277
 30
0.0
 11
7.2231582233
 21
6.8166833421
 31
0.0
  0
ARC
  5
E2
330
1F
100
AcDbEntity
  8
0
  6
Continuous
 62
     7
370
    25
100
AcDbCircle
 10
6.8137093342
 20
6.800935348
 30
0.0
 40
0.0078740157480324
100
AcDbArc
 50
90.0
 51
180.0
  0
ARC
  5
E3
330
1F
100
AcDbEntity
  8
0
  6
Continuous
 62
     7
370
    25
100
AcDbCircle
 10
6.8137093342
 20
6.800935348
 30
0.0
 40
0.0157480314960639
100
AcDbArc
 50
90.0
 51
180.0
  0
ARC
  5
E4
330
1F
100
AcDbEntity
  8
0
  6
Continuous
 62
     7
370
    25
100
AcDbCircle
 10
7.2231581531
 20
6.800935348
 30
0.0
 40
0.0078740157480315
100
AcDbArc
 50
0.0
 51
90.0
  0
LINE
  5
E5
330
1F
100
AcDbEntity
  8
0
  6
Continuous
 62
     7
370
    25
100
AcDbLine
 10
7.2310321377
 20
6.3914865686
 30
0.0
 11
7.2310321377
 21
6.8009352786
 31
0.0
  0
ARC
  5
E6
330
1F
100
AcDbEntity
  8
0
  6
Continuous
 62
     7
370
    25
100
AcDbCircle
 10
7.2231581531
 20
6.3914865291
 30
0.0
 40
0.0078740157480315
100
AcDbArc
 50
270.0
 51
0.0
  0
ARC
  5
E7
330
1F
100
AcDbEntity
  8
0
  6
Continuous
 62
     7
370
    25
100
AcDbCircle
 10
7.2231581531
 20
6.800935348
 30
0.0
 40
0.0157480314960639
100
AcDbArc
 50
0.0
 51
90.0
  0
LINE
  5
E8
330
1F
100
AcDbEntity
  8
0
  6
Continuous
 62
     7
370
    25
100
AcDbLine
 10
7.2389060521
 20
6.8009352786
 30
0.0
 11
7.2310321377
 21
6.8009352786
 31
0.0
  0
LINE
  5
E9
330
1F
100
AcDbEntity
  8
0
  6
Continuous
 62
     7
370
    25
100
AcDbLine
 10
7.2389060521
 20
6.8009352786
 30
0.0
 11
7.2389060521
 21
6.3914865686
 31
0.0
  0
LINE
  5
EA
330
1F
100
AcDbEntity
  8
0
  6
Continuous
 62
     7
370
    25
100
AcDbLine
 10
7.2389060521
 20
6.3914865686
 30
0.0
 11
7.2310321377
 21
6.3914865686
 31
0.0
  0
ARC
  5
EB
330
1F
100
AcDbEntity
  8
0
  6
Continuous
 62
     7
370
    25
100
AcDbCircle
 10
7.2231581531
 20
6.3914865291
 30
0.0
 40
0.0157480314960639
100
AcDbArc
 50
270.0
 51
0.0
  0
SPLINE
  5
EC
330
1F
100
AcDbEntity
  8
0
  6
Continuous
 62
     7
370
    25
100
AcDbSpline
210
0.0
220
0.0
230
1.0
 70
    24
 71
     3
 72
    15
 73
    11
 74
     0
 42
0.000000001
 43
0.00000001
 40
0.0
 40
0.0
 40
0.0
 40
0.0
 40
0.125000119544761
 40
0.2500003675893639
 40
0.3750003623320307
 40
0.4999998231891885
 40
0.6249978073302546
 40
0.7499973441669143
 40
0.8749984575488798
 40
1.0
 40
1.0
 40
1.0
 40
1.0
 10
7.090481100042629
 20
6.793061364268292
 30
0.0
 10
7.090212913385864
 20
6.793061364268292
 30
0.0
 10
7.089676539796642
 20
6.793061364268292
 30
0.0
 10
7.085392233781645
 20
6.793061364268292
 30
0.0
 10
7.078733763363527
 20
6.793061364268292
 30
0.0
 10
7.0697047208674
 20
6.793061364268292
 30
0.0
 10
7.058719851301151
 20
6.793061364268294
 30
0.0
 10
7.046182743235027
 20
6.79306136426829
 30
0.0
 10
7.0325801666441
 20
6.793061364268292
 30
0.0
 10
7.02314915005968
 20
6.793061364268292
 30
0.0
 10
7.018433633674442
 20
6.793061364268292
 30
0.0
  0
SPLINE
  5
ED
330
1F
100
AcDbEntity
  8
0
  6
Continuous
 62
     7
370
    25
100
AcDbSpline
210
0.0
220
0.0
230
1.0
 70
    24
 71
     3
 72
    15
 73
    11
 74
     0
 42
0.000000001
 43
0.00000001
 40
0.0
 40
0.0
 40
0.0
 40
0.0
 40
0.1249975749790694
 40
0.2499988546083335
 40
0.3749985576901951
 40
0.4999999189387807
 40
0.6249995460410392
 40
0.7499997070295169
 40
0.8750001213202675
 40
0.9999999999999999
 40
0.9999999999999999
 40
0.9999999999999999
 40
0.9999999999999999
 10
7.018433633674441
 20
6.793061364268292
 30
0.0
 10
7.013718277217595
 20
6.793061364268291
 30
0.0
 10
7.004287424551222
 20
6.793061364268291
 30
0.0
 10
6.99068497410664
 20
6.793061364268294
 30
0.0
 10
6.978147850906434
 20
6.793061364268292
 30
0.0
 10
6.967162562164003
 20
6.793061364268294
 30
0.0
 10
6.95813351212488
 20
6.79306136426829
 30
0.0
 10
6.951475062636594
 20
6.793061364268292
 30
0.0
 10
6.947190607786388
 20
6.793061364268294
 30
0.0
 10
6.946654626635469
 20
6.793061364268292
 30
0.0
 10
6.946386636634165
 20
6.793061364268292
 30
0.0
  0
SPLINE
  5
EE
330
1F
100
AcDbEntity
  8
0
  6
Continuous
 62
     7
370
    25
100
AcDbSpline
210
0.0
220
0.0
230
1.0
 70
    24
 71
     3
 72
    15
 73
    11
 74
     0
 42
0.000000001
 43
0.00000001
 40
0.0
 40
0.0
 40
0.0
 40
0.0
 40
0.1249998786797324
 40
0.250000292970483
 40
0.3750004539589607
 40
0.5000000810612193
 40
0.6250014423098048
 40
0.7500011453916664
 40
0.8750024250209305
 40
0.9999999999999999
 40
0.9999999999999999
 40
0.9999999999999999
 40
0.9999999999999999
 10
6.946386636634166
 20
1.674951081115028
 30
0.0
 10
6.946654626635471
 20
1.674951081115028
 30
0.0
 10
6.947190607786388
 20
1.674951081115031
 30
0.0
 10
6.951475062636592
 20
1.674951081115027
 30
0.0
 10
6.958133512124883
 20
1.674951081115028
 30
0.0
 10
6.967162562164002
 20
1.674951081115028
 30
0.0
 10
6.978147850906436
 20
1.674951081115028
 30
0.0
 10
6.990684974106636
 20
1.67495108111503
 30
0.0
 10
7.004287424551222
 20
1.674951081115027
 30
0.0
 10
7.013718277217595
 20
1.674951081115027
 30
0.0
 10
7.018433633674442
 20
1.674951081115028
 30
0.0
  0
SPLINE
  5
EF
330
1F
100
AcDbEntity
  8
0
  6
Continuous
 62
     7
370
    25
100
AcDbSpline
210
0.0
220
0.0
230
1.0
 70
    24
 71
     3
 72
    15
 73
    11
 74
     0
 42
0.000000001
 43
0.00000001
 40
0.0
 40
0.0
 40
0.0
 40
0.0
 40
0.1250015424511202
 40
0.2500026558330857
 40
0.3750021926697454
 40
0.5000001768108117
 40
0.6249996376679694
 40
0.749999632410636
 40
0.874999880455239
 40
1.0
 40
1.0
 40
1.0
 40
1.0
 10
7.018433633674442
 20
1.674951081115028
 30
0.0
 10
7.02314915005968
 20
1.674951081115028
 30
0.0
 10
7.0325801666441
 20
1.674951081115028
 30
0.0
 10
7.046182743235028
 20
1.674951081115027
 30
0.0
 10
7.058719851301151
 20
1.674951081115028
 30
0.0
 10
7.0697047208674
 20
1.674951081115028
 30
0.0
 10
7.078733763363529
 20
1.67495108111503
 30
0.0
 10
7.085392233781647
 20
1.674951081115028
 30
0.0
 10
7.08967653979664
 20
1.674951081115028
 30
0.0
 10
7.090212913385864
 20
1.674951081115027
 30
0.0
 10
7.090481100042629
 20
1.674951081115028
 30
0.0
  0
SPLINE
  5
F0
330
1F
100
AcDbEntity
  8
0
  6
Continuous
 62
     7
370
    25
100
AcDbSpline
210
0.0
220
0.0
230
1.0
 70
    24
 71
     3
 72
    14
 73
    10
 74
     0
 42
0.000000001
 43
0.00000001
 40
0.0
 40
0.0
 40
0.0
 40
0.0
 40
0.2499999999999999
 40
0.2499999999999999
 40
0.5
 40
0.5
 40
0.7500000000000001
 40
0.7500000000000001
 40
1.0
 40
1.0
 40
1.0
 40
1.0
 10
6.939693842135465
 20
1.674951096074226
 30
0.0
 10
6.939693842135465
 20
1.674951096074226
 30
0.0
 10
6.94799004728132
 20
1.674951096074226
 30
0.0
 10
6.977522403425154
 20
1.674951096074226
 30
0.0
 10
6.997551214404511
 20
1.674951096074226
 30
0.0
 10
7.039316272991955
 20
1.674951096074226
 30
0.0
 10
7.059345083971309
 20
1.674951096074226
 30
0.0
 10
7.088877440115145
 20
1.674951096074226
 30
0.0
 10
7.097173645261001
 20
1.674951096074226
 30
0.0
 10
7.097173645261001
 20
1.674951096074226
 30
0.0
  0
SPLINE
  5
F1
330
1F
100
AcDbEntity
  8
0
  6
Continuous
 62
     7
370
    25
100
AcDbSpline
210
0.0
220
0.0
230
1.0
 70
    24
 71
     3
 72
    14
 73
    10
 74
     0
 42
0.000000001
 43
0.00000001
 40
0.0
 40
0.0
 40
0.0
 40
0.0
 40
0.2500000000000001
 40
0.2500000000000001
 40
0.5000000000000001
 40
0.5000000000000001
 40
0.7500000000000001
 40
0.7500000000000001
 40
0.9999999999999999
 40
0.9999999999999999
 40
0.9999999999999999
 40
0.9999999999999999
 10
7.09717364445227
 20
6.793061332266887
 30
0.0
 10
7.09717364445227
 20
6.793061332266887
 30
0.0
 10
7.088877439391623
 20
6.793061332266887
 30
0.0
 10
7.059345083551112
 20
6.793061332266887
 30
0.0
 10
7.039316272777471
 20
6.793061332266887
 30
0.0
 10
6.997551214618992
 20
6.793061332266887
 30
0.0
 10
6.977522403845351
 20
6.793061332266887
 30
0.0
 10
6.947990048004841
 20
6.793061332266887
 30
0.0
 10
6.939693842944194
 20
6.793061332266887
 30
0.0
 10
6.939693842944194
 20
6.793061332266887
 30
0.0
  0
LWPOLYLINE
  5
F2
330
1F
100
AcDbEntity
  8
0
  6
Continuous
 62
     7
370
    25
100
AcDbPolyline
 90
       15
 70
   128
 43
0.0
 10
6.9298512757
 20
4.2388190631
 10
6.9338100566
 20
4.2414055292
 10
6.9448472411
 20
4.2482342503
 10
6.9631552536
 20
4.2581046856
 10
6.9759965346
 20
4.2637183168
 10
6.9908714134
 20
4.2686058977
 10
7.013902742
 20
4.2722197226
 10
7.037534341
 20
4.2705207555
 10
7.0583340154
 20
4.2646813777
 10
7.0794274891
 20
4.2552403774
 10
7.0896363098
 20
4.2496286236
 10
7.098013813
 20
4.2445988363
 10
7.1059055619
 20
4.239551684
 10
7.107016461
 20
4.2388190631
 10
7.107016461
 20
4.2388190631
  0
LWPOLYLINE
  5
F3
330
1F
100
AcDbEntity
  8
0
  6
Continuous
 62
     7
370
    25
100
AcDbPolyline
 90
       15
 70
   128
 43
0.0
 10
7.107016461
 20
4.5065354371
 10
7.1030572108
 20
4.503948971
 10
7.0920200263
 20
4.4971202498
 10
7.0737120138
 20
4.4872498145
 10
7.0608707328
 20
4.4816361834
 10
7.0459963233
 20
4.4767486025
 10
7.0229649947
 20
4.4731347776
 10
6.9993329263
 20
4.4748337446
 10
6.9785337213
 20
4.4806735918
 10
6.9574402476
 20
4.4901141228
 10
6.9472309575
 20
4.4957258766
 10
6.9388539237
 20
4.5007556638
 10
6.9309621748
 20
4.5058028162
 10
6.9298512757
 20
4.5065354371
 10
6.9298512757
 20
4.5065354371
  0
LINE
  5
F4
330
1F
100
AcDbEntity
  8
0
  6
Continuous
 62
     7
370
    25
100
AcDbLine
 10
7.1841819483
 20
4.2388190631
 30
0.0
 11
7.1841819483
 21
4.5065354371
 31
0.0
  0
LINE
  5
F5
330
1F
100
AcDbEntity
  8
0
  6
Continuous
 62
     7
370
    25
100
AcDbLine
 10
6.8534733206
 20
4.5065354371
 30
0.0
 11
6.8534733206
 21
4.2388190631
 31
0.0
  0
SPLINE
  5
F6
330
1F
100
AcDbEntity
  8
0
  6
Continuous
 62
     7
370
    25
100
AcDbSpline
210
0.0
220
0.0
230
1.0
 70
     8
 71
     3
 72
    28
 73
    24
 74
     0
 42
0.000000001
 43
0.00000001
 40
0.0
 40
0.0
 40
0.0
 40
0.0
 40
0.0147796508462389
 40
0.0295655472471925
 40
0.0443736441749942
 40
0.0592198250181269
 40
0.0741198513614294
 40
0.0890893146903474
 40
0.1041435907274592
 40
0.1609140284734069
 40
0.2193667485679435
 40
0.2829032845468141
 40
0.3485705322613972
 40
0.4890586826611843
 40
0.6284237008303991
 40
0.6941852483468501
 40
0.7591650108451459
 40
0.8209252473980704
 40
0.8820007114564239
 40
0.9116295161751968
 40
0.9411317408393937
 40
0.9705681710333063
 40
1.0
 40
1.0
 40
1.0
 40
1.0
 10
7.018433743698179
 20
4.27078065297365
 30
0.0
 10
7.017749752333129
 20
4.2707764143692
 30
0.0
 10
7.016381480563354
 20
4.270767935369164
 30
0.0
 10
7.014330127262908
 20
4.270699727962083
 30
0.0
 10
7.012280141297487
 20
4.270591025027283
 30
0.0
 10
7.010231525564059
 20
4.270438031421402
 30
0.0
 10
7.008184302473789
 20
4.270242099845576
 30
0.0
 10
7.006138418042993
 20
4.270003276866968
 30
0.0
 10
7.002210957404556
 20
4.26946318659386
 30
0.0
 10
6.996413103808739
 20
4.268378530043751
 30
0.0
 10
6.988775090889697
 20
4.266386032325856
 30
0.0
 10
6.981160920325044
 20
4.263868900187107
 30
0.0
 10
6.970907741834808
 20
4.259803905696545
 30
0.0
 10
6.959205489723745
 20
4.25408539812921
 30
0.0
 10
6.94969944398194
 20
4.248637672108931
 30
0.0
 10
6.94372942760609
 20
4.244993482429299
 30
0.0
 10
6.940191881367822
 20
4.242756548696782
 30
0.0
 10
6.937467363834087
 20
4.240993938300115
 30
0.0
 10
6.935872768953577
 20
4.239942884032541
 30
0.0
 10
6.934989410666486
 20
4.239357419503507
 30
0.0
 10
6.934525773949621
 20
4.239048926010464
 30
0.0
 10
6.93423547392177
 20
4.238855011221799
 30
0.0
 10
6.93419967384406
 20
4.238830995154216
 30
0.0
 10
6.934181775204297
 20
4.238818988058989
 30
0.0
  0
SPLINE
  5
F7
330
1F
100
AcDbEntity
  8
0
  6
Continuous
 62
     7
370
    25
100
AcDbSpline
210
0.0
220
0.0
230
1.0
 70
     8
 71
     3
 72
    10
 73
     6
 74
     0
 42
0.000000001
 43
0.00000001
 40
0.0
 40
0.0
 40
0.0
 40
0.0
 40
0.5
 40
0.5
 40
1.0
 40
1.0
 40
1.0
 40
1.0
 10
7.018433744953581
 20
4.270780649939574
 30
0.0
 10
7.018433744740411
 20
4.271110537177923
 30
0.0
 10
7.018433744508588
 20
4.271547267811555
 30
0.0
 10
7.018433744067041
 20
4.272584342325113
 30
0.0
 10
7.018433743859418
 20
4.273182580410702
 30
0.0
 10
7.018433743697719
 20
4.27377761187946
 30
0.0
  0
SPLINE
  5
F8
330
1F
100
AcDbEntity
  8
0
  6
Continuous
 62
     7
370
    25
100
AcDbSpline
210
0.0
220
0.0
230
1.0
 70
     8
 71
     3
 72
    15
 73
    11
 74
     0
 42
0.000000001
 43
0.00000001
 40
0.0
 40
0.0
 40
0.0
 40
0.0
 40
0.1179142348816398
 40
0.240711481922091
 40
0.3714241477033904
 40
0.5109533525979679
 40
0.651600586311809
 40
0.7807714056226688
 40
0.8959492411395308
 40
1.0
 40
1.0
 40
1.0
 40
1.0
 10
7.102685503056324
 20
4.238819063093317
 30
0.0
 10
7.102393788663062
 20
4.239015067398817
 30
0.0
 10
7.101798279529069
 20
4.239415192853451
 30
0.0
 10
7.09692792128782
 20
4.242619326409555
 30
0.0
 10
7.088959998002563
 20
4.247610906770737
 30
0.0
 10
7.077656918117421
 20
4.254085031361033
 30
0.0
 10
7.063825052045527
 20
4.260859005878812
 30
0.0
 10
7.048670554853887
 20
4.266450465623479
 30
0.0
 10
7.03340631414072
 20
4.270108560821353
 30
0.0
 10
7.023252743676637
 20
4.270564408006304
 30
0.0
 10
7.018433633674441
 20
4.270780763202363
 30
0.0
  0
SPLINE
  5
F9
330
1F
100
AcDbEntity
  8
0
  6
Continuous
 62
     7
370
    25
100
AcDbSpline
210
0.0
220
0.0
230
1.0
 70
     8
 71
     3
 72
    14
 73
    10
 74
     0
 42
0.000000001
 43
0.00000001
 40
0.0
 40
0.0
 40
0.0
 40
0.0
 40
0.133925149419151
 40
0.2803081128330875
 40
0.4375223505861284
 40
0.597126429662097
 40
0.7449966155493891
 40
0.8777133328115155
 40
1.0
 40
1.0
 40
1.0
 40
1.0
 10
6.93807343133569
 20
4.24137079894878
 30
0.0
 10
6.939326294005032
 20
4.242164571810729
 30
0.0
 10
6.941948561532868
 20
4.24382595485877
 30
0.0
 10
6.949823693774874
 20
4.248572825007667
 30
0.0
 10
6.960671408041764
 20
4.254525350181463
 30
0.0
 10
6.974093964222366
 20
4.260818334646832
 30
0.0
 10
6.988805460740751
 20
4.26600012242596
 30
0.0
 10
7.003715550888322
 20
4.269415566992336
 30
0.0
 10
7.013663231477246
 20
4.269843747413017
 30
0.0
 10
7.018433633674441
 20
4.270049080988152
 30
0.0
  0
SPLINE
  5
FA
330
1F
100
AcDbEntity
  8
0
  6
Continuous
 62
     7
370
    25
100
AcDbSpline
210
0.0
220
0.0
230
1.0
 70
    24
 71
     3
 72
    14
 73
    10
 74
     0
 42
0.000000001
 43
0.00000001
 40
0.0
 40
0.0
 40
0.0
 40
0.0
 40
0.25
 40
0.25
 40
0.5
 40
0.5
 40
0.75
 40
0.75
 40
1.0
 40
1.0
 40
1.0
 40
1.0
 10
7.018433743119245
 20
4.26882712163089
 30
0.0
 10
7.018433743048512
 20
4.268677571064452
 30
0.0
 10
7.018433742986558
 20
4.268546579912122
 30
0.0
 10
7.018433742938913
 20
4.268445831572277
 30
0.0
 10
7.018433742957124
 20
4.268484328907198
 30
0.0
 10
7.018433743091882
 20
4.268769217576216
 30
0.0
 10
7.018433743206208
 20
4.26901092036324
 30
0.0
 10
7.018433743454459
 20
4.269535765562689
 30
0.0
 10
7.01843374358506
 20
4.269811885136368
 30
0.0
 10
7.018433743697168
 20
4.27004890377868
 30
0.0
  0
SPLINE
  5
FB
330
1F
100
AcDbEntity
  8
0
  6
Continuous
 62
     7
370
    25
100
AcDbSpline
210
0.0
220
0.0
230
1.0
 70
     8
 71
     3
 72
     9
 73
     5
 74
     0
 42
0.000000001
 43
0.00000001
 40
0.0
 40
0.0
 40
0.0
 40
0.0
 40
0.8261054484787986
 40
0.9999999999999999
 40
0.9999999999999999
 40
0.9999999999999999
 40
0.9999999999999999
 10
6.934975867119015
 20
4.238823287044521
 30
0.0
 10
6.935068367393822
 20
4.238890304091368
 30
0.0
 10
6.935180338904207
 20
4.238971428174218
 30
0.0
 10
6.937012773512945
 20
4.240108612999963
 30
0.0
 10
6.937331423907423
 20
4.240306363245232
 30
0.0
  0
SPLINE
  5
FC
330
1F
100
AcDbEntity
  8
0
  6
Continuous
 62
     7
370
    25
100
AcDbSpline
210
0.0
220
0.0
230
1.0
 70
     8
 71
     3
 72
    14
 73
    10
 74
     0
 42
0.000000001
 43
0.00000001
 40
0.0
 40
0.0
 40
0.0
 40
0.0
 40
0.1223236530229075
 40
0.2550262576404509
 40
0.4028864759415275
 40
0.5624690115550696
 40
0.7196835317361968
 40
0.8660714032623275
 40
1.0
 40
1.0
 40
1.0
 40
1.0
 10
7.018433633674442
 20
4.270049080988152
 30
0.0
 10
7.023205638922821
 20
4.269843714231387
 30
0.0
 10
7.033154545858321
 20
4.269415555701726
 30
0.0
 10
7.048065260804748
 20
4.265998968379978
 30
0.0
 10
7.062775123104919
 20
4.26081739618474
 30
0.0
 10
7.076197487923822
 20
4.254525301831415
 30
0.0
 10
7.087044650164732
 20
4.248572079317938
 30
0.0
 10
7.094919608291955
 20
4.243825549853082
 30
0.0
 10
7.09754190375068
 20
4.242164121093993
 30
0.0
 10
7.098794774669017
 20
4.241370329620868
 30
0.0
  0
SPLINE
  5
FD
330
1F
100
AcDbEntity
  8
0
  6
Continuous
 62
     7
370
    25
100
AcDbSpline
210
0.0
220
0.0
230
1.0
 70
     8
 71
     3
 72
    10
 73
     6
 74
     0
 42
0.000000001
 43
0.00000001
 40
0.0
 40
0.0
 40
0.0
 40
0.0
 40
0.1724840244133398
 40
0.9962170829337805
 40
1.0
 40
1.0
 40
1.0
 40
1.0
 10
7.099536312769372
 20
4.240306363245232
 30
0.0
 10
7.099847685878697
 20
4.240113076257479
 30
0.0
 10
7.101646085537633
 20
4.238996707366128
 30
0.0
 10
7.102408830711656
 20
4.238512795434166
 30
0.0
 10
7.101893754854201
 20
4.23882187411829
 30
0.0
 10
7.101891400229866
 20
4.238823287044521
 30
0.0
  0
SPLINE
  5
FE
330
1F
100
AcDbEntity
  8
0
  6
Continuous
 62
     7
370
    25
100
AcDbSpline
210
0.0
220
0.0
230
1.0
 70
     8
 71
     3
 72
     9
 73
     5
 74
     0
 42
0.000000001
 43
0.00000001
 40
0.0
 40
0.0
 40
0.0
 40
0.0
 40
0.1648354791712526
 40
1.0
 40
1.0
 40
1.0
 40
1.0
 10
6.936541545032171
 20
4.504979615050575
 30
0.0
 10
6.936235844650139
 20
4.50517829573663
 30
0.0
 10
6.934381265869099
 20
4.506383622933498
 30
0.0
 10
6.934272555410568
 20
4.506466348020195
 30
0.0
 10
6.93418176429256
 20
4.506535437077586
 30
0.0
  0
SPLINE
  5
FF
330
1F
100
AcDbEntity
  8
0
  6
Continuous
 62
     7
370
    25
100
AcDbSpline
210
0.0
220
0.0
230
1.0
 70
     8
 71
     3
 72
    10
 73
     6
 74
     0
 42
0.000000001
 43
0.00000001
 40
0.0
 40
0.0
 40
0.0
 40
0.0
 40
0.5
 40
0.5
 40
1.0
 40
1.0
 40
1.0
 40
1.0
 10
7.018433742445816
 20
4.471576899666751
 30
0.0
 10
7.01843374260709
 20
4.472171930822301
 30
0.0
 10
7.018433742814175
 20
4.472770168488772
 30
0.0
 10
7.018433743254569
 20
4.473807242290659
 30
0.0
 10
7.018433743485785
 20
4.474243972641388
 30
0.0
 10
7.018433743698398
 20
4.474573859727721
 30
0.0
  0
SPLINE
  5
100
330
1F
100
AcDbEntity
  8
0
  6
Continuous
 62
     7
370
    25
100
AcDbSpline
210
0.0
220
0.0
230
1.0
 70
     8
 71
     3
 72
     9
 73
     5
 74
     0
 42
0.000000001
 43
0.00000001
 40
0.0
 40
0.0
 40
0.0
 40
0.0
 40
0.8351494892038798
 40
1.0
 40
1.0
 40
1.0
 40
1.0
 10
7.102685503056324
 20
4.506535437077586
 30
0.0
 10
7.10259519039012
 20
4.506466299777219
 30
0.0
 10
7.102487050868547
 20
4.506383515435899
 30
0.0
 10
7.100631595141135
 20
4.505178296077439
 30
0.0
 10
7.100325722316713
 20
4.504979615050575
 30
0.0
  0
SPLINE
  5
101
330
1F
100
AcDbEntity
  8
0
  6
Continuous
 62
     7
370
    25
100
AcDbSpline
210
0.0
220
0.0
230
1.0
 70
     8
 71
     3
 72
    16
 73
    12
 74
     0
 42
0.000000001
 43
0.00000001
 40
0.0
 40
0.0
 40
0.0
 40
0.0
 40
0.1071773623960286
 40
0.2235862214424455
 40
0.353398868280889
 40
0.4937643966324823
 40
0.6323492351913124
 40
0.7617159001316833
 40
0.8830322221746403
 40
0.9994663590393307
 40
1.0
 40
1.0
 40
1.0
 40
1.0
 10
7.018433633674442
 20
4.476527549064603
 30
0.0
 10
7.023295231679884
 20
4.476735360483278
 30
0.0
 10
7.03343717120805
 20
4.477168882720026
 30
0.0
 10
7.048638042834874
 20
4.480626109320021
 30
0.0
 10
7.063640235470788
 20
4.485873594122835
 30
0.0
 10
7.077314778869521
 20
4.492238826447705
 30
0.0
 10
7.088401319504991
 20
4.498281836943566
 30
0.0
 10
7.096368505503724
 20
4.503047107435604
 30
0.0
 10
7.100644916299269
 20
4.505741408628114
 30
0.0
 10
7.102410215277567
 20
4.506842533658437
 30
0.0
 10
7.101893756464911
 20
4.506532627010482
 30
0.0
 10
7.101891400229867
 20
4.506531213126381
 30
0.0
  0
SPLINE
  5
102
330
1F
100
AcDbEntity
  8
0
  6
Continuous
 62
     7
370
    25
100
AcDbSpline
210
0.0
220
0.0
230
1.0
 70
     8
 71
     3
 72
    15
 73
    11
 74
     0
 42
0.000000001
 43
0.00000001
 40
0.0
 40
0.0
 40
0.0
 40
0.0
 40
0.1160325608442988
 40
0.2374813481075533
 40
0.3669920941927524
 40
0.5057245878284694
 40
0.6462179959337099
 40
0.7761668751889469
 40
0.8926836024887502
 40
1.0
 40
1.0
 40
1.0
 40
1.0
 10
6.934975867119015
 20
4.506531213126381
 30
0.0
 10
6.93526063705896
 20
4.506348487426748
 30
0.0
 10
6.935843469573783
 20
4.505974506665079
 30
0.0
 10
6.940610797665486
 20
4.502978256682151
 30
0.0
 10
6.948432446069087
 20
4.498303195639745
 30
0.0
 10
6.959561130222689
 20
4.492233152242255
 30
0.0
 10
6.973223587573985
 20
4.485875911685594
 30
0.0
 10
6.988227333398131
 20
4.480626378631634
 30
0.0
 10
7.003427957515296
 20
4.477169146701662
 30
0.0
 10
7.013570709227724
 20
4.47673547310622
 30
0.0
 10
7.018433633674442
 20
4.476527549064603
 30
0.0
  0
SPLINE
  5
103
330
1F
100
AcDbEntity
  8
0
  6
Continuous
 62
     7
370
    25
100
AcDbSpline
210
0.0
220
0.0
230
1.0
 70
     8
 71
     3
 72
    14
 73
    10
 74
     0
 42
0.000000001
 43
0.00000001
 40
0.0
 40
0.0
 40
0.0
 40
0.0
 40
0.1339247606641905
 40
0.2803051651137086
 40
0.4375188567732419
 40
0.5971271482695122
 40
0.7449933408650338
 40
0.8777096222135112
 40
1.0
 40
1.0
 40
1.0
 40
1.0
 10
7.098794305341105
 20
4.503983701222124
 30
0.0
 10
7.097541212753201
 20
4.503189934205711
 30
0.0
 10
7.094918483968674
 20
4.501528576040919
 30
0.0
 10
7.087044176631963
 20
4.496781645603071
 30
0.0
 10
7.076196189477839
 20
4.490829014028088
 30
0.0
 10
7.062773505452453
 20
4.484536378348511
 30
0.0
 10
7.048062192864344
 20
4.479354292178648
 30
0.0
 10
7.033152019131977
 20
4.475938908428712
 30
0.0
 10
7.023204190402624
 20
4.475510747164769
 30
0.0
 10
7.018433633674442
 20
4.475305419182751
 30
0.0
  0
SPLINE
  5
104
330
1F
100
AcDbEntity
  8
0
  6
Continuous
 62
     7
370
    25
100
AcDbSpline
210
0.0
220
0.0
230
1.0
 70
    24
 71
     3
 72
    14
 73
    10
 74
     0
 42
0.000000001
 43
0.00000001
 40
0.0
 40
0.0
 40
0.0
 40
0.0
 40
0.25
 40
0.25
 40
0.5
 40
0.5
 40
0.75
 40
0.75
 40
1.0
 40
1.0
 40
1.0
 40
1.0
 10
7.018433744486495
 20
4.475305619616158
 30
0.0
 10
7.018433744328827
 20
4.475542639309717
 30
0.0
 10
7.018433744145683
 20
4.475818760336562
 30
0.0
 10
7.018433743799404
 20
4.476343607515171
 30
0.0
 10
7.018433743640988
 20
4.476585310619271
 30
0.0
 10
7.018433743457243
 20
4.476870197051154
 30
0.0
 10
7.018433743434939
 20
4.476908691894558
 30
0.0
 10
7.018433743507684
 20
4.476807938621365
 30
0.0
 10
7.018433743597223
 20
4.476676945204091
 30
0.0
 10
7.018433743698476
 20
4.47652739322722
 30
0.0
  0
SPLINE
  5
105
330
1F
100
AcDbEntity
  8
0
  6
Continuous
 62
     7
370
    25
100
AcDbSpline
210
0.0
220
0.0
230
1.0
 70
     8
 71
     3
 72
    14
 73
    10
 74
     0
 42
0.000000001
 43
0.00000001
 40
0.0
 40
0.0
 40
0.0
 40
0.0
 40
0.1223199376000899
 40
0.255022712933125
 40
0.4028829459683866
 40
0.562470716791112
 40
0.7196852260113343
 40
0.8660729997316309
 40
0.9999999999999999
 40
0.9999999999999999
 40
0.9999999999999999
 40
0.9999999999999999
 10
7.018433633674442
 20
4.475305419182751
 30
0.0
 10
7.013661788312631
 20
4.475510796222776
 30
0.0
 10
7.003713050815355
 20
4.475938983245666
 30
0.0
 10
6.988802482562199
 20
4.479355511580254
 30
0.0
 10
6.974092451416929
 20
4.484537237866298
 30
0.0
 10
6.960669905486269
 20
4.490829054817641
 30
0.0
 10
6.949822616807508
 20
4.496782439510454
 30
0.0
 10
6.941947696579862
 20
4.501528923256646
 30
0.0
 10
6.939325370747719
 20
4.503190373484275
 30
0.0
 10
6.938072492679867
 20
4.503984170550035
 30
0.0
  0
LINE
  5
106
330
1F
100
AcDbEntity
  8
0
  6
Continuous
 62
     7
370
    25
100
AcDbLine
 10
6.6135430363
 20
4.4736252253
 30
0.0
 11
6.6135430363
 21
4.2717297442
 31
0.0
  0
SPLINE
  5
107
330
1F
100
AcDbEntity
  8
0
  6
Continuous
 62
     7
370
    25
100
AcDbSpline
210
0.0
220
0.0
230
1.0
 70
     8
 71
     3
 72
    19
 73
    15
 74
     0
 42
0.000000001
 43
0.00000001
 40
0.0
 40
0.0
 40
0.0
 40
0.0
 40
0.0588919917288012
 40
0.1148557688662185
 40
0.1680904406775041
 40
0.311378440740595
 40
0.4459866209623163
 40
0.512757431069104
 40
0.5795330586184386
 40
0.6461716609429741
 40
0.7146340973860499
 40
0.8336913226987214
 40
0.914206791099588
 40
1.0
 40
1.0
 40
1.0
 40
1.0
 10
6.613542851514066
 20
4.473625024357897
 30
0.0
 10
6.61341349683073
 20
4.469663043737139
 30
0.0
 10
6.613161219209021
 20
4.461936079220032
 30
0.0
 10
6.612846304691443
 20
4.450626046035991
 30
0.0
 10
6.612430083758583
 20
4.433635934189176
 30
0.0
 10
6.612031703852804
 20
4.411350245103652
 30
0.0
 10
6.611835928811062
 20
4.388150697872105
 30
0.0
 10
6.611810084991734
 20
4.3701007888493
 30
0.0
 10
6.611853356440891
 20
4.356626063966144
 30
0.0
 10
6.611959511590254
 20
4.343037835763388
 30
0.0
 10
6.612172811675362
 20
4.325931345961777
 30
0.0
 10
6.612514181851715
 20
4.30789258443232
 30
0.0
 10
6.612997676989906
 20
4.288690200344625
 30
0.0
 10
6.613357321791288
 20
4.277501516999049
 30
0.0
 10
6.613542850785177
 20
4.271729641092366
 30
0.0
  0
LINE
  5
108
330
1F
100
AcDbEntity
  8
0
  6
Continuous
 62
     7
370
    25
100
AcDbLine
 10
6.6174760042
 20
4.4765406902
 30
0.0
 11
6.6174760042
 21
4.2688077087
 31
0.0
  0
SPLINE
  5
109
330
1F
100
AcDbEntity
  8
0
  6
Continuous
 62
     7
370
    25
100
AcDbSpline
210
0.0
220
0.0
230
1.0
 70
     8
 71
     3
 72
     8
 73
     4
 74
     0
 42
0.000000001
 43
0.00000001
 40
0.0
 40
0.0
 40
0.0
 40
0.0
 40
1.0
 40
1.0
 40
1.0
 40
1.0
 10
6.614753560987555
 20
4.269656007638838
 30
0.0
 10
6.615477430273052
 20
4.269118284971766
 30
0.0
 10
6.616474014094834
 20
4.26880780737142
 30
0.0
 10
6.617476120706416
 20
4.268807819153665
 30
0.0
  0
SPLINE
  5
10A
330
1F
100
AcDbEntity
  8
0
  6
Continuous
 62
     7
370
    25
100
AcDbSpline
210
0.0
220
0.0
230
1.0
 70
     8
 71
     3
 72
     9
 73
     5
 74
     0
 42
0.000000001
 43
0.00000001
 40
0.0
 40
0.0
 40
0.0
 40
0.0
 40
0.500003445641168
 40
0.9999999999999999
 40
0.9999999999999999
 40
0.9999999999999999
 40
0.9999999999999999
 10
6.613543036338506
 20
4.271729744239654
 30
0.0
 10
6.613615585322909
 20
4.271338677739724
 30
0.0
 10
6.613760682291813
 20
4.270556550129727
 30
0.0
 10
6.614422517632613
 20
4.269956038129286
 30
0.0
 10
6.614753433022567
 20
4.269655784198216
 30
0.0
  0
SPLINE
  5
10B
330
1F
100
AcDbEntity
  8
0
  6
Continuous
 62
     7
370
    25
100
AcDbSpline
210
0.0
220
0.0
230
1.0
 70
     8
 71
     3
 72
    10
 73
     6
 74
     0
 42
0.000000001
 43
0.00000001
 40
0.0
 40
0.0
 40
0.0
 40
0.0
 40
0.5
 40
0.5
 40
1.0
 40
1.0
 40
1.0
 40
1.0
 10
6.617476120706416
 20
4.476540709892618
 30
0.0
 10
6.616474012774372
 20
4.476541742974049
 30
0.0
 10
6.615477427668107
 20
4.47623230286204
 30
0.0
 10
6.614029688584004
 20
4.475158911025995
 30
0.0
 10
6.61358651339815
 20
4.474400885085799
 30
0.0
 10
6.613542851514082
 20
4.473625024357899
 30
0.0
  0
SPLINE
  5
10C
330
1F
100
AcDbEntity
  8
0
  6
Continuous
 62
     7
370
    25
100
AcDbSpline
210
0.0
220
0.0
230
1.0
 70
     8
 71
     3
 72
    11
 73
     7
 74
     0
 42
0.000000001
 43
0.00000001
 40
0.0
 40
0.0
 40
0.0
 40
0.0
 40
0.2660125529473953
 40
0.5213426041290461
 40
0.7660009824249171
 40
1.0
 40
1.0
 40
1.0
 40
1.0
 10
6.626723600065156
 20
4.482009167126882
 30
0.0
 10
6.625894878175502
 20
4.481547982250131
 30
0.0
 10
6.62427071411533
 20
4.480644132706314
 30
0.0
 10
6.621902469042196
 20
4.479263230448774
 30
0.0
 10
6.619645980726371
 20
4.477906597090029
 30
0.0
 10
6.618188589019847
 20
4.4769891956654
 30
0.0
 10
6.617476120706416
 20
4.476540709892618
 30
0.0
  0
SPLINE
  5
10D
330
1F
100
AcDbEntity
  8
0
  6
Continuous
 62
     7
370
    25
100
AcDbSpline
210
0.0
220
0.0
230
1.0
 70
     8
 71
     3
 72
     8
 73
     4
 74
     0
 42
0.000000001
 43
0.00000001
 40
0.0
 40
0.0
 40
0.0
 40
0.0
 40
1.0
 40
1.0
 40
1.0
 40
1.0
 10
6.626723600065192
 20
4.48200918066813
 30
0.0
 10
6.638381698874802
 20
4.482751124193983
 30
0.0
 10
6.650041110173435
 20
4.483470863560368
 30
0.0
 10
6.661701678834687
 20
4.484169573421657
 30
0.0
  0
SPLINE
  5
10E
330
1F
100
AcDbEntity
  8
0
  6
Continuous
 62
     7
370
    25
100
AcDbSpline
210
0.0
220
0.0
230
1.0
 70
     8
 71
     3
 72
    14
 73
    10
 74
     0
 42
0.000000001
 43
0.00000001
 40
0.0
 40
0.0
 40
0.0
 40
0.0
 40
0.1009059643152956
 40
0.2510294163868872
 40
0.41245869329959
 40
0.5946964288308619
 40
0.7438105450606353
 40
0.893621012854768
 40
1.0
 40
1.0
 40
1.0
 40
1.0
 10
6.766487146848423
 20
4.506006973849106
 30
0.0
 10
6.766539814032247
 20
4.506036531632057
 30
0.0
 10
6.766670837133879
 20
4.506110064183416
 30
0.0
 10
6.758769706967161
 20
4.501463436710767
 30
0.0
 10
6.744402926251029
 20
4.493896822847558
 30
0.0
 10
6.72432541856987
 20
4.485582502514356
 30
0.0
 10
6.700789164786112
 20
4.480380495760523
 30
0.0
 10
6.679223425802763
 20
4.480336974746078
 30
0.0
 10
6.666842650792264
 20
4.483045103802027
 30
0.0
 10
6.661701712005375
 20
4.484169615449466
 30
0.0
  0
SPLINE
  5
10F
330
1F
100
AcDbEntity
  8
0
  6
Continuous
 62
     7
370
    25
100
AcDbSpline
210
0.0
220
0.0
230
1.0
 70
     8
 71
     3
 72
    15
 73
    11
 74
     0
 42
0.000000001
 43
0.00000001
 40
0.0
 40
0.0
 40
0.0
 40
0.0
 40
0.1211014606937173
 40
0.2542943853068159
 40
0.4040366163694659
 40
0.5512650114767842
 40
0.6715041997417185
 40
0.7780918051286823
 40
0.8924530805118586
 40
1.0
 40
1.0
 40
1.0
 40
1.0
 10
6.782827736747202
 20
4.238822348388698
 30
0.0
 10
6.782175463459137
 20
4.239295510842332
 30
0.0
 10
6.780805790179476
 20
4.240289079000864
 30
0.0
 10
6.769503365696706
 20
4.248195482129289
 30
0.0
 10
6.751577504557742
 20
4.259487258152345
 30
0.0
 10
6.728795478202767
 20
4.270829403953163
 30
0.0
 10
6.704403698795009
 20
4.27778807823276
 30
0.0
 10
6.680397470730107
 20
4.278543785904323
 30
0.0
 10
6.657990136019408
 20
4.273757279802411
 30
0.0
 10
6.645719035712728
 20
4.26800479807955
 30
0.0
 10
6.639771896007147
 20
4.26521688081014
 30
0.0
  0
SPLINE
  5
110
330
1F
100
AcDbEntity
  8
0
  6
Continuous
 62
     7
370
    25
100
AcDbSpline
210
0.0
220
0.0
230
1.0
 70
     8
 71
     3
 72
     8
 73
     4
 74
     0
 42
0.000000001
 43
0.00000001
 40
0.0
 40
0.0
 40
0.0
 40
0.0
 40
1.0
 40
1.0
 40
1.0
 40
1.0
 10
6.626724732207124
 20
4.263345169526533
 30
0.0
 10
6.629212540478147
 20
4.263187138681744
 30
0.0
 10
6.631700348749171
 20
4.263029794506368
 30
0.0
 10
6.634188157020196
 20
4.262873139965016
 30
0.0
  0
SPLINE
  5
111
330
1F
100
AcDbEntity
  8
0
  6
Continuous
 62
     7
370
    25
100
AcDbSpline
210
0.0
220
0.0
230
1.0
 70
     8
 71
     3
 72
    10
 73
     6
 74
     0
 42
0.000000001
 43
0.00000001
 40
0.0
 40
0.0
 40
0.0
 40
0.0
 40
0.3235130029270804
 40
0.6568386680832861
 40
1.0
 40
1.0
 40
1.0
 40
1.0
 10
6.617476120706416
 20
4.268807819153665
 30
0.0
 10
6.618463416334395
 20
4.268191375414956
 30
0.0
 10
6.620467953831863
 20
4.266939790221722
 30
0.0
 10
6.623551655735849
 20
4.265117852235313
 30
0.0
 10
6.625656837407321
 20
4.263941763609136
 30
0.0
 10
6.626724732207124
 20
4.263345169526533
 30
0.0
  0
LINE
  5
112
330
1F
100
AcDbEntity
  8
0
  6
Continuous
 62
     7
370
    25
100
AcDbLine
 10
6.8467802353
 20
4.2388190631
 30
0.0
 11
6.8467802353
 21
4.5065354371
 31
0.0
  0
SPLINE
  5
113
330
1F
100
AcDbEntity
  8
0
  6
Continuous
 62
     7
370
    25
100
AcDbSpline
210
0.0
220
0.0
230
1.0
 70
     8
 71
     3
 72
     9
 73
     5
 74
     0
 42
0.000000001
 43
0.00000001
 40
0.0
 40
0.0
 40
0.0
 40
0.0
 40
0.8966973697323016
 40
1.0
 40
1.0
 40
1.0
 40
1.0
 10
6.661701712005375
 20
4.484169615449466
 30
0.0
 10
6.659987446568223
 20
4.484515650598871
 30
0.0
 10
6.658075691839128
 20
4.484901550191181
 30
0.0
 10
6.656275883138883
 20
4.484437652129921
 30
0.0
 10
6.656089958166168
 20
4.484389730240014
 30
0.0
  0
SPLINE
  5
114
330
1F
100
AcDbEntity
  8
0
  6
Continuous
 62
     7
370
    25
100
AcDbSpline
210
0.0
220
0.0
230
1.0
 70
     8
 71
     3
 72
    10
 73
     6
 74
     0
 42
0.000000001
 43
0.00000001
 40
0.0
 40
0.0
 40
0.0
 40
0.0
 40
0.5
 40
0.5
 40
1.0
 40
1.0
 40
1.0
 40
1.0
 10
6.615105171648865
 20
4.47657249922187
 30
0.0
 10
6.615371048801922
 20
4.476902912260522
 30
0.0
 10
6.61577174765229
 20
4.477049967122927
 30
0.0
 10
6.616631073104481
 20
4.476991658597893
 30
0.0
 10
6.617081363979807
 20
4.476797504816365
 30
0.0
 10
6.617476120803823
 20
4.476540771438477
 30
0.0
  0
SPLINE
  5
115
330
1F
100
AcDbEntity
  8
0
  6
Continuous
 62
     7
370
    25
100
AcDbSpline
210
0.0
220
0.0
230
1.0
 70
     8
 71
     3
 72
    11
 73
     7
 74
     0
 42
0.000000001
 43
0.00000001
 40
0.0
 40
0.0
 40
0.0
 40
0.0
 40
0.1118402246731883
 40
0.4323160777459631
 40
0.7260135159180615
 40
1.0
 40
1.0
 40
1.0
 40
1.0
 10
6.624738853670136
 20
4.482153382741159
 30
0.0
 10
6.624791615261934
 20
4.482200309563839
 30
0.0
 10
6.624995564104924
 20
4.482381704227356
 30
0.0
 10
6.625452792020949
 20
4.482439467831376
 30
0.0
 10
6.626101558156812
 20
4.482360314384937
 30
0.0
 10
6.626521136482902
 20
4.48212356405137
 30
0.0
 10
6.626723641408365
 20
4.482009299072292
 30
0.0
  0
SPLINE
  5
116
330
1F
100
AcDbEntity
  8
0
  6
Continuous
 62
     7
370
    25
100
AcDbSpline
210
0.0
220
0.0
230
1.0
 70
     8
 71
     3
 72
    10
 73
     6
 74
     0
 42
0.000000001
 43
0.00000001
 40
0.0
 40
0.0
 40
0.0
 40
0.0
 40
0.5
 40
0.5
 40
1.0
 40
1.0
 40
1.0
 40
1.0
 10
6.624449728702842
 20
4.263446507097536
 30
0.0
 10
6.62471019477556
 20
4.263106060921555
 30
0.0
 10
6.625091670929388
 20
4.262935684986155
 30
0.0
 10
6.625911761632621
 20
4.262940934817373
 30
0.0
 10
6.626343072026456
 20
4.263107319300767
 30
0.0
 10
6.62672473229549
 20
4.263344963688807
 30
0.0
  0
SPLINE
  5
117
330
1F
100
AcDbEntity
  8
0
  6
Continuous
 62
     7
370
    25
100
AcDbSpline
210
0.0
220
0.0
230
1.0
 70
     8
 71
     3
 72
    10
 73
     6
 74
     0
 42
0.000000001
 43
0.00000001
 40
0.0
 40
0.0
 40
0.0
 40
0.0
 40
0.5
 40
0.5
 40
1.0
 40
1.0
 40
1.0
 40
1.0
 10
6.626350435037297
 20
4.48228044777504
 30
0.0
 10
6.626389756058298
 20
4.482647283631819
 30
0.0
 10
6.626452998432725
 20
4.4827794838023
 30
0.0
 10
6.62658962674855
 20
4.482619011201222
 30
0.0
 10
6.62666140753049
 20
4.482343220636336
 30
0.0
 10
6.626723600065192
 20
4.48200918066813
 30
0.0
  0
ARC
  5
118
330
1F
100
AcDbEntity
  8
0
  6
Continuous
 62
     7
370
    25
100
AcDbCircle
 10
6.6347098284
 20
4.2626697803
 30
0.0
 40
0.000893157815831
100
AcDbArc
 50
183.12898795
 51
211.6955383136
  0
LINE
  5
119
330
1F
100
AcDbEntity
  8
0
  6
Continuous
 62
     7
370
    25
100
AcDbLine
 10
7.1841819483
 20
4.3250008088
 30
0.0
 11
7.1845752451
 21
4.3250008088
 31
0.0
  0
LINE
  5
11A
330
1F
100
AcDbEntity
  8
0
  6
Continuous
 62
     7
370
    25
100
AcDbLine
 10
7.1845752451
 20
4.4203536913
 30
0.0
 11
7.1841819483
 21
4.4203536913
 31
0.0
  0
LINE
  5
11B
330
1F
100
AcDbEntity
  8
0
  6
Continuous
 62
     7
370
    25
100
AcDbLine
 10
7.1845752451
 20
4.4388555363
 30
0.0
 11
7.1841819483
 21
4.4388592909
 31
0.0
  0
LINE
  5
11C
330
1F
100
AcDbEntity
  8
0
  6
Continuous
 62
     7
370
    25
100
AcDbLine
 10
7.1841819483
 20
4.3064952093
 30
0.0
 11
7.1845752451
 21
4.3064989639
 31
0.0
  0
LINE
  5
11D
330
1F
100
AcDbEntity
  8
0
  6
Continuous
 62
     7
370
    25
100
AcDbLine
 10
7.1841819483
 20
4.4435384902
 30
0.0
 11
7.1845752451
 21
4.4435384902
 31
0.0
  0
LINE
  5
11E
330
1F
100
AcDbEntity
  8
0
  6
Continuous
 62
     7
370
    25
100
AcDbLine
 10
7.1845752451
 20
4.30181601
 30
0.0
 11
7.1841819483
 21
4.30181601
 31
0.0
  0
LINE
  5
11F
330
1F
100
AcDbEntity
  8
0
  6
Continuous
 62
     7
370
    25
100
AcDbLine
 10
7.1845752451
 20
4.4912151661
 30
0.0
 11
7.1841819483
 21
4.4912151661
 31
0.0
  0
LINE
  5
120
330
1F
100
AcDbEntity
  8
0
  6
Continuous
 62
     7
370
    25
100
AcDbLine
 10
7.1841819483
 20
4.2541393341
 30
0.0
 11
7.1845752451
 21
4.2541393341
 31
0.0
  0
SPLINE
  5
121
330
1F
100
AcDbEntity
  8
0
  6
Continuous
 62
     7
370
    25
100
AcDbSpline
210
0.0
220
0.0
230
1.0
 70
    24
 71
     3
 72
    14
 73
    10
 74
     0
 42
0.000000001
 43
0.00000001
 40
0.0
 40
0.0
 40
0.0
 40
0.0
 40
0.25
 40
0.25
 40
0.5
 40
0.5
 40
0.7500000000000003
 40
0.7500000000000003
 40
1.0
 40
1.0
 40
1.0
 40
1.0
 10
7.412921932674604
 20
4.242755999043107
 30
0.0
 10
7.412921932674604
 20
4.242755999043107
 30
0.0
 10
7.412921932674604
 20
4.256444781696465
 30
0.0
 10
7.412921932674604
 20
4.305173326541627
 30
0.0
 10
7.412921932674604
 20
4.33822097127574
 30
0.0
 10
7.412921932674604
 20
4.407133540270475
 30
0.0
 10
7.412921932674604
 20
4.440181185004588
 30
0.0
 10
7.412921932674604
 20
4.48890972984975
 30
0.0
 10
7.412921932674604
 20
4.502598512503107
 30
0.0
 10
7.412921932674604
 20
4.502598512503107
 30
0.0
  0
LINE
  5
122
330
1F
100
AcDbEntity
  8
0
  6
Continuous
 62
     7
370
    25
100
AcDbLine
 10
7.1845752451
 20
4.5065354371
 30
0.0
 11
7.1845752451
 21
4.2388190631
 31
0.0
  0
LINE
  5
123
330
1F
100
AcDbEntity
  8
0
  6
Continuous
 62
     7
370
    25
100
AcDbLine
 10
7.3530794532
 20
4.2388190631
 30
0.0
 11
7.3058354976
 21
4.2388190631
 31
0.0
  0
LINE
  5
124
330
1F
100
AcDbEntity
  8
0
  6
Continuous
 62
     7
370
    25
100
AcDbLine
 10
7.2231582233
 20
2.0843997911
 30
0.0
 11
7.0995363128
 21
2.0843997911
 31
0.0
  0
LINE
  5
125
330
1F
100
AcDbEntity
  8
0
  6
Continuous
 62
     7
370
    25
100
AcDbLine
 10
6.9373314239
 20
2.0843997911
 30
0.0
 11
6.8137095133
 21
2.0843997911
 31
0.0
  0
LINE
  5
126
330
1F
100
AcDbEntity
  8
0
  6
Continuous
 62
     7
370
    25
100
AcDbLine
 10
6.8137095133
 20
1.6592032524
 30
0.0
 11
6.9373314239
 21
1.6592032524
 31
0.0
  0
LINE
  5
127
330
1F
100
AcDbEntity
  8
0
  6
Continuous
 62
     7
370
    25
100
AcDbLine
 10
7.0995363128
 20
1.6592032524
 30
0.0
 11
7.2231582233
 21
1.6592032524
 31
0.0
  0
LINE
  5
128
330
1F
100
AcDbEntity
  8
0
  6
Continuous
 62
     7
370
    25
100
AcDbLine
 10
6.9373314239
 20
6.8261320862
 30
0.0
 11
7.0995363128
 21
6.8261320862
 31
0.0
  0
LINE
  5
129
330
1F
100
AcDbEntity
  8
0
  6
Continuous
 62
     7
370
    25
100
AcDbLine
 10
6.9373314239
 20
6.7954234916
 30
0.0
 11
7.0995363128
 21
6.7954234916
 31
0.0
  0
LINE
  5
12A
330
1F
100
AcDbEntity
  8
0
  6
Continuous
 62
     7
370
    25
100
AcDbLine
 10
7.0930647502
 20
1.6418803592
 30
0.0
 11
6.9373314239
 21
1.6418803592
 31
0.0
  0
LINE
  5
12B
330
1F
100
AcDbEntity
  8
0
  6
Continuous
 62
     7
370
    25
100
AcDbLine
 10
7.0995363128
 20
1.6418803592
 30
0.0
 11
7.0930647502
 21
1.6418803592
 31
0.0
  0
LINE
  5
12C
330
1F
100
AcDbEntity
  8
0
  6
Continuous
 62
     7
370
    25
100
AcDbLine
 10
6.9862823251
 20
1.6725884844
 30
0.0
 11
6.9373314239
 21
1.6725884844
 31
0.0
  0
LINE
  5
12D
330
1F
100
AcDbEntity
  8
0
  6
Continuous
 62
     7
370
    25
100
AcDbLine
 10
7.0995363128
 20
1.6725884844
 30
0.0
 11
6.9862823251
 21
1.6725884844
 31
0.0
  0
LINE
  5
12E
330
1F
100
AcDbEntity
  8
0
  6
Continuous
 62
     7
370
    25
100
AcDbLine
 10
6.8137095133
 20
6.3836124196
 30
0.0
 11
6.9373314239
 21
6.3836124196
 31
0.0
  0
LINE
  5
12F
330
1F
100
AcDbEntity
  8
0
  6
Continuous
 62
     7
370
    25
100
AcDbLine
 10
7.0995363128
 20
6.3836124196
 30
0.0
 11
7.2231582233
 21
6.3836124196
 31
0.0
  0
LINE
  5
130
330
1F
100
AcDbEntity
  8
0
  6
Continuous
 62
     7
370
    25
100
AcDbLine
 10
7.2231582233
 20
6.8088094277
 30
0.0
 11
7.0995363128
 21
6.8088094277
 31
0.0
  0
LINE
  5
131
330
1F
100
AcDbEntity
  8
0
  6
Continuous
 62
     7
370
    25
100
AcDbLine
 10
6.9373314239
 20
6.8088094277
 30
0.0
 11
6.8137095133
 21
6.8088094277
 31
0.0
  0
LINE
  5
132
330
1F
100
AcDbEntity
  8
0
  6
Continuous
 62
     7
370
    25
100
AcDbLine
 10
6.9373314239
 20
1.6773136778
 30
0.0
 11
7.0995363128
 21
1.6773136778
 31
0.0
  0
LINE
  5
133
330
1F
100
AcDbEntity
  8
0
  6
Continuous
 62
     7
370
    25
100
AcDbLine
 10
7.0995363128
 20
6.7906992369
 30
0.0
 11
6.9373314239
 21
6.7906992369
 31
0.0
  0
SPLINE
  5
134
330
1F
100
AcDbEntity
  8
0
  6
Continuous
 62
     7
370
    25
100
AcDbSpline
210
0.0
220
0.0
230
1.0
 70
     8
 71
     3
 72
    16
 73
    12
 74
     0
 42
0.000000001
 43
0.00000001
 40
0.0
 40
0.0
 40
0.0
 40
0.0
 40
0.0000048652364091
 40
0.1179395614895233
 40
0.2407287242162766
 40
0.3714471144094032
 40
0.5109860394462986
 40
0.6515993175320095
 40
0.7807681805272828
 40
0.8959511676678867
 40
1.0
 40
1.0
 40
1.0
 40
1.0
 10
6.934181764292559
 20
4.506535437077586
 30
0.0
 10
6.934181764292274
 20
4.506535437077777
 30
0.0
 10
6.934181757360461
 20
4.506535441737345
 30
0.0
 10
6.93521146988113
 20
4.505844455119497
 30
0.0
 10
6.939899702961046
 20
4.502761544301537
 30
0.0
 10
6.947921913615975
 20
4.49773397191937
 30
0.0
 10
6.959209493233059
 20
4.49127046063056
 30
0.0
 10
6.973044806059578
 20
4.484494589945666
 30
0.0
 10
6.988196817151331
 20
4.478903969594557
 30
0.0
 10
7.003461156531354
 20
4.475246009123237
 30
0.0
 10
7.013614697696802
 20
4.474790109746542
 30
0.0
 10
7.018433633674442
 20
4.47457373696854
 30
0.0
  0
SPLINE
  5
135
330
1F
100
AcDbEntity
  8
0
  6
Continuous
 62
     7
370
    25
100
AcDbSpline
210
0.0
220
0.0
230
1.0
 70
     8
 71
     3
 72
    16
 73
    12
 74
     0
 42
0.000000001
 43
0.00000001
 40
0.0
 40
0.0
 40
0.0
 40
0.0
 40
0.1040415863046272
 40
0.2192247703540479
 40
0.3483983298899233
 40
0.4890159080957819
 40
0.6285516852097897
 40
0.7592687850106008
 40
0.8820600727465014
 40
0.9999925963908022
 40
1.0
 40
1.0
 40
1.0
 40
1.0
 10
7.018433633674442
 20
4.47457373696854
 30
0.0
 10
7.023252268177945
 20
4.474789873894254
 30
0.0
 10
7.033405554762381
 20
4.475245293400893
 30
0.0
 10
7.048669570402011
 20
4.4789044850427
 30
0.0
 10
7.063822588691064
 20
4.484493690109272
 30
0.0
 10
7.07765805546566
 20
4.491270484551537
 30
0.0
 10
7.088945365151056
 20
4.497733973294854
 30
0.0
 10
7.096967441620557
 20
4.50276161773888
 30
0.0
 10
7.101656579352233
 20
4.505844399842583
 30
0.0
 10
7.10268551360808
 20
4.506535444156115
 30
0.0
 10
7.102685503056986
 20
4.506535437078032
 30
0.0
 10
7.102685503056324
 20
4.506535437077586
 30
0.0
  0
LINE
  5
136
330
1F
100
AcDbEntity
  8
0
  6
Continuous
 62
     7
370
    25
100
AcDbLine
 10
6.639771896
 20
4.2652168808
 30
0.0
 11
6.6341883018
 21
4.2628730572
 31
0.0
  0
SPLINE
  5
137
330
1F
100
AcDbEntity
  8
0
  6
Continuous
 62
     7
370
    25
100
AcDbSpline
210
0.0
220
0.0
230
1.0
 70
     8
 71
     3
 72
    11
 73
     7
 74
     0
 42
0.000000001
 43
0.00000001
 40
0.0
 40
0.0
 40
0.0
 40
0.0
 40
0.2715215241279532
 40
0.5542463290494084
 40
0.8711341398663045
 40
0.9999999999999999
 40
0.9999999999999999
 40
0.9999999999999999
 40
0.9999999999999999
 10
6.634188301842637
 20
4.262873057219524
 30
0.0
 10
6.634378039484067
 20
4.262760960219741
 30
0.0
 10
6.634765343553545
 20
4.262532140972993
 30
0.0
 10
6.635362328247794
 20
4.262432334511231
 30
0.0
 10
6.635803533008071
 20
4.262468671648303
 30
0.0
 10
6.636008294852559
 20
4.26263637442763
 30
0.0
 10
6.636067490800754
 20
4.262684856726966
 30
0.0
  0
SPLINE
  5
138
330
1F
100
AcDbEntity
  8
0
  6
Continuous
 62
     7
370
    25
100
AcDbSpline
210
0.0
220
0.0
230
1.0
 70
     8
 71
     3
 72
    11
 73
     7
 74
     0
 42
0.000000001
 43
0.00000001
 40
0.0
 40
0.0
 40
0.0
 40
0.0
 40
0.2641620102340991
 40
0.502249051979322
 40
0.7540859677850634
 40
1.0
 40
1.0
 40
1.0
 40
1.0
 10
6.617476004237859
 20
4.268807708661924
 30
0.0
 10
6.617225430156421
 20
4.268667177860441
 30
0.0
 10
6.616749015721426
 20
4.268399987806287
 30
0.0
 10
6.616086445417967
 20
4.268295045328136
 30
0.0
 10
6.615517514725529
 20
4.26839040929281
 30
0.0
 10
6.615247665360831
 20
4.268648355800448
 30
0.0
 10
6.6151143461866
 20
4.268775794363934
 30
0.0
  0
SPLINE
  5
139
330
1F
100
AcDbEntity
  8
0
  6
Continuous
 62
     7
370
    25
100
AcDbSpline
210
0.0
220
0.0
230
1.0
 70
     8
 71
     3
 72
    10
 73
     6
 74
     0
 42
0.000000001
 43
0.00000001
 40
0.0
 40
0.0
 40
0.0
 40
0.0
 40
0.4226257721513051
 40
0.866109291586197
 40
1.0
 40
1.0
 40
1.0
 40
1.0
 10
6.626724580064189
 20
4.263345201098612
 30
0.0
 10
6.626683726831388
 20
4.263174035670821
 30
0.0
 10
6.626600004146087
 20
4.262823257329373
 30
0.0
 10
6.626530964412
 20
4.262611946933109
 30
0.0
 10
6.626491166504844
 20
4.262653606874088
 30
0.0
 10
6.626481937533882
 20
4.262663267643031
 30
0.0
  0
SPLINE
  5
13A
330
1F
100
AcDbEntity
  8
0
  6
Continuous
 62
     7
370
    25
100
AcDbSpline
210
0.0
220
0.0
230
1.0
 70
     8
 71
     3
 72
    10
 73
     6
 74
     0
 42
0.000000001
 43
0.00000001
 40
0.0
 40
0.0
 40
0.0
 40
0.0
 40
0.4608117522827429
 40
0.8893665671030395
 40
1.0
 40
1.0
 40
1.0
 40
1.0
 10
6.634188301842637
 20
4.262873057219524
 30
0.0
 10
6.63414924648428
 20
4.262691999132275
 30
0.0
 10
6.634073869652382
 20
4.262342557068993
 30
0.0
 10
6.633992352752926
 20
4.262148856271226
 30
0.0
 10
6.633957113778528
 20
4.262191716117321
 30
0.0
 10
6.633949883263536
 20
4.262200510322177
 30
0.0
  0
LINE
  5
13B
330
1F
100
AcDbEntity
  8
0
  6
Continuous
 62
     7
370
    25
100
AcDbLine
 10
7.4089848553
 20
4.2388190631
 30
0.0
 11
7.4089848553
 21
4.5065354371
 31
0.0
  0
LINE
  5
13C
330
1F
100
AcDbEntity
  8
0
  6
Continuous
 62
     7
370
    25
100
AcDbLine
 10
7.3058354976
 20
4.0567174867
 30
0.0
 11
7.3530794532
 21
4.0567174867
 31
0.0
  0
LINE
  5
13D
330
1F
100
AcDbEntity
  8
0
  6
Continuous
 62
     7
370
    25
100
AcDbLine
 10
7.3299603602
 20
4.0527854575
 30
0.0
 11
7.3493412563
 21
4.0527854575
 31
0.0
  0
LINE
  5
13E
330
1F
100
AcDbEntity
  8
0
  6
Continuous
 62
     7
370
    25
100
AcDbLine
 10
7.3095736944
 20
4.0527854575
 30
0.0
 11
7.3299603602
 21
4.0527854575
 31
0.0
  0
ARC
  5
13F
330
1F
100
AcDbEntity
  8
0
  6
Continuous
 62
     7
370
    25
100
AcDbCircle
 10
4.8953058089
 20
1.9523733198
 30
0.0
 40
0.0157480314960634
100
AcDbArc
 50
180.0
 51
269.5
  0
ARC
  5
140
330
1F
100
AcDbEntity
  8
0
  6
Continuous
 62
     7
370
    25
100
AcDbCircle
 10
4.8953058089
 20
1.7912296597
 30
0.0
 40
0.015748031496063
100
AcDbArc
 50
90.5
 51
180.0
  0
LINE
  5
141
330
1F
100
AcDbEntity
  8
0
  6
Continuous
 62
     7
370
    25
100
AcDbLine
 10
4.8951683826
 20
1.8069767773
 30
0.0
 11
5.1554233667
 21
1.8092483244
 31
0.0
  0
LINE
  5
142
330
1F
100
AcDbEntity
  8
0
  6
Continuous
 62
     7
370
    25
100
AcDbLine
 10
5.1555489413
 20
1.9343537805
 30
0.0
 11
4.8951683826
 21
1.9366257969
 31
0.0
  0
ARC
  5
143
330
1F
100
AcDbEntity
  8
0
  6
Continuous
 62
     7
370
    25
100
AcDbCircle
 10
5.317353053
 20
6.8261321984
 30
0.0
 40
0.0023622047244096
100
AcDbArc
 50
0.0000000001
 51
90.0
  0
ARC
  5
144
330
1F
100
AcDbEntity
  8
0
  6
Continuous
 62
     7
370
    25
100
AcDbCircle
 10
5.1598727381
 20
6.8261321984
 30
0.0
 40
0.0023622047244096
100
AcDbArc
 50
90.0
 51
180.0
  0
ARC
  5
145
330
1F
100
AcDbEntity
  8
0
  6
Continuous
 62
     7
370
    25
100
AcDbCircle
 10
5.317353053
 20
6.795423537
 30
0.0
 40
0.0023622047244105
100
AcDbArc
 50
270.0
 51
0.0
  0
ARC
  5
146
330
1F
100
AcDbEntity
  8
0
  6
Continuous
 62
     7
370
    25
100
AcDbCircle
 10
5.1598727381
 20
6.795423537
 30
0.0
 40
0.0023622047244096
100
AcDbArc
 50
180.0
 51
270.0
  0
LINE
  5
147
330
1F
100
AcDbEntity
  8
0
  6
Continuous
 62
     7
370
    25
100
AcDbLine
 10
5.3197152395
 20
6.7954234916
 30
0.0
 11
5.3197152395
 21
6.8261320862
 31
0.0
  0
LINE
  5
148
330
1F
100
AcDbEntity
  8
0
  6
Continuous
 62
     7
370
    25
100
AcDbLine
 10
5.1575105266
 20
6.8261320862
 30
0.0
 11
5.1575105266
 21
6.7954234916
 31
0.0
  0
ARC
  5
149
330
1F
100
AcDbEntity
  8
0
  6
Continuous
 62
     7
370
    25
100
AcDbCircle
 10
5.1598727381
 20
1.6418802299
 30
0.0
 40
0.0023622047244096
100
AcDbArc
 50
180.0000000001
 51
270.0
  0
ARC
  5
14A
330
1F
100
AcDbEntity
  8
0
  6
Continuous
 62
     7
370
    25
100
AcDbCircle
 10
5.317353053
 20
1.6418802299
 30
0.0
 40
0.0023622047244096
100
AcDbArc
 50
270.0
 51
0.0
  0
ARC
  5
14B
330
1F
100
AcDbEntity
  8
0
  6
Continuous
 62
     7
370
    25
100
AcDbCircle
 10
5.1598727381
 20
1.6725888913
 30
0.0
 40
0.0023622047244096
100
AcDbArc
 50
90.0
 51
180.0
  0
ARC
  5
14C
330
1F
100
AcDbEntity
  8
0
  6
Continuous
 62
     7
370
    25
100
AcDbCircle
 10
5.317353053
 20
1.6725888913
 30
0.0
 40
0.0023622047244096
100
AcDbArc
 50
0.0
 51
90.0
  0
LINE
  5
14D
330
1F
100
AcDbEntity
  8
0
  6
Continuous
 62
     7
370
    25
100
AcDbLine
 10
5.1575105266
 20
1.6725884844
 30
0.0
 11
5.1575105266
 21
1.6418803592
 31
0.0
  0
LINE
  5
14E
330
1F
100
AcDbEntity
  8
0
  6
Continuous
 62
     7
370
    25
100
AcDbLine
 10
5.3197152395
 20
1.6418803592
 30
0.0
 11
5.3197152395
 21
1.6725884844
 31
0.0
  0
ARC
  5
14F
330
1F
100
AcDbEntity
  8
0
  6
Continuous
 62
     7
370
    25
100
AcDbCircle
 10
4.8953058089
 20
6.6767827687
 30
0.0
 40
0.015748031496063
100
AcDbArc
 50
180.0
 51
269.5
  0
ARC
  5
150
330
1F
100
AcDbEntity
  8
0
  6
Continuous
 62
     7
370
    25
100
AcDbCircle
 10
4.8953058089
 20
6.5156391085
 30
0.0
 40
0.015748031496063
100
AcDbArc
 50
90.5
 51
180.0
  0
LINE
  5
151
330
1F
100
AcDbEntity
  8
0
  6
Continuous
 62
     7
370
    25
100
AcDbLine
 10
4.8951683826
 20
6.5313866485
 30
0.0
 11
5.1554233667
 21
6.5336577263
 31
0.0
  0
LINE
  5
152
330
1F
100
AcDbEntity
  8
0
  6
Continuous
 62
     7
370
    25
100
AcDbLine
 10
5.1555489413
 20
6.6587629477
 30
0.0
 11
4.8951683826
 21
6.6610354334
 31
0.0
  0
ARC
  5
153
330
1F
100
AcDbEntity
  8
0
  6
Continuous
 62
     7
370
    25
100
AcDbCircle
 10
5.317353053
 20
6.7906991276
 30
0.0
 40
0.0023622047244096
100
AcDbArc
 50
0.0
 51
90.0
  0
ARC
  5
154
330
1F
100
AcDbEntity
  8
0
  6
Continuous
 62
     7
370
    25
100
AcDbCircle
 10
5.1598727381
 20
6.7906991276
 30
0.0
 40
0.0023622047244096
100
AcDbArc
 50
90.0
 51
180.0
  0
ARC
  5
155
330
1F
100
AcDbEntity
  8
0
  6
Continuous
 62
     7
370
    25
100
AcDbCircle
 10
5.317353053
 20
1.6773133008
 30
0.0
 40
0.0023622047244096
100
AcDbArc
 50
270.0
 51
0.0
  0
ARC
  5
156
330
1F
100
AcDbEntity
  8
0
  6
Continuous
 62
     7
370
    25
100
AcDbCircle
 10
5.1598727381
 20
1.6773133008
 30
0.0
 40
0.0023622047244092
100
AcDbArc
 50
180.0
 51
270.0
  0
LINE
  5
157
330
1F
100
AcDbEntity
  8
0
  6
Continuous
 62
     7
370
    25
100
AcDbLine
 10
5.3197152395
 20
1.6773136778
 30
0.0
 11
5.3197152395
 21
4.2661855736
 31
0.0
  0
LINE
  5
158
330
1F
100
AcDbEntity
  8
0
  6
Continuous
 62
     7
370
    25
100
AcDbLine
 10
5.3197152395
 20
4.4791689266
 30
0.0
 11
5.3197152395
 21
6.7906992369
 31
0.0
  0
LINE
  5
159
330
1F
100
AcDbEntity
  8
0
  6
Continuous
 62
     7
370
    25
100
AcDbLine
 10
5.1575105266
 20
1.8124378769
 30
0.0
 11
5.1575105266
 21
1.6773136778
 31
0.0
  0
LINE
  5
15A
330
1F
100
AcDbEntity
  8
0
  6
Continuous
 62
     7
370
    25
100
AcDbLine
 10
5.1575105266
 20
6.5368470441
 30
0.0
 11
5.1575105266
 21
4.4791689266
 31
0.0
  0
LINE
  5
15B
330
1F
100
AcDbEntity
  8
0
  6
Continuous
 62
     7
370
    25
100
AcDbLine
 10
5.1575105266
 20
4.2661855736
 30
0.0
 11
5.1575105266
 21
1.9333090565
 31
0.0
  0
LINE
  5
15C
330
1F
100
AcDbEntity
  8
0
  6
Continuous
 62
     7
370
    25
100
AcDbLine
 10
5.1575105266
 20
6.7906992369
 30
0.0
 11
5.1575105266
 21
6.655593107
 31
0.0
  0
SPLINE
  5
15D
330
1F
100
AcDbEntity
  8
0
  6
Continuous
 62
     7
370
    25
100
AcDbSpline
210
0.0
220
0.0
230
1.0
 70
     8
 71
     3
 72
     9
 73
     5
 74
     0
 42
0.000000001
 43
0.00000001
 40
0.0
 40
0.0
 40
0.0
 40
0.0
 40
0.5038525422966071
 40
1.0
 40
1.0
 40
1.0
 40
1.0
 10
5.326541848636896
 20
4.472984123331893
 30
0.0
 10
5.326367550193313
 20
4.473322608302257
 30
0.0
 10
5.326021618737277
 20
4.473994402015597
 30
0.0
 10
5.325171934170112
 20
4.474759303732094
 30
0.0
 10
5.324750365332264
 20
4.475138807774128
 30
0.0
  0
SPLINE
  5
15E
330
1F
100
AcDbEntity
  8
0
  6
Continuous
 62
     7
370
    25
100
AcDbSpline
210
0.0
220
0.0
230
1.0
 70
     8
 71
     3
 72
     9
 73
     5
 74
     0
 42
0.000000001
 43
0.00000001
 40
0.0
 40
0.0
 40
0.0
 40
0.0
 40
0.5038172183143319
 40
1.0
 40
1.0
 40
1.0
 40
1.0
 10
5.326536803361845
 20
4.472997264513419
 30
0.0
 10
5.32636316384441
 20
4.473332379321338
 30
0.0
 10
5.326018516001653
 20
4.473997530879756
 30
0.0
 10
5.325179590770595
 20
4.474753108584729
 30
0.0
 10
5.324763330515822
 20
4.475128013232161
 30
0.0
  0
SPLINE
  5
15F
330
1F
100
AcDbEntity
  8
0
  6
Continuous
 62
     7
370
    25
100
AcDbSpline
210
0.0
220
0.0
230
1.0
 70
     8
 71
     3
 72
     9
 73
     5
 74
     0
 42
0.000000001
 43
0.00000001
 40
0.0
 40
0.0
 40
0.0
 40
0.0
 40
0.2104725163065973
 40
0.9999999999999999
 40
0.9999999999999999
 40
0.9999999999999999
 40
0.9999999999999999
 10
5.165267666356677
 20
4.262317842300082
 30
0.0
 10
5.165331042908274
 20
4.262322421038927
 30
0.0
 10
5.165632158477696
 20
4.262344175607774
 30
0.0
 10
5.165902306186914
 20
4.262490227962102
 30
0.0
 10
5.166115595227998
 20
4.262605540309903
 30
0.0
  0
SPLINE
  5
160
330
1F
100
AcDbEntity
  8
0
  6
Continuous
 62
     7
370
    25
100
AcDbSpline
210
0.0
220
0.0
230
1.0
 70
     8
 71
     3
 72
     9
 73
     5
 74
     0
 42
0.000000001
 43
0.00000001
 40
0.0
 40
0.0
 40
0.0
 40
0.0
 40
0.6592027660529153
 40
1.0
 40
1.0
 40
1.0
 40
1.0
 10
5.314846842405273
 20
4.262711608417929
 30
0.0
 10
5.314924030417343
 20
4.262733167989464
 30
0.0
 10
5.315041123390927
 20
4.262765873512931
 30
0.0
 10
5.315122216075585
 20
4.262853864631629
 30
0.0
 10
5.315149852238211
 20
4.262883851761492
 30
0.0
  0
LINE
  5
161
330
1F
100
AcDbEntity
  8
0
  6
Continuous
 62
     7
370
    25
100
AcDbLine
 10
4.8795577772
 20
2.0843997911
 30
0.0
 11
4.8795577772
 21
2.0765258768
 31
0.0
  0
LINE
  5
162
330
1F
100
AcDbEntity
  8
0
  6
Continuous
 62
     7
370
    25
100
AcDbLine
 10
4.8795577772
 20
2.0765258768
 30
0.0
 11
4.8716837602
 21
2.0765258768
 31
0.0
  0
LINE
  5
163
330
1F
100
AcDbEntity
  8
0
  6
Continuous
 62
     7
370
    25
100
AcDbLine
 10
4.8716837602
 20
2.0765258768
 30
0.0
 11
4.8716837602
 21
2.0922737055
 31
0.0
  0
ARC
  5
164
330
1F
100
AcDbEntity
  8
0
  6
Continuous
 62
     7
370
    25
100
AcDbCircle
 10
4.8716837617
 20
2.084399915
 30
0.0
 40
0.0078740157480319
100
AcDbArc
 50
0.0
 51
90.0
  0
LINE
  5
165
330
1F
100
AcDbEntity
  8
0
  6
Continuous
 62
     7
370
    25
100
AcDbLine
 10
4.8716837602
 20
1.6670766974
 30
0.0
 11
4.8716837602
 21
2.0765258768
 31
0.0
  0
LINE
  5
166
330
1F
100
AcDbEntity
  8
0
  6
Continuous
 62
     7
370
    25
100
AcDbLine
 10
4.7953058089
 20
1.6670766974
 30
0.0
 11
4.8716837602
 21
1.6670766974
 31
0.0
  0
LINE
  5
167
330
1F
100
AcDbEntity
  8
0
  6
Continuous
 62
     7
370
    25
100
AcDbLine
 10
4.7953058089
 20
2.0765258768
 30
0.0
 11
4.7953058089
 21
1.6670766974
 31
0.0
  0
LINE
  5
168
330
1F
100
AcDbEntity
  8
0
  6
Continuous
 62
     7
370
    25
100
AcDbLine
 10
4.8716837602
 20
2.0765258768
 30
0.0
 11
4.7953058089
 21
2.0765258768
 31
0.0
  0
LINE
  5
169
330
1F
100
AcDbEntity
  8
0
  6
Continuous
 62
     7
370
    25
100
AcDbLine
 10
4.8795577772
 20
2.0765258768
 30
0.0
 11
4.8795577772
 21
1.6670766974
 31
0.0
  0
LINE
  5
16A
330
1F
100
AcDbEntity
  8
0
  6
Continuous
 62
     7
370
    25
100
AcDbLine
 10
4.8795577772
 20
1.6670766974
 30
0.0
 11
4.8716837602
 21
1.6670766974
 31
0.0
  0
LINE
  5
16B
330
1F
100
AcDbEntity
  8
0
  6
Continuous
 62
     7
370
    25
100
AcDbLine
 10
4.7953058089
 20
2.0922737055
 30
0.0
 11
4.7953058089
 21
2.0765258768
 31
0.0
  0
LINE
  5
16C
330
1F
100
AcDbEntity
  8
0
  6
Continuous
 62
     7
370
    25
100
AcDbLine
 10
4.7953058089
 20
2.0765258768
 30
0.0
 11
4.7913688003
 21
2.0765258768
 31
0.0
  0
LINE
  5
16D
330
1F
100
AcDbEntity
  8
0
  6
Continuous
 62
     7
370
    25
100
AcDbLine
 10
4.7913688003
 20
2.0765258768
 30
0.0
 11
4.7913688003
 21
2.088336983
 31
0.0
  0
ARC
  5
16E
330
1F
100
AcDbEntity
  8
0
  6
Continuous
 62
     7
370
    25
100
AcDbCircle
 10
4.7953058089
 20
2.0883369228
 30
0.0
 40
0.0039370078740166
100
AcDbArc
 50
90.0
 51
180.0
  0
LINE
  5
16F
330
1F
100
AcDbEntity
  8
0
  6
Continuous
 62
     7
370
    25
100
AcDbLine
 10
4.7953058089
 20
1.6670766974
 30
0.0
 11
4.7913688003
 21
1.6670766974
 31
0.0
  0
LINE
  5
170
330
1F
100
AcDbEntity
  8
0
  6
Continuous
 62
     7
370
    25
100
AcDbLine
 10
4.7913688003
 20
1.6670766974
 30
0.0
 11
4.7913688003
 21
2.0765258768
 31
0.0
  0
LINE
  5
171
330
1F
100
AcDbEntity
  8
0
  6
Continuous
 62
     7
370
    25
100
AcDbLine
 10
4.7953058089
 20
2.0922737055
 30
0.0
 11
4.8716837602
 21
2.0922737055
 31
0.0
  0
LINE
  5
172
330
1F
100
AcDbEntity
  8
0
  6
Continuous
 62
     7
370
    25
100
AcDbLine
 10
4.8716837602
 20
1.6513288687
 30
0.0
 11
4.8716837602
 21
1.6670766974
 31
0.0
  0
LINE
  5
173
330
1F
100
AcDbEntity
  8
0
  6
Continuous
 62
     7
370
    25
100
AcDbLine
 10
4.8716837602
 20
1.6513288687
 30
0.0
 11
4.7953058089
 21
1.6513288687
 31
0.0
  0
LINE
  5
174
330
1F
100
AcDbEntity
  8
0
  6
Continuous
 62
     7
370
    25
100
AcDbLine
 10
4.7953058089
 20
1.6670766974
 30
0.0
 11
4.7953058089
 21
1.6513288687
 31
0.0
  0
LINE
  5
175
330
1F
100
AcDbEntity
  8
0
  6
Continuous
 62
     7
370
    25
100
AcDbLine
 10
4.7913688003
 20
1.6552655912
 30
0.0
 11
4.7913688003
 21
1.6670766974
 31
0.0
  0
ARC
  5
176
330
1F
100
AcDbEntity
  8
0
  6
Continuous
 62
     7
370
    25
100
AcDbCircle
 10
4.7953058089
 20
1.6552660567
 30
0.0
 40
0.0039370078740166
100
AcDbArc
 50
180.0
 51
270.0
  0
LINE
  5
177
330
1F
100
AcDbEntity
  8
0
  6
Continuous
 62
     7
370
    25
100
AcDbLine
 10
4.8795577772
 20
1.6670766974
 30
0.0
 11
4.8795577772
 21
1.6592032524
 31
0.0
  0
ARC
  5
178
330
1F
100
AcDbEntity
  8
0
  6
Continuous
 62
     7
370
    25
100
AcDbCircle
 10
4.8716837617
 20
1.6592030646
 30
0.0
 40
0.0078740157480315
100
AcDbArc
 50
270.0
 51
0.0
  0
SPLINE
  5
179
330
1F
100
AcDbEntity
  8
0
  6
Continuous
 62
     7
370
    25
100
AcDbSpline
210
0.0
220
0.0
230
1.0
 70
     8
 71
     3
 72
    19
 73
    15
 74
     0
 42
0.000000001
 43
0.00000001
 40
0.0
 40
0.0
 40
0.0
 40
0.0
 40
0.0418531512096647
 40
0.1365392100553278
 40
0.2306939379483232
 40
0.338233198667895
 40
0.4296737758432691
 40
0.5003830785316078
 40
0.5712178395200266
 40
0.665859959402494
 40
0.7879679658527202
 40
0.888606251031027
 40
0.9739148114910078
 40
1.0
 40
1.0
 40
1.0
 40
1.0
 10
5.155420228115125
 20
1.809606890892955
 30
0.0
 10
5.15540576203855
 20
1.809587398251337
 30
0.0
 10
5.15535856877804
 20
1.809523806626533
 30
0.0
 10
5.159218205462401
 20
1.814653873916963
 30
0.0
 10
5.166654007063309
 20
1.825238601906406
 30
0.0
 10
5.175401402180752
 20
1.839638474802412
 30
0.0
 10
5.182118581875645
 20
1.855882137999354
 30
0.0
 10
5.184380167014949
 20
1.871866970390926
 30
0.0
 10
5.182048314448219
 20
1.888066399715044
 30
0.0
 10
5.174794630550916
 20
1.905298523877299
 30
0.0
 10
5.165176181228818
 20
1.920592388747904
 30
0.0
 10
5.158111547675134
 20
1.930436754485847
 30
0.0
 10
5.154950004104992
 20
1.934620463762169
 30
0.0
 10
5.155431615294308
 20
1.933980751302519
 30
0.0
 10
5.155544394680742
 20
1.933830949179368
 30
0.0
  0
SPLINE
  5
17A
330
1F
100
AcDbEntity
  8
0
  6
Continuous
 62
     7
370
    25
100
AcDbSpline
210
0.0
220
0.0
230
1.0
 70
    24
 71
     3
 72
    14
 73
    10
 74
     0
 42
0.000000001
 43
0.00000001
 40
0.0
 40
0.0
 40
0.0
 40
0.0
 40
0.25
 40
0.25
 40
0.5
 40
0.5
 40
0.75
 40
0.75
 40
1.0
 40
1.0
 40
1.0
 40
1.0
 10
5.159872738072109
 20
6.828494403146968
 30
0.0
 10
5.159872738072113
 20
6.828494403146968
 30
0.0
 10
5.16816897018112
 20
6.828494403146968
 30
0.0
 10
5.197701422306836
 20
6.828494403146968
 30
0.0
 10
5.217730298380994
 20
6.828494403146968
 30
0.0
 10
5.25949549270731
 20
6.828494403146968
 30
0.0
 10
5.279524368781466
 20
6.828494403146968
 30
0.0
 10
5.309056820907174
 20
6.828494403146968
 30
0.0
 10
5.317353053016177
 20
6.828494403146968
 30
0.0
 10
5.317353053016175
 20
6.828494403146968
 30
0.0
  0
SPLINE
  5
17B
330
1F
100
AcDbEntity
  8
0
  6
Continuous
 62
     7
370
    25
100
AcDbSpline
210
0.0
220
0.0
230
1.0
 70
    24
 71
     3
 72
    14
 73
    10
 74
     0
 42
0.000000001
 43
0.00000001
 40
0.0
 40
0.0
 40
0.0
 40
0.0
 40
0.25
 40
0.25
 40
0.5
 40
0.5
 40
0.75
 40
0.75
 40
1.0
 40
1.0
 40
1.0
 40
1.0
 10
5.317353053027763
 20
6.793061332280826
 30
0.0
 10
5.317353053027763
 20
6.793061332280826
 30
0.0
 10
5.309056820917537
 20
6.793061332280826
 30
0.0
 10
5.279524368787478
 20
6.793061332280826
 30
0.0
 10
5.259495492710373
 20
6.793061332280826
 30
0.0
 10
5.217730298377911
 20
6.793061332280826
 30
0.0
 10
5.197701422300806
 20
6.793061332280826
 30
0.0
 10
5.168168970170748
 20
6.793061332280826
 30
0.0
 10
5.159872738060521
 20
6.793061332280826
 30
0.0
 10
5.159872738060521
 20
6.793061332280826
 30
0.0
  0
SPLINE
  5
17C
330
1F
100
AcDbEntity
  8
0
  6
Continuous
 62
     7
370
    25
100
AcDbSpline
210
0.0
220
0.0
230
1.0
 70
    24
 71
     3
 72
    17
 73
    13
 74
     0
 42
0.000000001
 43
0.00000001
 40
0.0
 40
0.0
 40
0.0
 40
0.0
 40
0.0939629904606333
 40
0.1935552342887478
 40
0.2972880915352651
 40
0.4032216556128372
 40
0.509155127686614
 40
0.612888475953517
 40
0.7124814381658369
 40
0.8064435524466015
 40
0.9004092569419141
 40
1.0
 40
1.0
 40
1.0
 40
1.0
 10
5.207397971663796
 20
1.639517762443749
 30
0.0
 10
5.211908257221529
 20
1.639517762443752
 30
0.0
 10
5.221199036213942
 20
1.639517762443749
 30
0.0
 10
5.236408379959424
 20
1.639517762443749
 30
0.0
 10
5.252243551801836
 20
1.639517762443749
 30
0.0
 10
5.267864133360709
 20
1.639517762443749
 30
0.0
 10
5.282246708919329
 20
1.639517762443749
 30
0.0
 10
5.294549313506073
 20
1.639517762443748
 30
0.0
 10
5.304251919738626
 20
1.639517762443748
 30
0.0
 10
5.311273647276555
 20
1.639517762443748
 30
0.0
 10
5.316018291411224
 20
1.639517762443753
 30
0.0
 10
5.316875153384998
 20
1.639517762443748
 30
0.0
 10
5.317316035214279
 20
1.639517762443749
 30
0.0
  0
SPLINE
  5
17D
330
1F
100
AcDbEntity
  8
0
  6
Continuous
 62
     7
370
    25
100
AcDbSpline
210
0.0
220
0.0
230
1.0
 70
    24
 71
     3
 72
    13
 73
     9
 74
     0
 42
0.000000001
 43
0.00000001
 40
0.0
 40
0.0
 40
0.0
 40
0.0
 40
0.1473968257779304
 40
0.3247868680215755
 40
0.5021778527129308
 40
0.6758807141515616
 40
0.8426532739349927
 40
1.0
 40
1.0
 40
1.0
 40
1.0
 10
5.160078894297816
 20
1.639517762443749
 30
0.0
 10
5.16021919184791
 20
1.639517762443749
 30
0.0
 10
5.160528335560101
 20
1.639517762443749
 30
0.0
 10
5.164960898184386
 20
1.639517762443749
 30
0.0
 10
5.172390212070947
 20
1.639517762443749
 30
0.0
 10
5.182484519395073
 20
1.639517762443748
 30
0.0
 10
5.194215859335787
 20
1.639517762443748
 30
0.0
 10
5.203089957876509
 20
1.639517762443749
 30
0.0
 10
5.207397971663796
 20
1.639517762443749
 30
0.0
  0
SPLINE
  5
17E
330
1F
100
AcDbEntity
  8
0
  6
Continuous
 62
     7
370
    25
100
AcDbSpline
210
0.0
220
0.0
230
1.0
 70
    24
 71
     3
 72
    13
 73
     9
 74
     0
 42
0.000000001
 43
0.00000001
 40
0.0
 40
0.0
 40
0.0
 40
0.0
 40
0.1573467260650073
 40
0.3241192858484385
 40
0.4978221472870693
 40
0.6752131319784247
 40
0.8526031742220697
 40
1.0
 40
1.0
 40
1.0
 40
1.0
 10
5.207397971663796
 20
1.674951081115029
 30
0.0
 10
5.203089957876509
 20
1.674951081115029
 30
0.0
 10
5.194215859335787
 20
1.674951081115029
 30
0.0
 10
5.182484519395073
 20
1.674951081115029
 30
0.0
 10
5.172390212070947
 20
1.674951081115032
 30
0.0
 10
5.164960898184386
 20
1.674951081115027
 30
0.0
 10
5.160528335560101
 20
1.67495108111503
 30
0.0
 10
5.16021919184791
 20
1.674951081115027
 30
0.0
 10
5.160078894297816
 20
1.674951081115027
 30
0.0
  0
SPLINE
  5
17F
330
1F
100
AcDbEntity
  8
0
  6
Continuous
 62
     7
370
    25
100
AcDbSpline
210
0.0
220
0.0
230
1.0
 70
    24
 71
     3
 72
    10
 73
     6
 74
     0
 42
0.000000001
 43
0.00000001
 40
0.0
 40
0.0
 40
0.0
 40
0.0
 40
0.5
 40
0.5
 40
1.0
 40
1.0
 40
1.0
 40
1.0
 10
5.207397972099498
 20
1.674951096060311
 30
0.0
 10
5.231337137809177
 20
1.674951096060311
 30
0.0
 10
5.258849174165754
 20
1.674951096060311
 30
0.0
 10
5.302860596042826
 20
1.674951096060311
 30
0.0
 10
5.316516497269165
 20
1.674951096060311
 30
0.0
 10
5.317316030160362
 20
1.674951096060311
 30
0.0
  0
SPLINE
  5
180
330
1F
100
AcDbEntity
  8
0
  6
Continuous
 62
     7
370
    25
100
AcDbSpline
210
0.0
220
0.0
230
1.0
 70
     8
 71
     3
 72
    28
 73
    24
 74
     0
 42
0.000000001
 43
0.00000001
 40
0.0
 40
0.0
 40
0.0
 40
0.0
 40
0.0041205394319228
 40
0.1282102011968954
 40
0.2522997612847732
 40
0.2891035658456086
 40
0.3259088440199979
 40
0.3631474196490166
 40
0.398901815396223
 40
0.4501838898446246
 40
0.5014644121404873
 40
0.5359008699257907
 40
0.569967133255786
 40
0.640075340955744
 40
0.7138887070968665
 40
0.7880661506048713
 40
0.8156749122466874
 40
0.8433301696468135
 40
0.8752822779958368
 40
0.8975743553584284
 40
0.9317163899120775
 40
0.9658594824707857
 40
1.0
 40
1.0
 40
1.0
 40
1.0
 10
5.238612895544137
 20
4.399200254420425
 30
0.0
 10
5.238727069051263
 20
4.399199800748204
 30
0.0
 10
5.24227956710685
 20
4.399185684779253
 30
0.0
 10
5.249324069755128
 20
4.397698659778845
 30
0.0
 10
5.256014368716434
 20
4.393103437008257
 30
0.0
 10
5.259617098183567
 20
4.388966659433341
 30
0.0
 10
5.261368022371117
 20
4.386433575071996
 30
0.0
 10
5.262784926088677
 20
4.383732809110874
 30
0.0
 10
5.264038617774847
 20
4.38051869711225
 30
0.0
 10
5.264939422526389
 20
4.376774714839175
 30
0.0
 10
5.265213040004708
 20
4.372971261684855
 30
0.0
 10
5.265017595398605
 20
4.369651677688955
 30
0.0
 10
5.26437588207423
 20
4.365858061923155
 30
0.0
 10
5.262753497641702
 20
4.361154617413127
 30
0.0
 10
5.259533361165152
 20
4.355978538674081
 30
0.0
 10
5.256039799902398
 20
4.352520932619601
 30
0.0
 10
5.253122590628011
 20
4.350428377860319
 30
0.0
 10
5.251038930521332
 20
4.349197281508771
 30
0.0
 10
5.248981624689627
 20
4.34822983609493
 30
0.0
 10
5.246684836385308
 20
4.347373789981929
 30
0.0
 10
5.244260091415415
 20
4.346709715983549
 30
0.0
 10
5.241452710165681
 20
4.346238310992537
 30
0.0
 10
5.239559476619528
 20
4.34618227437698
 30
0.0
 10
5.238612895544128
 20
4.346154257125792
 30
0.0
  0
SPLINE
  5
181
330
1F
100
AcDbEntity
  8
0
  6
Continuous
 62
     7
370
    25
100
AcDbSpline
210
0.0
220
0.0
230
1.0
 70
     8
 71
     3
 72
    14
 73
    10
 74
     0
 42
0.000000001
 43
0.00000001
 40
0.0
 40
0.0
 40
0.0
 40
0.0
 40
0.2499999999999999
 40
0.2499999999999999
 40
0.5
 40
0.5
 40
0.7500000000000001
 40
0.7500000000000001
 40
1.0
 40
1.0
 40
1.0
 40
1.0
 10
5.238612895544138
 20
4.346154257125792
 30
0.0
 10
5.23157875802025
 20
4.346154257125792
 30
0.0
 10
5.224832189686158
 20
4.348948777229249
 30
0.0
 10
5.214884417000279
 20
4.358896549915129
 30
0.0
 10
5.212089896896821
 20
4.36564311824922
 30
0.0
 10
5.212089896896821
 20
4.379711393296995
 30
0.0
 10
5.214884417000279
 20
4.386457961631086
 30
0.0
 10
5.224832189686158
 20
4.396405734316967
 30
0.0
 10
5.23157875802025
 20
4.399200254420424
 30
0.0
 10
5.238612895544137
 20
4.399200254420424
 30
0.0
  0
SPLINE
  5
182
330
1F
100
AcDbEntity
  8
0
  6
Continuous
 62
     7
370
    25
100
AcDbSpline
210
0.0
220
0.0
230
1.0
 70
     8
 71
     3
 72
    12
 73
     8
 74
     0
 42
0.000000001
 43
0.00000001
 40
0.0
 40
0.0
 40
0.0
 40
0.0
 40
0.2025236556766811
 40
0.4037850251313062
 40
0.6037845720884639
 40
0.8025227505371396
 40
1.0
 40
1.0
 40
1.0
 40
1.0
 10
5.242549903418154
 20
4.368740247899093
 30
0.0
 10
5.242549900311814
 20
4.367937153647017
 30
0.0
 10
5.242549894118496
 20
4.366335970655955
 30
0.0
 10
5.242549876548578
 20
4.363948542395201
 30
0.0
 10
5.242549876728897
 20
4.361584142715633
 30
0.0
 10
5.242549894311978
 20
4.359243799779886
 30
0.0
 10
5.242549900389209
 20
4.357699110821707
 30
0.0
 10
5.242549903418154
 20
4.356929224277043
 30
0.0
  0
SPLINE
  5
183
330
1F
100
AcDbEntity
  8
0
  6
Continuous
 62
     7
370
    25
100
AcDbSpline
210
0.0
220
0.0
230
1.0
 70
    24
 71
     3
 72
     8
 73
     4
 74
     0
 42
0.000000001
 43
0.00000001
 40
0.0
 40
0.0
 40
0.0
 40
0.0
 40
1.0
 40
1.0
 40
1.0
 40
1.0
 10
5.254360927040202
 20
4.368740247899092
 30
0.0
 10
5.250466794557878
 20
4.368740247899092
 30
0.0
 10
5.246519559400374
 20
4.368740247899092
 30
0.0
 10
5.242549903418154
 20
4.368740247899092
 30
0.0
  0
SPLINE
  5
184
330
1F
100
AcDbEntity
  8
0
  6
Continuous
 62
     7
370
    25
100
AcDbSpline
210
0.0
220
0.0
230
1.0
 70
     8
 71
     3
 72
    11
 73
     7
 74
     0
 42
0.000000001
 43
0.00000001
 40
0.0
 40
0.0
 40
0.0
 40
0.0
 40
0.2500032663250494
 40
0.5
 40
0.7499967336749505
 40
1.0
 40
1.0
 40
1.0
 40
1.0
 10
5.254360927040202
 20
4.376614263647125
 30
0.0
 10
5.254360923273254
 20
4.375958407873083
 30
0.0
 10
5.254360915739458
 20
4.37464671346268
 30
0.0
 10
5.254360901044439
 20
4.372677255773108
 30
0.0
 10
5.254360915739458
 20
4.370707798083538
 30
0.0
 10
5.254360923273254
 20
4.369396103673134
 30
0.0
 10
5.254360927040202
 20
4.368740247899092
 30
0.0
  0
SPLINE
  5
185
330
1F
100
AcDbEntity
  8
0
  6
Continuous
 62
     7
370
    25
100
AcDbSpline
210
0.0
220
0.0
230
1.0
 70
    24
 71
     3
 72
     8
 73
     4
 74
     0
 42
0.000000001
 43
0.00000001
 40
0.0
 40
0.0
 40
0.0
 40
0.0
 40
1.0
 40
1.0
 40
1.0
 40
1.0
 10
5.242549903418154
 20
4.376614263647125
 30
0.0
 10
5.246519559400374
 20
4.376614263647125
 30
0.0
 10
5.250466794557878
 20
4.376614263647125
 30
0.0
 10
5.254360927040202
 20
4.376614263647125
 30
0.0
  0
SPLINE
  5
186
330
1F
100
AcDbEntity
  8
0
  6
Continuous
 62
     7
370
    25
100
AcDbSpline
210
0.0
220
0.0
230
1.0
 70
     8
 71
     3
 72
    12
 73
     8
 74
     0
 42
0.000000001
 43
0.00000001
 40
0.0
 40
0.0
 40
0.0
 40
0.0
 40
0.197477249462875
 40
0.3962154279116377
 40
0.5962149748688101
 40
0.7974763443233772
 40
1.0
 40
1.0
 40
1.0
 40
1.0
 10
5.242549903418154
 20
4.388425287269173
 30
0.0
 10
5.242549900389209
 20
4.38765540072451
 30
0.0
 10
5.242549894311978
 20
4.386110711766332
 30
0.0
 10
5.242549876728897
 20
4.383770368830581
 30
0.0
 10
5.242549876548578
 20
4.381405969151015
 30
0.0
 10
5.242549894118496
 20
4.379018540890261
 30
0.0
 10
5.242549900311814
 20
4.3774173578992
 30
0.0
 10
5.242549903418154
 20
4.376614263647125
 30
0.0
  0
SPLINE
  5
187
330
1F
100
AcDbEntity
  8
0
  6
Continuous
 62
     7
370
    25
100
AcDbSpline
210
0.0
220
0.0
230
1.0
 70
    24
 71
     3
 72
     8
 73
     4
 74
     0
 42
0.000000001
 43
0.00000001
 40
0.0
 40
0.0
 40
0.0
 40
0.0
 40
1.0
 40
1.0
 40
1.0
 40
1.0
 10
5.238612895544137
 20
4.388425287269173
 30
0.0
 10
5.239930946937854
 20
4.388425287269173
 30
0.0
 10
5.241233569355973
 20
4.388425287269173
 30
0.0
 10
5.242549903418154
 20
4.388425287269173
 30
0.0
  0
SPLINE
  5
188
330
1F
100
AcDbEntity
  8
0
  6
Continuous
 62
     7
370
    25
100
AcDbSpline
210
0.0
220
0.0
230
1.0
 70
    24
 71
     3
 72
     8
 73
     4
 74
     0
 42
0.000000001
 43
0.00000001
 40
0.0
 40
0.0
 40
0.0
 40
0.0
 40
1.0
 40
1.0
 40
1.0
 40
1.0
 10
5.234675887670122
 20
4.388425287269173
 30
0.0
 10
5.235992221732303
 20
4.388425287269173
 30
0.0
 10
5.237294844150422
 20
4.388425287269173
 30
0.0
 10
5.238612895544138
 20
4.388425287269173
 30
0.0
  0
SPLINE
  5
189
330
1F
100
AcDbEntity
  8
0
  6
Continuous
 62
     7
370
    25
100
AcDbSpline
210
0.0
220
0.0
230
1.0
 70
     8
 71
     3
 72
    12
 73
     8
 74
     0
 42
0.000000001
 43
0.00000001
 40
0.0
 40
0.0
 40
0.0
 40
0.0
 40
0.2025236556766227
 40
0.4037850251312626
 40
0.603784572088435
 40
0.8025227505371252
 40
1.0
 40
1.0
 40
1.0
 40
1.0
 10
5.234675887670122
 20
4.376614263647125
 30
0.0
 10
5.234675890776462
 20
4.3774173578992
 30
0.0
 10
5.23467589696978
 20
4.379018540890264
 30
0.0
 10
5.234675914539698
 20
4.381405969151015
 30
0.0
 10
5.234675914359379
 20
4.383770368830582
 30
0.0
 10
5.234675896776298
 20
4.386110711766331
 30
0.0
 10
5.234675890699068
 20
4.387655400724509
 30
0.0
 10
5.234675887670122
 20
4.388425287269173
 30
0.0
  0
SPLINE
  5
18A
330
1F
100
AcDbEntity
  8
0
  6
Continuous
 62
     7
370
    25
100
AcDbSpline
210
0.0
220
0.0
230
1.0
 70
    24
 71
     3
 72
     8
 73
     4
 74
     0
 42
0.000000001
 43
0.00000001
 40
0.0
 40
0.0
 40
0.0
 40
0.0
 40
1.0
 40
1.0
 40
1.0
 40
1.0
 10
5.222864864048073
 20
4.376614263647125
 30
0.0
 10
5.226758996530399
 20
4.376614263647125
 30
0.0
 10
5.230706231687901
 20
4.376614263647125
 30
0.0
 10
5.234675887670122
 20
4.376614263647125
 30
0.0
  0
SPLINE
  5
18B
330
1F
100
AcDbEntity
  8
0
  6
Continuous
 62
     7
370
    25
100
AcDbSpline
210
0.0
220
0.0
230
1.0
 70
     8
 71
     3
 72
    11
 73
     7
 74
     0
 42
0.000000001
 43
0.00000001
 40
0.0
 40
0.0
 40
0.0
 40
0.0
 40
0.2500032663250494
 40
0.5
 40
0.7499967336749505
 40
1.0
 40
1.0
 40
1.0
 40
1.0
 10
5.222864864048073
 20
4.368740247899092
 30
0.0
 10
5.222864867815021
 20
4.369396103673134
 30
0.0
 10
5.222864875348818
 20
4.370707798083536
 30
0.0
 10
5.222864890043836
 20
4.372677255773109
 30
0.0
 10
5.222864875348818
 20
4.374646713462681
 30
0.0
 10
5.222864867815021
 20
4.375958407873082
 30
0.0
 10
5.222864864048073
 20
4.376614263647125
 30
0.0
  0
SPLINE
  5
18C
330
1F
100
AcDbEntity
  8
0
  6
Continuous
 62
     7
370
    25
100
AcDbSpline
210
0.0
220
0.0
230
1.0
 70
    24
 71
     3
 72
     8
 73
     4
 74
     0
 42
0.000000001
 43
0.00000001
 40
0.0
 40
0.0
 40
0.0
 40
0.0
 40
1.0
 40
1.0
 40
1.0
 40
1.0
 10
5.234675887670122
 20
4.368740247899093
 30
0.0
 10
5.230706231687901
 20
4.368740247899093
 30
0.0
 10
5.226758996530399
 20
4.368740247899093
 30
0.0
 10
5.222864864048073
 20
4.368740247899093
 30
0.0
  0
SPLINE
  5
18D
330
1F
100
AcDbEntity
  8
0
  6
Continuous
 62
     7
370
    25
100
AcDbSpline
210
0.0
220
0.0
230
1.0
 70
     8
 71
     3
 72
    12
 73
     8
 74
     0
 42
0.000000001
 43
0.00000001
 40
0.0
 40
0.0
 40
0.0
 40
0.0
 40
0.1974772494628605
 40
0.3962154279116087
 40
0.5962149748687666
 40
0.7974763443233188
 40
1.0
 40
1.0
 40
1.0
 40
1.0
 10
5.234675887670122
 20
4.356929224277044
 30
0.0
 10
5.234675890699068
 20
4.357699110821707
 30
0.0
 10
5.234675896776298
 20
4.359243799779886
 30
0.0
 10
5.234675914359379
 20
4.361584142715633
 30
0.0
 10
5.234675914539698
 20
4.363948542395201
 30
0.0
 10
5.23467589696978
 20
4.366335970655957
 30
0.0
 10
5.234675890776462
 20
4.367937153647016
 30
0.0
 10
5.234675887670122
 20
4.368740247899093
 30
0.0
  0
SPLINE
  5
18E
330
1F
100
AcDbEntity
  8
0
  6
Continuous
 62
     7
370
    25
100
AcDbSpline
210
0.0
220
0.0
230
1.0
 70
    24
 71
     3
 72
     8
 73
     4
 74
     0
 42
0.000000001
 43
0.00000001
 40
0.0
 40
0.0
 40
0.0
 40
0.0
 40
1.0
 40
1.0
 40
1.0
 40
1.0
 10
5.238612895544128
 20
4.356929224277044
 30
0.0
 10
5.237294844150415
 20
4.356929224277044
 30
0.0
 10
5.235992221732299
 20
4.356929224277044
 30
0.0
 10
5.234675887670122
 20
4.356929224277044
 30
0.0
  0
SPLINE
  5
18F
330
1F
100
AcDbEntity
  8
0
  6
Continuous
 62
     7
370
    25
100
AcDbSpline
210
0.0
220
0.0
230
1.0
 70
    24
 71
     3
 72
     8
 73
     4
 74
     0
 42
0.000000001
 43
0.00000001
 40
0.0
 40
0.0
 40
0.0
 40
0.0
 40
1.0
 40
1.0
 40
1.0
 40
1.0
 10
5.242549903418154
 20
4.356929224277044
 30
0.0
 10
5.241233569355973
 20
4.356929224277044
 30
0.0
 10
5.239930946937854
 20
4.356929224277044
 30
0.0
 10
5.238612895544137
 20
4.356929224277044
 30
0.0
  0
CIRCLE
  5
190
330
1F
100
AcDbEntity
  8
0
  6
Continuous
 62
     7
370
    25
100
AcDbCircle
 10
5.2386128955
 20
4.3726772558
 30
0.0
 40
0.0291338582677163
  0
LINE
  5
191
330
1F
100
AcDbEntity
  8
0
  6
Continuous
 62
     7
370
    25
100
AcDbLine
 10
4.8716837602
 20
6.3914865686
 30
0.0
 11
4.8716837602
 21
6.8009352786
 31
0.0
  0
LINE
  5
192
330
1F
100
AcDbEntity
  8
0
  6
Continuous
 62
     7
370
    25
100
AcDbLine
 10
4.7953058089
 20
6.3914865686
 30
0.0
 11
4.8716837602
 21
6.3914865686
 31
0.0
  0
LINE
  5
193
330
1F
100
AcDbEntity
  8
0
  6
Continuous
 62
     7
370
    25
100
AcDbLine
 10
4.7953058089
 20
6.8009352786
 30
0.0
 11
4.7953058089
 21
6.3914865686
 31
0.0
  0
LINE
  5
194
330
1F
100
AcDbEntity
  8
0
  6
Continuous
 62
     7
370
    25
100
AcDbLine
 10
4.8716837602
 20
6.8009352786
 30
0.0
 11
4.7953058089
 21
6.8009352786
 31
0.0
  0
LINE
  5
195
330
1F
100
AcDbEntity
  8
0
  6
Continuous
 62
     7
370
    25
100
AcDbLine
 10
4.7953058089
 20
6.8166833421
 30
0.0
 11
4.7953058089
 21
6.8009352786
 31
0.0
  0
LINE
  5
196
330
1F
100
AcDbEntity
  8
0
  6
Continuous
 62
     7
370
    25
100
AcDbLine
 10
4.7953058089
 20
6.8009352786
 30
0.0
 11
4.7913688003
 21
6.8009352786
 31
0.0
  0
LINE
  5
197
330
1F
100
AcDbEntity
  8
0
  6
Continuous
 62
     7
370
    25
100
AcDbLine
 10
4.7913688003
 20
6.8009352786
 30
0.0
 11
4.7913688003
 21
6.8127463849
 31
0.0
  0
ARC
  5
198
330
1F
100
AcDbEntity
  8
0
  6
Continuous
 62
     7
370
    25
100
AcDbCircle
 10
4.7953058089
 20
6.8127463717
 30
0.0
 40
0.0039370078740157
100
AcDbArc
 50
90.0
 51
180.0
  0
LINE
  5
199
330
1F
100
AcDbEntity
  8
0
  6
Continuous
 62
     7
370
    25
100
AcDbLine
 10
4.8795577772
 20
6.8009352786
 30
0.0
 11
4.8795577772
 21
6.3914865686
 31
0.0
  0
LINE
  5
19A
330
1F
100
AcDbEntity
  8
0
  6
Continuous
 62
     7
370
    25
100
AcDbLine
 10
4.8795577772
 20
6.3914865686
 30
0.0
 11
4.8716837602
 21
6.3914865686
 31
0.0
  0
LINE
  5
19B
330
1F
100
AcDbEntity
  8
0
  6
Continuous
 62
     7
370
    25
100
AcDbLine
 10
4.8795577772
 20
6.8009352786
 30
0.0
 11
4.8716837602
 21
6.8009352786
 31
0.0
  0
LINE
  5
19C
330
1F
100
AcDbEntity
  8
0
  6
Continuous
 62
     7
370
    25
100
AcDbLine
 10
4.7953058089
 20
6.3914865686
 30
0.0
 11
4.7913688003
 21
6.3914865686
 31
0.0
  0
LINE
  5
19D
330
1F
100
AcDbEntity
  8
0
  6
Continuous
 62
     7
370
    25
100
AcDbLine
 10
4.7913688003
 20
6.3914865686
 30
0.0
 11
4.7913688003
 21
6.8009352786
 31
0.0
  0
LINE
  5
19E
330
1F
100
AcDbEntity
  8
0
  6
Continuous
 62
     7
370
    25
100
AcDbLine
 10
4.8795577772
 20
6.8088094277
 30
0.0
 11
4.8795577772
 21
6.8009352786
 31
0.0
  0
LINE
  5
19F
330
1F
100
AcDbEntity
  8
0
  6
Continuous
 62
     7
370
    25
100
AcDbLine
 10
4.8716837602
 20
6.8009352786
 30
0.0
 11
4.8716837602
 21
6.8166833421
 31
0.0
  0
ARC
  5
1A0
330
1F
100
AcDbEntity
  8
0
  6
Continuous
 62
     7
370
    25
100
AcDbCircle
 10
4.8716837617
 20
6.8088093638
 30
0.0
 40
0.0078740157480315
100
AcDbArc
 50
0.0
 51
90.0
  0
LINE
  5
1A1
330
1F
100
AcDbEntity
  8
0
  6
Continuous
 62
     7
370
    25
100
AcDbLine
 10
4.7953058089
 20
6.8166833421
 30
0.0
 11
4.8716837602
 21
6.8166833421
 31
0.0
  0
LINE
  5
1A2
330
1F
100
AcDbEntity
  8
0
  6
Continuous
 62
     7
370
    25
100
AcDbLine
 10
4.8716837602
 20
6.3757385052
 30
0.0
 11
4.8716837602
 21
6.3914865686
 31
0.0
  0
LINE
  5
1A3
330
1F
100
AcDbEntity
  8
0
  6
Continuous
 62
     7
370
    25
100
AcDbLine
 10
4.8716837602
 20
6.3757385052
 30
0.0
 11
4.7953058089
 21
6.3757385052
 31
0.0
  0
LINE
  5
1A4
330
1F
100
AcDbEntity
  8
0
  6
Continuous
 62
     7
370
    25
100
AcDbLine
 10
4.7953058089
 20
6.3914865686
 30
0.0
 11
4.7953058089
 21
6.3757385052
 31
0.0
  0
LINE
  5
1A5
330
1F
100
AcDbEntity
  8
0
  6
Continuous
 62
     7
370
    25
100
AcDbLine
 10
4.8795577772
 20
6.3914865686
 30
0.0
 11
4.8795577772
 21
6.3836124196
 31
0.0
  0
ARC
  5
1A6
330
1F
100
AcDbEntity
  8
0
  6
Continuous
 62
     7
370
    25
100
AcDbCircle
 10
4.8716837617
 20
6.3836125134
 30
0.0
 40
0.0078740157480315
100
AcDbArc
 50
270.0
 51
0.0
  0
LINE
  5
1A7
330
1F
100
AcDbEntity
  8
0
  6
Continuous
 62
     7
370
    25
100
AcDbLine
 10
4.7913688003
 20
6.3796754624
 30
0.0
 11
4.7913688003
 21
6.3914865686
 31
0.0
  0
ARC
  5
1A8
330
1F
100
AcDbEntity
  8
0
  6
Continuous
 62
     7
370
    25
100
AcDbCircle
 10
4.7953058089
 20
6.3796755055
 30
0.0
 40
0.0039370078740166
100
AcDbArc
 50
180.0
 51
270.0
  0
SPLINE
  5
1A9
330
1F
100
AcDbEntity
  8
0
  6
Continuous
 62
     7
370
    25
100
AcDbSpline
210
0.0
220
0.0
230
1.0
 70
     8
 71
     3
 72
    19
 73
    15
 74
     0
 42
0.000000001
 43
0.00000001
 40
0.0
 40
0.0
 40
0.0
 40
0.0
 40
0.0418532027548282
 40
0.136539308001755
 40
0.2306952719818208
 40
0.3382329544272544
 40
0.4296735764134316
 40
0.5003829137531333
 40
0.5712177094543963
 40
0.6658608773168336
 40
0.7879673567049668
 40
0.8886056912014483
 40
0.9739147987078618
 40
1.0
 40
1.0
 40
1.0
 40
1.0
 10
5.155420228115125
 20
6.534016058115108
 30
0.0
 10
5.155405760870057
 20
6.533996659940216
 30
0.0
 10
5.155358563821794
 20
6.533933376530537
 30
0.0
 10
5.159218272641042
 20
6.539063108800014
 30
0.0
 10
5.166653849379211
 20
6.549648593857393
 30
0.0
 10
5.175401496858062
 20
6.564047857123994
 30
0.0
 10
5.182118569612101
 20
6.580291559845277
 30
0.0
 10
5.184380175901742
 20
6.596276373218815
 30
0.0
 10
5.182048275542496
 20
6.612475845595099
 30
0.0
 10
5.174794772508615
 20
6.629708098152126
 30
0.0
 10
5.165176095730782
 20
6.645001611061052
 30
0.0
 10
5.158111540325207
 20
6.654845732820136
 30
0.0
 10
5.154950003732623
 20
6.659030139612444
 30
0.0
 10
5.155431615638122
 20
6.658390394758833
 30
0.0
 10
5.155544394680742
 20
6.658240585729431
 30
0.0
  0
SPLINE
  5
1AA
330
1F
100
AcDbEntity
  8
0
  6
Continuous
 62
     7
370
    25
100
AcDbSpline
210
0.0
220
0.0
230
1.0
 70
    24
 71
     3
 72
    22
 73
    18
 74
     0
 42
0.000000001
 43
0.00000001
 40
0.0
 40
0.0
 40
0.0
 40
0.0
 40
0.125
 40
0.125
 40
0.25
 40
0.25
 40
0.375
 40
0.375
 40
0.5
 40
0.5
 40
0.625
 40
0.625
 40
0.75
 40
0.75
 40
0.875
 40
0.875
 40
1.0
 40
1.0
 40
1.0
 40
1.0
 10
5.310660108000948
 20
6.793061326980061
 30
0.0
 10
5.310660108000948
 20
6.793061326980061
 30
0.0
 10
5.308784911907188
 20
6.793061326980061
 30
0.0
 10
5.301566769107766
 20
6.793061326980061
 30
0.0
 10
5.296226662433067
 20
6.793061326980061
 30
0.0
 10
5.282889273642806
 20
6.79306132698006
 30
0.0
 10
5.274897239220203
 20
6.793061326980061
 30
0.0
 10
5.257471100978691
 20
6.79306132698006
 30
0.0
 10
5.248043853601052
 20
6.793061326980061
 30
0.0
 10
5.229181937487224
 20
6.79306132698006
 30
0.0
 10
5.219754690109585
 20
6.793061326980061
 30
0.0
 10
5.202328551868073
 20
6.79306132698006
 30
0.0
 10
5.194336517445469
 20
6.793061326980061
 30
0.0
 10
5.180999128655209
 20
6.79306132698006
 30
0.0
 10
5.175659021980509
 20
6.793061326980061
 30
0.0
 10
5.168440879181087
 20
6.79306132698006
 30
0.0
 10
5.166565683087327
 20
6.793061326980061
 30
0.0
 10
5.166565683087327
 20
6.793061326980061
 30
0.0
  0
SPLINE
  5
1AB
330
1F
100
AcDbEntity
  8
0
  6
Continuous
 62
     7
370
    25
100
AcDbSpline
210
0.0
220
0.0
230
1.0
 70
    24
 71
     3
 72
    13
 73
     9
 74
     0
 42
0.000000001
 43
0.00000001
 40
0.0
 40
0.0
 40
0.0
 40
0.0
 40
0.1686668518147139
 40
0.3373387025398909
 40
0.5060084259335003
 40
0.6746803867926057
 40
0.8433500076623026
 40
1.0
 40
1.0
 40
1.0
 40
1.0
 10
5.166565680695239
 20
1.674951081115029
 30
0.0
 10
5.166833741162423
 20
1.674951081115029
 30
0.0
 10
5.167369870041504
 20
1.67495108111503
 30
0.0
 10
5.17165530532206
 20
1.674951081115027
 30
0.0
 10
5.178308539512037
 20
1.674951081115027
 30
0.0
 10
5.187357744393323
 20
1.674951081115029
 30
0.0
 10
5.198008081184314
 20
1.674951081115029
 30
0.0
 10
5.206206296025396
 20
1.674951081115027
 30
0.0
 10
5.210153953159796
 20
1.674951081115029
 30
0.0
  0
SPLINE
  5
1AC
330
1F
100
AcDbEntity
  8
0
  6
Continuous
 62
     7
370
    25
100
AcDbSpline
210
0.0
220
0.0
230
1.0
 70
    24
 71
     3
 72
    10
 73
     6
 74
     0
 42
0.000000001
 43
0.00000001
 40
0.0
 40
0.0
 40
0.0
 40
0.0
 40
0.4999999999999997
 40
0.4999999999999997
 40
1.0
 40
1.0
 40
1.0
 40
1.0
 10
5.317352796298098
 20
6.793061332266887
 30
0.0
 10
5.317352767118825
 20
6.793061332266887
 30
0.0
 10
5.309056549174812
 20
6.793061332266887
 30
0.0
 10
5.279524199661132
 20
6.793061332266887
 30
0.0
 10
5.25949540556
 20
6.793061332266887
 30
0.0
 10
5.238612895544138
 20
6.793061332266887
 30
0.0
  0
SPLINE
  5
1AD
330
1F
100
AcDbEntity
  8
0
  6
Continuous
 62
     7
370
    25
100
AcDbSpline
210
0.0
220
0.0
230
1.0
 70
    24
 71
     3
 72
    10
 73
     6
 74
     0
 42
0.000000001
 43
0.00000001
 40
0.0
 40
0.0
 40
0.0
 40
0.0
 40
0.5
 40
0.5
 40
1.0
 40
1.0
 40
1.0
 40
1.0
 10
5.238612895544138
 20
6.793061332266887
 30
0.0
 10
5.217730385528276
 20
6.793061332266887
 30
0.0
 10
5.197701591427142
 20
6.793061332266887
 30
0.0
 10
5.168169241913461
 20
6.793061332266887
 30
0.0
 10
5.159873023969448
 20
6.793061332266887
 30
0.0
 10
5.159872994790174
 20
6.793061332266887
 30
0.0
  0
SPLINE
  5
1AE
330
1F
100
AcDbEntity
  8
0
  6
Continuous
 62
     7
370
    25
100
AcDbSpline
210
0.0
220
0.0
230
1.0
 70
    24
 71
     3
 72
    10
 73
     6
 74
     0
 42
0.000000001
 43
0.00000001
 40
0.0
 40
0.0
 40
0.0
 40
0.0
 40
0.5
 40
0.5
 40
1.0
 40
1.0
 40
1.0
 40
1.0
 10
5.159872993986427
 20
1.674951096074226
 30
0.0
 10
5.159873023165702
 20
1.674951096074226
 30
0.0
 10
5.168169241194402
 20
1.674951096074226
 30
0.0
 10
5.197701591009537
 20
1.674951096074226
 30
0.0
 10
5.217730385315115
 20
1.674951096074226
 30
0.0
 10
5.238612895544138
 20
1.674951096074226
 30
0.0
  0
SPLINE
  5
1AF
330
1F
100
AcDbEntity
  8
0
  6
Continuous
 62
     7
370
    25
100
AcDbSpline
210
0.0
220
0.0
230
1.0
 70
    24
 71
     3
 72
    10
 73
     6
 74
     0
 42
0.000000001
 43
0.00000001
 40
0.0
 40
0.0
 40
0.0
 40
0.0
 40
0.4999999999999999
 40
0.4999999999999999
 40
1.0
 40
1.0
 40
1.0
 40
1.0
 10
5.238612895544138
 20
1.674951096074226
 30
0.0
 10
5.259495405774483
 20
1.674951096074226
 30
0.0
 10
5.27952420008133
 20
1.674951096074226
 30
0.0
 10
5.309056549898333
 20
1.674951096074226
 30
0.0
 10
5.317352767927556
 20
1.674951096074226
 30
0.0
 10
5.317352797106829
 20
1.674951096074226
 30
0.0
  0
LWPOLYLINE
  5
1B0
330
1F
100
AcDbEntity
  8
0
  6
Continuous
 62
     7
370
    25
100
AcDbPolyline
 90
        3
 70
   128
 43
0.0
 10
5.1650738926
 20
4.2608291342
 10
5.1647542216
 20
4.2610398624
 10
5.1577223402
 20
4.2660245941
  0
LWPOLYLINE
  5
1B1
330
1F
100
AcDbEntity
  8
0
  6
Continuous
 62
     7
370
    25
100
AcDbPolyline
 90
        3
 70
   128
 43
0.0
 10
5.1556222444
 20
4.4777036848
 10
5.1568022521
 20
4.4786254448
 10
5.1577272388
 20
4.4793336606
  0
LWPOLYLINE
  5
1B2
330
1F
100
AcDbEntity
  8
0
  6
Continuous
 62
     7
370
    25
100
AcDbPolyline
 90
        3
 70
   128
 43
0.0
 10
5.3195080899
 20
4.4793261514
 10
5.3204235726
 20
4.4786254448
 10
5.3217056592
 20
4.4776229604
  0
LWPOLYLINE
  5
1B3
330
1F
100
AcDbEntity
  8
0
  6
Continuous
 62
     7
370
    25
100
AcDbPolyline
 90
        3
 70
   128
 43
0.0
 10
5.3201750049
 20
4.2665375696
 10
5.3124715738
 20
4.2610398624
 10
5.308451575
 20
4.2584820253
  0
LWPOLYLINE
  5
1B4
330
1F
100
AcDbEntity
  8
0
  6
Continuous
 62
     7
370
    25
100
AcDbPolyline
 90
        3
 70
   128
 43
0.0
 10
5.2685014151
 20
4.2421986934
 10
5.2581028099
 20
4.2402453506
 10
5.2386128831
 20
4.2388190631
  0
LINE
  5
1B5
330
1F
100
AcDbEntity
  8
0
  6
Continuous
 62
     7
370
    25
100
AcDbLine
 10
5.3179864115
 20
4.2649704837
 30
0.0
 11
5.3166584188
 21
4.2640261959
 31
0.0
  0
LINE
  5
1B6
330
1F
100
AcDbEntity
  8
0
  6
Continuous
 62
     7
370
    25
100
AcDbLine
 10
5.1605007908
 20
4.264073598
 30
0.0
 11
5.1592393253
 21
4.2649704837
 31
0.0
  0
SPLINE
  5
1B7
330
1F
100
AcDbEntity
  8
0
  6
Continuous
 62
     7
370
    25
100
AcDbSpline
210
0.0
220
0.0
230
1.0
 70
     8
 71
     3
 72
     9
 73
     5
 74
     0
 42
0.000000001
 43
0.00000001
 40
0.0
 40
0.0
 40
0.0
 40
0.0
 40
0.5895497205099457
 40
1.0
 40
1.0
 40
1.0
 40
1.0
 10
5.152487368662435
 20
4.475145378364891
 30
0.0
 10
5.152568258285939
 20
4.475220885915656
 30
0.0
 10
5.15270546405619
 20
4.475348962561507
 30
0.0
 10
5.153829928435803
 20
4.476243136736861
 30
0.0
 10
5.15429146515469
 20
4.476610150777048
 30
0.0
  0
SPLINE
  5
1B8
330
1F
100
AcDbEntity
  8
0
  6
Continuous
 62
     7
370
    25
100
AcDbSpline
210
0.0
220
0.0
230
1.0
 70
     8
 71
     3
 72
     9
 73
     5
 74
     0
 42
0.000000001
 43
0.00000001
 40
0.0
 40
0.0
 40
0.0
 40
0.0
 40
0.4131741576219892
 40
1.0
 40
1.0
 40
1.0
 40
1.0
 10
5.322934594308205
 20
4.476609681449136
 30
0.0
 10
5.323396353655594
 20
4.47624275354668
 30
0.0
 10
5.324513943753789
 20
4.475354682752108
 30
0.0
 10
5.324651103394246
 20
4.475226626402796
 30
0.0
 10
5.324731592215799
 20
4.475151479627741
 30
0.0
  0
SPLINE
  5
1B9
330
1F
100
AcDbEntity
  8
0
  6
Continuous
 62
     7
370
    25
100
AcDbSpline
210
0.0
220
0.0
230
1.0
 70
     8
 71
     3
 72
    13
 73
     9
 74
     0
 42
0.000000001
 43
0.00000001
 40
0.0
 40
0.0
 40
0.0
 40
0.0
 40
0.1316471524251694
 40
0.258123875312583
 40
0.3805721030938576
 40
0.5004327965889203
 40
0.7495866239824232
 40
1.0
 40
1.0
 40
1.0
 40
1.0
 10
5.317444723522222
 20
4.473557032881084
 30
0.0
 10
5.317548546650004
 20
4.473562030852065
 30
0.0
 10
5.317752115261984
 20
4.473571830499187
 30
0.0
 10
5.318105219100239
 20
4.473584678303991
 30
0.0
 10
5.318477541590688
 20
4.473595909031675
 30
0.0
 10
5.319010993298864
 20
4.473608228700598
 30
0.0
 10
5.319742739530437
 20
4.473622275311302
 30
0.0
 10
5.320361672798079
 20
4.473624106470076
 30
0.0
 10
5.320671919683825
 20
4.473625024357896
 30
0.0
  0
SPLINE
  5
1BA
330
1F
100
AcDbEntity
  8
0
  6
Continuous
 62
     7
370
    25
100
AcDbSpline
210
0.0
220
0.0
230
1.0
 70
     8
 71
     3
 72
    19
 73
    15
 74
     0
 42
0.000000001
 43
0.00000001
 40
0.0
 40
0.0
 40
0.0
 40
0.0
 40
0.0588919917288012
 40
0.1148557688662185
 40
0.1680904406775041
 40
0.311378440740595
 40
0.4459866209623163
 40
0.512757431069104
 40
0.5795330586184386
 40
0.6461716609429741
 40
0.7146340973860499
 40
0.8336913226987214
 40
0.914206791099588
 40
1.0
 40
1.0
 40
1.0
 40
1.0
 10
5.320671919683827
 20
4.473625024357898
 30
0.0
 10
5.320683744359409
 20
4.46966304373714
 30
0.0
 10
5.320706805766667
 20
4.461936079220033
 30
0.0
 10
5.320734737959412
 20
4.450626046035992
 30
0.0
 10
5.32076787423245
 20
4.433635934189176
 30
0.0
 10
5.320806727206607
 20
4.411350245103653
 30
0.0
 10
5.320822595156233
 20
4.388150697872105
 30
0.0
 10
5.320825893499455
 20
4.3701007888493
 30
0.0
 10
5.320823679275802
 20
4.356626063966145
 30
0.0
 10
5.320803140004063
 20
4.343037835763388
 30
0.0
 10
5.320797345436549
 20
4.325931345961778
 30
0.0
 10
5.320761703711244
 20
4.30789258443232
 30
0.0
 10
5.320720563638759
 20
4.288690200344626
 30
0.0
 10
5.320688581208752
 20
4.277501516999049
 30
0.0
 10
5.320672082518826
 20
4.271729641092366
 30
0.0
  0
SPLINE
  5
1BB
330
1F
100
AcDbEntity
  8
0
  6
Continuous
 62
     7
370
    25
100
AcDbSpline
210
0.0
220
0.0
230
1.0
 70
     8
 71
     3
 72
    12
 73
     8
 74
     0
 42
0.000000001
 43
0.00000001
 40
0.0
 40
0.0
 40
0.0
 40
0.0
 40
0.1479165368304469
 40
0.3147828017369267
 40
0.5011062401700237
 40
0.7172490702368567
 40
0.9999999999999999
 40
0.9999999999999999
 40
0.9999999999999999
 40
0.9999999999999999
 10
5.320672082518802
 20
4.271729641092397
 30
0.0
 10
5.320489330221053
 20
4.271730994376875
 30
0.0
 10
5.32010041305505
 20
4.271733874316391
 30
0.0
 10
5.319490232845421
 20
4.271739283812044
 30
0.0
 10
5.31883040971441
 20
4.27174647085806
 30
0.0
 10
5.318093986862501
 20
4.271767848117557
 30
0.0
 10
5.317679895600234
 20
4.271782806535217
 30
0.0
 10
5.317445206977443
 20
4.27179128430512
 30
0.0
  0
SPLINE
  5
1BC
330
1F
100
AcDbEntity
  8
0
  6
Continuous
 62
     7
370
    25
100
AcDbSpline
210
0.0
220
0.0
230
1.0
 70
     8
 71
     3
 72
    10
 73
     6
 74
     0
 42
0.000000001
 43
0.00000001
 40
0.0
 40
0.0
 40
0.0
 40
0.0
 40
0.5
 40
0.5
 40
1.0
 40
1.0
 40
1.0
 40
1.0
 10
5.317444686262107
 20
4.473557033711037
 30
0.0
 10
5.317541198114015
 20
4.439942284860469
 30
0.0
 10
5.317594081890545
 20
4.406307772315076
 30
0.0
 10
5.317596635504563
 20
4.339040090980927
 30
0.0
 10
5.317545985843589
 20
4.305405567512225
 30
0.0
 10
5.31744520696568
 20
4.271791284305619
 30
0.0
  0
SPLINE
  5
1BD
330
1F
100
AcDbEntity
  8
0
  6
Continuous
 62
     7
370
    25
100
AcDbSpline
210
0.0
220
0.0
230
1.0
 70
     8
 71
     3
 72
    13
 73
     9
 74
     0
 42
0.000000001
 43
0.00000001
 40
0.0
 40
0.0
 40
0.0
 40
0.0
 40
0.1288403157351189
 40
0.2536643957856948
 40
0.3768364298741324
 40
0.5007685481095253
 40
0.7447100851308477
 40
1.0
 40
1.0
 40
1.0
 40
1.0
 10
5.156551108827701
 20
4.473623903505129
 30
0.0
 10
5.156710458941983
 20
4.47362282673144
 30
0.0
 10
5.157024191877416
 20
4.473620706749463
 30
0.0
 10
5.15748540683191
 20
4.473618417520993
 30
0.0
 10
5.157929596755031
 20
4.473613913907344
 30
0.0
 10
5.158491691974525
 20
4.473603726475176
 30
0.0
 10
5.159159693842526
 20
4.473590899436099
 30
0.0
 10
5.15957084853781
 20
4.473575140099371
 30
0.0
 10
5.159781099007327
 20
4.473567081312775
 30
0.0
  0
SPLINE
  5
1BE
330
1F
100
AcDbEntity
  8
0
  6
Continuous
 62
     7
370
    25
100
AcDbSpline
210
0.0
220
0.0
230
1.0
 70
     8
 71
     3
 72
    10
 73
     6
 74
     0
 42
0.000000001
 43
0.00000001
 40
0.0
 40
0.0
 40
0.0
 40
0.0
 40
0.5
 40
0.5
 40
1.0
 40
1.0
 40
1.0
 40
1.0
 10
5.15978113742938
 20
4.473567081521442
 30
0.0
 10
5.159684652083726
 20
4.43995054019553
 30
0.0
 10
5.159631794472623
 20
4.406314409299253
 30
0.0
 10
5.159629571475953
 20
4.339043002896733
 30
0.0
 10
5.15968088300255
 20
4.305406771505711
 30
0.0
 10
5.159780964846489
 20
4.271790642579642
 30
0.0
  0
SPLINE
  5
1BF
330
1F
100
AcDbEntity
  8
0
  6
Continuous
 62
     7
370
    25
100
AcDbSpline
210
0.0
220
0.0
230
1.0
 70
     8
 71
     3
 72
    13
 73
     9
 74
     0
 42
0.000000001
 43
0.00000001
 40
0.0
 40
0.0
 40
0.0
 40
0.0
 40
0.1514236174043801
 40
0.2853361549249551
 40
0.4016271756089164
 40
0.5004369082142971
 40
0.77259960141637
 40
1.0
 40
1.0
 40
1.0
 40
1.0
 10
5.159780957244081
 20
4.27179064275532
 30
0.0
 10
5.159660750253607
 20
4.271785867880435
 30
0.0
 10
5.159434237368465
 20
4.271776870311474
 30
0.0
 10
5.159053930234354
 20
4.271766377086951
 30
0.0
 10
5.158696112745317
 20
4.271755753499112
 30
0.0
 10
5.158164843871265
 20
4.271742188055351
 30
0.0
 10
5.157453594907848
 20
4.271735971223785
 30
0.0
 10
5.156835204653175
 20
4.271731415097124
 30
0.0
 10
5.156553714301497
 20
4.27172934115484
 30
0.0
  0
SPLINE
  5
1C0
330
1F
100
AcDbEntity
  8
0
  6
Continuous
 62
     7
370
    25
100
AcDbSpline
210
0.0
220
0.0
230
1.0
 70
     8
 71
     3
 72
    21
 73
    17
 74
     0
 42
0.000000001
 43
0.00000001
 40
0.0
 40
0.0
 40
0.0
 40
0.0
 40
0.0630181653328749
 40
0.1230717395494213
 40
0.1805407786284558
 40
0.235899052216834
 40
0.2985333879361532
 40
0.3592303492965198
 40
0.4193038905965156
 40
0.4785560955934596
 40
0.53787290241852
 40
0.5975993594344642
 40
0.7185784855365348
 40
0.8485948268442391
 40
0.921672789936919
 40
1.0
 40
1.0
 40
1.0
 40
1.0
 10
5.156553714301253
 20
4.271729341154535
 30
0.0
 10
5.156541669006315
 20
4.275968909643233
 30
0.0
 10
5.156518145068518
 20
4.284248602745795
 30
0.0
 10
5.156490998212883
 20
4.296396470389573
 30
0.0
 10
5.156466564091436
 20
4.308029986383716
 30
0.0
 10
5.156441791027603
 20
4.319838170090875
 30
0.0
 10
5.156430967586931
 20
4.331864463917126
 30
0.0
 10
5.156409890333305
 20
4.344208823035732
 30
0.0
 10
5.156412554399413
 20
4.356326045926548
 30
0.0
 10
5.156396310858093
 20
4.368350643894455
 30
0.0
 10
5.156408454457375
 20
4.38035195918104
 30
0.0
 10
5.156404437598115
 20
4.396508011592701
 30
0.0
 10
5.156428685552591
 20
4.417422087405479
 30
0.0
 10
5.156468633518755
 20
4.439231915461166
 30
0.0
 10
5.156506885785634
 20
4.458168419560685
 30
0.0
 10
5.156536030970188
 20
4.468354359373276
 30
0.0
 10
5.15655110879709
 20
4.473623903542482
 30
0.0
  0
SPLINE
  5
1C1
330
1F
100
AcDbEntity
  8
0
  6
Continuous
 62
     7
370
    25
100
AcDbSpline
210
0.0
220
0.0
230
1.0
 70
     8
 71
     3
 72
    15
 73
    11
 74
     0
 42
0.000000001
 43
0.00000001
 40
0.0
 40
0.0
 40
0.0
 40
0.0
 40
0.1250003521110898
 40
0.2500002744844857
 40
0.3750005449393682
 40
0.5000005750102993
 40
0.6250002386815767
 40
0.7499994695138399
 40
0.8749997135021792
 40
0.9999999999999999
 40
0.9999999999999999
 40
0.9999999999999999
 40
0.9999999999999999
 10
5.15655371368767
 20
4.271729274911743
 30
0.0
 10
5.149472604709311
 20
4.278284217139155
 30
0.0
 10
5.135310411096681
 20
4.291394079058799
 30
0.0
 10
5.12022010512249
 20
4.316378301963253
 30
0.0
 10
5.110653096426815
 20
4.343773203950705
 30
0.0
 10
5.1074529861232
 20
4.37267603161732
 30
0.0
 10
5.110652296935754
 20
4.401578880605702
 30
0.0
 10
5.120218675397762
 20
4.428973906984505
 30
0.0
 10
5.135308234088756
 20
4.453958512277895
 30
0.0
 10
5.149470145927673
 20
4.467068714866507
 30
0.0
 10
5.156551103051162
 20
4.473623817275427
 30
0.0
  0
ARC
  5
1C2
330
1F
100
AcDbEntity
  8
0
  6
Continuous
 62
     7
370
    25
100
AcDbCircle
 10
5.2386128955
 20
4.3726772558
 30
0.0
 40
0.1300927954385127
100
AcDbArc
 50
309.1072752597
 51
50.8928231452
  0
SPLINE
  5
1C3
330
1F
100
AcDbEntity
  8
0
  6
Continuous
 62
     7
370
    25
100
AcDbSpline
210
0.0
220
0.0
230
1.0
 70
     8
 71
     3
 72
    10
 73
     6
 74
     0
 42
0.000000001
 43
0.00000001
 40
0.0
 40
0.0
 40
0.0
 40
0.0
 40
0.5
 40
0.5
 40
1.0
 40
1.0
 40
1.0
 40
1.0
 10
5.1565511087996
 20
4.473623903539394
 30
0.0
 10
5.155920959497012
 20
4.474401668135331
 30
0.0
 10
5.155305369761057
 20
4.475161587809665
 30
0.0
 10
5.154433974944387
 20
4.476238904680117
 30
0.0
 10
5.154182982338342
 20
4.47655037835532
 30
0.0
 10
5.154184291433903
 20
4.476551442383973
 30
0.0
  0
SPLINE
  5
1C4
330
1F
100
AcDbEntity
  8
0
  6
Continuous
 62
     7
370
    25
100
AcDbSpline
210
0.0
220
0.0
230
1.0
 70
     8
 71
     3
 72
    10
 73
     6
 74
     0
 42
0.000000001
 43
0.00000001
 40
0.0
 40
0.0
 40
0.0
 40
0.0
 40
0.5
 40
0.5
 40
1.0
 40
1.0
 40
1.0
 40
1.0
 10
5.154184237326019
 20
4.476551509073611
 30
0.0
 10
5.154498670878223
 20
4.476806163093884
 30
0.0
 10
5.154936758132644
 20
4.476997947781653
 30
0.0
 10
5.156024422106543
 20
4.477053196684412
 30
0.0
 10
5.156672052870854
 20
4.476905654122897
 30
0.0
 10
5.157290480268008
 20
4.476576157784155
 30
0.0
  0
SPLINE
  5
1C5
330
1F
100
AcDbEntity
  8
0
  6
Continuous
 62
     7
370
    25
100
AcDbSpline
210
0.0
220
0.0
230
1.0
 70
     8
 71
     3
 72
    10
 73
     6
 74
     0
 42
0.000000001
 43
0.00000001
 40
0.0
 40
0.0
 40
0.0
 40
0.0
 40
0.5
 40
0.5
 40
1.0
 40
1.0
 40
1.0
 40
1.0
 10
5.157290480268008
 20
4.476576157784155
 30
0.0
 10
5.157909345589205
 20
4.476246428120742
 30
0.0
 10
5.158484879489272
 20
4.475741974339528
 30
0.0
 10
5.159339868736764
 20
4.474650735030409
 30
0.0
 10
5.159621814958442
 20
4.474074703231668
 30
0.0
 10
5.159781104006022
 20
4.47356708143415
 30
0.0
  0
SPLINE
  5
1C6
330
1F
100
AcDbEntity
  8
0
  6
Continuous
 62
     7
370
    25
100
AcDbSpline
210
0.0
220
0.0
230
1.0
 70
     8
 71
     3
 72
    10
 73
     6
 74
     0
 42
0.000000001
 43
0.00000001
 40
0.0
 40
0.0
 40
0.0
 40
0.0
 40
0.5
 40
0.5
 40
1.0
 40
1.0
 40
1.0
 40
1.0
 10
5.319939809927036
 20
4.476572499221871
 30
0.0
 10
5.320560790033551
 20
4.476902912260523
 30
0.0
 10
5.321211125236152
 20
4.477049967122927
 30
0.0
 10
5.322301957925027
 20
4.476991658597894
 30
0.0
 10
5.322740537188093
 20
4.476797504816365
 30
0.0
 10
5.323054752501365
 20
4.476540771438478
 30
0.0
  0
SPLINE
  5
1C7
330
1F
100
AcDbEntity
  8
0
  6
Continuous
 62
     7
370
    25
100
AcDbSpline
210
0.0
220
0.0
230
1.0
 70
     8
 71
     3
 72
    10
 73
     6
 74
     0
 42
0.000000001
 43
0.00000001
 40
0.0
 40
0.0
 40
0.0
 40
0.0
 40
0.5
 40
0.5
 40
1.0
 40
1.0
 40
1.0
 40
1.0
 10
5.323054702336958
 20
4.476540709892618
 30
0.0
 10
5.323053431646411
 20
4.476541742974049
 30
0.0
 10
5.322799745494132
 20
4.476232302862041
 30
0.0
 10
5.321922948314798
 20
4.475158911025996
 30
0.0
 10
5.321304657079114
 20
4.474400885085799
 30
0.0
 10
5.320671919683826
 20
4.4736250243579
 30
0.0
  0
SPLINE
  5
1C8
330
1F
100
AcDbEntity
  8
0
  6
Continuous
 62
     7
370
    25
100
AcDbSpline
210
0.0
220
0.0
230
1.0
 70
     8
 71
     3
 72
    10
 73
     6
 74
     0
 42
0.000000001
 43
0.00000001
 40
0.0
 40
0.0
 40
0.0
 40
0.0
 40
0.5
 40
0.5
 40
1.0
 40
1.0
 40
1.0
 40
1.0
 10
5.317444717943963
 20
4.473557032993938
 30
0.0
 10
5.31760352812849
 20
4.474065089051478
 30
0.0
 10
5.317885336638205
 20
4.474642217688586
 30
0.0
 10
5.318741786603727
 20
4.475736185549661
 30
0.0
 10
5.319318989747843
 20
4.476242171277848
 30
0.0
 10
5.319939809927036
 20
4.476572499221871
 30
0.0
  0
SPLINE
  5
1C9
330
1F
100
AcDbEntity
  8
0
  6
Continuous
 62
     7
370
    25
100
AcDbSpline
210
0.0
220
0.0
230
1.0
 70
     8
 71
     3
 72
     9
 73
     5
 74
     0
 42
0.000000001
 43
0.00000001
 40
0.0
 40
0.0
 40
0.0
 40
0.0
 40
0.500003445641168
 40
0.9999999999999999
 40
0.9999999999999999
 40
0.9999999999999999
 40
0.9999999999999999
 10
5.320672081778277
 20
4.271729744239654
 30
0.0
 10
5.320989933307879
 20
4.271338677739725
 30
0.0
 10
5.321625631986305
 20
4.270556550129728
 30
0.0
 10
5.322113738653214
 20
4.269956038129287
 30
0.0
 10
5.322357790304829
 20
4.269655784198216
 30
0.0
  0
SPLINE
  5
1CA
330
1F
100
AcDbEntity
  8
0
  6
Continuous
 62
     7
370
    25
100
AcDbSpline
210
0.0
220
0.0
230
1.0
 70
     8
 71
     3
 72
     8
 73
     4
 74
     0
 42
0.000000001
 43
0.00000001
 40
0.0
 40
0.0
 40
0.0
 40
0.0
 40
1.0
 40
1.0
 40
1.0
 40
1.0
 10
5.322357787588267
 20
4.269656007638838
 30
0.0
 10
5.322794920579639
 20
4.269118284971766
 30
0.0
 10
5.32304732883294
 20
4.26880780737142
 30
0.0
 10
5.323047343327204
 20
4.268807819153665
 30
0.0
  0
SPLINE
  5
1CB
330
1F
100
AcDbEntity
  8
0
  6
Continuous
 62
     7
370
    25
100
AcDbSpline
210
0.0
220
0.0
230
1.0
 70
     8
 71
     3
 72
    14
 73
    10
 74
     0
 42
0.000000001
 43
0.00000001
 40
0.0
 40
0.0
 40
0.0
 40
0.0
 40
0.25
 40
0.25
 40
0.5
 40
0.5
 40
0.75
 40
0.75
 40
1.0
 40
1.0
 40
1.0
 40
1.0
 10
5.323047460743098
 20
4.268807674727838
 30
0.0
 10
5.322733124162674
 20
4.26855212591114
 30
0.0
 10
5.322294818583067
 20
4.268359329274061
 30
0.0
 10
5.321205760835779
 20
4.268302815671836
 30
0.0
 10
5.320556943526303
 20
4.268450194519693
 30
0.0
 10
5.319317865341618
 20
4.269110083869761
 30
0.0
 10
5.318741760582868
 20
4.269615055114552
 30
0.0
 10
5.317886258053767
 20
4.270707182789232
 30
0.0
 10
5.317604344780608
 20
4.271283553189133
 30
0.0
 10
5.317445197297042
 20
4.271791284083188
 30
0.0
  0
SPLINE
  5
1CC
330
1F
100
AcDbEntity
  8
0
  6
Continuous
 62
     7
370
    25
100
AcDbSpline
210
0.0
220
0.0
230
1.0
 70
     8
 71
     3
 72
     8
 73
     4
 74
     0
 42
0.000000001
 43
0.00000001
 40
0.0
 40
0.0
 40
0.0
 40
0.0
 40
1.0
 40
1.0
 40
1.0
 40
1.0
 10
5.317445197297042
 20
4.271791284083188
 30
0.0
 10
5.315145389752056
 20
4.269920951195661
 30
0.0
 10
5.312812754492656
 20
4.268154696210429
 30
0.0
 10
5.310453101596574
 20
4.266487428252647
 30
0.0
  0
SPLINE
  5
1CD
330
1F
100
AcDbEntity
  8
0
  6
Continuous
 62
     7
370
    25
100
AcDbSpline
210
0.0
220
0.0
230
1.0
 70
     8
 71
     3
 72
    10
 73
     6
 74
     0
 42
0.000000001
 43
0.00000001
 40
0.0
 40
0.0
 40
0.0
 40
0.0
 40
0.5
 40
0.5
 40
1.0
 40
1.0
 40
1.0
 40
1.0
 10
5.310453005959811
 20
4.478863662277137
 30
0.0
 10
5.310563573666118
 20
4.443484487831975
 30
0.0
 10
5.310620985890598
 20
4.408079624428312
 30
0.0
 10
5.310621006108287
 20
4.337271168208001
 30
0.0
 10
5.310563233967723
 20
4.301868530820467
 30
0.0
 10
5.310453066031943
 20
4.266487427389756
 30
0.0
  0
SPLINE
  5
1CE
330
1F
100
AcDbEntity
  8
0
  6
Continuous
 62
     7
370
    25
100
AcDbSpline
210
0.0
220
0.0
230
1.0
 70
     8
 71
     3
 72
     8
 73
     4
 74
     0
 42
0.000000001
 43
0.00000001
 40
0.0
 40
0.0
 40
0.0
 40
0.0
 40
1.0
 40
1.0
 40
1.0
 40
1.0
 10
5.310453021656031
 20
4.478863662259009
 30
0.0
 10
5.312812240398401
 20
4.477195571265779
 30
0.0
 10
5.315144843216546
 20
4.475428465654452
 30
0.0
 10
5.317444717943963
 20
4.473557032993938
 30
0.0
  0
SPLINE
  5
1CF
330
1F
100
AcDbEntity
  8
0
  6
Continuous
 62
     7
370
    25
100
AcDbSpline
210
0.0
220
0.0
230
1.0
 70
     8
 71
     3
 72
    10
 73
     6
 74
     0
 42
0.000000001
 43
0.00000001
 40
0.0
 40
0.0
 40
0.0
 40
0.0
 40
0.5
 40
0.5
 40
1.0
 40
1.0
 40
1.0
 40
1.0
 10
5.166772733432679
 20
4.266484658675311
 30
0.0
 10
5.166662458490163
 20
4.301867487659807
 30
0.0
 10
5.166604731681906
 20
4.337272433167882
 30
0.0
 10
5.166604798208507
 20
4.408084867417721
 30
0.0
 10
5.166662233419388
 20
4.443491688813345
 30
0.0
 10
5.166772806796684
 20
4.478872862085953
 30
0.0
  0
SPLINE
  5
1D0
330
1F
100
AcDbEntity
  8
0
  6
Continuous
 62
     7
370
    25
100
AcDbSpline
210
0.0
220
0.0
230
1.0
 70
     8
 71
     3
 72
     8
 73
     4
 74
     0
 42
0.000000001
 43
0.00000001
 40
0.0
 40
0.0
 40
0.0
 40
0.0
 40
1.0
 40
1.0
 40
1.0
 40
1.0
 10
5.166772709397032
 20
4.266484660631585
 30
0.0
 10
5.164413471657017
 20
4.268152610798817
 30
0.0
 10
5.16208085101117
 20
4.269919501700949
 30
0.0
 10
5.159780962145328
 20
4.271790642641937
 30
0.0
  0
SPLINE
  5
1D1
330
1F
100
AcDbEntity
  8
0
  6
Continuous
 62
     7
370
    25
100
AcDbSpline
210
0.0
220
0.0
230
1.0
 70
     8
 71
     3
 72
     8
 73
     4
 74
     0
 42
0.000000001
 43
0.00000001
 40
0.0
 40
0.0
 40
0.0
 40
0.0
 40
1.0
 40
1.0
 40
1.0
 40
1.0
 10
5.159781104006022
 20
4.47356708143415
 30
0.0
 10
5.16208097665676
 20
4.475438217098622
 30
0.0
 10
5.164413551775867
 20
4.477205017841198
 30
0.0
 10
5.166772799360861
 20
4.478872861902449
 30
0.0
  0
SPLINE
  5
1D2
330
1F
100
AcDbEntity
  8
0
  6
Continuous
 62
     7
370
    25
100
AcDbSpline
210
0.0
220
0.0
230
1.0
 70
     8
 71
     3
 72
     8
 73
     4
 74
     0
 42
0.000000001
 43
0.00000001
 40
0.0
 40
0.0
 40
0.0
 40
0.0
 40
1.0
 40
1.0
 40
1.0
 40
1.0
 10
5.154178558101752
 20
4.268807729458905
 30
0.0
 10
5.154178579974654
 20
4.268807711678676
 30
0.0
 10
5.154430995270513
 20
4.26911818355355
 30
0.0
 10
5.154868134893936
 20
4.269655900828512
 30
0.0
  0
SPLINE
  5
1D3
330
1F
100
AcDbEntity
  8
0
  6
Continuous
 62
     7
370
    25
100
AcDbSpline
210
0.0
220
0.0
230
1.0
 70
     8
 71
     3
 72
     8
 73
     4
 74
     0
 42
0.000000001
 43
0.00000001
 40
0.0
 40
0.0
 40
0.0
 40
0.0
 40
1.0
 40
1.0
 40
1.0
 40
1.0
 10
5.154868134893936
 20
4.269655900828512
 30
0.0
 10
5.15530524475414
 20
4.270193581492297
 30
0.0
 10
5.155922235808614
 20
4.270952549669045
 30
0.0
 10
5.156553714301403
 20
4.271729341154718
 30
0.0
  0
SPLINE
  5
1D4
330
1F
100
AcDbEntity
  8
0
  6
Continuous
 62
     7
370
    25
100
AcDbSpline
210
0.0
220
0.0
230
1.0
 70
     8
 71
     3
 72
    14
 73
    10
 74
     0
 42
0.000000001
 43
0.00000001
 40
0.0
 40
0.0
 40
0.0
 40
0.0
 40
0.25
 40
0.25
 40
0.5
 40
0.5
 40
0.75
 40
0.75
 40
1.0
 40
1.0
 40
1.0
 40
1.0
 10
5.159780962145328
 20
4.271790642641937
 30
0.0
 10
5.159621743580683
 20
4.271282939263807
 30
0.0
 10
5.159339760014237
 20
4.270706619894919
 30
0.0
 10
5.158484165917749
 20
4.269614642314278
 30
0.0
 10
5.157908043654879
 20
4.269109769104434
 30
0.0
 10
5.156668979615102
 20
4.26845004730495
 30
0.0
 10
5.156020189767482
 20
4.268302732804123
 30
0.0
 10
5.154931161178336
 20
4.268359311541738
 30
0.0
 10
5.154492855756938
 20
4.268552112507419
 30
0.0
 10
5.154178500980195
 20
4.26880765919211
 30
0.0
  0
ARC
  5
1D5
330
1F
100
AcDbEntity
  8
0
  6
Continuous
 62
     7
370
    25
100
AcDbCircle
 10
5.2386128955
 20
4.3726772558
 30
0.0
 40
0.1338582677165352
100
AcDbArc
 50
309.1073232313
 51
50.8886173229
  0
ARC
  5
1D6
330
1F
100
AcDbEntity
  8
0
  6
Continuous
 62
     7
370
    25
100
AcDbCircle
 10
5.2386128955
 20
4.3726772558
 30
0.0
 40
0.133858267716536
100
AcDbArc
 50
129.1040998564
 51
230.8927376341
  0
SPLINE
  5
1D7
330
1F
100
AcDbEntity
  8
0
  6
Continuous
 62
     7
370
    25
100
AcDbSpline
210
0.0
220
0.0
230
1.0
 70
     8
 71
     3
 72
    20
 73
    16
 74
     0
 42
0.000000001
 43
0.00000001
 40
0.0
 40
0.0
 40
0.0
 40
0.0
 40
0.0526345901759648
 40
0.0948747327368725
 40
0.1270806045850317
 40
0.1941074436141025
 40
0.2550675267424051
 40
0.4201976169755882
 40
0.5100848834360342
 40
0.6307096070716264
 40
0.7637756328764761
 40
0.822083532933433
 40
0.8859718055879608
 40
0.9454589682642938
 40
1.0
 40
1.0
 40
1.0
 40
1.0
 10
5.310453022434014
 20
4.478863662242913
 30
0.0
 10
5.310494408398748
 20
4.478990380290469
 30
0.0
 10
5.310569007295215
 20
4.479218791699289
 30
0.0
 10
5.310692814456044
 20
4.479526994223654
 30
0.0
 10
5.310846165158679
 20
4.479866519236684
 30
0.0
 10
5.311054123545175
 20
4.480238506041972
 30
0.0
 10
5.311501344080034
 20
4.480878085645609
 30
0.0
 10
5.312103834047203
 20
4.481477889074241
 30
0.0
 10
5.312895131864486
 20
4.482004386203839
 30
0.0
 10
5.313655016252025
 20
4.482332745702685
 30
0.0
 10
5.314352939955021
 20
4.482431844567582
 30
0.0
 10
5.314882993305925
 20
4.482396503012776
 30
0.0
 10
5.315234812719207
 20
4.482319570957059
 30
0.0
 10
5.315552780633811
 20
4.482197041508092
 30
0.0
 10
5.315749448684017
 20
4.482069954061198
 30
0.0
 10
5.315843517334519
 20
4.482009166634807
 30
0.0
  0
SPLINE
  5
1D8
330
1F
100
AcDbEntity
  8
0
  6
Continuous
 62
     7
370
    25
100
AcDbSpline
210
0.0
220
0.0
230
1.0
 70
     8
 71
     3
 72
    11
 73
     7
 74
     0
 42
0.000000001
 43
0.00000001
 40
0.0
 40
0.0
 40
0.0
 40
0.0
 40
0.2660125529473953
 40
0.5213426041290461
 40
0.7660009824249171
 40
1.0
 40
1.0
 40
1.0
 40
1.0
 10
5.315843517682006
 20
4.482009167126883
 30
0.0
 10
5.316489454190227
 20
4.481547982250132
 30
0.0
 10
5.317755387762031
 20
4.480644132706315
 30
0.0
 10
5.319600106887272
 20
4.479263230448774
 30
0.0
 10
5.321358728526877
 20
4.47790659709003
 30
0.0
 10
5.322497833419617
 20
4.4769891956654
 30
0.0
 10
5.323054702336958
 20
4.476540709892618
 30
0.0
  0
SPLINE
  5
1D9
330
1F
100
AcDbEntity
  8
0
  6
Continuous
 62
     7
370
    25
100
AcDbSpline
210
0.0
220
0.0
230
1.0
 70
     8
 71
     3
 72
    14
 73
    10
 74
     0
 42
0.000000001
 43
0.00000001
 40
0.0
 40
0.0
 40
0.0
 40
0.0
 40
0.25
 40
0.25
 40
0.5
 40
0.5
 40
0.75
 40
0.75
 40
1.0
 40
1.0
 40
1.0
 40
1.0
 10
5.166772799360861
 20
4.478872861902449
 30
0.0
 10
5.166633170432518
 20
4.479377922524259
 30
0.0
 10
5.166380267533123
 20
4.479948646603229
 30
0.0
 10
5.165597724881618
 20
4.481038052821545
 30
0.0
 10
5.165065198061686
 20
4.481547509712084
 30
0.0
 10
5.163892372262334
 20
4.482239958142109
 30
0.0
 10
5.16326386015712
 20
4.482415173645686
 30
0.0
 10
5.162176188497638
 20
4.482414372808655
 30
0.0
 10
5.161720364020855
 20
4.482247788875322
 30
0.0
 10
5.161381902173715
 20
4.482008903525216
 30
0.0
  0
SPLINE
  5
1DA
330
1F
100
AcDbEntity
  8
0
  6
Continuous
 62
     7
370
    25
100
AcDbSpline
210
0.0
220
0.0
230
1.0
 70
     8
 71
     3
 72
    10
 73
     6
 74
     0
 42
0.000000001
 43
0.00000001
 40
0.0
 40
0.0
 40
0.0
 40
0.0
 40
0.3380714175699979
 40
0.6713981922789425
 40
1.0
 40
1.0
 40
1.0
 40
1.0
 10
5.154184291433903
 20
4.476551442383974
 30
0.0
 10
5.154986126129023
 20
4.477194020100851
 30
0.0
 10
5.156578542218734
 20
4.478470157316505
 30
0.0
 10
5.158980163556224
 20
4.480288518937893
 30
0.0
 10
5.160585141079823
 20
4.481438178096734
 30
0.0
 10
5.16138190153043
 20
4.482008904437738
 30
0.0
  0
SPLINE
  5
1DB
330
1F
100
AcDbEntity
  8
0
  6
Continuous
 62
     7
370
    25
100
AcDbSpline
210
0.0
220
0.0
230
1.0
 70
     8
 71
     3
 72
    10
 73
     6
 74
     0
 42
0.000000001
 43
0.00000001
 40
0.0
 40
0.0
 40
0.0
 40
0.0
 40
0.5
 40
0.5
 40
1.0
 40
1.0
 40
1.0
 40
1.0
 10
5.312769555369545
 20
4.263446507097537
 30
0.0
 10
5.313353555588868
 20
4.263106060921555
 30
0.0
 10
5.313977307577452
 20
4.262935684986155
 30
0.0
 10
5.315055904670339
 20
4.262940934817373
 30
0.0
 10
5.315507626958333
 20
4.263107319300768
 30
0.0
 10
5.315843415595044
 20
4.263344963688807
 30
0.0
  0
SPLINE
  5
1DC
330
1F
100
AcDbEntity
  8
0
  6
Continuous
 62
     7
370
    25
100
AcDbSpline
210
0.0
220
0.0
230
1.0
 70
     8
 71
     3
 72
    10
 73
     6
 74
     0
 42
0.000000001
 43
0.00000001
 40
0.0
 40
0.0
 40
0.0
 40
0.0
 40
0.5
 40
0.5
 40
1.0
 40
1.0
 40
1.0
 40
1.0
 10
5.310453101596574
 20
4.266487428252647
 30
0.0
 10
5.310592826495447
 20
4.265978366208315
 30
0.0
 10
5.310847604862524
 20
4.265402276641339
 30
0.0
 10
5.311638483418992
 20
4.264304084037969
 30
0.0
 10
5.312177507666903
 20
4.263791644598677
 30
0.0
 10
5.312769555369545
 20
4.263446507097537
 30
0.0
  0
SPLINE
  5
1DD
330
1F
100
AcDbEntity
  8
0
  6
Continuous
 62
     7
370
    25
100
AcDbSpline
210
0.0
220
0.0
230
1.0
 70
     8
 71
     3
 72
    10
 73
     6
 74
     0
 42
0.000000001
 43
0.00000001
 40
0.0
 40
0.0
 40
0.0
 40
0.0
 40
0.3235130029270804
 40
0.6568386680832861
 40
1.0
 40
1.0
 40
1.0
 40
1.0
 10
5.323047343327204
 20
4.268807819153666
 30
0.0
 10
5.322278598090146
 20
4.268191375414957
 30
0.0
 10
5.320717790354335
 20
4.266939790221722
 30
0.0
 10
5.318316664289286
 20
4.265117852235313
 30
0.0
 10
5.316675687724643
 20
4.263941763609136
 30
0.0
 10
5.315843270093554
 20
4.263345169526533
 30
0.0
  0
SPLINE
  5
1DE
330
1F
100
AcDbEntity
  8
0
  6
Continuous
 62
     7
370
    25
100
AcDbSpline
210
0.0
220
0.0
230
1.0
 70
     8
 71
     3
 72
    10
 73
     6
 74
     0
 42
0.000000001
 43
0.00000001
 40
0.0
 40
0.0
 40
0.0
 40
0.0
 40
0.5
 40
0.5
 40
1.0
 40
1.0
 40
1.0
 40
1.0
 10
5.164455343769612
 20
4.263447023523892
 30
0.0
 10
5.165047186131106
 20
4.263791688328241
 30
0.0
 10
5.165586126460017
 20
4.264303422317754
 30
0.0
 10
5.166377339949856
 20
4.265400363794044
 30
0.0
 10
5.166632515021432
 20
4.265975930042987
 30
0.0
 10
5.166772709397032
 20
4.266484660631585
 30
0.0
  0
SPLINE
  5
1DF
330
1F
100
AcDbEntity
  8
0
  6
Continuous
 62
     7
370
    25
100
AcDbSpline
210
0.0
220
0.0
230
1.0
 70
     8
 71
     3
 72
    10
 73
     6
 74
     0
 42
0.000000001
 43
0.00000001
 40
0.0
 40
0.0
 40
0.0
 40
0.0
 40
0.5
 40
0.5
 40
1.0
 40
1.0
 40
1.0
 40
1.0
 10
5.161382104571638
 20
4.263345462438085
 30
0.0
 10
5.161718147641792
 20
4.263108101561558
 30
0.0
 10
5.162169939867334
 20
4.262942025843305
 30
0.0
 10
5.163248237022109
 20
4.262936919459479
 30
0.0
 10
5.163871622716151
 20
4.263107088237446
 30
0.0
 10
5.164455343769612
 20
4.263447023523892
 30
0.0
  0
SPLINE
  5
1E0
330
1F
100
AcDbEntity
  8
0
  6
Continuous
 62
     7
370
    25
100
AcDbSpline
210
0.0
220
0.0
230
1.0
 70
     8
 71
     3
 72
    10
 73
     6
 74
     0
 42
0.000000001
 43
0.00000001
 40
0.0
 40
0.0
 40
0.0
 40
0.0
 40
0.3395987379869137
 40
0.6729244140705691
 40
1.0
 40
1.0
 40
1.0
 40
1.0
 10
5.16138210515793
 20
4.263345463267939
 30
0.0
 10
5.160558438285054
 20
4.263935709251043
 30
0.0
 10
5.158926319299264
 20
4.26510529820385
 30
0.0
 10
5.156524697919042
 20
4.266926647536303
 30
0.0
 10
5.154955654858006
 20
4.268184670828925
 30
0.0
 10
5.154178558101751
 20
4.268807729458905
 30
0.0
  0
SPLINE
  5
1E1
330
1F
100
AcDbEntity
  8
0
  6
Continuous
 62
     7
370
    25
100
AcDbSpline
210
0.0
220
0.0
230
1.0
 70
     8
 71
     3
 72
     8
 73
     4
 74
     0
 42
0.000000001
 43
0.00000001
 40
0.0
 40
0.0
 40
0.0
 40
0.0
 40
1.0
 40
1.0
 40
1.0
 40
1.0
 10
5.166772752040957
 20
4.26648465959337
 30
0.0
 10
5.167222349384986
 20
4.266507012588615
 30
0.0
 10
5.167511504136097
 20
4.266534487405012
 30
0.0
 10
5.167575668943176
 20
4.266560987901928
 30
0.0
  0
SPLINE
  5
1E2
330
1F
100
AcDbEntity
  8
0
  6
Continuous
 62
     7
370
    25
100
AcDbSpline
210
0.0
220
0.0
230
1.0
 70
     8
 71
     3
 72
    14
 73
    10
 74
     0
 42
0.000000001
 43
0.00000001
 40
0.0
 40
0.0
 40
0.0
 40
0.0
 40
0.25
 40
0.25
 40
0.5
 40
0.5
 40
0.75
 40
0.75
 40
1.0
 40
1.0
 40
1.0
 40
1.0
 10
5.167575668942952
 20
4.266560987901928
 30
0.0
 10
5.167572539790561
 20
4.265979837119862
 30
0.0
 10
5.167434892212944
 20
4.265308848993619
 30
0.0
 10
5.166728512292491
 20
4.264031873932552
 30
0.0
 10
5.166149819017808
 20
4.263440927620502
 30
0.0
 10
5.164736829831835
 20
4.262707349436026
 30
0.0
 10
5.163922675211364
 20
4.262575173417543
 30
0.0
 10
5.162478523732921
 20
4.262735649608605
 30
0.0
 10
5.161854947250239
 20
4.263011423745522
 30
0.0
 10
5.161382095593412
 20
4.263345449728188
 30
0.0
  0
SPLINE
  5
1E3
330
1F
100
AcDbEntity
  8
0
  6
Continuous
 62
     7
370
    25
100
AcDbSpline
210
0.0
220
0.0
230
1.0
 70
     8
 71
     3
 72
     8
 73
     4
 74
     0
 42
0.000000001
 43
0.00000001
 40
0.0
 40
0.0
 40
0.0
 40
0.0
 40
1.0
 40
1.0
 40
1.0
 40
1.0
 10
5.309650130145195
 20
4.2665609907109
 30
0.0
 10
5.309714300997567
 20
4.266535412144261
 30
0.0
 10
5.310003462669082
 20
4.266508860904643
 30
0.0
 10
5.310453066031944
 20
4.266487427389756
 30
0.0
  0
SPLINE
  5
1E4
330
1F
100
AcDbEntity
  8
0
  6
Continuous
 62
     7
370
    25
100
AcDbSpline
210
0.0
220
0.0
230
1.0
 70
     8
 71
     3
 72
    10
 73
     6
 74
     0
 42
0.000000001
 43
0.00000001
 40
0.0
 40
0.0
 40
0.0
 40
0.0
 40
0.5
 40
0.5
 40
1.0
 40
1.0
 40
1.0
 40
1.0
 10
5.309650132344558
 20
4.26656098978429
 30
0.0
 10
5.30976022842588
 20
4.301918313328123
 30
0.0
 10
5.309817963266127
 20
4.33729792487619
 30
0.0
 10
5.309817939257589
 20
4.40805719420255
 30
0.0
 10
5.309760567995506
 20
4.443435762881568
 30
0.0
 10
5.309650060759755
 20
4.478793785667674
 30
0.0
  0
SPLINE
  5
1E5
330
1F
100
AcDbEntity
  8
0
  6
Continuous
 62
     7
370
    25
100
AcDbSpline
210
0.0
220
0.0
230
1.0
 70
     8
 71
     3
 72
    11
 73
     7
 74
     0
 42
0.000000001
 43
0.00000001
 40
0.0
 40
0.0
 40
0.0
 40
0.0
 40
0.2440824179335653
 40
0.4902753209370966
 40
0.7413580560944013
 40
1.0
 40
1.0
 40
1.0
 40
1.0
 10
5.309650060771458
 20
4.478793785667673
 30
0.0
 10
5.309673175718599
 20
4.478800136194643
 30
0.0
 10
5.309719605478774
 20
4.4788128921591
 30
0.0
 10
5.309886882769239
 20
4.478829548354176
 30
0.0
 10
5.310121910966921
 20
4.478845881783727
 30
0.0
 10
5.310341566117539
 20
4.478857677114993
 30
0.0
 10
5.310453022434014
 20
4.478863662242912
 30
0.0
  0
SPLINE
  5
1E6
330
1F
100
AcDbEntity
  8
0
  6
Continuous
 62
     7
370
    25
100
AcDbSpline
210
0.0
220
0.0
230
1.0
 70
     8
 71
     3
 72
    11
 73
     7
 74
     0
 42
0.000000001
 43
0.00000001
 40
0.0
 40
0.0
 40
0.0
 40
0.0
 40
0.2531343837029602
 40
0.5023962933591074
 40
0.7504348438673601
 40
1.0
 40
1.0
 40
1.0
 40
1.0
 10
5.166772799033023
 20
4.478872861893679
 30
0.0
 10
5.166882005707903
 20
4.478866725485939
 30
0.0
 10
5.167098748403489
 20
4.47885454654581
 30
0.0
 10
5.167333958636026
 20
4.478834756093628
 30
0.0
 10
5.167504493724256
 20
4.478814265167234
 30
0.0
 10
5.167551935988305
 20
4.478800625849052
 30
0.0
 10
5.167575729894733
 20
4.478793785267832
 30
0.0
  0
SPLINE
  5
1E7
330
1F
100
AcDbEntity
  8
0
  6
Continuous
 62
     7
370
    25
100
AcDbSpline
210
0.0
220
0.0
230
1.0
 70
     8
 71
     3
 72
    10
 73
     6
 74
     0
 42
0.000000001
 43
0.00000001
 40
0.0
 40
0.0
 40
0.0
 40
0.0
 40
0.5
 40
0.5
 40
1.0
 40
1.0
 40
1.0
 40
1.0
 10
5.16757573368688
 20
4.478793783712394
 30
0.0
 10
5.167465235627279
 20
4.443435764890408
 30
0.0
 10
5.167407852048425
 20
4.408057182386597
 30
0.0
 10
5.167407788213288
 20
4.337297901644999
 30
0.0
 10
5.167465473948702
 20
4.301918387531992
 30
0.0
 10
5.167575668943176
 20
4.266560987901927
 30
0.0
  0
SPLINE
  5
1E8
330
1F
100
AcDbEntity
  8
0
  6
Continuous
 62
     7
370
    25
100
AcDbSpline
210
0.0
220
0.0
230
1.0
 70
     8
 71
     3
 72
    10
 73
     6
 74
     0
 42
0.000000001
 43
0.00000001
 40
0.0
 40
0.0
 40
0.0
 40
0.0
 40
0.5
 40
0.5
 40
1.0
 40
1.0
 40
1.0
 40
1.0
 10
5.165443379250615
 20
4.482280315653249
 30
0.0
 10
5.166149823165659
 20
4.481913550304388
 30
0.0
 10
5.166728481536656
 20
4.481322669360761
 30
0.0
 10
5.167434868937531
 20
4.480045825446878
 30
0.0
 10
5.16757255447528
 20
4.479374898187876
 30
0.0
 10
5.167575729896289
 20
4.478793785267832
 30
0.0
  0
SPLINE
  5
1E9
330
1F
100
AcDbEntity
  8
0
  6
Continuous
 62
     7
370
    25
100
AcDbSpline
210
0.0
220
0.0
230
1.0
 70
     8
 71
     3
 72
    10
 73
     6
 74
     0
 42
0.000000001
 43
0.00000001
 40
0.0
 40
0.0
 40
0.0
 40
0.0
 40
0.5
 40
0.5
 40
1.0
 40
1.0
 40
1.0
 40
1.0
 10
5.161381891990484
 20
4.48200891794204
 30
0.0
 10
5.161854764246745
 20
4.482342979514241
 30
0.0
 10
5.162478376686305
 20
4.482618791601299
 30
0.0
 10
5.163922626567654
 20
4.482779307571431
 30
0.0
 10
5.164736842309051
 20
4.4826471292988
 30
0.0
 10
5.165443379250615
 20
4.482280315653249
 30
0.0
  0
SPLINE
  5
1EA
330
1F
100
AcDbEntity
  8
0
  6
Continuous
 62
     7
370
    25
100
AcDbSpline
210
0.0
220
0.0
230
1.0
 70
     8
 71
     3
 72
    10
 73
     6
 74
     0
 42
0.000000001
 43
0.00000001
 40
0.0
 40
0.0
 40
0.0
 40
0.0
 40
0.5
 40
0.5
 40
1.0
 40
1.0
 40
1.0
 40
1.0
 10
5.311782224799082
 20
4.48228044777504
 30
0.0
 10
5.31248873106879
 20
4.482647283631819
 30
0.0
 10
5.31330291626782
 20
4.482779483802301
 30
0.0
 10
5.314747104645941
 20
4.482619011201222
 30
0.0
 10
5.315370686122036
 20
4.482343220636336
 30
0.0
 10
5.315843527248023
 20
4.482009180668131
 30
0.0
  0
SPLINE
  5
1EB
330
1F
100
AcDbEntity
  8
0
  6
Continuous
 62
     7
370
    25
100
AcDbSpline
210
0.0
220
0.0
230
1.0
 70
     8
 71
     3
 72
    10
 73
     6
 74
     0
 42
0.000000001
 43
0.00000001
 40
0.0
 40
0.0
 40
0.0
 40
0.0
 40
0.5
 40
0.5
 40
1.0
 40
1.0
 40
1.0
 40
1.0
 10
5.309650060769911
 20
4.478793785667673
 30
0.0
 10
5.309653205114867
 20
4.479374920536533
 30
0.0
 10
5.309790859567079
 20
4.480045869741707
 30
0.0
 10
5.310497184761495
 20
4.481322757556132
 30
0.0
 10
5.311075812010168
 20
4.481913660455844
 30
0.0
 10
5.311782224799082
 20
4.48228044777504
 30
0.0
  0
SPLINE
  5
1EC
330
1F
100
AcDbEntity
  8
0
  6
Continuous
 62
     7
370
    25
100
AcDbSpline
210
0.0
220
0.0
230
1.0
 70
     8
 71
     3
 72
    14
 73
    10
 74
     0
 42
0.000000001
 43
0.00000001
 40
0.0
 40
0.0
 40
0.0
 40
0.0
 40
0.25
 40
0.25
 40
0.5
 40
0.5
 40
0.75
 40
0.75
 40
1.0
 40
1.0
 40
1.0
 40
1.0
 10
5.315843279640716
 20
4.263345156010953
 30
0.0
 10
5.315370453236188
 20
4.26301115918918
 30
0.0
 10
5.314746904046355
 20
4.262735417820648
 30
0.0
 10
5.313302818353218
 20
4.262575007583871
 30
0.0
 10
5.312488702729726
 20
4.262707215995496
 30
0.0
 10
5.311075795935202
 20
4.263440846488952
 30
0.0
 10
5.310497144891356
 20
4.264031812539552
 30
0.0
 10
5.30979084039696
 20
4.265308821271956
 30
0.0
 10
5.309653226242768
 20
4.265979824187473
 30
0.0
 10
5.309650127945949
 20
4.266560991587594
 30
0.0
  0
SPLINE
  5
1ED
330
1F
100
AcDbEntity
  8
0
  6
Continuous
 62
     7
370
    25
100
AcDbSpline
210
0.0
220
0.0
230
1.0
 70
     8
 71
     3
 72
     8
 73
     4
 74
     0
 42
0.000000001
 43
0.00000001
 40
0.0
 40
0.0
 40
0.0
 40
0.0
 40
1.0
 40
1.0
 40
1.0
 40
1.0
 10
5.167575729896289
 20
4.478793785267832
 30
0.0
 10
5.168237245880611
 20
4.479261210256342
 30
0.0
 10
5.168898812938004
 20
4.479719401571174
 30
0.0
 10
5.16956042719541
 20
4.480168687660127
 30
0.0
  0
SPLINE
  5
1EE
330
1F
100
AcDbEntity
  8
0
  6
Continuous
 62
     7
370
    25
100
AcDbSpline
210
0.0
220
0.0
230
1.0
 70
     8
 71
     3
 72
    14
 73
    10
 74
     0
 42
0.000000001
 43
0.00000001
 40
0.0
 40
0.0
 40
0.0
 40
0.0
 40
0.1274042654185959
 40
0.2599595238257985
 40
0.3976656772918047
 40
0.5405227341544414
 40
0.6885307852094043
 40
0.8416898761025189
 40
1.0
 40
1.0
 40
1.0
 40
1.0
 10
5.169560428342569
 20
4.480168687660194
 30
0.0
 10
5.169498628053566
 20
4.471082136550078
 30
0.0
 10
5.169372528871185
 20
4.45254166231993
 30
0.0
 10
5.16918688892862
 20
4.424173481155963
 30
0.0
 10
5.168998822623367
 20
4.394698913813963
 30
0.0
 10
5.168808849423901
 20
4.364117587176986
 30
0.0
 10
5.168616838117038
 20
4.332429706326257
 30
0.0
 10
5.168422410033485
 20
4.299635654673937
 30
0.0
 10
5.168294147654881
 20
4.277402590167241
 30
0.0
 10
5.168228955873208
 20
4.266102214304921
 30
0.0
  0
LINE
  5
1EF
330
1F
100
AcDbEntity
  8
0
  6
Continuous
 62
     7
370
    25
100
AcDbLine
 10
5.1682289495
 20
4.2661020333
 30
0.0
 11
5.1675756744
 21
4.2665610359
 31
0.0
  0
SPLINE
  5
1F0
330
1F
100
AcDbEntity
  8
0
  6
Continuous
 62
     7
370
    25
100
AcDbSpline
210
0.0
220
0.0
230
1.0
 70
     8
 71
     3
 72
    13
 73
     9
 74
     0
 42
0.000000001
 43
0.00000001
 40
0.0
 40
0.0
 40
0.0
 40
0.0
 40
0.1841945590520709
 40
0.3613779030008504
 40
0.5315500397769758
 40
0.6947110764395199
 40
0.8508611078309339
 40
0.9999999999999999
 40
0.9999999999999999
 40
0.9999999999999999
 40
0.9999999999999999
 10
5.308996835214949
 20
4.266102214315706
 30
0.0
 10
5.30892091362901
 20
4.279250200080853
 30
0.0
 10
5.308771960350152
 20
4.305045704296321
 30
0.0
 10
5.308545744056614
 20
4.342982767279643
 30
0.0
 10
5.308322850192308
 20
4.379414191083903
 30
0.0
 10
5.308102451160128
 20
4.414339141772533
 30
0.0
 10
5.307885442291564
 20
4.4477582964853
 30
0.0
 10
5.307737590771414
 20
4.469531905179938
 30
0.0
 10
5.307665362759786
 20
4.480168687678858
 30
0.0
  0
SPLINE
  5
1F1
330
1F
100
AcDbEntity
  8
0
  6
Continuous
 62
     7
370
    25
100
AcDbSpline
210
0.0
220
0.0
230
1.0
 70
     8
 71
     3
 72
     8
 73
     4
 74
     0
 42
0.000000001
 43
0.00000001
 40
0.0
 40
0.0
 40
0.0
 40
0.0
 40
1.0
 40
1.0
 40
1.0
 40
1.0
 10
5.307665363916753
 20
4.480168687678787
 30
0.0
 10
5.308326978031046
 20
4.47971940171844
 30
0.0
 10
5.308988544941302
 20
4.47926121053206
 30
0.0
 10
5.309650060769911
 20
4.478793785667673
 30
0.0
  0
LINE
  5
1F2
330
1F
100
AcDbEntity
  8
0
  6
Continuous
 62
     7
370
    25
100
AcDbLine
 10
5.3096501211
 20
4.2665610359
 30
0.0
 11
5.308996846
 21
4.2661020333
 31
0.0
  0
SPLINE
  5
1F3
330
1F
100
AcDbEntity
  8
0
  6
Continuous
 62
     7
370
    25
100
AcDbSpline
210
0.0
220
0.0
230
1.0
 70
     8
 71
     3
 72
    10
 73
     6
 74
     0
 42
0.000000001
 43
0.00000001
 40
0.0
 40
0.0
 40
0.0
 40
0.0
 40
0.208862469811344
 40
0.5666931828170525
 40
0.9999999999999999
 40
0.9999999999999999
 40
0.9999999999999999
 40
0.9999999999999999
 10
5.169110493964006
 20
4.482492237493346
 30
0.0
 10
5.168804195245658
 20
4.482929976816139
 30
0.0
 10
5.167973134520629
 20
4.484117666927727
 30
0.0
 10
5.166283469177618
 20
4.484810723636262
 30
0.0
 10
5.165153948880779
 20
4.484396491051029
 30
0.0
 10
5.164535309483594
 20
4.484169615449467
 30
0.0
  0
SPLINE
  5
1F4
330
1F
100
AcDbEntity
  8
0
  6
Continuous
 62
     7
370
    25
100
AcDbSpline
210
0.0
220
0.0
230
1.0
 70
     8
 71
     3
 72
    11
 73
     7
 74
     0
 42
0.000000001
 43
0.00000001
 40
0.0
 40
0.0
 40
0.0
 40
0.0
 40
0.2136425276847165
 40
0.4731612093004043
 40
0.7347544041553417
 40
1.0
 40
1.0
 40
1.0
 40
1.0
 10
5.169110490527848
 20
4.482492432264381
 30
0.0
 10
5.169186441028989
 20
4.482334715357805
 30
0.0
 10
5.169354651129088
 20
4.481985414481001
 30
0.0
 10
5.169507144844453
 20
4.481416431646502
 30
0.0
 10
5.169591404369418
 20
4.480801706142452
 30
0.0
 10
5.169570801296307
 20
4.480380666796962
 30
0.0
 10
5.169560428342569
 20
4.480168687660194
 30
0.0
  0
SPLINE
  5
1F5
330
1F
100
AcDbEntity
  8
0
  6
Continuous
 62
     7
370
    25
100
AcDbSpline
210
0.0
220
0.0
230
1.0
 70
     8
 71
     3
 72
     9
 73
     5
 74
     0
 42
0.000000001
 43
0.00000001
 40
0.0
 40
0.0
 40
0.0
 40
0.0
 40
0.4957381759262988
 40
1.0
 40
1.0
 40
1.0
 40
1.0
 10
5.16138190153043
 20
4.482008904437738
 30
0.0
 10
5.161902928671316
 20
4.482374136492039
 30
0.0
 10
5.162953941415924
 20
4.483110880346022
 30
0.0
 10
5.164005122235044
 20
4.483814654828019
 30
0.0
 10
5.164535192592324
 20
4.484169541432048
 30
0.0
  0
SPLINE
  5
1F6
330
1F
100
AcDbEntity
  8
0
  6
Continuous
 62
     7
370
    25
100
AcDbSpline
210
0.0
220
0.0
230
1.0
 70
     8
 71
     3
 72
    12
 73
     8
 74
     0
 42
0.000000001
 43
0.00000001
 40
0.0
 40
0.0
 40
0.0
 40
0.0
 40
0.1749181286912578
 40
0.3506698786196837
 40
0.5268612809369874
 40
0.7629656346987715
 40
1.0
 40
1.0
 40
1.0
 40
1.0
 10
5.307665362759786
 20
4.480168687678858
 30
0.0
 10
5.307656710751997
 20
4.480306863146724
 30
0.0
 10
5.307639365502859
 20
4.480583872596271
 30
0.0
 10
5.30766375812731
 20
4.48099869133671
 30
0.0
 10
5.30773274648678
 20
4.481465818536218
 30
0.0
 10
5.307863551026635
 20
4.481971823637406
 30
0.0
 10
5.308031274184061
 20
4.482318668860119
 30
0.0
 10
5.308115300602877
 20
4.482492432354652
 30
0.0
  0
SPLINE
  5
1F7
330
1F
100
AcDbEntity
  8
0
  6
Continuous
 62
     7
370
    25
100
AcDbSpline
210
0.0
220
0.0
230
1.0
 70
     8
 71
     3
 72
    10
 73
     6
 74
     0
 42
0.000000001
 43
0.00000001
 40
0.0
 40
0.0
 40
0.0
 40
0.0
 40
0.4716942967265844
 40
0.7702465856902513
 40
1.0
 40
1.0
 40
1.0
 40
1.0
 10
5.312690485982353
 20
4.484169615449467
 30
0.0
 10
5.312012898441397
 20
4.484407076468979
 30
0.0
 10
5.310906441370474
 20
4.484794835110081
 30
0.0
 10
5.309233495823777
 20
4.484060398020471
 30
0.0
 10
5.308454205101072
 20
4.482967517358643
 30
0.0
 10
5.30811530150194
 20
4.482492237493346
 30
0.0
  0
SPLINE
  5
1F8
330
1F
100
AcDbEntity
  8
0
  6
Continuous
 62
     7
370
    25
100
AcDbSpline
210
0.0
220
0.0
230
1.0
 70
     8
 71
     3
 72
     8
 73
     4
 74
     0
 42
0.000000001
 43
0.00000001
 40
0.0
 40
0.0
 40
0.0
 40
0.0
 40
1.0
 40
1.0
 40
1.0
 40
1.0
 10
5.315843527248023
 20
4.482009180668131
 30
0.0
 10
5.314793229055691
 20
4.482751124193984
 30
0.0
 10
5.313742256429151
 20
4.483470863560368
 30
0.0
 10
5.312690619730867
 20
4.484169573421658
 30
0.0
  0
SPLINE
  5
1F9
330
1F
100
AcDbEntity
  8
0
  6
Continuous
 62
     7
370
    25
100
AcDbSpline
210
0.0
220
0.0
230
1.0
 70
     8
 71
     3
 72
    10
 73
     6
 74
     0
 42
0.000000001
 43
0.00000001
 40
0.0
 40
0.0
 40
0.0
 40
0.0
 40
0.5
 40
0.5
 40
1.0
 40
1.0
 40
1.0
 40
1.0
 10
5.166107580990183
 20
4.262621096261496
 30
0.0
 10
5.165475444323286
 20
4.2622904192259
 30
0.0
 10
5.164753188991331
 20
4.262136225364076
 30
0.0
 10
5.163333295200363
 20
4.262224538585344
 30
0.0
 10
5.162637704285864
 20
4.262466918327994
 30
0.0
 10
5.162055114643143
 20
4.26287314830186
 30
0.0
  0
SPLINE
  5
1FA
330
1F
100
AcDbEntity
  8
0
  6
Continuous
 62
     7
370
    25
100
AcDbSpline
210
0.0
220
0.0
230
1.0
 70
     8
 71
     3
 72
    22
 73
    18
 74
     0
 42
0.000000001
 43
0.00000001
 40
0.0
 40
0.0
 40
0.0
 40
0.0
 40
0.1285982823342129
 40
0.2483585727216938
 40
0.3592780924102504
 40
0.4613542662758209
 40
0.5545847231591683
 40
0.6389672963943692
 40
0.7145000243884484
 40
0.7811811511511939
 40
0.8390091267080434
 40
0.8879826073646636
 40
0.9281004558191666
 40
0.9593617411310916
 40
0.9817657385587701
 40
0.9953119292782412
 40
1.0
 40
1.0
 40
1.0
 40
1.0
 10
5.16822895538971
 20
4.266102214304933
 30
0.0
 10
5.168220595575602
 20
4.2659187952481
 30
0.0
 10
5.168204450480486
 20
4.265564562716079
 30
0.0
 10
5.168093370844345
 20
4.265061883230632
 30
0.0
 10
5.167937816060474
 20
4.264612293707456
 30
0.0
 10
5.167746937953723
 20
4.264217910987856
 30
0.0
 10
5.167535871136671
 20
4.263878162046742
 30
0.0
 10
5.167316215584222
 20
4.263590502290018
 30
0.0
 10
5.167098169146327
 20
4.263351057265702
 30
0.0
 10
5.16689006615688
 20
4.263155180056676
 30
0.0
 10
5.166698632123595
 20
4.262997916245008
 30
0.0
 10
5.166529140664424
 20
4.262874375030478
 30
0.0
 10
5.166385618043084
 20
4.262780026715333
 30
0.0
 10
5.166271051563552
 20
4.262710902198698
 30
0.0
 10
5.166187545376373
 20
4.262663800249814
 30
0.0
 10
5.166136529307963
 20
4.262636287345251
 30
0.0
 10
5.166113501494261
 20
4.262624203138865
 30
0.0
 10
5.166107580990184
 20
4.262621096261496
 30
0.0
  0
SPLINE
  5
1FB
330
1F
100
AcDbEntity
  8
0
  6
Continuous
 62
     7
370
    25
100
AcDbSpline
210
0.0
220
0.0
230
1.0
 70
     8
 71
     3
 72
     8
 73
     4
 74
     0
 42
0.000000001
 43
0.00000001
 40
0.0
 40
0.0
 40
0.0
 40
0.0
 40
1.0
 40
1.0
 40
1.0
 40
1.0
 10
5.162055114638787
 20
4.262873148295656
 30
0.0
 10
5.161830295327936
 20
4.263029897145392
 30
0.0
 10
5.161605957423658
 20
4.263187336459479
 30
0.0
 10
5.16138210515793
 20
4.263345463267939
 30
0.0
  0
SPLINE
  5
1FC
330
1F
100
AcDbEntity
  8
0
  6
Continuous
 62
     7
370
    25
100
AcDbSpline
210
0.0
220
0.0
230
1.0
 70
     8
 71
     3
 72
    10
 73
     6
 74
     0
 42
0.000000001
 43
0.00000001
 40
0.0
 40
0.0
 40
0.0
 40
0.0
 40
0.5
 40
0.5
 40
1.0
 40
1.0
 40
1.0
 40
1.0
 10
5.311118210096861
 20
4.262621096259453
 30
0.0
 10
5.310486154125408
 20
4.262951729929152
 30
0.0
 10
5.309946017491765
 20
4.263457848382502
 30
0.0
 10
5.309202744842834
 20
4.264677538933544
 30
0.0
 10
5.309000680110673
 20
4.265389353071599
 30
0.0
 10
5.308996835696544
 20
4.26610221431572
 30
0.0
  0
SPLINE
  5
1FD
330
1F
100
AcDbEntity
  8
0
  6
Continuous
 62
     7
370
    25
100
AcDbSpline
210
0.0
220
0.0
230
1.0
 70
     8
 71
     3
 72
    20
 73
    16
 74
     0
 42
0.000000001
 43
0.00000001
 40
0.0
 40
0.0
 40
0.0
 40
0.0
 40
0.1318101665569879
 40
0.2590703251605597
 40
0.381779692609677
 40
0.4999375137100969
 40
0.6474062830520819
 40
0.7545974739118109
 40
0.8789357198231063
 40
0.9399157427438388
 40
0.9700521943255168
 40
0.9850256312979633
 40
0.9924878951766959
 40
0.9962128215041652
 40
1.0
 40
1.0
 40
1.0
 40
1.0
 10
5.315170664493108
 20
4.262873139976513
 30
0.0
 10
5.315012600641545
 20
4.262772427215239
 30
0.0
 10
5.314701929207841
 20
4.26257447823685
 30
0.0
 10
5.31419750614381
 20
4.262368840177412
 30
0.0
 10
5.313691057613745
 20
4.262234003769855
 30
0.0
 10
5.313142013393031
 20
4.262164332388032
 30
0.0
 10
5.312609421153587
 20
4.26217402854298
 30
0.0
 10
5.312075577457065
 20
4.26225860786051
 30
0.0
 10
5.311674141753021
 20
4.262375356968675
 30
0.0
 10
5.311389253870828
 20
4.262490383563992
 30
0.0
 10
5.311251968289417
 20
4.262553869844915
 30
0.0
 10
5.311184727586698
 20
4.262586981523738
 30
0.0
 10
5.311151472101832
 20
4.262603868448422
 30
0.0
 10
5.311132491206131
 20
4.262613643805063
 30
0.0
 10
5.311122996693356
 20
4.26261859842183
 30
0.0
 10
5.311118210096862
 20
4.262621096259453
 30
0.0
  0
SPLINE
  5
1FE
330
1F
100
AcDbEntity
  8
0
  6
Continuous
 62
     7
370
    25
100
AcDbSpline
210
0.0
220
0.0
230
1.0
 70
     8
 71
     3
 72
     8
 73
     4
 74
     0
 42
0.000000001
 43
0.00000001
 40
0.0
 40
0.0
 40
0.0
 40
0.0
 40
1.0
 40
1.0
 40
1.0
 40
1.0
 10
5.315843270093554
 20
4.263345169526533
 30
0.0
 10
5.315619551873193
 20
4.263187138681745
 30
0.0
 10
5.315395348600942
 20
4.263029794506368
 30
0.0
 10
5.315170664501148
 20
4.262873139965017
 30
0.0
  0
SPLINE
  5
1FF
330
1F
100
AcDbEntity
  8
0
  6
Continuous
 62
     7
370
    25
100
AcDbSpline
210
0.0
220
0.0
230
1.0
 70
     8
 71
     3
 72
    15
 73
    11
 74
     0
 42
0.000000001
 43
0.00000001
 40
0.0
 40
0.0
 40
0.0
 40
0.0
 40
0.0468688113657283
 40
0.2141615880552505
 40
0.3629678513896628
 40
0.4984546330398665
 40
0.633901460541589
 40
0.7826467465365843
 40
0.949873729874047
 40
1.0
 40
1.0
 40
1.0
 40
1.0
 10
5.162538729881585
 20
4.26286883326832
 30
0.0
 10
5.163922149876269
 20
4.261807069352877
 30
0.0
 10
5.17024352680851
 20
4.256955462502922
 30
0.0
 10
5.187553939136858
 20
4.248083790120727
 30
0.0
 10
5.212375152816625
 20
4.240561011951782
 30
0.0
 10
5.238572227243378
 20
4.237992758448049
 30
0.0
 10
5.264766404098223
 20
4.240544699576932
 30
0.0
 10
5.289603471420809
 20
4.248053289318256
 30
0.0
 10
5.307041911606736
 20
4.256990529990517
 30
0.0
 10
5.313451660152643
 20
4.261915962055459
 30
0.0
 10
5.314929884112634
 20
4.263051871153851
 30
0.0
  0
SPLINE
  5
200
330
1F
100
AcDbEntity
  8
0
  6
Continuous
 62
     7
370
    25
100
AcDbSpline
210
0.0
220
0.0
230
1.0
 70
     8
 71
     3
 72
    10
 73
     6
 74
     0
 42
0.000000001
 43
0.00000001
 40
0.0
 40
0.0
 40
0.0
 40
0.0
 40
0.5
 40
0.5
 40
1.0
 40
1.0
 40
1.0
 40
1.0
 10
5.168228955873208
 20
4.266102214304921
 30
0.0
 10
5.168269506216822
 20
4.266071363255596
 30
0.0
 10
5.168226116433043
 20
4.266039479525555
 30
0.0
 10
5.167963250420374
 20
4.265979842900656
 30
0.0
 10
5.167744333811278
 20
4.265952215984432
 30
0.0
 10
5.167466086546527
 20
4.265929096304244
 30
0.0
  0
SPLINE
  5
201
330
1F
100
AcDbEntity
  8
0
  6
Continuous
 62
     7
370
    25
100
AcDbSpline
210
0.0
220
0.0
230
1.0
 70
     8
 71
     3
 72
    10
 73
     6
 74
     0
 42
0.000000001
 43
0.00000001
 40
0.0
 40
0.0
 40
0.0
 40
0.0
 40
0.5
 40
0.5
 40
1.0
 40
1.0
 40
1.0
 40
1.0
 10
5.309759715087373
 20
4.265929014683064
 30
0.0
 10
5.309481464673398
 20
4.265952147862273
 30
0.0
 10
5.30926254517443
 20
4.265979788351608
 30
0.0
 10
5.308999675363773
 20
4.266039452218005
 30
0.0
 10
5.308956284700988
 20
4.266071349613053
 30
0.0
 10
5.308996835214949
 20
4.266102214315707
 30
0.0
  0
SPLINE
  5
202
330
1F
100
AcDbEntity
  8
0
  6
Continuous
 62
     7
370
    25
100
AcDbSpline
210
0.0
220
0.0
230
1.0
 70
    11
 71
     3
 72
    27
 73
    23
 74
     0
 42
0.000000001
 43
0.00000001
 40
0.0
 40
0.0
 40
0.0
 40
0.0
 40
0.0515937323356095
 40
0.1031221881063955
 40
0.1563522645158547
 40
0.2108109602029215
 40
0.2626327266243808
 40
0.312097159282721
 40
0.363460286403337
 40
0.4184543091703429
 40
0.4736052958056121
 40
0.4999909051290635
 40
0.5507165503514955
 40
0.6013569007638383
 40
0.6542338194777126
 40
0.7099017939515977
 40
0.7638057452498062
 40
0.8138806015715366
 40
0.8639284864036755
 40
0.9170503942723863
 40
0.9715008862099559
 40
1.0
 40
1.0
 40
1.0
 40
1.0
 10
5.238612883066477
 20
4.404173142242217
 30
0.0
 10
5.235175601861705
 20
4.403843675552214
 30
0.0
 10
5.228305388311981
 20
4.403185159014582
 30
0.0
 10
5.219094769005382
 20
4.39807323874594
 30
0.0
 10
5.211845211426816
 20
4.39040753605082
 30
0.0
 10
5.207498986262586
 20
4.380575065154295
 30
0.0
 10
5.206678112215048
 20
4.370060289387479
 30
0.0
 10
5.209140954601456
 20
4.360164077433131
 30
0.0
 10
5.214565586297867
 20
4.35146696055263
 30
0.0
 10
5.222795586906782
 20
4.344715620335047
 30
0.0
 10
5.231453018312952
 20
4.34163270642781
 30
0.0
 10
5.240222824802311
 20
4.340898047034752
 30
0.0
 10
5.248749489740668
 20
4.34228420318461
 30
0.0
 10
5.257819230625882
 20
4.347032576553664
 30
0.0
 10
5.26509023685356
 20
4.354543178540381
 30
0.0
 10
5.269632161395514
 20
4.364316561567747
 30
0.0
 10
5.270600866334136
 20
4.37506463751835
 30
0.0
 10
5.268105897818934
 20
4.385156004695079
 30
0.0
 10
5.262689436594782
 20
4.393832521505808
 30
0.0
 10
5.254612906993654
 20
4.400476637021948
 30
0.0
 10
5.246010314375117
 20
4.403771885011983
 30
0.0
 10
5.240504517510833
 20
4.404070534733463
 30
0.0
 10
5.238612883066477
 20
4.404173142242218
 30
0.0
  0
SPLINE
  5
203
330
1F
100
AcDbEntity
  8
0
  6
Continuous
 62
     7
370
    25
100
AcDbSpline
210
0.0
220
0.0
230
1.0
 70
     8
 71
     3
 72
    18
 73
    14
 74
     0
 42
0.000000001
 43
0.00000001
 40
0.0
 40
0.0
 40
0.0
 40
0.0
 40
0.067767472717697
 40
0.1608784408389897
 40
0.2674902458947437
 40
0.3933440666851755
 40
0.4564285960693049
 40
0.519462591944457
 40
0.6287443855132223
 40
0.7315578438436288
 40
0.842114202667944
 40
0.9669214301179023
 40
1.0
 40
1.0
 40
1.0
 40
1.0
 10
5.160062937148821
 20
4.48106266467456
 30
0.0
 10
5.160101639467923
 20
4.481096516498944
 30
0.0
 10
5.160193517894317
 20
4.481176879961056
 30
0.0
 10
5.167397057412868
 20
4.486229991364142
 30
0.0
 10
5.180789880406095
 20
4.493898845371109
 30
0.0
 10
5.198207284898785
 20
4.500825222924349
 30
0.0
 10
5.215542313601403
 20
4.504750428502585
 30
0.0
 10
5.23286773482893
 20
4.506907241707474
 30
0.0
 10
5.254022850488783
 20
4.506374117065493
 30
0.0
 10
5.276908900068634
 20
4.501538562987728
 30
0.0
 10
5.296347368078059
 20
4.494031087165586
 30
0.0
 10
5.308840099976113
 20
4.486783517553424
 30
0.0
 10
5.311920529578313
 20
4.484639853191931
 30
0.0
 10
5.312565908754813
 20
4.484190735205489
 30
0.0
  0
SPLINE
  5
204
330
1F
100
AcDbEntity
  8
0
  6
Continuous
 62
     7
370
    25
100
AcDbSpline
210
0.0
220
0.0
230
1.0
 70
     8
 71
     3
 72
     9
 73
     5
 74
     0
 42
0.000000001
 43
0.00000001
 40
0.0
 40
0.0
 40
0.0
 40
0.0
 40
0.3111890957693428
 40
1.0
 40
1.0
 40
1.0
 40
1.0
 10
5.315559399507086
 20
4.482160422659834
 30
0.0
 10
5.31611488962012
 20
4.481783445660716
 30
0.0
 10
5.317899946103744
 20
4.480572037535419
 30
0.0
 10
5.317332894712918
 20
4.480958430865196
 30
0.0
 10
5.31694230353166
 20
4.481224582804068
 30
0.0
  0
LINE
  5
205
330
1F
100
AcDbEntity
  8
0
  6
Continuous
 62
     7
370
    25
100
AcDbLine
 10
4.8951683826
 20
1.9366257969
 30
0.0
 11
4.8951683826
 21
1.8069767773
 31
0.0
  0
LINE
  5
206
330
1F
100
AcDbEntity
  8
0
  6
Continuous
 62
     7
370
    25
100
AcDbLine
 10
5.1575117293
 20
6.8261320862
 30
0.0
 11
5.3197152395
 21
6.8261320862
 31
0.0
  0
LINE
  5
207
330
1F
100
AcDbEntity
  8
0
  6
Continuous
 62
     7
370
    25
100
AcDbLine
 10
5.2386128831
 20
6.7954234916
 30
0.0
 11
5.3197152395
 21
6.7954234916
 31
0.0
  0
LINE
  5
208
330
1F
100
AcDbEntity
  8
0
  6
Continuous
 62
     7
370
    25
100
AcDbLine
 10
5.3197152395
 20
1.6418803592
 30
0.0
 11
5.1575105266
 21
1.6418803592
 31
0.0
  0
LINE
  5
209
330
1F
100
AcDbEntity
  8
0
  6
Continuous
 62
     7
370
    25
100
AcDbLine
 10
5.3130701429
 20
1.6725884844
 30
0.0
 11
5.1575105266
 21
1.6725884844
 31
0.0
  0
LINE
  5
20A
330
1F
100
AcDbEntity
  8
0
  6
Continuous
 62
     7
370
    25
100
AcDbLine
 10
5.3197152395
 20
1.6725884844
 30
0.0
 11
5.3130701429
 21
1.6725884844
 31
0.0
  0
LINE
  5
20B
330
1F
100
AcDbEntity
  8
0
  6
Continuous
 62
     7
370
    25
100
AcDbLine
 10
4.8951683826
 20
6.6610354334
 30
0.0
 11
4.8951683826
 21
6.5313866485
 31
0.0
  0
LINE
  5
20C
330
1F
100
AcDbEntity
  8
0
  6
Continuous
 62
     7
370
    25
100
AcDbLine
 10
5.3197152395
 20
6.7906992369
 30
0.0
 11
5.1575105266
 21
6.7906992369
 31
0.0
  0
LINE
  5
20D
330
1F
100
AcDbEntity
  8
0
  6
Continuous
 62
     7
370
    25
100
AcDbLine
 10
5.1575105266
 20
1.6773136778
 30
0.0
 11
5.3197152395
 21
1.6773136778
 31
0.0
  0
SPLINE
  5
20E
330
1F
100
AcDbEntity
  8
0
  6
Continuous
 62
     7
370
    25
100
AcDbSpline
210
0.0
220
0.0
230
1.0
 70
     8
 71
     3
 72
    15
 73
    11
 74
     0
 42
0.000000001
 43
0.00000001
 40
0.0
 40
0.0
 40
0.0
 40
0.0
 40
0.0489691739203289
 40
0.2174191377716215
 40
0.3658778903646066
 40
0.5002080908194443
 40
0.6345803699661382
 40
0.7831034006673259
 40
0.9516219404780054
 40
1.0
 40
1.0
 40
1.0
 40
1.0
 10
5.309373833629937
 20
4.265979538666519
 30
0.0
 10
5.308052950477912
 20
4.264919140891675
 30
0.0
 10
5.302188337027875
 20
4.260211061268427
 30
0.0
 10
5.286117732612745
 20
4.251590529616234
 30
0.0
 10
5.263010798905913
 20
4.244273326577405
 30
0.0
 10
5.238574455994281
 20
4.241778538234816
 30
0.0
 10
5.214137992364011
 20
4.244289053061736
 30
0.0
 10
5.191037670263226
 20
4.251620827796259
 30
0.0
 10
5.174995186589824
 20
4.260238122599119
 30
0.0
 10
5.169151311883474
 20
4.264932094613337
 30
0.0
 10
5.167847855216783
 20
4.265979069338607
 30
0.0
  0
SPLINE
  5
20F
330
1F
100
AcDbEntity
  8
0
  6
Continuous
 62
     7
370
    25
100
AcDbSpline
210
0.0
220
0.0
230
1.0
 70
     8
 71
     3
 72
    12
 73
     8
 74
     0
 42
0.000000001
 43
0.00000001
 40
0.0
 40
0.0
 40
0.0
 40
0.0
 40
0.0573413538467624
 40
0.2992269083445228
 40
0.5540711445143552
 40
0.7815010966984581
 40
1.0
 40
1.0
 40
1.0
 40
1.0
 10
5.165191165907084
 20
4.262984287934578
 30
0.0
 10
5.165130900438653
 20
4.262942454644279
 30
0.0
 10
5.164816414494579
 20
4.262724154145908
 30
0.0
 10
5.164180228512416
 20
4.2625187985696
 30
0.0
 10
5.163366946552139
 20
4.26242233922848
 30
0.0
 10
5.162642150410085
 20
4.262534461127665
 30
0.0
 10
5.16224816442489
 20
4.262761708959679
 30
0.0
 10
5.162055116801658
 20
4.262873057219524
 30
0.0
  0
CIRCLE
  5
210
330
1F
100
AcDbEntity
  8
0
  6
Continuous
 62
     7
370
    18
100
AcDbCircle
 10
5.2386128955
 20
4.3726772558
 30
0.0
 40
0.1338582677165367
  0
ENDSEC
  0
SECTION
  2
OBJECTS
  0
DICTIONARY
  5
C
330
0
100
AcDbDictionary
281
     1
  3
ACAD_GROUP
350
D
  3
ACAD_LAYOUT
350
1A
  3
ACAD_MLINESTYLE
350
17
  3
ACAD_PLOTSETTINGS
350
19
  3
ACAD_PLOTSTYLENAME
350
E
  3
ACAD_SCALELIST
350
47
  0
DICTIONARY
  5
D
102
{ACAD_REACTORS
330
C
102
}
330
C
100
AcDbDictionary
281
     1
  0
DICTIONARY
  5
1A
102
{ACAD_REACTORS
330
C
102
}
330
C
100
AcDbDictionary
281
     1
  3
Layout1
350
1E
  3
Layout2
350
26
  3
Model
350
22
  0
DICTIONARY
  5
17
102
{ACAD_REACTORS
330
C
102
}
330
C
100
AcDbDictionary
281
     1
  3
Standard
350
18
  0
DICTIONARY
  5
19
102
{ACAD_REACTORS
330
C
102
}
330
C
100
AcDbDictionary
281
     1
  0
ACDBDICTIONARYWDFLT
  5
E
102
{ACAD_REACTORS
330
C
102
}
330
C
100
AcDbDictionary
281
     1
  3
Normal
350
F
100
AcDbDictionaryWithDefault
340
F
  0
DICTIONARY
  5
47
102
{ACAD_REACTORS
330
C
102
}
330
C
100
AcDbDictionary
281
     1
  3
A0
350
48
  3
A1
350
49
  3
A2
350
4A
  3
A3
350
4B
  3
A4
350
4C
  3
A5
350
4D
  3
A6
350
4E
  3
A7
350
4F
  3
A8
350
50
  3
A9
350
51
  3
B0
350
52
  3
B1
350
53
  3
B2
350
54
  3
B3
350
55
  3
B4
350
56
  3
B5
350
57
  3
B6
350
58
  3
B7
350
59
  3
B8
350
5A
  3
B9
350
5B
  3
C0
350
5C
  3
C1
350
5D
  3
C2
350
5E
  3
C3
350
5F
  3
C4
350
60
  3
C5
350
61
  3
C6
350
62
  3
C7
350
63
  3
C8
350
64
  3
C9
350
65
  3
D0
350
66
  3
D1
350
67
  3
D2
350
68
  0
LAYOUT
  5
1E
102
{ACAD_REACTORS
330
1A
102
}
330
1A
100
AcDbPlotSettings
  1

  2
none_device
  4

  6

 40
0.0
 41
0.0
 42
0.0
 43
0.0
 44
0.0
 45
0.0
 46
0.0
 47
0.0
 48
0.0
 49
0.0
140
0.0
141
0.0
142
1.0
143
1.0
 70
   688
 72
     0
 73
     0
 74
     5
  7

 75
    16
147
1.0
148
0.0
149
0.0
100
AcDbLayout
  1
Layout1
 70
     1
 71
     1
 10
0.0
 20
0.0
 11
12.0
 21
9.0
 12
0.0
 22
0.0
 32
0.0
 14
1.0000000000E+20
 24
1.0000000000E+20
 34
1.0000000000E+20
 15
-1.0000000000E+20
 25
-1.0000000000E+20
 35
-1.0000000000E+20
146
0.0
 13
0.0
 23
0.0
 33
0.0
 16
1.0
 26
0.0
 36
0.0
 17
0.0
 27
1.0
 37
0.0
 76
     0
330
1B
  0
LAYOUT
  5
26
102
{ACAD_REACTORS
330
1A
102
}
330
1A
100
AcDbPlotSettings
  1

  2
none_device
  4

  6

 40
0.0
 41
0.0
 42
0.0
 43
0.0
 44
0.0
 45
0.0
 46
0.0
 47
0.0
 48
0.0
 49
0.0
140
0.0
141
0.0
142
1.0
143
1.0
 70
   688
 72
     0
 73
     0
 74
     5
  7

 75
    16
147
1.0
148
0.0
149
0.0
100
AcDbLayout
  1
Layout2
 70
     1
 71
     2
 10
0.0
 20
0.0
 11
0.0
 21
0.0
 12
0.0
 22
0.0
 32
0.0
 14
0.0
 24
0.0
 34
0.0
 15
0.0
 25
0.0
 35
0.0
146
0.0
 13
0.0
 23
0.0
 33
0.0
 16
1.0
 26
0.0
 36
0.0
 17
0.0
 27
1.0
 37
0.0
 76
     0
330
23
  0
LAYOUT
  5
22
102
{ACAD_REACTORS
330
1A
102
}
330
1A
100
AcDbPlotSettings
  1

  2
none_device
  4
Letter_(8.50_x_11.00_Inches)
  6

 40
6.35
 41
6.35
 42
6.35000508
 43
6.35000508
 44
215.9
 45
279.4
 46
0.0
 47
0.0
 48
0.0
 49
0.0
140
0.0
141
0.0
142
1.0
143
1.0
 70
  1712
 72
     0
 73
     0
 74
     0
  7

 75
     0
147
1.0
148
0.0
149
0.0
100
AcDbLayout
  1
Model
 70
     1
 71
     0
 10
0.0
 20
0.0
 11
11.0
 21
8.5
 12
0.0
 22
0.0
 32
0.0
 14
0.0
 24
0.0
 34
0.0
 15
11.0
 25
8.5
 35
0.0
146
0.0
 13
0.0
 23
0.0
 33
0.0
 16
1.0
 26
0.0
 36
0.0
 17
0.0
 27
1.0
 37
0.0
 76
     0
330
1F
331
29
  0
MLINESTYLE
  5
18
102
{ACAD_REACTORS
330
17
102
}
330
17
100
AcDbMlineStyle
  2
Standard
 70
     0
  3

 62
   256
 51
90.0
 52
90.0
 71
     2
 49
0.5
 62
   256
  6
BYLAYER
 49
-0.5
 62
   256
  6
BYLAYER
  0
ACDBPLACEHOLDER
  5
F
102
{ACAD_REACTORS
330
E
102
}
330
E
  0
SCALE
  5
48
102
{ACAD_REACTORS
330
47
102
}
330
47
100
AcDbScale
 70
     0
300
1:1
140
1.0
141
1.0
290
     1
  0
SCALE
  5
49
102
{ACAD_REACTORS
330
47
102
}
330
47
100
AcDbScale
 70
     0
300
1:2
140
1.0
141
2.0
290
     0
  0
SCALE
  5
4A
102
{ACAD_REACTORS
330
47
102
}
330
47
100
AcDbScale
 70
     0
300
1:4
140
1.0
141
4.0
290
     0
  0
SCALE
  5
4B
102
{ACAD_REACTORS
330
47
102
}
330
47
100
AcDbScale
 70
     0
300
1:5
140
1.0
141
5.0
290
     0
  0
SCALE
  5
4C
102
{ACAD_REACTORS
330
47
102
}
330
47
100
AcDbScale
 70
     0
300
1:8
140
1.0
141
8.0
290
     0
  0
SCALE
  5
4D
102
{ACAD_REACTORS
330
47
102
}
330
47
100
AcDbScale
 70
     0
300
1:10
140
1.0
141
10.0
290
     0
  0
SCALE
  5
4E
102
{ACAD_REACTORS
330
47
102
}
330
47
100
AcDbScale
 70
     0
300
1:16
140
1.0
141
16.0
290
     0
  0
SCALE
  5
4F
102
{ACAD_REACTORS
330
47
102
}
330
47
100
AcDbScale
 70
     0
300
1:20
140
1.0
141
20.0
290
     0
  0
SCALE
  5
50
102
{ACAD_REACTORS
330
47
102
}
330
47
100
AcDbScale
 70
     0
300
1:30
140
1.0
141
30.0
290
     0
  0
SCALE
  5
51
102
{ACAD_REACTORS
330
47
102
}
330
47
100
AcDbScale
 70
     0
300
1:40
140
1.0
141
40.0
290
     0
  0
SCALE
  5
52
102
{ACAD_REACTORS
330
47
102
}
330
47
100
AcDbScale
 70
     0
300
1:50
140
1.0
141
50.0
290
     0
  0
SCALE
  5
53
102
{ACAD_REACTORS
330
47
102
}
330
47
100
AcDbScale
 70
     0
300
1:100
140
1.0
141
100.0
290
     0
  0
SCALE
  5
54
102
{ACAD_REACTORS
330
47
102
}
330
47
100
AcDbScale
 70
     0
300
2:1
140
2.0
141
1.0
290
     0
  0
SCALE
  5
55
102
{ACAD_REACTORS
330
47
102
}
330
47
100
AcDbScale
 70
     0
300
4:1
140
4.0
141
1.0
290
     0
  0
SCALE
  5
56
102
{ACAD_REACTORS
330
47
102
}
330
47
100
AcDbScale
 70
     0
300
8:1
140
8.0
141
1.0
290
     0
  0
SCALE
  5
57
102
{ACAD_REACTORS
330
47
102
}
330
47
100
AcDbScale
 70
     0
300
10:1
140
10.0
141
1.0
290
     0
  0
SCALE
  5
58
102
{ACAD_REACTORS
330
47
102
}
330
47
100
AcDbScale
 70
     0
300
100:1
140
100.0
141
1.0
290
     0
  0
SCALE
  5
59
102
{ACAD_REACTORS
330
47
102
}
330
47
100
AcDbScale
 70
     0
300
1/128" = 1'-0"
140
0.0078125
141
12.0
290
     0
  0
SCALE
  5
5A
102
{ACAD_REACTORS
330
47
102
}
330
47
100
AcDbScale
 70
     0
300
1/64" = 1'-0"
140
0.015625
141
12.0
290
     0
  0
SCALE
  5
5B
102
{ACAD_REACTORS
330
47
102
}
330
47
100
AcDbScale
 70
     0
300
1/32" = 1'-0"
140
0.03125
141
12.0
290
     0
  0
SCALE
  5
5C
102
{ACAD_REACTORS
330
47
102
}
330
47
100
AcDbScale
 70
     0
300
1/16" = 1'-0"
140
0.0625
141
12.0
290
     0
  0
SCALE
  5
5D
102
{ACAD_REACTORS
330
47
102
}
330
47
100
AcDbScale
 70
     0
300
3/32" = 1'-0"
140
0.09375
141
12.0
290
     0
  0
SCALE
  5
5E
102
{ACAD_REACTORS
330
47
102
}
330
47
100
AcDbScale
 70
     0
300
1/8" = 1'-0"
140
0.125
141
12.0
290
     0
  0
SCALE
  5
5F
102
{ACAD_REACTORS
330
47
102
}
330
47
100
AcDbScale
 70
     0
300
3/16" = 1'-0"
140
0.1875
141
12.0
290
     0
  0
SCALE
  5
60
102
{ACAD_REACTORS
330
47
102
}
330
47
100
AcDbScale
 70
     0
300
1/4" = 1'-0"
140
0.25
141
12.0
290
     0
  0
SCALE
  5
61
102
{ACAD_REACTORS
330
47
102
}
330
47
100
AcDbScale
 70
     0
300
3/8" = 1'-0"
140
0.375
141
12.0
290
     0
  0
SCALE
  5
62
102
{ACAD_REACTORS
330
47
102
}
330
47
100
AcDbScale
 70
     0
300
1/2" = 1'-0"
140
0.5
141
12.0
290
     0
  0
SCALE
  5
63
102
{ACAD_REACTORS
330
47
102
}
330
47
100
AcDbScale
 70
     0
300
3/4" = 1'-0"
140
0.75
141
12.0
290
     0
  0
SCALE
  5
64
102
{ACAD_REACTORS
330
47
102
}
330
47
100
AcDbScale
 70
     0
300
1" = 1'-0"
140
1.0
141
12.0
290
     0
  0
SCALE
  5
65
102
{ACAD_REACTORS
330
47
102
}
330
47
100
AcDbScale
 70
     0
300
1-1/2" = 1'-0"
140
1.5
141
12.0
290
     0
  0
SCALE
  5
66
102
{ACAD_REACTORS
330
47
102
}
330
47
100
AcDbScale
 70
     0
300
3" = 1'-0"
140
3.0
141
12.0
290
     0
  0
SCALE
  5
67
102
{ACAD_REACTORS
330
47
102
}
330
47
100
AcDbScale
 70
     0
300
6" = 1'-0"
140
6.0
141
12.0
290
     0
  0
SCALE
  5
68
102
{ACAD_REACTORS
330
47
102
}
330
47
100
AcDbScale
 70
     0
300
1'-0" = 1'-0"
140
12.0
141
12.0
290
     0
  0
ENDSEC
  0
EOF
