  0
SECTION
  2
HEADER
  9
$ACADVER
  1
AC1015
  9
$ACADMAINTVER
 70
     6
  9
$DWGCODEPAGE
  3
ANSI_1252
  9
$INSBASE
 10
0.0
 20
0.0
 30
0.0
  9
$EXTMIN
 10
0.0
 20
0.0
 30
0.0
  9
$EXTMAX
 10
46.811023622
 20
33.1102362205
 30
0.0
  9
$LIMMIN
 10
0.0
 20
0.0
  9
$LIMMAX
 10
46.811023622
 20
33.1102362205
  9
$ORTHOMODE
 70
     0
  9
$REGENMODE
 70
     1
  9
$FILLMODE
 70
     1
  9
$QTEXTMODE
 70
     0
  9
$MIRRTEXT
 70
     1
  9
$LTSCALE
 40
1.0
  9
$ATTMODE
 70
     1
  9
$TEXTSIZE
 40
0.1377952756
  9
$TRACEWID
 40
0.05
  9
$TEXTSTYLE
  7
Standard
  9
$CLAYER
  8
0
  9
$CELTYPE
  6
ByLayer
  9
$CECOLOR
 62
   256
  9
$CELTSCALE
 40
1.0
  9
$DISPSILH
 70
     0
  9
$DIMSCALE
 40
1.0
  9
$DIMASZ
 40
0.1377952756
  9
$DIMEXO
 40
0.0393700787
  9
$DIMDLI
 40
0.38
  9
$DIMRND
 40
0.0
  9
$DIMDLE
 40
0.0
  9
$DIMEXE
 40
0.0393700787
  9
$DIMTP
 40
0.0
  9
$DIMTM
 40
0.0
  9
$DIMTXT
 40
0.1377952756
  9
$DIMCEN
 40
0.09
  9
$DIMTSZ
 40
0.0
  9
$DIMTOL
 70
     0
  9
$DIMLIM
 70
     0
  9
$DIMTIH
 70
     1
  9
$DIMTOH
 70
     1
  9
$DIMSE1
 70
     0
  9
$DIMSE2
 70
     0
  9
$DIMTAD
 70
     1
  9
$DIMZIN
 70
     0
  9
$DIMBLK
  1

  9
$DIMASO
 70
     1
  9
$DIMSHO
 70
     1
  9
$DIMPOST
  1

  9
$DIMAPOST
  1

  9
$DIMALT
 70
     0
  9
$DIMALTD
 70
     2
  9
$DIMALTF
 40
25.4
  9
$DIMLFAC
 40
0.5
  9
$DIMTOFL
 70
     0
  9
$DIMTVP
 40
0.0
  9
$DIMTIX
 70
     0
  9
$DIMSOXD
 70
     0
  9
$DIMSAH
 70
     0
  9
$DIMBLK1
  1

  9
$DIMBLK2
  1

  9
$DIMSTYLE
  2
Standard
  9
$DIMCLRD
 70
     0
  9
$DIMCLRE
 70
     0
  9
$DIMCLRT
 70
     0
  9
$DIMTFAC
 40
1.0
  9
$DIMGAP
 40
0.06
  9
$DIMJUST
 70
     0
  9
$DIMSD1
 70
     0
  9
$DIMSD2
 70
     0
  9
$DIMTOLJ
 70
     1
  9
$DIMTZIN
 70
     0
  9
$DIMALTZ
 70
     0
  9
$DIMALTTZ
 70
     0
  9
$DIMUPT
 70
     0
  9
$DIMDEC
 70
     2
  9
$DIMTDEC
 70
     2
  9
$DIMALTU
 70
     2
  9
$DIMALTTD
 70
     2
  9
$DIMTXSTY
  7
Standard
  9
$DIMAUNIT
 70
     0
  9
$DIMADEC
 70
     2
  9
$DIMALTRND
 40
0.0
  9
$DIMAZIN
 70
     0
  9
$DIMDSEP
 70
    46
  9
$DIMATFIT
 70
     3
  9
$DIMFRAC
 70
     0
  9
$DIMLDRBLK
  1

  9
$DIMLUNIT
 70
     2
  9
$DIMLWD
 70
    -2
  9
$DIMLWE
 70
    -2
  9
$DIMTMOVE
 70
     0
  9
$LUNITS
 70
     2
  9
$LUPREC
 70
     2
  9
$SKETCHINC
 40
0.1
  9
$FILLETRAD
 40
0.5
  9
$AUNITS
 70
     0
  9
$AUPREC
 70
     2
  9
$MENU
  1
.
  9
$ELEVATION
 40
0.0
  9
$PELEVATION
 40
0.0
  9
$THICKNESS
 40
0.0
  9
$LIMCHECK
 70
     0
  9
$CHAMFERA
 40
0.0
  9
$CHAMFERB
 40
0.0
  9
$CHAMFERC
 40
0.0
  9
$CHAMFERD
 40
0.0
  9
$SKPOLY
 70
     0
  9
$TDCREATE
 40
2459276.612910243
  9
$TDUCREATE
 40
2459276.821243576
  9
$TDUPDATE
 40
2459276.61291103
  9
$TDUUPDATE
 40
2459276.821244363
  9
$TDINDWG
 40
0.0000000116
  9
$TDUSRTIMER
 40
0.0000000116
  9
$USRTIMER
 70
     1
  9
$ANGBASE
 50
0.0
  9
$ANGDIR
 70
     0
  9
$PDMODE
 70
     0
  9
$PDSIZE
 40
-1.0
  9
$PLINEWID
 40
0.0
  9
$SPLFRAME
 70
     0
  9
$SPLINETYPE
 70
     6
  9
$SPLINESEGS
 70
     8
  9
$HANDSEED
  5
1C8
  9
$SURFTAB1
 70
     6
  9
$SURFTAB2
 70
     6
  9
$SURFTYPE
 70
     6
  9
$SURFU
 70
     6
  9
$SURFV
 70
     6
  9
$UCSBASE
  2

  9
$UCSNAME
  2

  9
$UCSORG
 10
0.0
 20
0.0
 30
0.0
  9
$UCSXDIR
 10
1.0
 20
0.0
 30
0.0
  9
$UCSYDIR
 10
0.0
 20
1.0
 30
0.0
  9
$UCSORTHOREF
  2

  9
$UCSORTHOVIEW
 70
     0
  9
$UCSORGTOP
 10
0.0
 20
0.0
 30
0.0
  9
$UCSORGBOTTOM
 10
0.0
 20
0.0
 30
0.0
  9
$UCSORGLEFT
 10
0.0
 20
0.0
 30
0.0
  9
$UCSORGRIGHT
 10
0.0
 20
0.0
 30
0.0
  9
$UCSORGFRONT
 10
0.0
 20
0.0
 30
0.0
  9
$UCSORGBACK
 10
0.0
 20
0.0
 30
0.0
  9
$PUCSBASE
  2

  9
$PUCSNAME
  2

  9
$PUCSORG
 10
0.0
 20
0.0
 30
0.0
  9
$PUCSXDIR
 10
1.0
 20
0.0
 30
0.0
  9
$PUCSYDIR
 10
0.0
 20
1.0
 30
0.0
  9
$PUCSORTHOREF
  2

  9
$PUCSORTHOVIEW
 70
     0
  9
$PUCSORGTOP
 10
0.0
 20
0.0
 30
0.0
  9
$PUCSORGBOTTOM
 10
0.0
 20
0.0
 30
0.0
  9
$PUCSORGLEFT
 10
0.0
 20
0.0
 30
0.0
  9
$PUCSORGRIGHT
 10
0.0
 20
0.0
 30
0.0
  9
$PUCSORGFRONT
 10
0.0
 20
0.0
 30
0.0
  9
$PUCSORGBACK
 10
0.0
 20
0.0
 30
0.0
  9
$USERI1
 70
     0
  9
$USERI2
 70
     0
  9
$USERI3
 70
     0
  9
$USERI4
 70
     0
  9
$USERI5
 70
     0
  9
$USERR1
 40
0.0
  9
$USERR2
 40
0.0
  9
$USERR3
 40
0.0
  9
$USERR4
 40
0.0
  9
$USERR5
 40
0.0
  9
$WORLDVIEW
 70
     1
  9
$SHADEDGE
 70
     3
  9
$SHADEDIF
 70
    70
  9
$TILEMODE
 70
     1
  9
$MAXACTVP
 70
    64
  9
$PINSBASE
 10
0.0
 20
0.0
 30
0.0
  9
$PLIMCHECK
 70
     0
  9
$PEXTMIN
 10
1.0000000000E+20
 20
1.0000000000E+20
 30
1.0000000000E+20
  9
$PEXTMAX
 10
-1.0000000000E+20
 20
-1.0000000000E+20
 30
-1.0000000000E+20
  9
$PLIMMIN
 10
0.0
 20
0.0
  9
$PLIMMAX
 10
12.0
 20
9.0
  9
$UNITMODE
 70
     0
  9
$VISRETAIN
 70
     1
  9
$PLINEGEN
 70
     0
  9
$PSLTSCALE
 70
     1
  9
$TREEDEPTH
 70
  3020
  9
$CMLSTYLE
  2
Standard
  9
$CMLJUST
 70
     0
  9
$CMLSCALE
 40
1.0
  9
$PROXYGRAPHICS
 70
     1
  9
$MEASUREMENT
 70
     0
  9
$CELWEIGHT
370
    -1
  9
$ENDCAPS
280
     0
  9
$JOINSTYLE
280
     0
  9
$LWDISPLAY
290
     1
  9
$INSUNITS
 70
     1
  9
$HYPERLINKBASE
  1

  9
$STYLESHEET
  1

  9
$XEDIT
290
     1
  9
$CEPSNTYPE
380
     0
  9
$PSTYLEMODE
290
     1
  9
$FINGERPRINTGUID
  2
{45BA33CD-D797-455B-8D17-EDBFAF95E6AE}
  9
$VERSIONGUID
  2
{FAEB1C32-E019-11D5-929B-00C0DF256EC4}
  9
$EXTNAMES
290
     1
  9
$PSVPSCALE
 40
0.0
  9
$OLESTARTUP
290
     0
  0
ENDSEC
  0
SECTION
  2
CLASSES
  0
CLASS
  1
ACDBDICTIONARYWDFLT
  2
AcDbDictionaryWithDefault
  3
ObjectDBX Classes
 90
        0
280
     0
281
     0
  0
CLASS
  1
VISUALSTYLE
  2
AcDbVisualStyle
  3
ObjectDBX Classes
 90
     4095
280
     0
281
     0
  0
CLASS
  1
MATERIAL
  2
AcDbMaterial
  3
ObjectDBX Classes
 90
     1153
280
     0
281
     0
  0
CLASS
  1
SCALE
  2
AcDbScale
  3
ObjectDBX Classes
 90
     1153
280
     0
281
     0
  0
CLASS
  1
TABLESTYLE
  2
AcDbTableStyle
  3
ObjectDBX Classes
 90
     4095
280
     0
281
     0
  0
CLASS
  1
MLEADERSTYLE
  2
AcDbMLeaderStyle
  3
ACDB_MLEADERSTYLE_CLASS
 90
     4095
280
     0
281
     0
  0
CLASS
  1
SUN
  2
AcDbSun
  3
SCENEOE
 90
     1153
280
     0
281
     0
  0
CLASS
  1
ACDBPLACEHOLDER
  2
AcDbPlaceHolder
  3
ObjectDBX Classes
 90
        0
280
     0
281
     0
  0
CLASS
  1
LAYOUT
  2
AcDbLayout
  3
ObjectDBX Classes
 90
        0
280
     0
281
     0
  0
ENDSEC
  0
SECTION
  2
TABLES
  0
TABLE
  2
VPORT
  5
8
330
0
100
AcDbSymbolTable
 70
     1
  0
VPORT
  5
29
330
8
100
AcDbSymbolTableRecord
100
AcDbViewportTableRecord
  2
*Active
 70
     0
 10
0.0
 20
0.0
 11
1.0
 21
1.0
 12
23.405511811
 22
16.5551181102
 13
0.0
 23
0.0
 14
0.5
 24
0.5
 15
0.5
 25
0.5
 16
0.0
 26
0.0
 36
1.0
 17
0.0
 27
0.0
 37
0.0
 40
33.1102362205
 41
1.4137931034
 42
50.0
 43
0.0
 44
0.0
 50
0.0
 51
0.0
 71
     0
 72
  2000
 73
     1
 74
     3
 75
     0
 76
     0
 77
     0
 78
     0
281
     0
 65
     1
110
0.0
120
0.0
130
0.0
111
1.0
121
0.0
131
0.0
112
0.0
122
1.0
132
0.0
 79
     0
146
0.0
  0
ENDTAB
  0
TABLE
  2
LTYPE
  5
5
330
0
100
AcDbSymbolTable
 70
     6
  0
LTYPE
  5
14
330
5
100
AcDbSymbolTableRecord
100
AcDbLinetypeTableRecord
  2
ByBlock
 70
     0
  3

 72
    65
 73
     0
 40
0.0
  0
LTYPE
  5
15
330
5
100
AcDbSymbolTableRecord
100
AcDbLinetypeTableRecord
  2
ByLayer
 70
     0
  3

 72
    65
 73
     0
 40
0.0
  0
LTYPE
  5
16
330
5
100
AcDbSymbolTableRecord
100
AcDbLinetypeTableRecord
  2
Continuous
 70
     0
  3
Solid line
 72
    65
 73
     0
 40
0.0
  0
LTYPE
  5
6E
330
5
100
AcDbSymbolTableRecord
100
AcDbLinetypeTableRecord
  2
HIDDEN
 70
     0
  3
Hidden __ __ __ __ __ __ __ __ __ __ __ __ __ __
 72
    65
 73
     2
 40
0.075
 49
0.05
 74
     0
 49
-0.025
 74
     0
  0
LTYPE
  5
6F
330
5
100
AcDbSymbolTableRecord
100
AcDbLinetypeTableRecord
  2
PHANTOM
 70
     0
  3
Phantom ______  __  __  ______  __  __  ______
 72
    65
 73
     6
 40
0.5
 49
0.25
 74
     0
 49
-0.05
 74
     0
 49
0.05
 74
     0
 49
-0.05
 74
     0
 49
0.05
 74
     0
 49
-0.05
 74
     0
  0
LTYPE
  5
70
330
5
100
AcDbSymbolTableRecord
100
AcDbLinetypeTableRecord
  2
CENTER
 70
     0
  3
Center ____ _ ____ _ ____ _ ____ _ ____ _ ____
 72
    65
 73
     4
 40
0.4
 49
0.25
 74
     0
 49
-0.05
 74
     0
 49
0.05
 74
     0
 49
-0.05
 74
     0
  0
LTYPE
  5
71
330
5
100
AcDbSymbolTableRecord
100
AcDbLinetypeTableRecord
  2
CENTERX2
 70
     0
  3
Center (2x) ________  __  ________  __  _____
 72
    65
 73
     4
 40
0.8
 49
0.5
 74
     0
 49
-0.1
 74
     0
 49
0.1
 74
     0
 49
-0.1
 74
     0
  0
LTYPE
  5
72
330
5
100
AcDbSymbolTableRecord
100
AcDbLinetypeTableRecord
  2
DOT2
 70
     0
  3
Dot (.5x) ........................................
 72
    65
 73
     2
 40
0.025
 49
0.0
 74
     0
 49
-0.025
 74
     0
  0
ENDTAB
  0
TABLE
  2
LAYER
  5
2
330
0
100
AcDbSymbolTable
 70
     2
  0
LAYER
  5
10
330
2
100
AcDbSymbolTableRecord
100
AcDbLayerTableRecord
  2
0
 70
     0
 62
     7
  6
Continuous
370
    -3
390
F
  0
LAYER
  5
73
330
2
100
AcDbSymbolTableRecord
100
AcDbLayerTableRecord
  2
FORMAT
 70
     0
 62
     7
  6
Continuous
370
    -3
390
F
  0
ENDTAB
  0
TABLE
  2
STYLE
  5
3
330
0
100
AcDbSymbolTable
 70
     2
  0
STYLE
  5
11
330
3
100
AcDbSymbolTableRecord
100
AcDbTextStyleTableRecord
  2
Standard
 70
     0
 40
0.0
 41
1.0
 50
0.0
 71
     0
 42
0.1377952756
  3
txt
  4

  0
STYLE
  5
1B9
330
3
100
AcDbSymbolTableRecord
100
AcDbTextStyleTableRecord
  2
SLDTEXTSTYLE0
 70
     0
 40
0.0
 41
0.605
 50
0.0
 71
     0
 42
0.1377952756
  3
TXT
  4

  0
ENDTAB
  0
TABLE
  2
VIEW
  5
6
330
0
100
AcDbSymbolTable
 70
     0
  0
ENDTAB
  0
TABLE
  2
UCS
  5
7
330
0
100
AcDbSymbolTable
 70
     0
  0
ENDTAB
  0
TABLE
  2
APPID
  5
9
330
0
100
AcDbSymbolTable
 70
     1
  0
APPID
  5
12
330
9
100
AcDbSymbolTableRecord
100
AcDbRegAppTableRecord
  2
ACAD
 70
     0
  0
ENDTAB
  0
TABLE
  2
DIMSTYLE
  5
A
330
0
100
AcDbSymbolTable
 70
     1
100
AcDbDimStyleTable
  0
DIMSTYLE
105
27
330
A
100
AcDbSymbolTableRecord
100
AcDbDimStyleTableRecord
  2
Standard
 70
     0
178
     0
340
11
  0
ENDTAB
  0
TABLE
  2
BLOCK_RECORD
  5
1
330
0
100
AcDbSymbolTable
 70
     3
  0
BLOCK_RECORD
  5
1F
330
1
100
AcDbSymbolTableRecord
100
AcDbBlockTableRecord
  2
*Model_Space
340
22
  0
BLOCK_RECORD
  5
1B
330
1
100
AcDbSymbolTableRecord
100
AcDbBlockTableRecord
  2
*Paper_Space
340
1E
  0
BLOCK_RECORD
  5
23
330
1
100
AcDbSymbolTableRecord
100
AcDbBlockTableRecord
  2
*Paper_Space0
340
26
  0
BLOCK_RECORD
  5
74
330
1
100
AcDbSymbolTableRecord
100
AcDbBlockTableRecord
  2
SW_BROKEN_VIEW_0
340
0
102
{BLKREFS
331
77
102
}
  0
BLOCK_RECORD
  5
1B6
330
1
100
AcDbSymbolTableRecord
100
AcDbBlockTableRecord
  2
SW_NOTE_0
340
0
102
{BLKREFS
331
1BD
102
}
  0
ENDTAB
  0
ENDSEC
  0
SECTION
  2
BLOCKS
  0
BLOCK
  5
20
330
1F
100
AcDbEntity
  8
0
100
AcDbBlockBegin
  2
*Model_Space
 70
     0
 10
0.0
 20
0.0
 30
0.0
  3
*Model_Space
  1

  0
ENDBLK
  5
21
330
1F
100
AcDbEntity
  8
0
100
AcDbBlockEnd
  0
BLOCK
  5
1C
330
1B
100
AcDbEntity
 67
     1
  8
0
100
AcDbBlockBegin
  2
*Paper_Space
 70
     0
 10
0.0
 20
0.0
 30
0.0
  3
*Paper_Space
  1

  0
ENDBLK
  5
1D
330
1B
100
AcDbEntity
 67
     1
  8
0
100
AcDbBlockEnd
  0
BLOCK
  5
24
330
23
100
AcDbEntity
  8
0
100
AcDbBlockBegin
  2
*Paper_Space0
 70
     0
 10
0.0
 20
0.0
 30
0.0
  3
*Paper_Space0
  1

  0
ENDBLK
  5
25
330
23
100
AcDbEntity
  8
0
100
AcDbBlockEnd
  0
BLOCK
  5
75
330
74
100
AcDbEntity
  8
0
100
AcDbBlockBegin
  2
SW_BROKEN_VIEW_0
 70
     0
 10
0.0
 20
0.0
 30
0.0
  3
SW_BROKEN_VIEW_0
  1

  0
ENDBLK
  5
76
330
74
100
AcDbEntity
  8
0
100
AcDbBlockEnd
  0
BLOCK
  5
1B7
330
1B6
100
AcDbEntity
  8
0
100
AcDbBlockBegin
  2
SW_NOTE_0
 70
     0
 10
0.0
 20
0.0
 30
0.0
  3
SW_NOTE_0
  1

  0
MTEXT
  5
1BA
330
1B6
100
AcDbEntity
  8
0
  6
Continuous
 62
     0
370
     0
100
AcDbMText
 10
0.0
 20
0.2685557791
 30
0.0
 40
0.2083333333
 41
0.0
 71
     1
 72
     1
  1
TBW01026U
  7
SLDTEXTSTYLE0
 73
     1
 44
1.0
  0
MTEXT
  5
1BB
330
1B6
100
AcDbEntity
  8
0
  6
Continuous
 62
     0
370
     0
100
AcDbMText
 10
0.0
 20
-0.0467476769
 30
0.0
 40
0.1666666667
 41
0.0
 71
     1
 72
     1
  1
Shower Hose, Metal 63"
  7
SLDTEXTSTYLE0
 73
     1
 44
1.0
  0
MTEXT
  5
1BC
330
1B6
100
AcDbEntity
  8
0
  6
Continuous
 62
     0
370
     0
100
AcDbMText
 10
0.0
 20
-0.3064955848
 30
0.0
 40
0.125
 41
0.0
 71
     1
 72
     1
  1
AD-01017, v01
  7
SLDTEXTSTYLE0
 73
     1
 44
1.0
  0
ENDBLK
  5
1B8
330
1B6
100
AcDbEntity
  8
0
100
AcDbBlockEnd
  0
ENDSEC
  0
SECTION
  2
ENTITIES
  0
INSERT
  5
77
330
1F
100
AcDbEntity
  8
0
  6
Continuous
 62
     7
100
AcDbBlockReference
  2
SW_BROKEN_VIEW_0
 10
0.0
 20
0.0
 30
0.0
  0
LINE
  5
78
330
1F
100
AcDbEntity
  8
0
  6
Continuous
 62
     7
370
    25
100
AcDbLine
 10
30.8070325698
 20
16.9277936002
 30
0.0
 11
30.8070325698
 21
16.9277800306
 31
0.0
  0
LINE
  5
79
330
1F
100
AcDbEntity
  8
0
  6
Continuous
 62
     7
370
    25
100
AcDbLine
 10
29.074745888
 20
16.9277733525
 30
0.0
 11
29.074745888
 21
16.927756504
 31
0.0
  0
LINE
  5
7A
330
1F
100
AcDbEntity
  8
0
  6
Continuous
 62
     7
370
    25
100
AcDbLine
 10
27.450768355
 20
16.3767362347
 30
0.0
 11
27.726358878
 21
16.3767362347
 31
0.0
  0
LINE
  5
7B
330
1F
100
AcDbEntity
  8
0
  6
Continuous
 62
     7
370
    25
100
AcDbLine
 10
27.8838899648
 20
16.3771893928
 30
0.0
 11
28.1594804879
 21
16.3771893928
 31
0.0
  0
LINE
  5
7C
330
1F
100
AcDbEntity
  8
0
  6
Continuous
 62
     7
370
    25
100
AcDbLine
 10
28.3169608286
 20
16.3766967452
 30
0.0
 11
28.5925513517
 21
16.3766967452
 31
0.0
  0
LINE
  5
7D
330
1F
100
AcDbEntity
  8
0
  6
Continuous
 62
     7
370
    25
100
AcDbLine
 10
28.7498765209
 20
16.3771816563
 30
0.0
 11
29.0254670439
 21
16.3771816563
 31
0.0
  0
LINE
  5
7E
330
1F
100
AcDbEntity
  8
0
  6
Continuous
 62
     7
370
    25
100
AcDbLine
 10
28.8088097334
 20
17.4788126968
 30
0.0
 11
28.5332192104
 21
17.4788126968
 31
0.0
  0
LINE
  5
7F
330
1F
100
AcDbEntity
  8
0
  6
Continuous
 62
     7
370
    25
100
AcDbLine
 10
28.3759418539
 20
17.4788104602
 30
0.0
 11
28.1003513309
 21
17.4788104602
 31
0.0
  0
LINE
  5
80
330
1F
100
AcDbEntity
  8
0
  6
Continuous
 62
     7
370
    25
100
AcDbLine
 10
27.9426260596
 20
17.4787005714
 30
0.0
 11
27.6670352433
 21
17.4787005714
 31
0.0
  0
LINE
  5
81
330
1F
100
AcDbEntity
  8
0
  6
Continuous
 62
     7
370
    25
100
AcDbLine
 10
29.1829256783
 20
16.3768270937
 30
0.0
 11
29.4585162013
 21
16.3768270937
 31
0.0
  0
LINE
  5
82
330
1F
100
AcDbEntity
  8
0
  6
Continuous
 62
     7
370
    25
100
AcDbLine
 10
29.6161159273
 20
16.3771419101
 30
0.0
 11
29.8917064504
 21
16.3771419101
 31
0.0
  0
LINE
  5
83
330
1F
100
AcDbEntity
  8
0
  6
Continuous
 62
     7
370
    25
100
AcDbLine
 10
30.0489178076
 20
16.3767341081
 30
0.0
 11
30.3245083306
 21
16.3767341081
 31
0.0
  0
LINE
  5
84
330
1F
100
AcDbEntity
  8
0
  6
Continuous
 62
     7
370
    25
100
AcDbLine
 10
30.5412257737
 20
17.4786982248
 30
0.0
 11
30.2656352507
 21
17.4786982248
 31
0.0
  0
LINE
  5
85
330
1F
100
AcDbEntity
  8
0
  6
Continuous
 62
     7
370
    25
100
AcDbLine
 10
30.1084221335
 20
17.4789285988
 30
0.0
 11
29.8328316105
 21
17.4789285988
 31
0.0
  0
LINE
  5
86
330
1F
100
AcDbEntity
  8
0
  6
Continuous
 62
     7
370
    25
100
AcDbLine
 10
29.6750347667
 20
17.4786126458
 30
0.0
 11
29.3994442437
 21
17.4786126458
 31
0.0
  0
LINE
  5
87
330
1F
100
AcDbEntity
  8
0
  6
Continuous
 62
     7
370
    25
100
AcDbLine
 10
29.2419917693
 20
17.4790189811
 30
0.0
 11
28.9664012462
 21
17.4790189811
 31
0.0
  0
LINE
  5
88
330
1F
100
AcDbEntity
  8
0
  6
Continuous
 62
     7
370
    25
100
AcDbLine
 10
30.4822629349
 20
16.3769580655
 30
0.0
 11
30.7578534579
 21
16.3769580655
 31
0.0
  0
LINE
  5
89
330
1F
100
AcDbEntity
  8
0
  6
Continuous
 62
     7
370
    25
100
AcDbLine
 10
30.8640975639
 20
17.4790564907
 30
0.0
 11
30.6989123255
 21
17.4790564907
 31
0.0
  0
LINE
  5
8A
330
1F
100
AcDbEntity
  8
0
  6
Continuous
 62
     7
370
    25
100
AcDbLine
 10
23.9861819015
 20
16.3770569544
 30
0.0
 11
24.2617724428
 21
16.3770569544
 31
0.0
  0
SPLINE
  5
8B
330
1F
100
AcDbEntity
  8
0
  6
Continuous
 62
     7
370
    25
100
AcDbSpline
210
0.0
220
0.0
230
1.0
 70
     8
 71
     3
 72
     9
 73
     5
 74
     0
 42
0.000000001
 43
0.00000001
 40
0.0
 40
0.0
 40
0.0
 40
0.0
 40
0.4990018889152032
 40
1.0
 40
1.0
 40
1.0
 40
1.0
 10
25.88572960775529
 20
16.92795024987569
 30
0.0
 10
25.88572961990437
 20
16.92795221337717
 30
0.0
 10
25.88572964425114
 20
16.92795614823498
 30
0.0
 10
25.88572952222512
 20
16.9279600812774
 30
0.0
 10
25.88572946109032
 20
16.92796205172422
 30
0.0
  0
SPLINE
  5
8C
330
1F
100
AcDbEntity
  8
0
  6
Continuous
 62
     7
370
    25
100
AcDbSpline
210
0.0
220
0.0
230
1.0
 70
     8
 71
     3
 72
     9
 73
     5
 74
     0
 42
0.000000001
 43
0.00000001
 40
0.0
 40
0.0
 40
0.0
 40
0.0
 40
0.4989376641107683
 40
1.0
 40
1.0
 40
1.0
 40
1.0
 10
26.0432623079241
 20
16.9277395098468
 30
0.0
 10
26.0432622957797
 20
16.92773575107541
 30
0.0
 10
26.04326227143919
 20
16.9277282175263
 30
0.0
 10
26.0432623934527
 20
16.927720684925
 30
0.0
 10
26.04326245458907
 20
16.92771691062219
 30
0.0
  0
LINE
  5
8D
330
1F
100
AcDbEntity
  8
0
  6
Continuous
 62
     7
370
    25
100
AcDbLine
 10
25.72019604
 20
16.3768895363
 30
0.0
 11
25.995786563
 21
16.3768895363
 31
0.0
  0
LINE
  5
8E
330
1F
100
AcDbEntity
  8
0
  6
Continuous
 62
     7
370
    25
100
AcDbLine
 10
26.1514353516
 20
16.3771892462
 30
0.0
 11
26.4270258747
 21
16.3771892462
 31
0.0
  0
LINE
  5
8F
330
1F
100
AcDbEntity
  8
0
  6
Continuous
 62
     7
370
    25
100
AcDbLine
 10
26.5847219596
 20
16.3767338148
 30
0.0
 11
26.8603126293
 21
16.3767338148
 31
0.0
  0
LINE
  5
90
330
1F
100
AcDbEntity
  8
0
  6
Continuous
 62
     7
370
    25
100
AcDbLine
 10
27.0176285586
 20
16.3771422767
 30
0.0
 11
27.2932190817
 21
16.3771422767
 31
0.0
  0
LINE
  5
91
330
1F
100
AcDbEntity
  8
0
  6
Continuous
 62
     7
370
    25
100
AcDbLine
 10
27.5097798866
 20
17.4785830561
 30
0.0
 11
27.2341890702
 21
17.4785830561
 31
0.0
  0
LINE
  5
92
330
1F
100
AcDbEntity
  8
0
  6
Continuous
 62
     7
370
    25
100
AcDbLine
 10
27.0764767055
 20
17.4789285988
 30
0.0
 11
26.8008864758
 21
17.4789285988
 31
0.0
  0
LINE
  5
93
330
1F
100
AcDbEntity
  8
0
  6
Continuous
 62
     7
370
    25
100
AcDbLine
 10
26.6437466911
 20
17.4787000948
 30
0.0
 11
26.3681560214
 21
17.4787000948
 31
0.0
  0
LINE
  5
94
330
1F
100
AcDbEntity
  8
0
  6
Continuous
 62
     7
370
    25
100
AcDbLine
 10
26.2105076026
 20
17.4788108635
 30
0.0
 11
25.9349170795
 21
17.4788108635
 31
0.0
  0
LINE
  5
95
330
1F
100
AcDbEntity
  8
0
  6
Continuous
 62
     7
370
    25
100
AcDbLine
 10
24.4190739807
 20
16.3771414701
 30
0.0
 11
24.694664522
 21
16.3771414701
 31
0.0
  0
LINE
  5
96
330
1F
100
AcDbEntity
  8
0
  6
Continuous
 62
     7
370
    25
100
AcDbLine
 10
24.8522361801
 20
16.376830137
 30
0.0
 11
25.1278267031
 21
16.376830137
 31
0.0
  0
LINE
  5
97
330
1F
100
AcDbEntity
  8
0
  6
Continuous
 62
     7
370
    25
100
AcDbLine
 10
25.2851659522
 20
16.3770536911
 30
0.0
 11
25.5607564752
 21
16.3770536911
 31
0.0
  0
LINE
  5
98
330
1F
100
AcDbEntity
  8
0
  6
Continuous
 62
     7
370
    25
100
AcDbLine
 10
25.7775332443
 20
17.478564943
 30
0.0
 11
25.5019425746
 21
17.478564943
 31
0.0
  0
LINE
  5
99
330
1F
100
AcDbEntity
  8
0
  6
Continuous
 62
     7
370
    25
100
AcDbLine
 10
25.3445098266
 20
17.4790168911
 30
0.0
 11
25.068919267
 21
17.4790168911
 31
0.0
  0
LINE
  5
9A
330
1F
100
AcDbEntity
  8
0
  6
Continuous
 62
     7
370
    25
100
AcDbLine
 10
24.911507822
 20
17.4786128291
 30
0.0
 11
24.6359172624
 21
17.4786128291
 31
0.0
  0
LINE
  5
9B
330
1F
100
AcDbEntity
  8
0
  6
Continuous
 62
     7
370
    25
100
AcDbLine
 10
24.4781882231
 20
17.4789334754
 30
0.0
 11
24.2025976731
 21
17.4789334754
 31
0.0
  0
LINE
  5
9C
330
1F
100
AcDbEntity
  8
0
  6
Continuous
 62
     7
370
    25
100
AcDbLine
 10
29.0225026515
 20
16.4516124431
 30
0.0
 11
29.1476149128
 21
16.4516124431
 31
0.0
  0
LINE
  5
9D
330
1F
100
AcDbEntity
  8
0
  6
Continuous
 62
     7
370
    25
100
AcDbLine
 10
29.4547392849
 20
16.4518845433
 30
0.0
 11
29.5803249808
 21
16.4518845433
 31
0.0
  0
LINE
  5
9E
330
1F
100
AcDbEntity
  8
0
  6
Continuous
 62
     7
370
    25
100
AcDbLine
 10
29.8900831625
 20
16.4515321074
 30
0.0
 11
30.0133274987
 21
16.4515321074
 31
0.0
  0
LINE
  5
9F
330
1F
100
AcDbEntity
  8
0
  6
Continuous
 62
     7
370
    25
100
AcDbLine
 10
30.2656352507
 20
17.4039439317
 30
0.0
 11
30.1436252468
 21
17.4039439317
 31
0.0
  0
LINE
  5
A0
330
1F
100
AcDbEntity
  8
0
  6
Continuous
 62
     7
370
    25
100
AcDbLine
 10
29.8328316105
 20
17.4041430294
 30
0.0
 11
29.7107840604
 21
17.4041430294
 31
0.0
  0
LINE
  5
A1
330
1F
100
AcDbEntity
  8
0
  6
Continuous
 62
     7
370
    25
100
AcDbLine
 10
29.3994442437
 20
17.4038699759
 30
0.0
 11
29.277965167
 21
17.4038699759
 31
0.0
  0
LINE
  5
A2
330
1F
100
AcDbEntity
  8
0
  6
Continuous
 62
     7
370
    25
100
AcDbLine
 10
28.9664012462
 20
17.4042211652
 30
0.0
 11
28.8446555327
 21
17.4042211652
 31
0.0
  0
LINE
  5
A3
330
1F
100
AcDbEntity
  8
0
  6
Continuous
 62
     7
370
    25
100
AcDbLine
 10
30.3229689351
 20
16.4517256318
 30
0.0
 11
30.4464772683
 21
16.4517256318
 31
0.0
  0
LINE
  5
A4
330
1F
100
AcDbEntity
  8
0
  6
Continuous
 62
     7
370
    25
100
AcDbLine
 10
30.7555508178
 20
16.4517110753
 30
0.0
 11
30.8640975639
 21
16.4517110753
 31
0.0
  0
LINE
  5
A5
330
1F
100
AcDbEntity
  8
0
  6
Continuous
 62
     7
370
    25
100
AcDbLine
 10
30.6989123255
 20
17.4042535781
 30
0.0
 11
30.5774438087
 21
17.4042535781
 31
0.0
  0
LINE
  5
A6
330
1F
100
AcDbEntity
  8
0
  6
Continuous
 62
     7
370
    25
100
AcDbLine
 10
24.2597542412
 20
16.4516530326
 30
0.0
 11
24.3830417336
 21
16.4516530326
 31
0.0
  0
LINE
  5
A7
330
1F
100
AcDbEntity
  8
0
  6
Continuous
 62
     7
370
    25
100
AcDbLine
 10
24.6937701957
 20
16.4516318762
 30
0.0
 11
24.816893295
 21
16.4516318762
 31
0.0
  0
LINE
  5
A8
330
1F
100
AcDbEntity
  8
0
  6
Continuous
 62
     7
370
    25
100
AcDbLine
 10
25.123074318
 20
16.4518885766
 30
0.0
 11
25.2495270972
 21
16.4518885766
 31
0.0
  0
LINE
  5
A9
330
1F
100
AcDbEntity
  8
0
  6
Continuous
 62
     7
370
    25
100
AcDbLine
 10
25.5034880568
 20
17.4040534171
 30
0.0
 11
25.3799448906
 21
17.4040534171
 31
0.0
  0
LINE
  5
AA
330
1F
100
AcDbEntity
  8
0
  6
Continuous
 62
     7
370
    25
100
AcDbLine
 10
25.0703794634
 20
17.4041664958
 30
0.0
 11
24.9474951897
 21
17.4041664958
 31
0.0
  0
LINE
  5
AB
330
1F
100
AcDbEntity
  8
0
  6
Continuous
 62
     7
370
    25
100
AcDbLine
 10
24.6372922098
 20
17.4038580227
 30
0.0
 11
24.5137337997
 21
17.4038580227
 31
0.0
  0
LINE
  5
AC
330
1F
100
AcDbEntity
  8
0
  6
Continuous
 62
     7
370
    25
100
AcDbLine
 10
24.2041286721
 20
17.4041814923
 30
0.0
 11
24.0807082462
 21
17.4041814923
 31
0.0
  0
LINE
  5
AD
330
1F
100
AcDbEntity
  8
0
  6
Continuous
 62
     7
370
    25
100
AcDbLine
 10
25.5187933533
 20
16.4518273073
 30
0.0
 11
25.6828185451
 21
16.4518273073
 31
0.0
  0
LINE
  5
AE
330
1F
100
AcDbEntity
  8
0
  6
Continuous
 62
     7
370
    25
100
AcDbLine
 10
25.9633929639
 20
16.4517201685
 30
0.0
 11
26.1159525482
 21
16.4517201685
 31
0.0
  0
LINE
  5
AF
330
1F
100
AcDbEntity
  8
0
  6
Continuous
 62
     7
370
    25
100
AcDbLine
 10
26.4240632422
 20
16.4516807523
 30
0.0
 11
26.5490424784
 21
16.4516807523
 31
0.0
  0
LINE
  5
B0
330
1F
100
AcDbEntity
  8
0
  6
Continuous
 62
     7
370
    25
100
AcDbLine
 10
26.8548772254
 20
16.4518201207
 30
0.0
 11
26.9814146303
 21
16.4518201207
 31
0.0
  0
LINE
  5
B1
330
1F
100
AcDbEntity
  8
0
  6
Continuous
 62
     7
370
    25
100
AcDbLine
 10
27.2357812652
 20
17.4038523761
 30
0.0
 11
27.1121597066
 21
17.4038523761
 31
0.0
  0
LINE
  5
B2
330
1F
100
AcDbEntity
  8
0
  6
Continuous
 62
     7
370
    25
100
AcDbLine
 10
26.8024656175
 20
17.4042364183
 30
0.0
 11
26.6793732262
 21
17.4042364183
 31
0.0
  0
LINE
  5
B3
330
1F
100
AcDbEntity
  8
0
  6
Continuous
 62
     7
370
    25
100
AcDbLine
 10
26.3694714595
 20
17.4038413029
 30
0.0
 11
26.2463413753
 21
17.4038413029
 31
0.0
  0
LINE
  5
B4
330
1F
100
AcDbEntity
  8
0
  6
Continuous
 62
     7
370
    25
100
AcDbLine
 10
25.9363727294
 20
17.4042489582
 30
0.0
 11
25.8129705816
 21
17.4042489582
 31
0.0
  0
LINE
  5
B5
330
1F
100
AcDbEntity
  8
0
  6
Continuous
 62
     7
370
    25
100
AcDbLine
 10
27.2922877591
 20
16.4515681869
 30
0.0
 11
27.4148914627
 21
16.4515681869
 31
0.0
  0
LINE
  5
B6
330
1F
100
AcDbEntity
  8
0
  6
Continuous
 62
     7
370
    25
100
AcDbLine
 10
27.7246728175
 20
16.4518296173
 30
0.0
 11
27.8483154958
 21
16.4518296173
 31
0.0
  0
LINE
  5
B7
330
1F
100
AcDbEntity
  8
0
  6
Continuous
 62
     7
370
    25
100
AcDbLine
 10
28.1548922209
 20
16.4516696424
 30
0.0
 11
28.2809047118
 21
16.4516696424
 31
0.0
  0
LINE
  5
B8
330
1F
100
AcDbEntity
  8
0
  6
Continuous
 62
     7
370
    25
100
AcDbLine
 10
28.5924304997
 20
16.4517245685
 30
0.0
 11
28.714376851
 21
16.4517245685
 31
0.0
  0
LINE
  5
B9
330
1F
100
AcDbEntity
  8
0
  6
Continuous
 62
     7
370
    25
100
AcDbLine
 10
28.534865378
 20
17.4038429162
 30
0.0
 11
28.4113215519
 21
17.4038429162
 31
0.0
  0
LINE
  5
BA
330
1F
100
AcDbEntity
  8
0
  6
Continuous
 62
     7
370
    25
100
AcDbLine
 10
28.1017205951
 20
17.4042276551
 30
0.0
 11
27.9790241992
 21
17.4042276551
 31
0.0
  0
LINE
  5
BB
330
1F
100
AcDbEntity
  8
0
  6
Continuous
 62
     7
370
    25
100
AcDbLine
 10
27.6685810921
 20
17.4038828457
 30
0.0
 11
27.5453523023
 21
17.4038828457
 31
0.0
  0
LINE
  5
BC
330
1F
100
AcDbEntity
  8
0
  6
Continuous
 62
     7
370
    25
100
AcDbLine
 10
30.9113418715
 20
17.5263023382
 30
0.0
 11
30.8640975639
 21
17.5263023382
 31
0.0
  0
LINE
  5
BD
330
1F
100
AcDbEntity
  8
0
  6
Continuous
 62
     7
370
    25
100
AcDbLine
 10
30.8640975639
 20
16.3294519243
 30
0.0
 11
30.9113418715
 21
16.3294519243
 31
0.0
  0
ARC
  5
BE
330
1F
100
AcDbEntity
  8
0
  6
Continuous
 62
     7
370
    25
100
AcDbCircle
 10
33.7066174081
 20
17.8120293305
 30
0.0
 40
0.0393701109187503
100
AcDbArc
 50
359.9999810545
 51
92.3862006432
  0
ARC
  5
BF
330
1F
100
AcDbEntity
  8
0
  6
Continuous
 62
     7
370
    25
100
AcDbCircle
 10
33.7066174081
 20
16.043724932
 30
0.0
 40
0.0393701109187482
100
AcDbArc
 50
267.6137993568
 51
0.0000189455
  0
LINE
  5
C0
330
1F
100
AcDbEntity
  8
0
  6
Continuous
 62
     7
370
    25
100
AcDbLine
 10
33.7049781325
 20
17.851365303
 30
0.0
 11
30.9490729022
 21
17.7365358696
 31
0.0
  0
LINE
  5
C1
330
1F
100
AcDbEntity
  8
0
  6
Continuous
 62
     7
370
    25
100
AcDbLine
 10
30.9490729022
 20
16.1192183929
 30
0.0
 11
33.7049781325
 21
16.0043889595
 31
0.0
  0
ARC
  5
C2
330
1F
100
AcDbEntity
  8
0
  6
Continuous
 62
     7
370
    25
100
AcDbCircle
 10
30.9507119409
 20
16.1585542336
 30
0.0
 40
0.0393699692145878
100
AcDbArc
 50
179.9998957399
 51
267.6141358539
  0
ARC
  5
C3
330
1F
100
AcDbEntity
  8
0
  6
Continuous
 62
     7
370
    25
100
AcDbCircle
 10
30.9507119409
 20
17.6972000289
 30
0.0
 40
0.0393699692145878
100
AcDbArc
 50
92.3858641461
 51
180.0001042601
  0
SPLINE
  5
C4
330
1F
100
AcDbEntity
  8
0
  6
Continuous
 62
     7
370
    25
100
AcDbSpline
210
0.0
220
0.0
230
1.0
 70
     8
 71
     3
 72
    11
 73
     7
 74
     0
 42
0.000000001
 43
0.00000001
 40
0.0
 40
0.0
 40
0.0
 40
0.0
 40
0.0310108164548248
 40
0.1928123926418557
 40
0.4908622240852404
 40
1.0
 40
1.0
 40
1.0
 40
1.0
 10
30.7578511112586
 20
16.45486132890728
 30
0.0
 10
30.75603213255569
 20
16.45414425605099
 30
0.0
 10
30.74472247753958
 20
16.44968579449065
 30
0.0
 10
30.73115576951465
 20
16.48962496410263
 30
0.0
 10
30.71403070431114
 20
16.53565800289251
 30
0.0
 10
30.70465631325767
 20
16.58495116943025
 30
0.0
 10
30.69874336740963
 20
16.61604309025515
 30
0.0
  0
SPLINE
  5
C5
330
1F
100
AcDbEntity
  8
0
  6
Continuous
 62
     7
370
    25
100
AcDbSpline
210
0.0
220
0.0
230
1.0
 70
     8
 71
     3
 72
    13
 73
     9
 74
     0
 42
0.000000001
 43
0.00000001
 40
0.0
 40
0.0
 40
0.0
 40
0.0
 40
0.0970048957946398
 40
0.2482095818995342
 40
0.3113156673465546
 40
0.4227722081829024
 40
0.6349462824401526
 40
1.0
 40
1.0
 40
1.0
 40
1.0
 10
30.79323256919564
 20
16.45171107529928
 30
0.0
 10
30.79090764886472
 20
16.44285514184114
 30
0.0
 10
30.78495879959727
 20
16.42019517686754
 30
0.0
 10
30.78087902933115
 20
16.38781369070366
 30
0.0
 10
30.74572217560771
 20
16.37261312529518
 30
0.0
 10
30.73125664815473
 20
16.41950989867497
 30
0.0
 10
30.71383833066985
 20
16.47530106567475
 30
0.0
 10
30.70459137822141
 20
16.53152190577034
 30
0.0
 10
30.69874336740963
 20
16.5670774125775
 30
0.0
  0
LINE
  5
C6
330
1F
100
AcDbEntity
  8
0
  6
Continuous
 62
     7
370
    25
100
AcDbLine
 10
30.6987433674
 20
16.6160430903
 30
0.0
 11
30.6987433674
 21
16.5670774126
 31
0.0
  0
SPLINE
  5
C7
330
1F
100
AcDbEntity
  8
0
  6
Continuous
 62
     7
370
    25
100
AcDbSpline
210
0.0
220
0.0
230
1.0
 70
     8
 71
     3
 72
    11
 73
     7
 74
     0
 42
0.000000001
 43
0.00000001
 40
0.0
 40
0.0
 40
0.0
 40
0.0
 40
0.5152843266949163
 40
0.8147744283888968
 40
0.9720986955803037
 40
1.0
 40
1.0
 40
1.0
 40
1.0
 10
30.4231528443882
 20
16.5670774125775
 30
0.0
 10
30.42895700572102
 20
16.53090210990412
 30
0.0
 10
30.43813462279033
 20
16.47370124034429
 30
0.0
 10
30.4558626265305
 20
16.42228737189894
 30
0.0
 10
30.46826460032058
 20
16.37439170130321
 30
0.0
 10
30.48046451655773
 20
16.37978815035608
 30
0.0
 10
30.48230224108932
 20
16.3806010401018
 30
0.0
  0
SPLINE
  5
C8
330
1F
100
AcDbEntity
  8
0
  6
Continuous
 62
     7
370
    25
100
AcDbSpline
210
0.0
220
0.0
230
1.0
 70
     8
 71
     3
 72
    20
 73
    16
 74
     0
 42
0.000000001
 43
0.00000001
 40
0.0
 40
0.0
 40
0.0
 40
0.0
 40
0.0079674251330467
 40
0.057311337639916
 40
0.0801545557744155
 40
0.10299748154752
 40
0.152341640295331
 40
0.228226687989155
 40
0.3275645164398952
 40
0.4440495960190249
 40
0.5705447634129687
 40
0.6997900305960262
 40
0.8241860330767862
 40
0.9360665537005819
 40
1.0
 40
1.0
 40
1.0
 40
1.0
 10
30.66283098227257
 20
17.40425357811367
 30
0.0
 10
30.66343172163224
 20
17.40702004050443
 30
0.0
 10
30.66775296415422
 20
17.42691977693092
 30
0.0
 10
30.67303247917727
 20
17.45093153481794
 30
0.0
 10
30.69874537768951
 20
17.48794062854959
 30
0.0
 10
30.72444095878837
 20
17.45104600345699
 30
0.0
 10
30.73433017764082
 20
17.40516944454366
 30
0.0
 10
30.75286815095661
 20
17.32528408967689
 30
0.0
 10
30.76800170851545
 20
17.22442578197291
 30
0.0
 10
30.78480776584132
 20
17.10438867428074
 30
0.0
 10
30.80127287001245
 20
16.97411064417513
 30
0.0
 10
30.81781039379595
 20
16.84088935214922
 30
0.0
 10
30.83451276817113
 20
16.71293922501802
 30
0.0
 10
30.84887987895403
 20
16.60789376729184
 30
0.0
 10
30.86003946361901
 20
16.54682671923608
 30
0.0
 10
30.86409756389051
 20
16.52462013971421
 30
0.0
  0
SPLINE
  5
C9
330
1F
100
AcDbEntity
  8
0
  6
Continuous
 62
     7
370
    25
100
AcDbSpline
210
0.0
220
0.0
230
1.0
 70
     8
 71
     3
 72
    14
 73
    10
 74
     0
 42
0.000000001
 43
0.00000001
 40
0.0
 40
0.0
 40
0.0
 40
0.0
 40
0.0831770487514854
 40
0.3182903771824581
 40
0.5349040989359879
 40
0.7198538888375825
 40
0.8615829440351104
 40
0.9546827107958107
 40
1.0
 40
1.0
 40
1.0
 40
1.0
 10
30.8070132100005
 20
16.92799125499037
 30
0.0
 10
30.80504479034981
 20
16.94154107857264
 30
0.0
 10
30.79751231543667
 20
16.99339166143764
 30
0.0
 10
30.78479437381527
 20
17.08058970826052
 30
0.0
 10
30.76804568261655
 20
17.18382582577275
 30
0.0
 10
30.75269395873628
 20
17.27261679885835
 30
0.0
 10
30.73462438487185
 20
17.33786998880241
 30
0.0
 10
30.72365588546319
 20
17.38567695158292
 30
0.0
 10
30.70501433461785
 20
17.39956273369248
 30
0.0
 10
30.69891115213803
 20
17.40410889311842
 30
0.0
  0
SPLINE
  5
CA
330
1F
100
AcDbEntity
  8
0
  6
Continuous
 62
     7
370
    25
100
AcDbSpline
210
0.0
220
0.0
230
1.0
 70
     8
 71
     3
 72
    18
 73
    14
 74
     0
 42
0.000000001
 43
0.00000001
 40
0.0
 40
0.0
 40
0.0
 40
0.0
 40
0.1005121272638071
 40
0.2109006966509503
 40
0.3357126448828707
 40
0.4672639488742422
 40
0.5978759804500325
 40
0.7199888624736921
 40
0.8261031303922378
 40
0.9095035598980056
 40
0.9665006202749427
 40
0.9955616358582525
 40
1.0
 40
1.0
 40
1.0
 40
1.0
 10
27.27354632224484
 20
17.39113604631518
 30
0.0
 10
27.28042639155694
 20
17.35708781964302
 30
0.0
 10
27.29486257403987
 20
17.28564574672737
 30
0.0
 10
27.31114838383407
 20
17.17075094297688
 30
0.0
 10
27.32782909552788
 20
17.04515859800044
 30
0.0
 10
27.34434415182709
 20
16.9124037658544
 30
0.0
 10
27.36090848945938
 20
16.7809010666716
 30
0.0
 10
27.37742894476442
 20
16.65722458519255
 30
0.0
 10
27.39352970197226
 20
16.55312194627506
 30
0.0
 10
27.40996002713029
 20
16.46332130994044
 30
0.0
 10
27.42444970523005
 20
16.41966543520993
 30
0.0
 10
27.43908201739774
 20
16.37226817404616
 30
0.0
 10
27.44943017132522
 20
16.37893703543652
 30
0.0
 10
27.45080120791461
 20
16.37982059911753
 30
0.0
  0
SPLINE
  5
CB
330
1F
100
AcDbEntity
  8
0
  6
Continuous
 62
     7
370
    25
100
AcDbSpline
210
0.0
220
0.0
230
1.0
 70
     8
 71
     3
 72
    23
 73
    19
 74
     0
 42
0.000000001
 43
0.00000001
 40
0.0
 40
0.0
 40
0.0
 40
0.0
 40
0.011439103854551
 40
0.0527028201336038
 40
0.0707425555642915
 40
0.0919477694449108
 40
0.1364080331377165
 40
0.2045974183888359
 40
0.2923013393135211
 40
0.3942533991537976
 40
0.5048381239306614
 40
0.6173681037768708
 40
0.7248895344090187
 40
0.8208155682132382
 40
0.900008163891344
 40
0.9578270419283693
 40
0.9910611831263326
 40
0.9999999999999999
 40
0.9999999999999999
 40
0.9999999999999999
 40
0.9999999999999999
 10
27.63142058805079
 20
17.40388284572973
 30
0.0
 10
27.63245019358383
 20
17.40843894481013
 30
0.0
 10
27.63719384447696
 20
17.42943003584294
 30
0.0
 10
27.64154551116386
 20
17.45556269202718
 30
0.0
 10
27.67040221103722
 20
17.48696400228405
 30
0.0
 10
27.69325562989109
 20
17.44731798523539
 30
0.0
 10
27.70464906752702
 20
17.40066542645646
 30
0.0
 10
27.72228293613052
 20
17.31804994221081
 30
0.0
 10
27.73784568228205
 20
17.21577330881651
 30
0.0
 10
27.75459870645315
 20
17.09467230607141
 30
0.0
 10
27.77103663063123
 20
16.9638714999029
 30
0.0
 10
27.78765544465838
 20
16.83077924162073
 30
0.0
 10
27.80394783470603
 20
16.70325723648408
 30
0.0
 10
27.82099118919368
 20
16.59083417421433
 30
0.0
 10
27.8354915119353
 20
16.49458727157446
 30
0.0
 10
27.85479617764196
 20
16.43433534162281
 30
0.0
 10
27.86242919709051
 20
16.38406792085667
 30
0.0
 10
27.88014085667098
 20
16.38158713022628
 30
0.0
 10
27.8838949514454
 20
16.38106131145138
 30
0.0
  0
SPLINE
  5
CC
330
1F
100
AcDbEntity
  8
0
  6
Continuous
 62
     7
370
    25
100
AcDbSpline
210
0.0
220
0.0
230
1.0
 70
     8
 71
     3
 72
    23
 73
    19
 74
     0
 42
0.000000001
 43
0.00000001
 40
0.0
 40
0.0
 40
0.0
 40
0.0
 40
0.0391737401212955
 40
0.0654222962980605
 40
0.0802938674406617
 40
0.1159194761525997
 40
0.1753202345723783
 40
0.2556215627493154
 40
0.3529071891176777
 40
0.4610755425356361
 40
0.5734606445608517
 40
0.6834543398332529
 40
0.7847438239244154
 40
0.8711228931193119
 40
0.9371087287615255
 40
0.9800158061008553
 40
0.999878994139139
 40
0.9999999999999999
 40
0.9999999999999999
 40
0.9999999999999999
 40
0.9999999999999999
 10
28.06464369008721
 20
17.4042276550798
 30
0.0
 10
28.06862796478911
 20
17.41825134545008
 30
0.0
 10
28.07528192224309
 20
17.44167167814633
 30
0.0
 10
28.08828140643759
 20
17.48320497588078
 30
0.0
 10
28.12335818712098
 20
17.4678748224958
 30
0.0
 10
28.12984105183943
 20
17.41995326703019
 30
0.0
 10
28.15004102488156
 20
17.35353178399321
 30
0.0
 10
28.16436660526549
 20
17.25736698388774
 30
0.0
 10
28.18140619765077
 20
17.14295435596994
 30
0.0
 10
28.19769090851825
 20
17.01483426297757
 30
0.0
 10
28.21435299937066
 20
16.88161296128717
 30
0.0
 10
28.23076948292823
 20
16.75150974197635
 30
0.0
 10
28.24763793425343
 20
16.63085953958469
 30
0.0
 10
28.26261154229378
 20
16.53179722202165
 30
0.0
 10
28.28154363633918
 20
16.4474268629878
 30
0.0
 10
28.29065081730738
 20
16.41046878021625
 30
0.0
 10
28.31120800806259
 20
16.37096976036396
 30
0.0
 10
28.31692270572967
 20
16.37676552685076
 30
0.0
 10
28.31695730867209
 20
16.37680062067124
 30
0.0
  0
SPLINE
  5
CD
330
1F
100
AcDbEntity
  8
0
  6
Continuous
 62
     7
370
    25
100
AcDbSpline
210
0.0
220
0.0
230
1.0
 70
     8
 71
     3
 72
    23
 73
    19
 74
     0
 42
0.000000001
 43
0.00000001
 40
0.0
 40
0.0
 40
0.0
 40
0.0
 40
0.0230076780603504
 40
0.0586246700566873
 40
0.0734926341155068
 40
0.0997348415911072
 40
0.1497294874156644
 40
0.2227699155627385
 40
0.3142625350446606
 40
0.4186728086231595
 40
0.5301822478374675
 40
0.642092254057288
 40
0.7474890460484389
 40
0.8398754464457525
 40
0.9143888000985074
 40
0.9667549360560368
 40
0.9944867970915297
 40
1.0
 40
1.0
 40
1.0
 40
1.0
 10
28.4979078583159
 20
17.403842916191
 30
0.0
 10
28.50024964533767
 20
17.412762008614
 30
0.0
 10
28.5062166312775
 20
17.43548828499583
 30
0.0
 10
28.51031301215417
 20
17.4679216062258
 30
0.0
 10
28.54545525338438
 20
17.48317779491623
 30
0.0
 10
28.55994724921734
 20
17.43622723103718
 30
0.0
 10
28.57591887989154
 20
17.38519099774379
 30
0.0
 10
28.59154078100789
 20
17.2959014847353
 30
0.0
 10
28.60799145003339
 20
17.18925593513883
 30
0.0
 10
28.62448101258242
 20
17.06506582351069
 30
0.0
 10
28.64102548550969
 20
16.9330409280784
 30
0.0
 10
28.65759076571051
 20
16.80067507128188
 30
0.0
 10
28.67395483004136
 20
16.67536781746861
 30
0.0
 10
28.69066415465449
 20
16.56788427169092
 30
0.0
 10
28.70592233206334
 20
16.47519425125881
 30
0.0
 10
28.72296444491472
 20
16.42537109133647
 30
0.0
 10
28.7339574047611
 20
16.37607139239945
 30
0.0
 10
28.74764253676197
 20
16.38036529150875
 30
0.0
 10
28.74991201380906
 20
16.38107737126585
 30
0.0
  0
SPLINE
  5
CE
330
1F
100
AcDbEntity
  8
0
  6
Continuous
 62
     7
370
    25
100
AcDbSpline
210
0.0
220
0.0
230
1.0
 70
     8
 71
     3
 72
    22
 73
    18
 74
     0
 42
0.000000001
 43
0.00000001
 40
0.0
 40
0.0
 40
0.0
 40
0.0
 40
0.0777141959521719
 40
0.1854897940953818
 40
0.2797397189452073
 40
0.3985660488579109
 40
0.4717419381710243
 40
0.5767126895639808
 40
0.6743055339046409
 40
0.7485557438403144
 40
0.8074803785489723
 40
0.8731477485098459
 40
0.908939893576847
 40
0.9516104021348843
 40
0.981302447509638
 40
0.9981208511712181
 40
1.0
 40
1.0
 40
1.0
 40
1.0
 10
28.64165478440581
 20
16.92794552461656
 30
0.0
 10
28.63982017892623
 20
16.94063130793026
 30
0.0
 10
28.63544130594832
 20
16.97090998875512
 30
0.0
 10
28.62877251567694
 20
17.01656430994041
 30
0.0
 10
28.62097072132782
 20
17.0689056451137
 30
0.0
 10
28.61378946596329
 20
17.11556970979835
 30
0.0
 10
28.60598125335669
 20
17.1639245910003
 30
0.0
 10
28.59830825861421
 20
17.20875362375182
 30
0.0
 10
28.58987524292293
 20
17.25362503085769
 30
0.0
 10
28.58203223761881
 20
17.2908792804924
 30
0.0
 10
28.57443978912255
 20
17.32277156195987
 30
0.0
 10
28.56736192082145
 20
17.34832618510692
 30
0.0
 10
28.55967807301493
 20
17.37071562622119
 30
0.0
 10
28.55238326242659
 20
17.38744546992703
 30
0.0
 10
28.54428109766927
 20
17.39887189835516
 30
0.0
 10
28.5366445882798
 20
17.40460182479266
 30
0.0
 10
28.53368076031752
 20
17.40364191608595
 30
0.0
 10
28.53338288850533
 20
17.40354544296077
 30
0.0
  0
SPLINE
  5
CF
330
1F
100
AcDbEntity
  8
0
  6
Continuous
 62
     7
370
    25
100
AcDbSpline
210
0.0
220
0.0
230
1.0
 70
     8
 71
     3
 72
    22
 73
    18
 74
     0
 42
0.000000001
 43
0.00000001
 40
0.0
 40
0.0
 40
0.0
 40
0.0
 40
0.0188210127876814
 40
0.144343542663139
 40
0.2699617785639284
 40
0.3704434172587932
 40
0.4684528590292941
 40
0.5621083587408765
 40
0.6282536516400652
 40
0.7202413436714652
 40
0.8016927054050856
 40
0.8585917355687201
 40
0.9068417578989952
 40
0.9454897151028271
 40
0.967911042900729
 40
0.99181758311396
 40
1.0
 40
1.0
 40
1.0
 40
1.0
 10
28.20854813435746
 20
16.92807919254711
 30
0.0
 10
28.20810254190331
 20
16.93115220901833
 30
0.0
 10
28.20468517036534
 20
16.95472002065109
 30
0.0
 10
28.19830176272492
 20
16.99879942184396
 30
0.0
 10
28.18982386246615
 20
17.05618860809016
 30
0.0
 10
28.18173910753852
 20
17.10904688330635
 30
0.0
 10
28.17412262272165
 20
17.15664095786294
 30
0.0
 10
28.16699394758006
 20
17.19857532050232
 30
0.0
 10
28.15954320072374
 20
17.23944185553021
 30
0.0
 10
28.15183180927122
 20
17.27821990083295
 30
0.0
 10
28.1433287845869
 20
17.31524611705649
 30
0.0
 10
28.13521919460888
 20
17.34500751204122
 30
0.0
 10
28.12776200850053
 20
17.36740139399221
 30
0.0
 10
28.12066010829887
 20
17.38438517491922
 30
0.0
 10
28.11348310719566
 20
17.39569047451361
 30
0.0
 10
28.10701730465284
 20
17.40430889441449
 30
0.0
 10
28.1016019601796
 20
17.40339422937216
 30
0.0
 10
28.10022109242736
 20
17.40316099740192
 30
0.0
  0
SPLINE
  5
D0
330
1F
100
AcDbEntity
  8
0
  6
Continuous
 62
     7
370
    25
100
AcDbSpline
210
0.0
220
0.0
230
1.0
 70
     8
 71
     3
 72
    22
 73
    18
 74
     0
 42
0.000000001
 43
0.00000001
 40
0.0
 40
0.0
 40
0.0
 40
0.0
 40
0.0177829300704839
 40
0.1272472034067149
 40
0.208890188246784
 40
0.330312706170422
 40
0.4485142590373021
 40
0.5404885183797946
 40
0.6277702895060872
 40
0.7086183152449799
 40
0.7806339761773782
 40
0.8369195947491891
 40
0.8980069828540936
 40
0.9378402541026108
 40
0.9680997684129393
 40
0.9894081890895009
 40
1.0
 40
1.0
 40
1.0
 40
1.0
 10
27.77552654999309
 20
16.92784568108714
 30
0.0
 10
27.77510631256874
 20
16.93074918293824
 30
0.0
 10
27.77209926947723
 20
16.95152542673916
 30
0.0
 10
27.76716121291683
 20
16.98563167600334
 30
0.0
 10
27.75967030165985
 20
17.03664453497857
 30
0.0
 10
27.75179066284314
 20
17.08905712710779
 30
0.0
 10
27.74327513993077
 20
17.14309675213296
 30
0.0
 10
27.73515253398214
 20
17.19149431325057
 30
0.0
 10
27.72753599055094
 20
17.23372453780053
 30
0.0
 10
27.71985147160132
 20
17.27259546552009
 30
0.0
 10
27.71238278219511
 20
17.30627841587704
 30
0.0
 10
27.70465813024338
 20
17.33658388786195
 30
0.0
 10
27.69708948746257
 20
17.3613219092977
 30
0.0
 10
27.68898253613966
 20
17.38164889076922
 30
0.0
 10
27.68150864404672
 20
17.39430393988389
 30
0.0
 10
27.67429457830109
 20
17.40297355278097
 30
0.0
 10
27.66888570647808
 20
17.40317287801847
 30
0.0
 10
27.66708980266364
 20
17.40323905983347
 30
0.0
  0
SPLINE
  5
D1
330
1F
100
AcDbEntity
  8
0
  6
Continuous
 62
     7
370
    25
100
AcDbSpline
210
0.0
220
0.0
230
1.0
 70
     8
 71
     3
 72
    16
 73
    12
 74
     0
 42
0.000000001
 43
0.00000001
 40
0.0
 40
0.0
 40
0.0
 40
0.0
 40
0.1221766225206151
 40
0.2546868983285302
 40
0.3858208170016514
 40
0.5080671786331081
 40
0.611996834460994
 40
0.7387126758522669
 40
0.8342846950673453
 40
0.9219530258135256
 40
1.0
 40
1.0
 40
1.0
 40
1.0
 10
27.342460966137
 20
16.92773093042036
 30
0.0
 10
27.34008590125411
 20
16.94412225237611
 30
0.0
 10
27.33513488938398
 20
16.97829126820162
 30
0.0
 10
27.32755690147244
 20
17.03004205603431
 30
0.0
 10
27.31979748842613
 20
17.08177558316597
 30
0.0
 10
27.31234558440708
 20
17.12963706400927
 30
0.0
 10
27.30462011248737
 20
17.17684800458929
 30
0.0
 10
27.29701234347442
 20
17.22041415809575
 30
0.0
 10
27.28903283815357
 20
17.26166807387927
 30
0.0
 10
27.28168525991062
 20
17.29632609118621
 30
0.0
 10
27.27613925769905
 20
17.31809747938229
 30
0.0
 10
27.27352725579843
 20
17.32835115494494
 30
0.0
  0
LINE
  5
D2
330
1F
100
AcDbEntity
  8
0
  6
Continuous
 62
     7
370
    25
100
AcDbLine
 10
27.2735463222
 20
17.3284105543
 30
0.0
 11
27.2735463222
 21
17.3913042344
 31
0.0
  0
SPLINE
  5
D3
330
1F
100
AcDbEntity
  8
0
  6
Continuous
 62
     7
370
    25
100
AcDbSpline
210
0.0
220
0.0
230
1.0
 70
     8
 71
     3
 72
    14
 73
    10
 74
     0
 42
0.000000001
 43
0.00000001
 40
0.0
 40
0.0
 40
0.0
 40
0.0
 40
0.0134123440972245
 40
0.0749500867286498
 40
0.1877797475953234
 40
0.347365004496469
 40
0.5448197910461747
 40
0.7698798205958717
 40
1.0
 40
1.0
 40
1.0
 40
1.0
 10
29.02546205729811
 20
16.45527793076132
 30
0.0
 10
29.02321177959426
 20
16.45463651898528
 30
0.0
 10
29.01063690768191
 20
16.45105221873957
 30
0.0
 10
28.99805279199508
 20
16.49237609862626
 30
0.0
 10
28.98186307465482
 20
16.5368781860531
 30
0.0
 10
28.96614850779771
 20
16.6164928287161
 30
0.0
 10
28.94959334965264
 20
16.70964907069218
 30
0.0
 10
28.93338844878879
 20
16.8164686159807
 30
0.0
 10
28.9226473835424
 20
16.89067899030213
 30
0.0
 10
28.91721714775254
 20
16.92819666861189
 30
0.0
  0
SPLINE
  5
D4
330
1F
100
AcDbEntity
  8
0
  6
Continuous
 62
     7
370
    25
100
AcDbSpline
210
0.0
220
0.0
230
1.0
 70
     8
 71
     3
 72
    15
 73
    11
 74
     0
 42
0.000000001
 43
0.00000001
 40
0.0
 40
0.0
 40
0.0
 40
0.0
 40
0.0002862300161691
 40
0.0460285570019707
 40
0.1390753724789456
 40
0.2807241931555168
 40
0.4655689810895715
 40
0.6820599487534555
 40
0.9170398494828446
 40
1.0
 40
1.0
 40
1.0
 40
1.0
 10
28.59255076499297
 20
16.45159194667546
 30
0.0
 10
28.592515184519
 20
16.45156082144517
 30
0.0
 10
28.58679349992384
 20
16.44655558315484
 30
0.0
 10
28.56710838542673
 20
16.47910226378086
 30
0.0
 10
28.55679854291136
 20
16.51302079796124
 30
0.0
 10
28.53839453779666
 20
16.58516824805592
 30
0.0
 10
28.5231767396905
 20
16.67121033559035
 30
0.0
 10
28.50638123914904
 20
16.77539507464447
 30
0.0
 10
28.49368000527552
 20
16.86231720409355
 30
0.0
 10
28.48615077907599
 20
16.91415417433605
 30
0.0
 10
28.48418617682994
 20
16.92768000361365
 30
0.0
  0
SPLINE
  5
D5
330
1F
100
AcDbEntity
  8
0
  6
Continuous
 62
     7
370
    25
100
AcDbSpline
210
0.0
220
0.0
230
1.0
 70
     8
 71
     3
 72
    14
 73
    10
 74
     0
 42
0.000000001
 43
0.00000001
 40
0.0
 40
0.0
 40
0.0
 40
0.0
 40
0.021786587103196
 40
0.0947237598736202
 40
0.2191796265503786
 40
0.3888646409216558
 40
0.5940604705735049
 40
0.8238916647676001
 40
1.0
 40
1.0
 40
1.0
 40
1.0
 10
28.15942768846771
 20
16.45528343069779
 30
0.0
 10
28.15569940323538
 20
16.45567620182333
 30
0.0
 10
28.13948955846188
 20
16.45738389278036
 30
0.0
 10
28.12960079840236
 20
16.50072403060049
 30
0.0
 10
28.11152367432095
 20
16.55338657291971
 30
0.0
 10
28.09643953108047
 20
16.63645259544477
 30
0.0
 10
28.0795966061487
 20
16.73371952140923
 30
0.0
 10
28.06478499976236
 20
16.83344420058526
 30
0.0
 10
28.05522573356987
 20
16.89953433487786
 30
0.0
 10
28.05107864679175
 20
16.92820615095352
 30
0.0
  0
SPLINE
  5
D6
330
1F
100
AcDbEntity
  8
0
  6
Continuous
 62
     7
370
    25
100
AcDbSpline
210
0.0
220
0.0
230
1.0
 70
     8
 71
     3
 72
    15
 73
    11
 74
     0
 42
0.000000001
 43
0.00000001
 40
0.0
 40
0.0
 40
0.0
 40
0.0
 40
0.0089187253741367
 40
0.0643220518162869
 40
0.1689698810031812
 40
0.3209700518913169
 40
0.5138851261443862
 40
0.7356657942002325
 40
0.9727912148933358
 40
1.0
 40
1.0
 40
1.0
 40
1.0
 10
27.72634714478444
 20
16.4541783101309
 30
0.0
 10
27.72499441474392
 20
16.4534128595816
 30
0.0
 10
27.715238494687
 20
16.44789241267587
 30
0.0
 10
27.70002688389031
 20
16.48724457246063
 30
0.0
 10
27.68567802588302
 20
16.52669871183347
 30
0.0
 10
27.66910518352722
 20
16.60367014588718
 30
0.0
 10
27.65304178899161
 20
16.69398330116285
 30
0.0
 10
27.63648100597861
 20
16.80080868159551
 30
0.0
 10
27.62500340879069
 20
16.88001133138391
 30
0.0
 10
27.61870747059528
 20
16.92315461986187
 30
0.0
 10
27.61805940906693
 20
16.92759549977539
 30
0.0
  0
SPLINE
  5
D7
330
1F
100
AcDbEntity
  8
0
  6
Continuous
 62
     7
370
    25
100
AcDbSpline
210
0.0
220
0.0
230
1.0
 70
     8
 71
     3
 72
    23
 73
    19
 74
     0
 42
0.000000001
 43
0.00000001
 40
0.0
 40
0.0
 40
0.0
 40
0.0
 40
0.0266001450986492
 40
0.0598198998694696
 40
0.0741819946379766
 40
0.1019158630230922
 40
0.1542857894634576
 40
0.2288045367085197
 40
0.3211976244250057
 40
0.4266020454826076
 40
0.5385201522229264
 40
0.6500376629629953
 40
0.7544554941995617
 40
0.845954736305006
 40
0.9190004514277974
 40
0.9689987160766848
 40
0.9952428230744705
 40
0.9999999999999999
 40
0.9999999999999999
 40
0.9999999999999999
 40
0.9999999999999999
 10
29.06092535428974
 20
16.45161244310535
 30
0.0
 10
29.05818179394343
 20
16.44143279172572
 30
0.0
 10
29.05201192138848
 20
16.41854022012593
 30
0.0
 10
29.04673839793574
 20
16.38449248020499
 30
0.0
 10
29.01090950677009
 20
16.37471507225207
 30
0.0
 10
28.99840507455207
 20
16.42288548894797
 30
0.0
 10
28.98158596483028
 20
16.47640658785374
 30
0.0
 10
28.96622640887523
 20
16.56741552707969
 30
0.0
 10
28.94955493277848
 20
16.67552656392888
 30
0.0
 10
28.93317814522555
 20
16.80062342307539
 30
0.0
 10
28.91661785519178
 20
16.93306965233118
 30
0.0
 10
28.90006752203709
 20
17.06500611772891
 30
0.0
 10
28.88359456666614
 20
17.1894422471809
 30
0.0
 10
28.8670941892686
 20
17.29535262321446
 30
0.0
 10
28.8516035168837
 20
17.38658273848971
 30
0.0
 10
28.83535066425046
 20
17.43346031610679
 30
0.0
 10
28.82288723460082
 20
17.48141388187875
 30
0.0
 10
28.81064847645015
 20
17.4759637390483
 30
0.0
 10
28.80877042720498
 20
17.47512740937312
 30
0.0
  0
SPLINE
  5
D8
330
1F
100
AcDbEntity
  8
0
  6
Continuous
 62
     7
370
    25
100
AcDbSpline
210
0.0
220
0.0
230
1.0
 70
     8
 71
     3
 72
    23
 73
    19
 74
     0
 42
0.000000001
 43
0.00000001
 40
0.0
 40
0.0
 40
0.0
 40
0.0
 40
0.0071177589903789
 40
0.0500359702316187
 40
0.0699043125428325
 40
0.0897726548540463
 40
0.132690866095286
 40
0.1986938243165015
 40
0.2850953079041538
 40
0.3864110754723161
 40
0.4964333128661996
 40
0.6088475775559375
 40
0.7170439994397853
 40
0.8143548703292941
 40
0.8946770357938443
 40
0.9540932080394677
 40
0.9897280611944551
 40
0.9999999999999999
 40
0.9999999999999999
 40
0.9999999999999999
 40
0.9999999999999999
 10
28.62840448414108
 20
16.45172456847673
 30
0.0
 10
28.62778754822918
 20
16.44888265051636
 30
0.0
 10
28.62345065132605
 20
16.42890471607686
 30
0.0
 10
28.61815401435178
 20
16.40482206792106
 30
0.0
 10
28.592442108695
 20
16.36781378509177
 30
0.0
 10
28.5667458800578
 20
16.40470794653217
 30
0.0
 10
28.55685756271556
 20
16.45058503924444
 30
0.0
 10
28.53831832272145
 20
16.53046982107956
 30
0.0
 10
28.52318727232186
 20
16.63132965121152
 30
0.0
 10
28.50637311858209
 20
16.75136065310724
 30
0.0
 10
28.48993885681475
 20
16.88166364343499
 30
0.0
 10
28.47328615817529
 20
17.01479000355798
 30
0.0
 10
28.45698357996721
 20
17.14307117298134
 30
0.0
 10
28.43999693023496
 20
17.25701478602846
 30
0.0
 10
28.42552427658202
 20
17.35448069806158
 30
0.0
 10
28.40567223136624
 20
17.4178244832815
 30
0.0
 10
28.39885357026679
 20
17.46911106405546
 30
0.0
 10
28.38012872478345
 20
17.47407940134003
 30
0.0
 10
28.37593892064481
 20
17.47519109863738
 30
0.0
  0
SPLINE
  5
D9
330
1F
100
AcDbEntity
  8
0
  6
Continuous
 62
     7
370
    25
100
AcDbSpline
210
0.0
220
0.0
230
1.0
 70
     8
 71
     3
 72
    23
 73
    19
 74
     0
 42
0.000000001
 43
0.00000001
 40
0.0
 40
0.0
 40
0.0
 40
0.0
 40
0.0365583674393864
 40
0.0642866048961735
 40
0.0786483835423348
 40
0.1118599434789812
 40
0.1696395359155084
 40
0.2487783234122406
 40
0.3446391793373771
 40
0.4520875534849958
 40
0.564541073739072
 40
0.6750506606463285
 40
0.7769334481653696
 40
0.8645777778057451
 40
0.9327208311141124
 40
0.9771508858472017
 40
0.9983416916384689
 40
1.0
 40
1.0
 40
1.0
 40
1.0
 10
28.19490565195658
 20
16.45166964244458
 30
0.0
 10
28.19116216567634
 20
16.43841194544658
 30
0.0
 10
28.18457937655614
 20
16.41509875100056
 30
0.0
 10
28.17395276463039
 20
16.37467506092594
 30
0.0
 10
28.13817018095116
 20
16.38455880197213
 30
0.0
 10
28.13055467550261
 20
16.43228725330902
 30
0.0
 10
28.11100514822869
 20
16.49552478282929
 30
0.0
 10
28.09661033383449
 20
16.59048492897508
 30
0.0
 10
28.07952893105142
 20
16.70337345853807
 30
0.0
 10
28.06324895578399
 20
16.8307372991604
 30
0.0
 10
28.04662556563611
 20
16.96391223763662
 30
0.0
 10
28.03019239196829
 20
17.09455822029954
 30
0.0
 10
28.01342659495105
 20
17.21613299078991
 30
0.0
 10
27.99790094530385
 20
17.31701851430521
 30
0.0
 10
27.98017289211544
 20
17.40316875579149
 30
0.0
 10
27.96896899905501
 20
17.44270726468438
 30
0.0
 10
27.95033471432833
 20
17.48409286134614
 30
0.0
 10
27.94310528039788
 20
17.47775491984213
 30
0.0
 10
27.94258059350385
 20
17.47729493433369
 30
0.0
  0
LWPOLYLINE
  5
DA
330
1F
100
AcDbEntity
  8
0
  6
Continuous
 62
     7
370
    25
100
AcDbPolyline
 90
       15
 70
   128
 43
0.0
 10
27.7618650011
 20
16.4518296173
 10
27.7564859166
 20
16.4291020831
 10
27.7394255537
 20
16.3870247459
 10
27.7223651908
 20
16.3775949582
 10
27.7053048279
 20
16.4024223314
 10
27.6882444649
 20
16.4589874179
 10
27.671184102
 20
16.5437383222
 10
27.6541237391
 20
16.6524028586
 10
27.6370633762
 20
16.7778273146
 10
27.6200030133
 20
16.9121375758
 10
27.6029426504
 20
17.0474292318
 10
27.5858822874
 20
17.175676677
 10
27.5688219245
 20
17.2888239916
 10
27.5491368453
 20
17.3911360463
 10
27.5491368453
 20
17.3911360463
  0
SPLINE
  5
DB
330
1F
100
AcDbEntity
  8
0
  6
Continuous
 62
     7
370
    25
100
AcDbSpline
210
0.0
220
0.0
230
1.0
 70
     8
 71
     3
 72
    23
 73
    19
 74
     0
 42
0.000000001
 43
0.00000001
 40
0.0
 40
0.0
 40
0.0
 40
0.0
 40
0.0189262869928278
 40
0.0561928017429666
 40
0.0721908769542436
 40
0.0969181291417199
 40
0.1454124654451024
 40
0.2163713490022176
 40
0.306656878434937
 40
0.4105548066104532
 40
0.5216831416648549
 40
0.6336091987945556
 40
0.7398021390915869
 40
0.8337272521468255
 40
0.9094646686058826
 40
0.9634690775717288
 40
0.9935370547659128
 40
1.0
 40
1.0
 40
1.0
 40
1.0
 10
28.93096581559342
 20
17.40422116515477
 30
0.0
 10
28.93281611071308
 20
17.4116753125885
 30
0.0
 10
28.93830970102292
 20
17.43380693455245
 30
0.0
 10
28.94264104755603
 20
17.46309862188218
 30
0.0
 10
28.97549548656796
 20
17.48578852329925
 30
0.0
 10
28.99289777259842
 20
17.43948800877017
 30
0.0
 10
29.00712184064693
 20
17.39070640403198
 30
0.0
 10
29.02367792897317
 20
17.30332460756994
 30
0.0
 10
29.03972886193387
 20
17.1982897015819
 30
0.0
 10
29.05627207186271
 20
17.07493481381811
 30
0.0
 10
29.07280393980584
 20
16.94329357204333
 30
0.0
 10
29.08942370411908
 20
16.81073974478007
 30
0.0
 10
29.10575171443303
 20
16.68454600647105
 30
0.0
 10
29.12256500636435
 20
16.57541788147289
 30
0.0
 10
29.13734344196074
 20
16.48137540528577
 30
0.0
 10
29.15593035005477
 20
16.42868358686389
 30
0.0
 10
29.16475433674793
 20
16.37773042523111
 30
0.0
 10
29.18022103443725
 20
16.38055692811254
 30
0.0
 10
29.18295735789896
 20
16.38105698483469
 30
0.0
  0
SPLINE
  5
DC
330
1F
100
AcDbEntity
  8
0
  6
Continuous
 62
     7
370
    25
100
AcDbSpline
210
0.0
220
0.0
230
1.0
 70
     8
 71
     3
 72
    22
 73
    18
 74
     0
 42
0.000000001
 43
0.00000001
 40
0.0
 40
0.0
 40
0.0
 40
0.0
 40
0.0455059121333709
 40
0.0680725228085246
 40
0.0850443985955213
 40
0.1238911485992303
 40
0.1869932359549598
 40
0.270585716279415
 40
0.3696999607849678
 40
0.4789475812016191
 40
0.5916787303134852
 40
0.7009263507301364
 40
0.8000405952356892
 40
0.8836330755601444
 40
0.9467351629158739
 40
0.9855819129195829
 40
1.0
 40
1.0
 40
1.0
 40
1.0
 10
29.36328428808021
 20
17.40386997587841
 30
0.0
 10
29.36724553024605
 20
17.42012300255488
 30
0.0
 10
29.37317117232293
 20
17.44443598689632
 30
0.0
 10
29.39365133397734
 20
17.48627971373566
 30
0.0
 10
29.42413433223861
 20
17.45930432528922
 30
0.0
 10
29.43210199821019
 20
17.41326657101819
 30
0.0
 10
29.4514222610488
 20
17.339553343466
 30
0.0
 10
29.46613797050102
 20
17.24113157740843
 30
0.0
 10
29.48314663302769
 20
17.12381043751621
 30
0.0
 10
29.49948002630973
 20
16.99455783484988
 30
0.0
 10
29.51611399671852
 20
16.86122324382371
 30
0.0
 10
29.53246152884846
 20
16.73182024003616
 30
0.0
 10
29.54942155702908
 20
16.61501644499593
 30
0.0
 10
29.56427736880491
 20
16.51510434912499
 30
0.0
 10
29.58325636195974
 20
16.4450213567542
 30
0.0
 10
29.5916814456946
 20
16.39328639545997
 30
0.0
 10
29.61091679831882
 20
16.38223593313511
 30
0.0
 10
29.6161235539261
 20
16.37924471910348
 30
0.0
  0
SPLINE
  5
DD
330
1F
100
AcDbEntity
  8
0
  6
Continuous
 62
     7
370
    25
100
AcDbSpline
210
0.0
220
0.0
230
1.0
 70
     8
 71
     3
 72
    23
 73
    19
 74
     0
 42
0.000000001
 43
0.00000001
 40
0.0
 40
0.0
 40
0.0
 40
0.0
 40
0.0297093427401574
 40
0.0613751844115033
 40
0.0754407230952765
 40
0.1054988547197386
 40
0.1594853643607193
 40
0.2351978398598005
 40
0.3290919692298717
 40
0.4352499044743474
 40
0.5471388519145958
 40
0.6582302221339816
 40
0.7620936602054662
 40
0.8523498378663777
 40
0.9232863284732786
 40
0.9717652069394833
 40
0.9964830893639941
 40
1.0
 40
1.0
 40
1.0
 40
1.0
 10
29.79721372862361
 20
17.40414302939073
 30
0.0
 10
29.80037937402674
 20
17.41532295420612
 30
0.0
 10
29.80691913736305
 20
17.43841905408461
 30
0.0
 10
29.81308914118516
 20
17.47464835759144
 30
0.0
 10
29.85000430405548
 20
17.47887298130553
 30
0.0
 10
29.85972852024521
 20
17.42928720423001
 30
0.0
 10
29.87822308100735
 20
17.37332907334301
 30
0.0
 10
29.89304320425761
 20
17.28074066091246
 30
0.0
 10
29.90984036641869
 20
17.17107209766645
 30
0.0
 10
29.926174565074
 20
17.04506007234556
 30
0.0
 10
29.94279051197562
 20
16.91242891595028
 30
0.0
 10
29.95932906732862
 20
16.78089732808301
 30
0.0
 10
29.97585335936096
 20
16.65721944781359
 30
0.0
 10
29.99195905446874
 20
16.55314260352948
 30
0.0
 10
30.0083743877562
 20
16.46326946798573
 30
0.0
 10
30.02289519753866
 20
16.41976691810864
 30
0.0
 10
30.03743422788468
 20
16.37230689910762
 30
0.0
 10
30.04767558879132
 20
16.37885317968607
 30
0.0
 10
30.04895124719698
 20
16.37966858087365
 30
0.0
  0
SPLINE
  5
DE
330
1F
100
AcDbEntity
  8
0
  6
Continuous
 62
     7
370
    25
100
AcDbSpline
210
0.0
220
0.0
230
1.0
 70
     8
 71
     3
 72
    19
 73
    15
 74
     0
 42
0.000000001
 43
0.00000001
 40
0.0
 40
0.0
 40
0.0
 40
0.0
 40
0.0136524699159908
 40
0.0631219130044645
 40
0.084748476087617
 40
0.1101710602787405
 40
0.1634718500366158
 40
0.2452193890506684
 40
0.3503632545302834
 40
0.4725932409811611
 40
0.6051777103657221
 40
0.7400898714459337
 40
0.8689806874683459
 40
1.0
 40
1.0
 40
1.0
 40
1.0
 10
30.22985955732875
 20
17.40394393169073
 30
0.0
 10
30.23088436951499
 20
17.40847955529764
 30
0.0
 10
30.23562256751604
 20
17.42944991747371
 30
0.0
 10
30.23997076992062
 20
17.45556271340689
 30
0.0
 10
30.26882772372697
 20
17.48696327243102
 30
0.0
 10
30.29168081301948
 20
17.44731746116868
 30
0.0
 10
30.3030740482912
 20
17.40066579221914
 30
0.0
 10
30.32070889977862
 20
17.31805181591388
 30
0.0
 10
30.3362706240926
 20
17.21577626013414
 30
0.0
 10
30.35302597381651
 20
17.09466595036623
 30
0.0
 10
30.36945658342038
 20
16.9638833712262
 30
0.0
 10
30.38609741458776
 20
16.8307004729413
 30
0.0
 10
30.40299988440337
 20
16.69811601185091
 30
0.0
 10
30.41639861540162
 20
16.61115107723197
 30
0.0
 10
30.4231528443882
 20
16.56731251652823
 30
0.0
  0
SPLINE
  5
DF
330
1F
100
AcDbEntity
  8
0
  6
Continuous
 62
     7
370
    25
100
AcDbSpline
210
0.0
220
0.0
230
1.0
 70
     8
 71
     3
 72
    15
 73
    11
 74
     0
 42
0.000000001
 43
0.00000001
 40
0.0
 40
0.0
 40
0.0
 40
0.0
 40
0.0644126306716924
 40
0.3004817220107043
 40
0.5182184245927488
 40
0.7057275002312767
 40
0.8519207742678245
 40
0.9481458717944892
 40
0.9965117560923058
 40
1.0
 40
1.0
 40
1.0
 40
1.0
 10
30.37392210643922
 20
16.92813883601012
 30
0.0
 10
30.37239691761772
 20
16.93864358585751
 30
0.0
 10
30.36528198753804
 20
16.98764772201093
 30
0.0
 10
30.35301912890064
 20
17.0719803584095
 30
0.0
 10
30.33628376432886
 20
17.17698396485186
 30
0.0
 10
30.32062605798276
 20
17.26454624647965
 30
0.0
 10
30.30316712289341
 20
17.33833237474487
 30
0.0
 10
30.29125090532445
 20
17.37429714700864
 30
0.0
 10
30.27305558158271
 20
17.40848699496401
 30
0.0
 10
30.26604414003483
 20
17.40319674148883
 30
0.0
 10
30.26557247810337
 20
17.40284086443346
 30
0.0
  0
SPLINE
  5
E0
330
1F
100
AcDbEntity
  8
0
  6
Continuous
 62
     7
370
    25
100
AcDbSpline
210
0.0
220
0.0
230
1.0
 70
     8
 71
     3
 72
    14
 73
    10
 74
     0
 42
0.000000001
 43
0.00000001
 40
0.0
 40
0.0
 40
0.0
 40
0.0
 40
0.2118264452115901
 40
0.4386677776378903
 40
0.6394667409009561
 40
0.8017082525342879
 40
0.918032174279301
 40
0.9843837202698497
 40
1.0
 40
1.0
 40
1.0
 40
1.0
 10
29.94089670878557
 20
16.92757569101659
 30
0.0
 10
29.93589003367506
 20
16.96209760874425
 30
0.0
 10
29.9255217954606
 20
17.03358846020174
 30
0.0
 10
29.90978627938288
 20
17.13818313532395
 30
0.0
 10
29.89316883581293
 20
17.23270993221547
 30
0.0
 10
29.87782582378609
 20
17.31362562782313
 30
0.0
 10
29.86036092642489
 20
17.36029790810752
 30
0.0
 10
29.84953146506909
 20
17.40338581409702
 30
0.0
 10
29.83546267701551
 20
17.40096022744695
 30
0.0
 10
29.83278233106542
 20
17.40049811149714
 30
0.0
  0
SPLINE
  5
E1
330
1F
100
AcDbEntity
  8
0
  6
Continuous
 62
     7
370
    25
100
AcDbSpline
210
0.0
220
0.0
230
1.0
 70
     8
 71
     3
 72
    14
 73
    10
 74
     0
 42
0.000000001
 43
0.00000001
 40
0.0
 40
0.0
 40
0.0
 40
0.0
 40
0.1203615508064654
 40
0.3540614830713273
 40
0.5662106316860663
 40
0.7453803005125954
 40
0.8811120049315061
 40
0.9657882845241789
 40
1.0
 40
1.0
 40
1.0
 40
1.0
 10
29.50778448546826
 20
16.92797183774398
 30
0.0
 10
29.50494992675356
 20
16.94755208152814
 30
0.0
 10
29.49661164882631
 20
17.00515029380331
 30
0.0
 10
29.48309914494257
 20
17.09736146324083
 30
0.0
 10
29.46625981579361
 20
17.19833140005035
 30
0.0
 10
29.45103320487258
 20
17.28477134527633
 30
0.0
 10
29.432860709684
 20
17.3454065426285
 30
0.0
 10
29.42276655871806
 20
17.39081886450492
 30
0.0
 10
29.40464947855144
 20
17.39955894411652
 30
0.0
 10
29.39943603045219
 20
17.40207402662536
 30
0.0
  0
SPLINE
  5
E2
330
1F
100
AcDbEntity
  8
0
  6
Continuous
 62
     7
370
    25
100
AcDbSpline
210
0.0
220
0.0
230
1.0
 70
     8
 71
     3
 72
    15
 73
    11
 74
     0
 42
0.000000001
 43
0.00000001
 40
0.0
 40
0.0
 40
0.0
 40
0.0
 40
0.0272060306408433
 40
0.2642965883911191
 40
0.4860465905472356
 40
0.6789344813443131
 40
0.8309112289825863
 40
0.9355429847043123
 40
0.9909408669230354
 40
1.0
 40
1.0
 40
1.0
 40
1.0
 10
29.07470276846521
 20
16.92815824767064
 30
0.0
 10
29.07405460512178
 20
16.93259929781805
 30
0.0
 10
29.06775793646581
 20
16.97574246773985
 30
0.0
 10
29.05628106920382
 20
17.05494581395391
 30
0.0
 10
29.03971988657187
 20
17.16176933576033
 30
0.0
 10
29.02365732925804
 20
17.25208784070329
 30
0.0
 10
29.00708264240737
 20
17.32904457144821
 30
0.0
 10
28.99273727187953
 20
17.36852903426361
 30
0.0
 10
28.97750706452055
 20
17.40786916610715
 30
0.0
 10
28.96772579821082
 20
17.40232565999846
 30
0.0
 10
28.96635108681975
 20
17.4015465460522
 30
0.0
  0
SPLINE
  5
E3
330
1F
100
AcDbEntity
  8
0
  6
Continuous
 62
     7
370
    25
100
AcDbSpline
210
0.0
220
0.0
230
1.0
 70
     8
 71
     3
 72
    15
 73
    11
 74
     0
 42
0.000000001
 43
0.00000001
 40
0.0
 40
0.0
 40
0.0
 40
0.0
 40
0.0083061235584969
 40
0.0637460721362196
 40
0.1684624102712747
 40
0.3205633189480031
 40
0.5136064961633928
 40
0.7355338748439604
 40
0.9728136226742281
 40
1.0
 40
1.0
 40
1.0
 40
1.0
 10
30.32449659740692
 20
16.45404664165195
 30
0.0
 10
30.32323904583421
 20
16.45334145497494
 30
0.0
 10
30.31358785623844
 20
16.44792943810985
 30
0.0
 10
30.29846842992225
 20
16.48733078644258
 30
0.0
 10
30.28409550635183
 20
16.5266555613999
 30
0.0
 10
30.26753329195939
 20
16.60368736540103
 30
0.0
 10
30.25146660821683
 20
16.69397798295556
 30
0.0
 10
30.23490576991631
 20
16.80081091638259
 30
0.0
 10
30.22343128087481
 20
16.88000523359896
 30
0.0
 10
30.21713452108625
 20
16.92314141257252
 30
0.0
 10
30.21648723180699
 20
16.92757569101659
 30
0.0
  0
SPLINE
  5
E4
330
1F
100
AcDbEntity
  8
0
  6
Continuous
 62
     7
370
    25
100
AcDbSpline
210
0.0
220
0.0
230
1.0
 70
     8
 71
     3
 72
    14
 73
    10
 74
     0
 42
0.000000001
 43
0.00000001
 40
0.0
 40
0.0
 40
0.0
 40
0.0
 40
0.033967612788177
 40
0.1186312725373773
 40
0.254342747998754
 40
0.4334857140321695
 40
0.6456032447125684
 40
0.8792683471929986
 40
1.0
 40
1.0
 40
1.0
 40
1.0
 10
29.89164954435968
 20
16.4537402218584
 30
0.0
 10
29.8864742838437
 20
16.45623935912415
 30
0.0
 10
29.86839978021136
 20
16.46496755076747
 30
0.0
 10
29.85833301854893
 20
16.51035392462127
 30
0.0
 10
29.84015099995239
 20
16.57098025259947
 30
0.0
 10
29.82492828519659
 20
16.65742381784548
 30
0.0
 10
29.80808755578952
 20
16.75839249436125
 30
0.0
 10
29.7945663052935
 20
16.85066719314658
 30
0.0
 10
29.78621875291153
 20
16.90832847954249
 30
0.0
 10
29.78337500848969
 20
16.92797183774398
 30
0.0
  0
SPLINE
  5
E5
330
1F
100
AcDbEntity
  8
0
  6
Continuous
 62
     7
370
    25
100
AcDbSpline
210
0.0
220
0.0
230
1.0
 70
     8
 71
     3
 72
    14
 73
    10
 74
     0
 42
0.000000001
 43
0.00000001
 40
0.0
 40
0.0
 40
0.0
 40
0.0
 40
0.0158255669125265
 40
0.0821658053120304
 40
0.1984699740183697
 40
0.3606837640935991
 40
0.5614483612172306
 40
0.7882509255437053
 40
1.0
 40
1.0
 40
1.0
 40
1.0
 10
29.45850916136768
 20
16.45526502424375
 30
0.0
 10
29.45579116873389
 20
16.45479396172031
 30
0.0
 10
29.44167944339592
 20
16.45234822111556
 30
0.0
 10
29.43081740589809
 20
16.49543798019803
 30
0.0
 10
29.41336533811148
 20
16.54213724964455
 30
0.0
 10
29.39801666573891
 20
16.62304102126782
 30
0.0
 10
29.38140130875426
 20
16.71757215520848
 30
0.0
 10
29.36566614909988
 20
16.8221586813521
 30
0.0
 10
29.35529895779621
 20
16.8936429694251
 30
0.0
 10
29.35029329148664
 20
16.92815824767064
 30
0.0
  0
SPLINE
  5
E6
330
1F
100
AcDbEntity
  8
0
  6
Continuous
 62
     7
370
    25
100
AcDbSpline
210
0.0
220
0.0
230
1.0
 70
     8
 71
     3
 72
    17
 73
    13
 74
     0
 42
0.000000001
 43
0.00000001
 40
0.0
 40
0.0
 40
0.0
 40
0.0
 40
0.1428750846723524
 40
0.2834290678741921
 40
0.4305492600443985
 40
0.575131130636808
 40
0.7084215542104351
 40
0.8230797553023467
 40
0.9122245258915481
 40
0.970348436806741
 40
0.9980714785378538
 40
1.0
 40
1.0
 40
1.0
 40
1.0
 10
30.69874336740963
 20
16.56731251652823
 30
0.0
 10
30.69198912103383
 20
16.61115176716108
 30
0.0
 10
30.67859035553966
 20
16.69811807042987
 30
0.0
 10
30.66168814517918
 20
16.83069223745761
 30
0.0
 10
30.64504629286933
 20
16.96391565027973
 30
0.0
 10
30.62861937348276
 20
17.09455181748222
 30
0.0
 10
30.61185191065102
 20
17.21614272322707
 30
0.0
 10
30.59632594192232
 20
17.31699965129593
 30
0.0
 10
30.57860020337594
 20
17.40321963486988
 30
0.0
 10
30.56738989401451
 20
17.44261359111811
 30
0.0
 10
30.5488156005814
 20
17.48407742639352
 30
0.0
 10
30.54164630155166
 20
17.47784129088561
 30
0.0
 10
30.5411800142616
 20
17.47743569604093
 30
0.0
  0
SPLINE
  5
E7
330
1F
100
AcDbEntity
  8
0
  6
Continuous
 62
     7
370
    25
100
AcDbSpline
210
0.0
220
0.0
230
1.0
 70
     8
 71
     3
 72
    23
 73
    19
 74
     0
 42
0.000000001
 43
0.00000001
 40
0.0
 40
0.0
 40
0.0
 40
0.0
 40
0.0190820621836575
 40
0.0563494247649582
 40
0.0723488277150856
 40
0.0970741950225812
 40
0.1455676144538788
 40
0.2165256805386082
 40
0.3068091142116021
 40
0.4107040683265061
 40
0.521829017721025
 40
0.633751906773928
 40
0.7399419879647904
 40
0.8338645496479224
 40
0.9095999518285803
 40
0.9636028092577931
 40
0.9936700428592808
 40
1.0
 40
1.0
 40
1.0
 40
1.0
 10
30.36026583753094
 20
16.45172563179779
 30
0.0
 10
30.35839973256068
 20
16.44420996260834
 30
0.0
 10
30.35288911527973
 20
16.42201615402136
 30
0.0
 10
30.34854427427087
 20
16.39266425553042
 30
0.0
 10
30.31569417975363
 20
16.36996356280073
 30
0.0
 10
30.29828723697129
 20
16.41626523937557
 30
0.0
 10
30.2840666450015
 20
16.46504662473081
 30
0.0
 10
30.26750857664501
 20
16.55242938756172
 30
0.0
 10
30.25145897651657
 20
16.6574649260082
 30
0.0
 10
30.23491466220423
 20
16.78081964819167
 30
0.0
 10
30.21838370786848
 20
16.9124609694963
 30
0.0
 10
30.20176308636032
 20
17.04501386849744
 30
0.0
 10
30.18543578901807
 20
17.1712100512052
 30
0.0
 10
30.16861941704691
 20
17.2803306362027
 30
0.0
 10
30.15385072240809
 20
17.37439389183763
 30
0.0
 10
30.13524067585061
 20
17.42703889111483
 30
0.0
 10
30.12646733875622
 20
17.47799221070992
 30
0.0
 10
30.11106851483895
 20
17.47519884732598
 30
0.0
 10
30.10839045388353
 20
17.4747130441599
 30
0.0
  0
SPLINE
  5
E8
330
1F
100
AcDbEntity
  8
0
  6
Continuous
 62
     7
370
    25
100
AcDbSpline
210
0.0
220
0.0
230
1.0
 70
     8
 71
     3
 72
    22
 73
    18
 74
     0
 42
0.000000001
 43
0.00000001
 40
0.0
 40
0.0
 40
0.0
 40
0.0
 40
0.0452147961928869
 40
0.0677874210584081
 40
0.084763819992161
 40
0.1236209229794458
 40
0.1867398275688931
 40
0.2703545859880608
 40
0.3694952452682186
 40
0.4787719810888548
 40
0.5915331739942202
 40
0.7008099098148565
 40
0.7999505690950143
 40
0.883565327514182
 40
0.9466842321036293
 40
0.985541335090914
 40
0.9999999999999999
 40
0.9999999999999999
 40
0.9999999999999999
 40
0.9999999999999999
 10
29.92779248683332
 20
16.45153210736673
 30
0.0
 10
29.92385453676335
 20
16.43538466421942
 30
0.0
 10
29.91795064020786
 20
16.41117591797241
 30
0.0
 10
29.89753471240371
 20
16.36947365288277
 30
0.0
 10
29.86705333529241
 20
16.39645046440038
 30
0.0
 10
29.85908471479481
 20
16.44248738077418
 30
0.0
 10
29.83976495922603
 20
16.516201053609
 30
0.0
 10
29.82504904086012
 20
16.61462263631766
 30
0.0
 10
29.80804045401914
 20
16.73194384246261
 30
0.0
 10
29.79170702515363
 20
16.86119641468473
 30
0.0
 10
29.77507311120502
 20
16.99453105220583
 30
0.0
 10
29.75872540080102
 20
17.123933910326
 30
0.0
 10
29.74176593912856
 20
17.24073816795988
 30
0.0
 10
29.72690850451297
 20
17.3406489387315
 30
0.0
 10
29.70793346275434
 20
17.41073515752933
 30
0.0
 10
29.69949844063578
 20
17.46248050256995
 30
0.0
 10
29.68024726579129
 20
17.47353644369447
 30
0.0
 10
29.67502655347362
 20
17.47653469644935
 30
0.0
  0
SPLINE
  5
E9
330
1F
100
AcDbEntity
  8
0
  6
Continuous
 62
     7
370
    25
100
AcDbSpline
210
0.0
220
0.0
230
1.0
 70
     8
 71
     3
 72
    23
 73
    19
 74
     0
 42
0.000000001
 43
0.00000001
 40
0.0
 40
0.0
 40
0.0
 40
0.0
 40
0.029926478842459
 40
0.0615767872119126
 40
0.0756354262130271
 40
0.1056788397895533
 40
0.159638866990526
 40
0.2353141730827312
 40
0.3291621694667153
 40
0.4352679929382102
 40
0.547102166467757
 40
0.6581393329950235
 40
0.7619519636279848
 40
0.8521634364378589
 40
0.923064039235476
 40
0.9715186475303751
 40
0.9962256069927196
 40
1.0
 40
1.0
 40
1.0
 40
1.0
 10
29.49404491085567
 20
16.45188454329536
 30
0.0
 10
29.49085402518918
 20
16.44061923047918
 30
0.0
 10
29.48428845198101
 20
16.41743969860677
 30
0.0
 10
29.47809775883362
 20
16.3811066365759
 30
0.0
 10
29.44118281833929
 20
16.376880978508
 30
0.0
 10
29.43145851731409
 20
16.42646728710323
 30
0.0
 10
29.41296400532582
 20
16.4824251187075
 30
0.0
 10
29.39814386118693
 20
16.57501362669612
 30
0.0
 10
29.38134669188835
 20
16.6846820397437
 30
0.0
 10
29.36501251854143
 20
16.81069427229944
 30
0.0
 10
29.34839642776512
 20
16.94332480364287
 30
0.0
 10
29.33185841014652
 20
17.07485943519741
 30
0.0
 10
29.31533244088216
 20
17.19852790565663
 30
0.0
 10
29.29923192682146
 20
17.30263243284401
 30
0.0
 10
29.28280316784457
 20
17.39243123508643
 30
0.0
 10
29.26831035097488
 20
17.43608920365248
 30
0.0
 10
29.25368099585713
 20
17.48348471050206
 30
0.0
 10
29.24333057070398
 20
17.47681740799392
 30
0.0
 10
29.24195891630792
 20
17.47593384672376
 30
0.0
  0
LINE
  5
EA
330
1F
100
AcDbEntity
  8
0
  6
Continuous
 62
     7
370
    25
100
AcDbLine
 10
27.5491368453
 20
17.3911360463
 30
0.0
 11
27.2735463222
 21
17.3911360463
 31
0.0
  0
LINE
  5
EB
330
1F
100
AcDbEntity
  8
0
  6
Continuous
 62
     7
370
    25
100
AcDbLine
 10
30.6987433674
 20
16.5670774126
 30
0.0
 11
30.4231528444
 21
16.5670774126
 31
0.0
  0
SPLINE
  5
EC
330
1F
100
AcDbEntity
  8
0
  6
Continuous
 62
     7
370
    25
100
AcDbSpline
210
0.0
220
0.0
230
1.0
 70
     8
 71
     3
 72
    22
 73
    18
 74
     0
 42
0.000000001
 43
0.00000001
 40
0.0
 40
0.0
 40
0.0
 40
0.0
 40
0.0087698697698743
 40
0.0347599124476832
 40
0.0491295345019641
 40
0.0967531676135037
 40
0.1538550465054049
 40
0.1996647915834545
 40
0.2810909462239696
 40
0.3799509911144343
 40
0.4231754763339051
 40
0.5405900256413253
 40
0.6530641594664657
 40
0.7318849706572205
 40
0.8562579655556837
 40
0.991729225900893
 40
1.0
 40
1.0
 40
1.0
 40
1.0
 10
24.26190992292552
 20
16.45259810505223
 30
0.0
 10
24.26042175525288
 20
16.45241527745621
 30
0.0
 10
24.25452331213278
 20
16.45169062915497
 30
0.0
 10
24.24896032894735
 20
16.4597390717578
 30
0.0
 10
24.24125376826388
 20
16.47151172859991
 30
0.0
 10
24.23357579342775
 20
16.4900711267961
 30
0.0
 10
24.22598337319203
 20
16.51358270271326
 30
0.0
 10
24.21808074228347
 20
16.54300684272937
 30
0.0
 10
24.20979288376209
 20
16.57937851448975
 30
0.0
 10
24.20268102999772
 20
16.61558130402836
 30
0.0
 10
24.1949853253724
 20
16.65770812050071
 30
0.0
 10
24.18743542455925
 20
16.70214511493082
 30
0.0
 10
24.17943517671404
 20
16.75245911793525
 30
0.0
 10
24.17156209641738
 20
16.80395511367639
 30
0.0
 10
24.16338337054081
 20
16.85924300044011
 30
0.0
 10
24.157053422213
 20
16.90303447637595
 30
0.0
 10
24.15365881787477
 20
16.92651184639434
 30
0.0
 10
24.1534634957079
 20
16.92786271098043
 30
0.0
  0
SPLINE
  5
ED
330
1F
100
AcDbEntity
  8
0
  6
Continuous
 62
     7
370
    25
100
AcDbSpline
210
0.0
220
0.0
230
1.0
 70
     8
 71
     3
 72
    20
 73
    16
 74
     0
 42
0.000000001
 43
0.00000001
 40
0.0
 40
0.0
 40
0.0
 40
0.0
 40
0.0128338630792952
 40
0.0598677063675649
 40
0.0804306165053186
 40
0.1046024600175489
 40
0.1552825524599299
 40
0.2330124052589001
 40
0.3329876922873241
 40
0.4492048102828269
 40
0.5752622881002901
 40
0.7035370649667934
 40
0.8261024765563878
 40
0.9354501402156739
 40
1.0
 40
1.0
 40
1.0
 40
1.0
 10
24.29751431162058
 20
16.45165303263646
 30
0.0
 10
24.29650120564557
 20
16.44716911780487
 30
0.0
 10
24.29177524506323
 20
16.42625244642886
 30
0.0
 10
24.28743692659022
 20
16.40019027777799
 30
0.0
 10
24.25857981905685
 20
16.36879231082796
 30
0.0
 10
24.23572703837306
 20
16.40843682536235
 30
0.0
 10
24.22433306940886
 20
16.45508906919715
 30
0.0
 10
24.20669974471874
 20
16.53770430440419
 30
0.0
 10
24.19113543521611
 20
16.63997944597008
 30
0.0
 10
24.17438950891437
 20
16.76108774735743
 30
0.0
 10
24.15792203960056
 20
16.89185888561373
 30
0.0
 10
24.14141541958366
 20
17.02506418389997
 30
0.0
 10
24.12473528837355
 20
17.15219551729459
 30
0.0
 10
24.11016844674038
 20
17.25676686193722
 30
0.0
 10
24.09887336421994
 20
17.31764592967843
 30
0.0
 10
24.09468068810525
 20
17.34024392422532
 30
0.0
  0
SPLINE
  5
EE
330
1F
100
AcDbEntity
  8
0
  6
Continuous
 62
     7
370
    25
100
AcDbSpline
210
0.0
220
0.0
230
1.0
 70
     8
 71
     3
 72
     9
 73
     5
 74
     0
 42
0.000000001
 43
0.00000001
 40
0.0
 40
0.0
 40
0.0
 40
0.0
 40
0.7358216894810194
 40
0.9999999999999999
 40
0.9999999999999999
 40
0.9999999999999999
 40
0.9999999999999999
 10
24.08011623302174
 20
17.40612986310533
 30
0.0
 10
24.07833126116841
 20
17.41618370705899
 30
0.0
 10
24.075905439969
 20
17.42984713136055
 30
0.0
 10
24.06978144980721
 20
17.44220234570279
 30
0.0
 10
24.06816362443263
 20
17.44546632535383
 30
0.0
  0
SPLINE
  5
EF
330
1F
100
AcDbEntity
  8
0
  6
Continuous
 62
     7
370
    25
100
AcDbSpline
210
0.0
220
0.0
230
1.0
 70
     8
 71
     3
 72
     9
 73
     5
 74
     0
 42
0.000000001
 43
0.00000001
 40
0.0
 40
0.0
 40
0.0
 40
0.0
 40
0.7783662421150594
 40
0.9999999999999999
 40
0.9999999999999999
 40
0.9999999999999999
 40
0.9999999999999999
 10
23.98066403523535
 20
16.3819230414966
 30
0.0
 10
23.98195861721466
 20
16.37921518030803
 30
0.0
 10
23.98362182138418
 20
16.37573627662228
 30
0.0
 10
23.98575498900631
 20
16.37785085732415
 30
0.0
 10
23.9862277709626
 20
16.37831951979145
 30
0.0
  0
SPLINE
  5
F0
330
1F
100
AcDbEntity
  8
0
  6
Continuous
 62
     7
370
    25
100
AcDbSpline
210
0.0
220
0.0
230
1.0
 70
     8
 71
     3
 72
    13
 73
     9
 74
     0
 42
0.000000001
 43
0.00000001
 40
0.0
 40
0.0
 40
0.0
 40
0.0
 40
0.1273445035961955
 40
0.2935062839401426
 40
0.5011645995111437
 40
0.7379215359127743
 40
0.9906861687021189
 40
1.0
 40
1.0
 40
1.0
 40
1.0
 10
25.97433387752454
 20
16.47116889718752
 30
0.0
 10
25.96730265337459
 20
16.48968143226798
 30
0.0
 10
25.95109694041862
 20
16.5323495115673
 30
0.0
 10
25.93620236642153
 20
16.60897900454965
 30
0.0
 10
25.91931919908309
 20
16.70217758529451
 30
0.0
 10
25.90294604411494
 20
16.80921783420199
 30
0.0
 10
25.89186581710425
 20
16.88586226034212
 30
0.0
 10
25.88598976556238
 20
16.92612666548697
 30
0.0
 10
25.88578094049562
 20
16.92755759525884
 30
0.0
  0
SPLINE
  5
F1
330
1F
100
AcDbEntity
  8
0
  6
Continuous
 62
     7
370
    25
100
AcDbSpline
210
0.0
220
0.0
230
1.0
 70
     8
 71
     3
 72
    14
 73
    10
 74
     0
 42
0.000000001
 43
0.00000001
 40
0.0
 40
0.0
 40
0.0
 40
0.0
 40
0.0383535825687805
 40
0.1280776368041099
 40
0.2671034065085725
 40
0.4484962783571406
 40
0.6632968277111488
 40
0.8982202631095743
 40
0.9999999999999999
 40
0.9999999999999999
 40
0.9999999999999999
 40
0.9999999999999999
 10
25.56069406926023
 20
16.45302097683385
 30
0.0
 10
25.55511417927195
 20
16.4562939986825
 30
0.0
 10
25.53648074073865
 20
16.46722390080657
 30
0.0
 10
25.52658779004425
 20
16.51418771820021
 30
0.0
 10
25.50820090641752
 20
16.57699834065176
 30
0.0
 10
25.4928929799558
 20
16.66462016854146
 30
0.0
 10
25.47613698127982
 20
16.76670975523517
 30
0.0
 10
25.46303882649002
 20
16.85653727620317
 30
0.0
 10
25.45508622276865
 20
16.91132305751956
 30
0.0
 10
25.45268228368827
 20
16.92788388280022
 30
0.0
  0
SPLINE
  5
F2
330
1F
100
AcDbEntity
  8
0
  6
Continuous
 62
     7
370
    25
100
AcDbSpline
210
0.0
220
0.0
230
1.0
 70
     8
 71
     3
 72
    14
 73
    10
 74
     0
 42
0.000000001
 43
0.00000001
 40
0.0
 40
0.0
 40
0.0
 40
0.0
 40
0.0184683764289565
 40
0.0882186910547983
 40
0.2077708142772965
 40
0.374432937299648
 40
0.5778950332425618
 40
0.8059112971607094
 40
1.0
 40
1.0
 40
1.0
 40
1.0
 10
25.12777720368614
 20
16.45527994740469
 30
0.0
 10
25.12458838253725
 20
16.45527158702644
 30
0.0
 10
25.10935620287892
 20
16.4552316516467
 30
0.0
 10
25.09927532062183
 20
16.49785788909443
 30
0.0
 10
25.08115504034932
 20
16.5477166793716
 30
0.0
 10
25.06619949064357
 20
16.62965119952553
 30
0.0
 10
25.04941570051775
 20
16.72566679442366
 30
0.0
 10
25.03410932473071
 20
16.8277891986761
 30
0.0
 10
25.0241573995361
 20
16.8965091215644
 30
0.0
 10
25.01958139024008
 20
16.92810732993202
 30
0.0
  0
SPLINE
  5
F3
330
1F
100
AcDbEntity
  8
0
  6
Continuous
 62
     7
370
    25
100
AcDbSpline
210
0.0
220
0.0
230
1.0
 70
     8
 71
     3
 72
    15
 73
    11
 74
     0
 42
0.000000001
 43
0.00000001
 40
0.0
 40
0.0
 40
0.0
 40
0.0
 40
0.0058158309229306
 40
0.0569006791990392
 40
0.1581982496494646
 40
0.307656550870478
 40
0.4972951474478977
 40
0.7174773027969996
 40
0.9546512352851448
 40
1.0
 40
1.0
 40
1.0
 40
1.0
 10
24.69465663879853
 20
16.45364778625956
 30
0.0
 10
24.69382475039711
 20
16.45309628948329
 30
0.0
 10
24.68568575604083
 20
16.44770057878232
 30
0.0
 10
24.66853528530191
 20
16.48417258238586
 30
0.0
 10
24.65594509635273
 20
16.52202858783933
 30
0.0
 10
24.63872594591843
 20
16.59740244535551
 30
0.0
 10
24.62283124411827
 20
16.68631965815839
 30
0.0
 10
24.60621924334471
 20
16.79222802140723
 30
0.0
 10
24.59437539543582
 20
16.87403064291451
 30
0.0
 10
24.58766719022392
 20
16.92009011696308
 30
0.0
 10
24.58659043135525
 20
16.92748329376692
 30
0.0
  0
LINE
  5
F4
330
1F
100
AcDbEntity
  8
0
  6
Continuous
 62
     7
370
    25
100
AcDbLine
 10
25.9743338775
 20
16.4710931447
 30
0.0
 11
25.9743338775
 21
16.39936675
 31
0.0
  0
SPLINE
  5
F5
330
1F
100
AcDbEntity
  8
0
  6
Continuous
 62
     7
370
    25
100
AcDbSpline
210
0.0
220
0.0
230
1.0
 70
     8
 71
     3
 72
    19
 73
    15
 74
     0
 42
0.000000001
 43
0.00000001
 40
0.0
 40
0.0
 40
0.0
 40
0.0
 40
0.0613134210578992
 40
0.1419546732563068
 40
0.242960323058363
 40
0.3582249618538307
 40
0.4813288850426892
 40
0.6048770338489975
 40
0.7212358362530482
 40
0.8232315305429274
 40
0.9054943177683815
 40
0.9633039325077997
 40
0.9939151576813521
 40
1.0
 40
1.0
 40
1.0
 40
1.0
 10
25.97433387752454
 20
16.39945438230639
 30
0.0
 10
25.96729667606606
 20
16.42091288063069
 30
0.0
 10
25.9510039359703
 20
16.47059424020321
 30
0.0
 10
25.93620574887571
 20
16.55896707771888
 30
0.0
 10
25.91930197355742
 20
16.66680225928916
 30
0.0
 10
25.90296132355097
 20
16.79059766511863
 30
0.0
 10
25.8863724442823
 20
16.92273747277445
 30
0.0
 10
25.86981932320279
 20
17.05507158325764
 30
0.0
 10
25.85345218138505
 20
17.18038805211154
 30
0.0
 10
25.83674403748206
 20
17.28787103375991
 30
0.0
 10
25.82148484722836
 20
17.38056198467776
 30
0.0
 10
25.80444567108449
 20
17.43038234851832
 30
0.0
 10
25.79344862519021
 20
17.4796778426566
 30
0.0
 10
25.77976648649711
 20
17.47538268588972
 30
0.0
 10
25.77749775139226
 20
17.47467047465167
 30
0.0
  0
SPLINE
  5
F6
330
1F
100
AcDbEntity
  8
0
  6
Continuous
 62
     7
370
    25
100
AcDbSpline
210
0.0
220
0.0
230
1.0
 70
     8
 71
     3
 72
    23
 73
    19
 74
     0
 42
0.000000001
 43
0.00000001
 40
0.0
 40
0.0
 40
0.0
 40
0.0
 40
0.0032645664002859
 40
0.0477357333576484
 40
0.0689460896026624
 40
0.0869902336209142
 40
0.128264062344193
 40
0.1929417293111393
 40
0.2776058310793868
 40
0.3779962009453558
 40
0.4878507276992604
 40
0.6003921225241511
 40
0.7089541399290576
 40
0.8073623781530013
 40
0.8896062252014089
 40
0.9504605428616354
 40
0.9877616745199651
 40
1.0
 40
1.0
 40
1.0
 40
1.0
 10
25.59719758756848
 20
16.45182730728989
 30
0.0
 10
25.59692572106441
 20
16.45052600844903
 30
0.0
 10
25.59295038548971
 20
16.43149792114154
 30
0.0
 10
25.58693557921985
 20
16.40862517513532
 30
0.0
 10
25.56409951119274
 20
16.36877201146291
 30
0.0
 10
25.53528022435222
 20
16.40015740741703
 30
0.0
 10
25.52719234738151
 20
16.44659465480696
 30
0.0
 10
25.50789081723688
 20
16.52325869316464
 30
0.0
 10
25.49298617625605
 20
16.62291400379267
 30
0.0
 10
25.47610165474272
 20
16.74157347628588
 30
0.0
 10
25.4597420640015
 20
16.87147262370216
 30
0.0
 10
25.44308960060999
 20
17.00468389258686
 30
0.0
 10
25.42672479031668
 20
17.13347084252008
 30
0.0
 10
25.40974101273943
 20
17.24900302291849
 30
0.0
 10
25.39522177865132
 20
17.34756424739716
 30
0.0
 10
25.37567757810974
 20
17.41460675330971
 30
0.0
 10
25.3680200236517
 20
17.4652659231152
 30
0.0
 10
25.34915778488342
 20
17.47382218166361
 30
0.0
 10
25.34449802010878
 20
17.47593593669961
 30
0.0
  0
SPLINE
  5
F7
330
1F
100
AcDbEntity
  8
0
  6
Continuous
 62
     7
370
    25
100
AcDbSpline
210
0.0
220
0.0
230
1.0
 70
     8
 71
     3
 72
    23
 73
    19
 74
     0
 42
0.000000001
 43
0.00000001
 40
0.0
 40
0.0
 40
0.0
 40
0.0
 40
0.0332892540886907
 40
0.0633469049186117
 40
0.0774125106076967
 40
0.1090778574549996
 40
0.1645245436111389
 40
0.2422241700914695
 40
0.3372517425669369
 40
0.443827132309943
 40
0.555947768960424
 40
0.6669249577413686
 40
0.7699067289529086
 40
0.8585064422597896
 40
0.9281536807196021
 40
0.9749765162949721
 40
0.9975171662471627
 40
1.0
 40
1.0
 40
1.0
 40
1.0
 10
25.16333135962816
 20
16.4518885765821
 30
0.0
 10
25.15979082789044
 20
16.43967020601657
 30
0.0
 10
25.15305346673619
 20
16.41641958116287
 30
0.0
 10
25.14527010041576
 20
16.3768204946997
 30
0.0
 10
25.10836813510188
 20
16.38116835642511
 30
0.0
 10
25.10010551232558
 20
16.42912950045994
 30
0.0
 10
25.08067192774412
 20
16.48893364896441
 30
0.0
 10
25.06635841826747
 20
16.58263340053881
 30
0.0
 10
25.04935104521082
 20
16.69405128781984
 30
0.0
 10
25.03301489166184
 20
16.820685333083
 30
0.0
 10
25.01638967341712
 20
16.95357215891205
 30
0.0
 10
24.99992583641502
 20
17.08477946618979
 30
0.0
 10
24.98331487969891
 20
17.20740122892558
 30
0.0
 10
24.96747505575789
 20
17.30985429527658
 30
0.0
 10
24.95016909757608
 20
17.39789238972697
 30
0.0
 10
24.93791774522375
 20
17.43950041240037
 30
0.0
 10
24.92078629429329
 20
17.4836522514897
 30
0.0
 10
24.91230880977916
 20
17.47719666995579
 30
0.0
 10
24.9114676725123
 20
17.47655614620156
 30
0.0
  0
SPLINE
  5
F8
330
1F
100
AcDbEntity
  8
0
  6
Continuous
 62
     7
370
    25
100
AcDbSpline
210
0.0
220
0.0
230
1.0
 70
     8
 71
     3
 72
    23
 73
    19
 74
     0
 42
0.000000001
 43
0.00000001
 40
0.0
 40
0.0
 40
0.0
 40
0.0
 40
0.0154865438711855
 40
0.0543278957122596
 40
0.0712972132917837
 40
0.0938607799445873
 40
0.1407311823277276
 40
0.2104492673463482
 40
0.2991392690396635
 40
0.4022261910557696
 40
0.5133165039849117
 40
0.6255507281749766
 40
0.7322332692985275
 40
0.8273569286834066
 40
0.9051375606786737
 40
0.9606454924445934
 40
0.9923451733671909
 40
1.0
 40
1.0
 40
1.0
 40
1.0
 10
24.73048986151675
 20
16.45163187621419
 30
0.0
 10
24.72905161263061
 20
16.44548657570169
 30
0.0
 10
24.72400613339748
 20
16.42392842508134
 30
0.0
 10
24.71943912581784
 20
16.39647814526047
 30
0.0
 10
24.68891564412828
 20
16.36945381400118
 30
0.0
 10
24.66816146497299
 20
16.41212328870929
 30
0.0
 10
24.65601482363236
 20
16.46002678355444
 30
0.0
 10
24.63865838946016
 20
16.54502702542499
 30
0.0
 10
24.62283808957303
 20
16.64865644846364
 30
0.0
 10
24.6062206734437
 20
16.77087911733954
 30
0.0
 10
24.58975845588159
 20
16.90221837571164
 30
0.0
 10
24.57313414356017
 20
17.03502622562461
 30
0.0
 10
24.55679312999553
 20
17.16182327344719
 30
0.0
 10
24.53980073545896
 20
17.27275420879079
 30
0.0
 10
24.52544544504002
 20
17.36778489201568
 30
0.0
 10
24.50610600963787
 20
17.42458010029637
 30
0.0
 10
24.49821454303095
 20
17.47443956908518
 30
0.0
 10
24.48144361017476
 20
17.47466295657501
 30
0.0
 10
24.47818150396485
 20
17.4747064075699
 30
0.0
  0
SPLINE
  5
F9
330
1F
100
AcDbEntity
  8
0
  6
Continuous
 62
     7
370
    25
100
AcDbSpline
210
0.0
220
0.0
230
1.0
 70
     8
 71
     3
 72
    23
 73
    19
 74
     0
 42
0.000000001
 43
0.00000001
 40
0.0
 40
0.0
 40
0.0
 40
0.0
 40
0.0330094038246787
 40
0.0630906543482835
 40
0.0771589549666719
 40
0.1088340424480872
 40
0.1642989100733629
 40
0.2420191956201824
 40
0.3370690584235244
 40
0.443668833142184
 40
0.5558159838228992
 40
0.6668201097624837
 40
0.7698270559480695
 40
0.8584482513896332
 40
0.9281122492645025
 40
0.9749462886714688
 40
0.997492352403425
 40
0.9999999999999999
 40
0.9999999999999999
 40
0.9999999999999999
 40
0.9999999999999999
 10
24.16731856898625
 20
17.40418149227974
 30
0.0
 10
24.17082918091394
 20
17.41629760021133
 30
0.0
 10
24.17753899018093
 20
17.43945503685024
 30
0.0
 10
24.18527801373065
 20
17.47892858495717
 30
0.0
 10
24.22219126653671
 20
17.47460115559908
 30
0.0
 10
24.23045077737991
 20
17.4266246826225
 30
0.0
 10
24.2498852983677
 20
17.36682390513731
 30
0.0
 10
24.26419863772031
 20
17.27311869501454
 30
0.0
 10
24.28120635510055
 20
17.16170190267168
 30
0.0
 10
24.29754257168644
 20
17.03506851938966
 30
0.0
 10
24.31416778788601
 20
16.9021825547321
 30
0.0
 10
24.330631560941
 20
16.77097489640582
 30
0.0
 10
24.34724261379011
 20
16.64835393457387
 30
0.0
 10
24.36308208971342
 20
16.54589754181669
 30
0.0
 10
24.38038895118447
 20
16.45786760038769
 30
0.0
 10
24.3926383616517
 20
16.41624270694575
 30
0.0
 10
24.40977828706884
 20
16.37209927567495
 30
0.0
 10
24.41826467454097
 20
16.37856739936484
 30
0.0
 10
24.41911408438963
 20
16.37921479944911
 30
0.0
  0
SPLINE
  5
FA
330
1F
100
AcDbEntity
  8
0
  6
Continuous
 62
     7
370
    25
100
AcDbSpline
210
0.0
220
0.0
230
1.0
 70
     8
 71
     3
 72
    23
 73
    19
 74
     0
 42
0.000000001
 43
0.00000001
 40
0.0
 40
0.0
 40
0.0
 40
0.0
 40
0.0157075772834499
 40
0.0545448326256047
 40
0.0715123295742667
 40
0.0940735144413149
 40
0.1409390348414964
 40
0.2106497459577223
 40
0.2993302118620299
 40
0.4024058439361229
 40
0.5134841808575604
 40
0.6257070078233001
 40
0.7323795337671164
 40
0.827493719613333
 40
0.9052641694304139
 40
0.9607613990628788
 40
0.9924556067147025
 40
1.0
 40
1.0
 40
1.0
 40
1.0
 10
24.60000730636236
 20
17.40385802268316
 30
0.0
 10
24.60146665463559
 20
17.4100918638593
 30
0.0
 10
24.60653426664663
 20
17.43173898469987
 30
0.0
 10
24.61111864803775
 20
17.4592762891516
 30
0.0
 10
24.64164164114457
 20
17.48630045568877
 30
0.0
 10
24.66239593888878
 20
17.44363093226496
 30
0.0
 10
24.6745425358566
 20
17.39572739867535
 30
0.0
 10
24.69189898169749
 20
17.3107271492305
 30
0.0
 10
24.70771928210864
 20
17.20709789942327
 30
0.0
 10
24.72433675505155
 20
17.0848755209346
 30
0.0
 10
24.74079890176498
 20
16.95353617183088
 30
0.0
 10
24.75742353204049
 20
16.82072799462626
 30
0.0
 10
24.77376344597186
 20
16.69392873410602
 30
0.0
 10
24.79075871447459
 20
16.58300145338622
 30
0.0
 10
24.80510552312923
 20
16.48796330684219
 30
0.0
 10
24.82446369179137
 20
16.43119385292253
 30
0.0
 10
24.83231674879192
 20
16.38135920389674
 30
0.0
 10
24.84902928305405
 20
16.38111242598589
 30
0.0
 10
24.85224259668543
 20
16.38106497807569
 30
0.0
  0
SPLINE
  5
FB
330
1F
100
AcDbEntity
  8
0
  6
Continuous
 62
     7
370
    25
100
AcDbSpline
210
0.0
220
0.0
230
1.0
 70
     8
 71
     3
 72
    22
 73
    18
 74
     0
 42
0.000000001
 43
0.00000001
 40
0.0
 40
0.0
 40
0.0
 40
0.0
 40
0.0421807069594713
 40
0.0669239593470451
 40
0.0829352346208534
 40
0.1202296583493125
 40
0.1810730509294375
 40
0.2633021328691166
 40
0.3616927040165637
 40
0.4702352314529401
 40
0.5827564143964846
 40
0.6925912191396849
 40
0.7929635660801759
 40
0.877612468235165
 40
0.9422785237221118
 40
0.9835449426197246
 40
1.0
 40
1.0
 40
1.0
 40
1.0
 10
25.03299595527388
 20
17.40416649578632
 30
0.0
 10
25.03704098912872
 20
17.41909579674811
 30
0.0
 10
25.04345884460749
 20
17.4427826432395
 30
0.0
 10
25.05981500731223
 20
17.48579300416965
 30
0.0
 10
25.09260178403559
 20
17.46308074833512
 30
0.0
 10
25.09982906882917
 20
17.41693464195427
 30
0.0
 10
25.11974550644973
 20
17.3465333682077
 30
0.0
 10
25.13410874356567
 20
17.2493794878823
 30
0.0
 10
25.15114751573071
 20
17.13335234655784
 30
0.0
 10
25.16749579747185
 20
17.0047090873342
 30
0.0
 10
25.18415022554301
 20
16.87150135574831
 30
0.0
 10
25.20051868421967
 20
16.74144263007325
 30
0.0
 10
25.21737079217715
 20
16.62333366027142
 30
0.0
 10
25.23236957596448
 20
16.52208555926846
 30
0.0
 10
25.25143760637597
 20
16.44937097737576
 30
0.0
 10
25.25986986991602
 20
16.39595296428142
 30
0.0
 10
25.27955755523495
 20
16.38229605708907
 30
0.0
 10
25.28517005880378
 20
16.37840278882953
 30
0.0
  0
LWPOLYLINE
  5
FC
330
1F
100
AcDbEntity
  8
0
  6
Continuous
 62
     7
370
    25
100
AcDbPolyline
 90
       16
 70
   128
 43
0.0
 10
25.4664578646
 20
17.4040534171
 10
25.4743337736
 20
17.4355830862
 10
25.4913941365
 20
17.472274409
 10
25.5084544994
 20
17.4761627174
 10
25.5255148623
 20
17.4470039609
 10
25.5425752252
 20
17.3855277978
 10
25.5596355882
 20
17.2963588312
 10
25.5766960244
 20
17.1850953365
 10
25.5937563873
 20
17.0578184652
 10
25.6108167502
 20
16.9225405521
 10
25.6278771132
 20
16.7877567899
 10
25.6449374761
 20
16.6616983562
 10
25.661997839
 20
16.5515403854
 10
25.6790582019
 20
16.4641940978
 10
25.6987432812
 20
16.3994543823
 10
25.6987432812
 20
16.3994543823
  0
SPLINE
  5
FD
330
1F
100
AcDbEntity
  8
0
  6
Continuous
 62
     7
370
    25
100
AcDbSpline
210
0.0
220
0.0
230
1.0
 70
     8
 71
     3
 72
    23
 73
    19
 74
     0
 42
0.000000001
 43
0.00000001
 40
0.0
 40
0.0
 40
0.0
 40
0.0
 40
0.004155191681874
 40
0.0903458177607957
 40
0.1693375667709129
 40
0.3259950396893399
 40
0.402572528660614
 40
0.47672533990132
 40
0.616815029917984
 40
0.6813304204890104
 40
0.7365969255245169
 40
0.833972264038896
 40
0.8753011315570055
 40
0.9107405683113968
 40
0.9644263075208669
 40
0.9825989079243068
 40
0.9954133878879361
 40
0.9999999999999999
 40
0.9999999999999999
 40
0.9999999999999999
 40
0.9999999999999999
 10
25.61017582430944
 20
16.92769881287716
 30
0.0
 10
25.61007750555017
 20
16.92837778961333
 30
0.0
 10
25.60793977295255
 20
16.9431406966382
 30
0.0
 10
25.60394449942004
 20
16.97081288362363
 30
0.0
 10
25.59627753794735
 20
17.02339541385466
 30
0.0
 10
25.58867729735429
 20
17.07438383625978
 30
0.0
 10
25.58085442813877
 20
17.12453009175932
 30
0.0
 10
25.5731699626178
 20
17.1719279019209
 30
0.0
 10
25.56532202058994
 20
17.21728381741418
 30
0.0
 10
25.55716988503094
 20
17.25940955874607
 30
0.0
 10
25.54977157520916
 20
17.29449883521379
 30
0.0
 10
25.54230579859515
 20
17.32562662694323
 30
0.0
 10
25.53415735263523
 20
17.35327777371169
 30
0.0
 10
25.52702448005546
 20
17.37341902891282
 30
0.0
 10
25.51978722366676
 20
17.39043378674073
 30
0.0
 10
25.5109295927106
 20
17.40038983573141
 30
0.0
 10
25.50539388219045
 20
17.40471506992804
 30
0.0
 10
25.5027076653252
 20
17.40339939897617
 30
0.0
 10
25.50199962730344
 20
17.40305261198733
 30
0.0
  0
SPLINE
  5
FE
330
1F
100
AcDbEntity
  8
0
  6
Continuous
 62
     7
370
    25
100
AcDbSpline
210
0.0
220
0.0
230
1.0
 70
     8
 71
     3
 72
    22
 73
    18
 74
     0
 42
0.000000001
 43
0.00000001
 40
0.0
 40
0.0
 40
0.0
 40
0.0
 40
0.0265831412460133
 40
0.1939423447559452
 40
0.2773308048691838
 40
0.3533075677581461
 40
0.5000869631070531
 40
0.5697983409901942
 40
0.6349416264170011
 40
0.7536758430973621
 40
0.8059523835272188
 40
0.8498233932247266
 40
0.9216720331563856
 40
0.9492597863130947
 40
0.9705059915812124
 40
0.9990520537868123
 40
0.9999999999999999
 40
0.9999999999999999
 40
0.9999999999999999
 40
0.9999999999999999
 10
25.17711647371468
 20
16.92778289370191
 30
0.0
 10
25.17648787633889
 20
16.93212198792572
 30
0.0
 10
25.17190182505774
 20
16.96377867214133
 30
0.0
 10
25.16532520106058
 20
17.00904399449046
 30
0.0
 10
25.15737629818
 20
17.06234168700181
 30
0.0
 10
25.1497409280328
 20
17.11225388450567
 30
0.0
 10
25.14211330348998
 20
17.15988535936491
 30
0.0
 10
25.1342095836533
 20
17.2056595301489
 30
0.0
 10
25.12666093335255
 20
17.24679612360824
 30
0.0
 10
25.11892688994188
 20
17.28498522719654
 30
0.0
 10
25.11070692898647
 20
17.31945239775113
 30
0.0
 10
25.1034057728266
 20
17.34622078650913
 30
0.0
 10
25.09613926221726
 20
17.36856503588223
 30
0.0
 10
25.08756077806219
 20
17.38696815273734
 30
0.0
 10
25.08103859866657
 20
17.39701307043186
 30
0.0
 10
25.07377182086649
 20
17.40524627610782
 30
0.0
 10
25.06902959079106
 20
17.4040747181692
 30
0.0
 10
25.06887717410431
 20
17.40403706394819
 30
0.0
  0
SPLINE
  5
FF
330
1F
100
AcDbEntity
  8
0
  6
Continuous
 62
     7
370
    25
100
AcDbSpline
210
0.0
220
0.0
230
1.0
 70
     8
 71
     3
 72
    22
 73
    18
 74
     0
 42
0.000000001
 43
0.00000001
 40
0.0
 40
0.0
 40
0.0
 40
0.0
 40
0.0530607236746875
 40
0.1361607776882866
 40
0.2167863338183703
 40
0.3757663652840508
 40
0.4528399444978385
 40
0.5233749508982953
 40
0.6553400832259
 40
0.7157209804497956
 40
0.7690694746005005
 40
0.8617233652306953
 40
0.9000305200733588
 40
0.9312637510873977
 40
0.9763342695991478
 40
0.991333710797832
 40
1.0
 40
1.0
 40
1.0
 40
1.0
 10
24.74398974889823
 20
16.92802569318629
 30
0.0
 10
24.74273433935663
 20
16.93668407867134
 30
0.0
 10
24.73951279378274
 20
16.95890263167104
 30
0.0
 10
24.73438078020961
 20
16.99427717164217
 30
0.0
 10
24.72664887108246
 20
17.04692174754491
 30
0.0
 10
24.71885702853873
 20
17.09855349370047
 30
0.0
 10
24.71088867211249
 20
17.1484739449572
 30
0.0
 10
24.70327420265806
 20
17.19393839779012
 30
0.0
 10
24.69555806126921
 20
17.23659537601599
 30
0.0
 10
24.68749270325235
 20
17.27629874317391
 30
0.0
 10
24.68010673579044
 20
17.30951552735909
 30
0.0
 10
24.67259882009027
 20
17.33899016135354
 30
0.0
 10
24.66434405169898
 20
17.36443801522816
 30
0.0
 10
24.65729450559855
 20
17.38200051076003
 30
0.0
 10
24.65020371256692
 20
17.39528905964278
 30
0.0
 10
24.64121099177125
 20
17.40323745136196
 30
0.0
 10
24.6372392832293
 20
17.40346997403946
 30
0.0
 10
24.63578486055701
 20
17.40355512284895
 30
0.0
  0
SPLINE
  5
100
330
1F
100
AcDbEntity
  8
0
  6
Continuous
 62
     7
370
    25
100
AcDbSpline
210
0.0
220
0.0
230
1.0
 70
     8
 71
     3
 72
    21
 73
    17
 74
     0
 42
0.000000001
 43
0.00000001
 40
0.0
 40
0.0
 40
0.0
 40
0.0
 40
0.0794109613585549
 40
0.2436398070448139
 40
0.3248658546335058
 40
0.3999562556067254
 40
0.5440466649757929
 40
0.6118475216381816
 40
0.6743316839832595
 40
0.786333090772738
 40
0.8349075186452556
 40
0.8749608429557417
 40
0.9394681109731344
 40
0.9634837906480734
 40
0.9817880606650983
 40
1.0
 40
1.0
 40
1.0
 40
1.0
 10
24.31092620001864
 20
16.92811894031222
 30
0.0
 10
24.30905242617723
 20
16.94106996270709
 30
0.0
 10
24.30330352338904
 20
16.98080483738104
 30
0.0
 10
24.29553678988978
 20
17.03377221640419
 30
0.0
 10
24.28762336891734
 20
17.08599789676446
 30
0.0
 10
24.27999696141115
 20
17.1349099081385
 30
0.0
 10
24.27234541659243
 20
17.18157982525335
 30
0.0
 10
24.26439765842852
 20
17.22608978618283
 30
0.0
 10
24.25688482643607
 20
17.26530465374296
 30
0.0
 10
24.24913212927494
 20
17.30123460617315
 30
0.0
 10
24.24085310494651
 20
17.33327624157273
 30
0.0
 10
24.23360918860816
 20
17.35737737606888
 30
0.0
 10
24.22653772937519
 20
17.37770885660951
 30
0.0
 10
24.21789166411758
 20
17.39267095325379
 30
0.0
 10
24.2120677120534
 20
17.40164191471198
 30
0.0
 10
24.20577952253897
 20
17.40236448219784
 30
0.0
 10
24.20264337757771
 20
17.4027248524403
 30
0.0
  0
SPLINE
  5
101
330
1F
100
AcDbEntity
  8
0
  6
Continuous
 62
     7
370
    25
100
AcDbSpline
210
0.0
220
0.0
230
1.0
 70
     8
 71
     3
 72
     9
 73
     5
 74
     0
 42
0.000000001
 43
0.00000001
 40
0.0
 40
0.0
 40
0.0
 40
0.0
 40
0.9212560968668465
 40
1.0
 40
1.0
 40
1.0
 40
1.0
 10
25.69874328117062
 20
16.39936674998539
 30
0.0
 10
25.70507894462834
 20
16.38505789147399
 30
0.0
 10
25.71195614574457
 20
16.36952599045313
 30
0.0
 10
25.71963222200504
 20
16.3778606288831
 30
0.0
 10
25.72023666621054
 20
16.37851693084428
 30
0.0
  0
SPLINE
  5
102
330
1F
100
AcDbEntity
  8
0
  6
Continuous
 62
     7
370
    25
100
AcDbSpline
210
0.0
220
0.0
230
1.0
 70
     8
 71
     3
 72
    23
 73
    19
 74
     0
 42
0.000000001
 43
0.00000001
 40
0.0
 40
0.0
 40
0.0
 40
0.0
 40
0.0226726703286687
 40
0.0583027175268696
 40
0.073176079397021
 40
0.0994277681025792
 40
0.1494405150346989
 40
0.2225073797868356
 40
0.3140329962552785
 40
0.4184807424804521
 40
0.5300300194583599
 40
0.6419801916349268
 40
0.7474154606968096
 40
0.839836400188537
 40
0.9143771943685435
 40
0.9667604006992722
 40
0.9944982006138351
 40
1.0
 40
1.0
 40
1.0
 40
1.0
 10
25.89958138107176
 20
17.40424895816704
 30
0.0
 10
25.90188710904253
 20
17.4130363527434
 30
0.0
 10
25.90781628300504
 20
17.43563311688083
 30
0.0
 10
25.9118872668671
 20
17.46792221547125
 30
0.0
 10
25.94703040228629
 20
17.4831777914173
 30
0.0
 10
25.96152209677632
 20
17.4362274145329
 30
0.0
 10
25.97749390273183
 20
17.38519093415533
 30
0.0
 10
25.99311570931965
 20
17.2959013937003
 30
0.0
 10
26.00956640778983
 20
17.1892558140476
 30
0.0
 10
26.02605595790426
 20
17.06506590865633
 30
0.0
 10
26.04260046586875
 20
16.93304125205144
 30
0.0
 10
26.05916577195117
 20
16.80067550251409
 30
0.0
 10
26.07552989584721
 20
16.67536725179032
 30
0.0
 10
26.09223904401427
 20
16.56788381370446
 30
0.0
 10
26.10749717426022
 20
16.47519088873295
 30
0.0
 10
26.12453837314475
 20
16.42537544029296
 30
0.0
 10
26.13553077238227
 20
16.37607879047032
 30
0.0
 10
26.1492071400369
 20
16.38037017962779
 30
0.0
 10
26.15147084455651
 20
16.38108048789652
 30
0.0
  0
SPLINE
  5
103
330
1F
100
AcDbEntity
  8
0
  6
Continuous
 62
     7
370
    25
100
AcDbSpline
210
0.0
220
0.0
230
1.0
 70
     8
 71
     3
 72
    23
 73
    19
 74
     0
 42
0.000000001
 43
0.00000001
 40
0.0
 40
0.0
 40
0.0
 40
0.0
 40
0.0033354812030115
 40
0.0477930169017662
 40
0.0689969296723039
 40
0.0870355582204217
 40
0.1282967709631694
 40
0.1929546682064798
 40
0.2775928910899075
 40
0.3779525750953464
 40
0.4877735231236115
 40
0.600280510439824
 40
0.7088093441944522
 40
0.8071875024268867
 40
0.8894062103785528
 40
0.9502419269806611
 40
0.9875316569744168
 40
1.0
 40
1.0
 40
1.0
 40
1.0
 10
26.33176697509356
 20
17.40384130287631
 30
0.0
 10
26.33204489411212
 20
17.40517136418022
 30
0.0
 10
26.33602710463678
 20
17.42422937665566
 30
0.0
 10
26.34204677006243
 20
17.4471297817701
 30
0.0
 10
26.36488319750011
 20
17.48698215521976
 30
0.0
 10
26.39370242212627
 20
17.45559692426136
 30
0.0
 10
26.40179034516958
 20
17.40915956859279
 30
0.0
 10
26.42109185048069
 20
17.33249558515685
 30
0.0
 10
26.43599650764707
 20
17.23284025685797
 30
0.0
 10
26.45288099423463
 20
17.11418076918194
 30
0.0
 10
26.46924071934433
 20
16.98428171964411
 30
0.0
 10
26.48589266902994
 20
16.85107008124597
 30
0.0
 10
26.50225887627056
 20
16.72228439297368
 30
0.0
 10
26.5192382884919
 20
16.60674820700532
 30
0.0
 10
26.53376984897899
 20
16.50819830852581
 30
0.0
 10
26.55328464620682
 20
16.44112878293062
 30
0.0
 10
26.56101139881007
 20
16.39041099365785
 30
0.0
 10
26.57998044301322
 20
16.38183069043023
 30
0.0
 10
26.58473369280045
 20
16.37968064406763
 30
0.0
  0
SPLINE
  5
104
330
1F
100
AcDbEntity
  8
0
  6
Continuous
 62
     7
370
    25
100
AcDbSpline
210
0.0
220
0.0
230
1.0
 70
     8
 71
     3
 72
    23
 73
    19
 74
     0
 42
0.000000001
 43
0.00000001
 40
0.0
 40
0.0
 40
0.0
 40
0.0
 40
0.0329796085820077
 40
0.0630421361511645
 40
0.0771101437191391
 40
0.1087806281482264
 40
0.16423631791466
 40
0.2419485508631143
 40
0.3369915411998707
 40
0.4435842223934851
 40
0.555723055787573
 40
0.6667182595224258
 40
0.7697167078670496
 40
0.8583307664269764
 40
0.9279892988377086
 40
0.9748197599539249
 40
0.9973641377941649
 40
0.9999999999999999
 40
0.9999999999999999
 40
0.9999999999999999
 40
0.9999999999999999
 10
26.76575082834172
 20
17.4042364183119
 30
0.0
 10
26.76925767120725
 20
17.41634258265806
 30
0.0
 10
26.77596117300411
 20
17.43948410840058
 30
0.0
 10
26.78371240347061
 20
17.47893502643742
 30
0.0
 10
26.82061454188075
 20
17.47458538608398
 30
0.0
 10
26.82887715069959
 20
17.42662512356875
 30
0.0
 10
26.84831080663985
 20
17.36682045016569
 30
0.0
 10
26.86262428531591
 20
17.27312092003178
 30
0.0
 10
26.87963167197817
 20
17.16170297994437
 30
0.0
 10
26.8959678118657
 20
17.03506882101618
 30
0.0
 10
26.91259307312277
 20
16.90218253341748
 30
0.0
 10
26.92905675407674
 20
16.77097322427797
 30
0.0
 10
26.94566821385389
 20
16.64835813045924
 30
0.0
 10
26.96150586732813
 20
16.5458852846413
 30
0.0
 10
26.97881757306786
 20
16.45789839356461
 30
0.0
 10
26.99105688131598
 20
16.41618421108043
 30
0.0
 10
27.00824130860782
 20
16.37208439369325
 30
0.0
 10
27.01677513260852
 20
16.37861884661438
 30
0.0
 10
27.01766845150118
 20
16.37930287176502
 30
0.0
  0
SPLINE
  5
105
330
1F
100
AcDbEntity
  8
0
  6
Continuous
 62
     7
370
    25
100
AcDbSpline
210
0.0
220
0.0
230
1.0
 70
     8
 71
     3
 72
    12
 73
     8
 74
     0
 42
0.000000001
 43
0.00000001
 40
0.0
 40
0.0
 40
0.0
 40
0.0
 40
0.1046418023436134
 40
0.3631925035327765
 40
0.4761646470108514
 40
0.6262961666346866
 40
1.0
 40
1.0
 40
1.0
 40
1.0
 10
27.19843068332045
 20
17.40385237608172
 30
0.0
 10
27.19989077063429
 20
17.41008731869384
 30
0.0
 10
27.20495846590534
 20
17.43172766094676
 30
0.0
 10
27.20953681037999
 20
17.4592934515189
 30
0.0
 10
27.24007691499659
 20
17.4862165983334
 30
0.0
 10
27.26291081456437
 20
17.43947010989127
 30
0.0
 10
27.26911806991848
 20
17.41135881537831
 30
0.0
 10
27.27354632224484
 20
17.39130423437226
 30
0.0
  0
SPLINE
  5
106
330
1F
100
AcDbEntity
  8
0
  6
Continuous
 62
     7
370
    25
100
AcDbSpline
210
0.0
220
0.0
230
1.0
 70
     8
 71
     3
 72
    11
 73
     7
 74
     0
 42
0.000000001
 43
0.00000001
 40
0.0
 40
0.0
 40
0.0
 40
0.0
 40
0.4441294282767272
 40
0.7644936613407363
 40
0.9485522470096954
 40
1.0
 40
1.0
 40
1.0
 40
1.0
 10
27.27356538869125
 20
17.32835412491063
 30
0.0
 10
27.27000312560398
 20
17.34120106285784
 30
0.0
 10
27.26387129245613
 20
17.36331489275286
 30
0.0
 10
27.25326273910136
 20
17.38656044568761
 30
0.0
 10
27.24286783549038
 20
17.40419719486903
 30
0.0
 10
27.23582211511824
 20
17.40260608242185
 30
0.0
 10
27.23428293581884
 20
17.40225849449438
 30
0.0
  0
SPLINE
  5
107
330
1F
100
AcDbEntity
  8
0
  6
Continuous
 62
     7
370
    25
100
AcDbSpline
210
0.0
220
0.0
230
1.0
 70
     8
 71
     3
 72
    17
 73
    13
 74
     0
 42
0.000000001
 43
0.00000001
 40
0.0
 40
0.0
 40
0.0
 40
0.0
 40
0.1645721864138549
 40
0.3213899318395818
 40
0.4735447153186297
 40
0.6099937132023954
 40
0.7329686914419241
 40
0.8318289434436823
 40
0.9100529656718827
 40
0.9620671348189178
 40
0.9938991859892325
 40
1.0
 40
1.0
 40
1.0
 40
1.0
 10
26.90938379574809
 20
16.92788354805458
 30
0.0
 10
26.90549423815487
 20
16.95476363801133
 30
0.0
 10
26.89789839418505
 20
17.00725726082386
 30
0.0
 10
26.88635872079663
 20
17.08454505840011
 30
0.0
 10
26.87489184303653
 20
17.15717592444481
 30
0.0
 10
26.86335703192522
 20
17.22404925256886
 30
0.0
 10
26.85193579515617
 20
17.28228011368261
 30
0.0
 10
26.84056745590071
 20
17.32991835348382
 30
0.0
 10
26.82909226935877
 20
17.36748561088938
 30
0.0
 10
26.81872387519493
 20
17.38897757564827
 30
0.0
 10
26.80800390287958
 20
17.40567043039791
 30
0.0
 10
26.80194763562532
 20
17.40329455366151
 30
0.0
 10
26.80097359477865
 20
17.40291243693998
 30
0.0
  0
SPLINE
  5
108
330
1F
100
AcDbEntity
  8
0
  6
Continuous
 62
     7
370
    25
100
AcDbSpline
210
0.0
220
0.0
230
1.0
 70
     8
 71
     3
 72
    18
 73
    14
 74
     0
 42
0.000000001
 43
0.00000001
 40
0.0
 40
0.0
 40
0.0
 40
0.0
 40
0.0261576680668949
 40
0.1862915868829374
 40
0.3456488086147961
 40
0.495607737591487
 40
0.635151198917919
 40
0.7486252122124775
 40
0.8452297692133071
 40
0.9198067563304795
 40
0.970545958306714
 40
0.9978149346508366
 40
1.0
 40
1.0
 40
1.0
 40
1.0
 10
26.47627963900427
 20
16.92798745242525
 30
0.0
 10
26.47565912731701
 20
16.93225578791063
 30
0.0
 10
26.47123992195801
 20
16.96265433065865
 30
0.0
 10
26.46307400337107
 20
17.01906271795201
 30
0.0
 10
26.45163207057565
 20
17.09561572774534
 30
0.0
 10
26.43997703179401
 20
17.16872890401161
 30
0.0
 10
26.42842124074949
 20
17.23410137546938
 30
0.0
 10
26.41683312365474
 20
17.29078217517056
 30
0.0
 10
26.40595438892432
 20
17.33588860493018
 30
0.0
 10
26.39420436543984
 20
17.37210868793543
 30
0.0
 10
26.38460475822566
 20
17.39216189229709
 30
0.0
 10
26.372662814913
 20
17.40579093609592
 30
0.0
 10
26.36828731591535
 20
17.40350326124201
 30
0.0
 10
26.36796271695726
 20
17.40333354874193
 30
0.0
  0
SPLINE
  5
109
330
1F
100
AcDbEntity
  8
0
  6
Continuous
 62
     7
370
    25
100
AcDbSpline
210
0.0
220
0.0
230
1.0
 70
     8
 71
     3
 72
    17
 73
    13
 74
     0
 42
0.000000001
 43
0.00000001
 40
0.0
 40
0.0
 40
0.0
 40
0.0
 40
0.0476288007010624
 40
0.2179505041687914
 40
0.3704595472638961
 40
0.5170172922325899
 40
0.6510109266400975
 40
0.7694703916223211
 40
0.8592604091757403
 40
0.9288932072067366
 40
0.9752827752639681
 40
0.9999999999999999
 40
0.9999999999999999
 40
0.9999999999999999
 40
0.9999999999999999
 10
26.0432479347568
 20
16.92787077530088
 30
0.0
 10
26.04212274079495
 20
16.93564185223311
 30
0.0
 10
26.03697382695158
 20
16.97120248173427
 30
0.0
 10
26.02817813803648
 20
17.03163860376729
 30
0.0
 10
26.01656887195523
 20
17.10815272656348
 30
0.0
 10
26.00516587698523
 20
17.17861353617647
 30
0.0
 10
25.9936619889506
 20
17.24344669605255
 30
0.0
 10
25.98209069668868
 20
17.29850192067969
 30
0.0
 10
25.97094088003667
 20
17.34342186852786
 30
0.0
 10
25.9592267792912
 20
17.37426311523224
 30
0.0
 10
25.95008637421964
 20
17.3977875804931
 30
0.0
 10
25.938806834462
 20
17.40210817843802
 30
0.0
 10
25.93488598656327
 20
17.40361004888111
 30
0.0
  0
SPLINE
  5
10A
330
1F
100
AcDbEntity
  8
0
  6
Continuous
 62
     7
370
    25
100
AcDbSpline
210
0.0
220
0.0
230
1.0
 70
     8
 71
     3
 72
    15
 73
    11
 74
     0
 42
0.000000001
 43
0.00000001
 40
0.0
 40
0.0
 40
0.0
 40
0.0
 40
0.0061184105444011
 40
0.0571912454584004
 40
0.1584648782276124
 40
0.3078876965481342
 40
0.497480726566369
 40
0.7176096266021231
 40
0.9547266731696468
 40
1.0
 40
1.0
 40
1.0
 40
1.0
 10
27.29321116174161
 20
16.4537240520452
 30
0.0
 10
27.29233544921757
 20
16.45314059254782
 30
0.0
 10
27.28414981186135
 20
16.44768676183678
 30
0.0
 10
27.26695524429431
 20
16.48412367222462
 30
0.0
 10
27.25437288829406
 20
16.52205381744609
 30
0.0
 10
27.23715003970966
 20
16.59739246818484
 30
0.0
 10
27.22125673536224
 20
16.68632309078727
 30
0.0
 10
27.20464424809834
 20
16.79222658506075
 30
0.0
 10
27.19280197033734
 20
16.87401964394565
 30
0.0
 10
27.18609542946465
 20
16.92006849757044
 30
0.0
 10
27.18502022490587
 20
16.92745113167101
 30
0.0
  0
SPLINE
  5
10B
330
1F
100
AcDbEntity
  8
0
  6
Continuous
 62
     7
370
    25
100
AcDbSpline
210
0.0
220
0.0
230
1.0
 70
     8
 71
     3
 72
    14
 73
    10
 74
     0
 42
0.000000001
 43
0.00000001
 40
0.0
 40
0.0
 40
0.0
 40
0.0
 40
0.0297101678780208
 40
0.1111404125063986
 40
0.2420821992816858
 40
0.4183404636470555
 40
0.6289308723209256
 40
0.8611086836069516
 40
1.0
 40
1.0
 40
1.0
 40
1.0
 10
26.86026188320862
 20
16.45410849760405
 30
0.0
 10
26.85553771829568
 20
16.45588752216343
 30
0.0
 10
26.83786546415937
 20
16.46254253415127
 30
0.0
 10
26.82826828529783
 20
16.50692852012281
 30
0.0
 10
26.8096985113112
 20
16.56502150507944
 30
0.0
 10
26.79472437891003
 20
16.65026619192858
 30
0.0
 10
26.77789339497174
 20
16.75015317046523
 30
0.0
 10
26.76391030330872
 20
16.84491504468469
 30
0.0
 10
26.75516282593746
 20
16.90528792485705
 30
0.0
 10
26.75188864181222
 20
16.92788551699312
 30
0.0
  0
SPLINE
  5
10C
330
1F
100
AcDbEntity
  8
0
  6
Continuous
 62
     7
370
    25
100
AcDbSpline
210
0.0
220
0.0
230
1.0
 70
     8
 71
     3
 72
    14
 73
    10
 74
     0
 42
0.000000001
 43
0.00000001
 40
0.0
 40
0.0
 40
0.0
 40
0.0
 40
0.0133780142369227
 40
0.0749008578406101
 40
0.1877146965853508
 40
0.3472841954383998
 40
0.5447206626940789
 40
0.7697577959746766
 40
1.0
 40
1.0
 40
1.0
 40
1.0
 10
26.42702088804556
 20
16.45528060739707
 30
0.0
 10
26.42477636007446
 20
16.45464087787799
 30
0.0
 10
26.41220969154615
 20
16.45105915872923
 30
0.0
 10
26.39962682892638
 20
16.49237950543901
 30
0.0
 10
26.38343790029675
 20
16.5368754385164
 30
0.0
 10
26.36772340082629
 20
16.61649233820395
 30
0.0
 10
26.35116840026201
 20
16.70964861030958
 30
0.0
 10
26.33495987665912
 20
16.81649299358116
 30
0.0
 10
26.32421527333066
 20
16.89072736878229
 30
0.0
 10
26.31878155176895
 20
16.92826890594471
 30
0.0
  0
SPLINE
  5
10D
330
1F
100
AcDbEntity
  8
0
  6
Continuous
 62
     7
370
    25
100
AcDbSpline
210
0.0
220
0.0
230
1.0
 70
     8
 71
     3
 72
     9
 73
     5
 74
     0
 42
0.000000001
 43
0.00000001
 40
0.0
 40
0.0
 40
0.0
 40
0.0
 40
0.0774585716339151
 40
0.9999999999999999
 40
0.9999999999999999
 40
0.9999999999999999
 40
0.9999999999999999
 10
25.99577805646622
 20
16.45303014339462
 30
0.0
 10
25.99519031762618
 20
16.45247881974968
 30
0.0
 10
25.98760253453588
 20
16.44536116145428
 30
0.0
 10
25.9807009110829
 20
16.45874551972888
 30
0.0
 10
25.97433387752454
 20
16.47109314472929
 30
0.0
  0
SPLINE
  5
10E
330
1F
100
AcDbEntity
  8
0
  6
Continuous
 62
     7
370
    25
100
AcDbSpline
210
0.0
220
0.0
230
1.0
 70
     8
 71
     3
 72
    10
 73
     6
 74
     0
 42
0.000000001
 43
0.00000001
 40
0.0
 40
0.0
 40
0.0
 40
0.0
 40
0.690264073271671
 40
0.967570284794288
 40
1.0
 40
1.0
 40
1.0
 40
1.0
 10
27.54913684526627
 20
17.39130423437226
 30
0.0
 10
27.54467503976471
 20
17.40939104218883
 30
0.0
 10
27.538420751606
 20
17.43474403167177
 30
0.0
 10
27.51916393246212
 20
17.48362363020125
 30
0.0
 10
27.51063317412926
 20
17.47710716283578
 30
0.0
 10
27.5097399937154
 20
17.47642488105128
 30
0.0
  0
SPLINE
  5
10F
330
1F
100
AcDbEntity
  8
0
  6
Continuous
 62
     7
370
    25
100
AcDbSpline
210
0.0
220
0.0
230
1.0
 70
     8
 71
     3
 72
    23
 73
    19
 74
     0
 42
0.000000001
 43
0.00000001
 40
0.0
 40
0.0
 40
0.0
 40
0.0
 40
0.0154320508010729
 40
0.0542714823725631
 40
0.071239857803251
 40
0.0938023217743525
 40
0.1406703524280407
 40
0.2103847680989688
 40
0.2990699169090076
 40
0.4021510116931457
 40
0.5132352608562633
 40
0.6254640571506268
 40
0.7321422518675951
 40
0.8272614900375309
 40
0.9050360672930494
 40
0.9605362461498114
 40
0.992232138089804
 40
1.0
 40
1.0
 40
1.0
 40
1.0
 10
27.32890032279071
 20
16.45156818694993
 30
0.0
 10
27.32746720012691
 20
16.44544421650821
 30
0.0
 10
27.32242719006031
 20
16.4239074189586
 30
0.0
 10
27.31786437744574
 20
16.39647805010557
 30
0.0
 10
27.28734068864453
 20
16.3694536424825
 30
0.0
 10
27.26658665085847
 20
16.41212337202889
 30
0.0
 10
27.25443994029867
 20
16.46002686784226
 30
0.0
 10
27.23708354869614
 20
16.54502714973012
 30
0.0
 10
27.22126321421916
 20
16.6486563550305
 30
0.0
 10
27.20464578658451
 20
16.7708787811324
 30
0.0
 10
27.18818348284139
 20
16.90221789113024
 30
0.0
 10
27.17155944443082
 20
17.03502696924392
 30
0.0
 10
27.15521749984289
 20
17.16182316036481
 30
0.0
 10
27.13822855349204
 20
17.27275999955927
 30
0.0
 10
27.12386451654352
 20
17.36777197746522
 30
0.0
 10
27.10454553909051
 20
17.4246007941401
 30
0.0
 10
27.09660966791142
 20
17.47445536138524
 30
0.0
 10
27.07978195446933
 20
17.47467293189404
 30
0.0
 10
27.07646966555787
 20
17.47471575746189
 30
0.0
  0
SPLINE
  5
110
330
1F
100
AcDbEntity
  8
0
  6
Continuous
 62
     7
370
    25
100
AcDbSpline
210
0.0
220
0.0
230
1.0
 70
     8
 71
     3
 72
    22
 73
    18
 74
     0
 42
0.000000001
 43
0.00000001
 40
0.0
 40
0.0
 40
0.0
 40
0.0
 40
0.0423684092048641
 40
0.0671049018161545
 40
0.0831118028614996
 40
0.1203960491875612
 40
0.1812228195502134
 40
0.2634294572956272
 40
0.3617931484582226
 40
0.4703060224282226
 40
0.5827964649496133
 40
0.6926012631804693
 40
0.792946188721391
 40
0.8775719650709182
 40
0.942220354001287
 40
0.9834754990471279
 40
1.0
 40
1.0
 40
1.0
 40
1.0
 10
26.89605664303783
 20
16.45182012070624
 30
0.0
 10
26.89199401394804
 20
16.43682253948611
 30
0.0
 10
26.88555944792816
 20
16.41306872776307
 30
0.0
 10
26.86916823698739
 20
16.36996201388786
 30
0.0
 10
26.8363807452401
 20
16.3926730970971
 30
0.0
 10
26.82915380793686
 20
16.43881985762167
 30
0.0
 10
26.80923722000599
 20
16.50922080161856
 30
0.0
 10
26.79487381482788
 20
16.60637479363195
 30
0.0
 10
26.77783510509916
 20
16.72240191005056
 30
0.0
 10
26.76148678344602
 20
16.85104516501293
 30
0.0
 10
26.74483244465945
 20
16.98425295495568
 30
0.0
 10
26.72846368496526
 20
17.11431146170617
 30
0.0
 10
26.71161254582222
 20
17.23242114165052
 30
0.0
 10
26.69661097266588
 20
17.33366719686909
 30
0.0
 10
26.67754985625043
 20
17.40638684985051
 30
0.0
 10
26.66909922883141
 20
17.45982741200278
 30
0.0
 10
26.64938164918456
 20
17.47349837680854
 30
0.0
 10
26.64374258445803
 20
17.47740815969237
 30
0.0
  0
SPLINE
  5
111
330
1F
100
AcDbEntity
  8
0
  6
Continuous
 62
     7
370
    25
100
AcDbSpline
210
0.0
220
0.0
230
1.0
 70
     8
 71
     3
 72
    23
 73
    19
 74
     0
 42
0.000000001
 43
0.00000001
 40
0.0
 40
0.0
 40
0.0
 40
0.0
 40
0.0266599583668837
 40
0.0598753575928675
 40
0.0742387964749144
 40
0.1019702393435104
 40
0.1543414403078592
 40
0.2288651509680308
 40
0.3212649091057043
 40
0.4266760141439793
 40
0.5386005291886635
 40
0.650124240913252
 40
0.7545480494387542
 40
0.8460526897464041
 40
0.9191028087790056
 40
0.9691040936149187
 40
0.9953497658666727
 40
1.0
 40
1.0
 40
1.0
 40
1.0
 10
26.46251967796051
 20
16.45168075231624
 30
0.0
 10
26.4597694299304
 20
16.44147904974907
 30
0.0
 10
26.45359267293755
 20
16.41856713890288
 30
0.0
 10
26.44830959697842
 20
16.38450233916808
 30
0.0
 10
26.41248709451591
 20
16.37471927100695
 30
0.0
 10
26.39997750276946
 20
16.42288591076545
 30
0.0
 10
26.38316154433501
 20
16.47640523303341
 30
0.0
 10
26.36780101201833
 20
16.56741428136707
 30
0.0
 10
26.35113009819331
 20
16.67552627307736
 30
0.0
 10
26.33475310707136
 20
16.80062372504633
 30
0.0
 10
26.31819290445036
 20
16.93307019656295
 30
0.0
 10
26.30164224544793
 20
17.06500548078337
 30
0.0
 10
26.28517024805721
 20
17.18944448438372
 30
0.0
 10
26.2686669790126
 20
17.29534556100604
 30
0.0
 10
26.2531839637574
 20
17.38660035747244
 30
0.0
 10
26.23691472818123
 20
17.4334253447623
 30
0.0
 10
26.22449225192903
 20
17.48139409898572
 30
0.0
 10
26.21230307242408
 20
17.47598544472759
 30
0.0
 10
26.21046844301122
 20
17.47517137219859
 30
0.0
  0
SPLINE
  5
112
330
1F
100
AcDbEntity
  8
0
  6
Continuous
 62
     7
370
    25
100
AcDbSpline
210
0.0
220
0.0
230
1.0
 70
     8
 71
     3
 72
    11
 73
     7
 74
     0
 42
0.000000001
 43
0.00000001
 40
0.0
 40
0.0
 40
0.0
 40
0.0
 40
0.0751061516919559
 40
0.5289647472625886
 40
0.739237833521906
 40
1.0
 40
1.0
 40
1.0
 40
1.0
 10
26.02997548808124
 20
16.45172016852757
 30
0.0
 10
26.02935784526934
 20
16.4488877503731
 30
0.0
 10
26.02500785173969
 20
16.42893932644958
 30
0.0
 10
26.02011562523234
 20
16.40428896687543
 30
0.0
 10
25.9918556943724
 20
16.36661480090823
 30
0.0
 10
25.98057744548735
 20
16.3876962125204
 30
0.0
 10
25.97433387752454
 20
16.39936674998539
 30
0.0
  0
LINE
  5
113
330
1F
100
AcDbEntity
  8
0
  6
Continuous
 62
     7
370
    25
100
AcDbLine
 10
25.9743338775
 20
16.39936675
 30
0.0
 11
25.6987432812
 21
16.39936675
 31
0.0
  0
LINE
  5
114
330
1F
100
AcDbEntity
  8
0
  6
Continuous
 62
     7
370
    25
100
AcDbLine
 10
30.8640975639
 20
17.5263023382
 30
0.0
 11
30.8640975639
 21
16.3294519243
 31
0.0
  0
LINE
  5
115
330
1F
100
AcDbEntity
  8
0
  6
Continuous
 62
     7
370
    25
100
AcDbLine
 10
33.7459874187
 20
16.9278771313
 30
0.0
 11
33.7459874187
 21
16.0437249451
 31
0.0
  0
LINE
  5
116
330
1F
100
AcDbEntity
  8
0
  6
Continuous
 62
     7
370
    25
100
AcDbLine
 10
33.7459874187
 20
17.8120293175
 30
0.0
 11
33.7459874187
 21
16.9278771313
 31
0.0
  0
LINE
  5
117
330
1F
100
AcDbEntity
  8
0
  6
Continuous
 62
     7
370
    25
100
AcDbLine
 10
30.9113418715
 20
16.1585543052
 30
0.0
 11
30.9113418715
 21
17.6971999573
 31
0.0
  0
LINE
  5
118
330
1F
100
AcDbEntity
  8
0
  6
Continuous
 62
     7
370
    25
100
AcDbLine
 10
30.4231528444
 20
16.6160430903
 30
0.0
 11
30.2659450071
 21
16.6160430903
 31
0.0
  0
LINE
  5
119
330
1F
100
AcDbEntity
  8
0
  6
Continuous
 62
     7
370
    25
100
AcDbLine
 10
25.6777172441
 20
16.4710591918
 30
0.0
 11
25.5113814189
 21
16.4710591918
 31
0.0
  0
LINE
  5
11A
330
1F
100
AcDbEntity
  8
0
  6
Continuous
 62
     7
370
    25
100
AcDbLine
 10
27.2735463222
 20
17.3282828824
 30
0.0
 11
27.1283383197
 21
17.3282828824
 31
0.0
  0
LINE
  5
11B
330
1F
100
AcDbEntity
  8
0
  6
Continuous
 62
     7
370
    25
100
AcDbLine
 10
33.7049781325
 20
16.0043889595
 30
0.0
 11
33.7049781325
 21
17.851365303
 31
0.0
  0
LINE
  5
11C
330
1F
100
AcDbEntity
  8
0
  6
Continuous
 62
     7
370
    25
100
AcDbLine
 10
30.9490729022
 20
17.7365358696
 30
0.0
 11
30.9490729022
 21
16.1192183929
 31
0.0
  0
LINE
  5
11D
330
1F
100
AcDbEntity
  8
0
  6
Continuous
 62
     7
370
    25
100
AcDbLine
 10
21.6561716946
 20
16.3770536911
 30
0.0
 11
21.931762511
 21
16.3770536911
 31
0.0
  0
LINE
  5
11E
330
1F
100
AcDbEntity
  8
0
  6
Continuous
 62
     7
370
    25
100
AcDbLine
 10
22.0891013201
 20
16.376830137
 30
0.0
 11
22.3646919897
 21
16.376830137
 31
0.0
  0
LINE
  5
11F
330
1F
100
AcDbEntity
  8
0
  6
Continuous
 62
     7
370
    25
100
AcDbLine
 10
22.5222637028
 20
16.3771414701
 30
0.0
 11
22.7978542258
 21
16.3771414701
 31
0.0
  0
LINE
  5
120
330
1F
100
AcDbEntity
  8
0
  6
Continuous
 62
     7
370
    25
100
AcDbLine
 10
23.0143305517
 20
17.4789334754
 30
0.0
 11
22.738739882
 21
17.4789334754
 31
0.0
  0
LINE
  5
121
330
1F
100
AcDbEntity
  8
0
  6
Continuous
 62
     7
370
    25
100
AcDbLine
 10
22.5810109441
 20
17.4786128291
 30
0.0
 11
22.3054204211
 21
17.4786128291
 31
0.0
  0
LINE
  5
122
330
1F
100
AcDbEntity
  8
0
  6
Continuous
 62
     7
370
    25
100
AcDbLine
 10
22.1480090129
 20
17.4790168911
 30
0.0
 11
21.8724186365
 21
17.4790168911
 31
0.0
  0
LINE
  5
123
330
1F
100
AcDbEntity
  8
0
  6
Continuous
 62
     7
370
    25
100
AcDbLine
 10
21.7149858152
 20
17.478564943
 30
0.0
 11
21.4393952922
 21
17.478564943
 31
0.0
  0
LINE
  5
124
330
1F
100
AcDbEntity
  8
0
  6
Continuous
 62
     7
370
    25
100
AcDbLine
 10
19.6579368317
 20
16.9279592216
 30
0.0
 11
19.6579368317
 21
16.9279725484
 31
0.0
  0
LINE
  5
125
330
1F
100
AcDbEntity
  8
0
  6
Continuous
 62
     7
370
    25
100
AcDbLine
 10
18.516216901
 20
16.927790037
 30
0.0
 11
18.516216901
 21
16.9277761209
 31
0.0
  0
LINE
  5
126
330
1F
100
AcDbEntity
  8
0
  6
Continuous
 62
     7
370
    25
100
AcDbLine
 10
18.191197349
 20
16.3769750053
 30
0.0
 11
18.466787872
 21
16.3769750053
 31
0.0
  0
LINE
  5
127
330
1F
100
AcDbEntity
  8
0
  6
Continuous
 62
     7
370
    25
100
AcDbLine
 10
18.6243940513
 20
16.3767542745
 30
0.0
 11
18.8999845743
 21
16.3767542745
 31
0.0
  0
LINE
  5
128
330
1F
100
AcDbEntity
  8
0
  6
Continuous
 62
     7
370
    25
100
AcDbLine
 10
19.0575150745
 20
16.3771527633
 30
0.0
 11
19.3331055976
 21
16.3771527633
 31
0.0
  0
LINE
  5
129
330
1F
100
AcDbEntity
  8
0
  6
Continuous
 62
     7
370
    25
100
AcDbLine
 10
19.4904190336
 20
16.3768197238
 30
0.0
 11
19.7660095566
 21
16.3768197238
 31
0.0
  0
LINE
  5
12A
330
1F
100
AcDbEntity
  8
0
  6
Continuous
 62
     7
370
    25
100
AcDbLine
 10
19.5498993065
 20
17.4789347587
 30
0.0
 11
19.2743087835
 21
17.4789347587
 31
0.0
  0
LINE
  5
12B
330
1F
100
AcDbEntity
  8
0
  6
Continuous
 62
     7
370
    25
100
AcDbLine
 10
19.1166022853
 20
17.4788507564
 30
0.0
 11
18.8410117623
 21
17.4788507564
 31
0.0
  0
LINE
  5
12C
330
1F
100
AcDbEntity
  8
0
  6
Continuous
 62
     7
370
    25
100
AcDbLine
 10
18.6836789665
 20
17.4786277889
 30
0.0
 11
18.4080884434
 21
17.4786277889
 31
0.0
  0
LINE
  5
12D
330
1F
100
AcDbEntity
  8
0
  6
Continuous
 62
     7
370
    25
100
AcDbLine
 10
22.955155782
 20
16.3770569544
 30
0.0
 11
23.230746305
 21
16.3770569544
 31
0.0
  0
LINE
  5
12E
330
1F
100
AcDbEntity
  8
0
  6
Continuous
 62
     7
370
    25
100
AcDbLine
 10
23.3884459833
 20
16.376941419
 30
0.0
 11
23.5884641526
 21
16.376941419
 31
0.0
  0
LINE
  5
12F
330
1F
100
AcDbEntity
  8
0
  6
Continuous
 62
     7
370
    25
100
AcDbLine
 10
23.6643834423
 20
17.4790582506
 30
0.0
 11
23.6047991839
 21
17.4790582506
 31
0.0
  0
LINE
  5
130
330
1F
100
AcDbEntity
  8
0
  6
Continuous
 62
     7
370
    25
100
AcDbLine
 10
23.4472928101
 20
17.478564723
 30
0.0
 11
23.1717022138
 21
17.478564723
 31
0.0
  0
LINE
  5
131
330
1F
100
AcDbEntity
  8
0
  6
Continuous
 62
     7
370
    25
100
AcDbLine
 10
19.9236230692
 20
16.3771263269
 30
0.0
 11
20.1992135922
 21
16.3771263269
 31
0.0
  0
LINE
  5
132
330
1F
100
AcDbEntity
  8
0
  6
Continuous
 62
     7
370
    25
100
AcDbLine
 10
20.3566854264
 20
16.3767057284
 30
0.0
 11
20.6322759494
 21
16.3767057284
 31
0.0
  0
LINE
  5
133
330
1F
100
AcDbEntity
  8
0
  6
Continuous
 62
     7
370
    25
100
AcDbLine
 10
20.789914395
 20
16.3770563677
 30
0.0
 11
21.0655049181
 21
16.3770563677
 31
0.0
  0
LINE
  5
134
330
1F
100
AcDbEntity
  8
0
  6
Continuous
 62
     7
370
    25
100
AcDbLine
 10
21.2209542423
 20
16.3771551466
 30
0.0
 11
21.4965447653
 21
16.3771551466
 31
0.0
  0
LINE
  5
135
330
1F
100
AcDbEntity
  8
0
  6
Continuous
 62
     7
370
    25
100
AcDbLine
 10
21.2820663097
 20
17.4790555007
 30
0.0
 11
21.0064757866
 21
17.4790555007
 31
0.0
  0
LINE
  5
136
330
1F
100
AcDbEntity
  8
0
  6
Continuous
 62
     7
370
    25
100
AcDbLine
 10
20.8488223812
 20
17.4786770317
 30
0.0
 11
20.5732318582
 21
17.4786770317
 31
0.0
  0
LINE
  5
137
330
1F
100
AcDbEntity
  8
0
  6
Continuous
 62
     7
370
    25
100
AcDbLine
 10
20.415961835
 20
17.4787713373
 30
0.0
 11
20.140371312
 21
17.4787713373
 31
0.0
  0
LINE
  5
138
330
1F
100
AcDbEntity
  8
0
  6
Continuous
 62
     7
370
    25
100
AcDbLine
 10
19.9826586539
 20
17.478993168
 30
0.0
 11
19.7070681308
 21
17.478993168
 31
0.0
  0
LINE
  5
139
330
1F
100
AcDbEntity
  8
0
  6
Continuous
 62
     7
370
    25
100
AcDbLine
 10
17.5733031003
 20
16.3771127237
 30
0.0
 11
17.6008268357
 21
16.3771127237
 31
0.0
  0
LINE
  5
13A
330
1F
100
AcDbEntity
  8
0
  6
Continuous
 62
     7
370
    25
100
AcDbLine
 10
17.7584476815
 20
16.3766998252
 30
0.0
 11
18.0340382045
 21
16.3766998252
 31
0.0
  0
LINE
  5
13B
330
1F
100
AcDbEntity
  8
0
  6
Continuous
 62
     7
370
    25
100
AcDbLine
 10
18.2502962929
 20
17.4787035781
 30
0.0
 11
17.9747057699
 21
17.4787035781
 31
0.0
  0
LINE
  5
13C
330
1F
100
AcDbEntity
  8
0
  6
Continuous
 62
     7
370
    25
100
AcDbLine
 10
17.8174615597
 20
17.4787447176
 30
0.0
 11
17.5733031003
 21
17.4787447176
 31
0.0
  0
LINE
  5
13D
330
1F
100
AcDbEntity
  8
0
  6
Continuous
 62
     7
370
    25
100
AcDbLine
 10
21.4922334018
 20
16.4518083142
 30
0.0
 11
21.6197345422
 21
16.4518083142
 31
0.0
  0
LINE
  5
13E
330
1F
100
AcDbEntity
  8
0
  6
Continuous
 62
     7
370
    25
100
AcDbLine
 10
21.9312714767
 20
16.4516150831
 30
0.0
 11
22.0536702894
 21
16.4516150831
 31
0.0
  0
LINE
  5
13F
330
1F
100
AcDbEntity
  8
0
  6
Continuous
 62
     7
370
    25
100
AcDbLine
 10
22.3608558207
 20
16.4518841766
 30
0.0
 11
22.4863807973
 21
16.4518841766
 31
0.0
  0
LINE
  5
140
330
1F
100
AcDbEntity
  8
0
  6
Continuous
 62
     7
370
    25
100
AcDbLine
 10
22.738739882
 20
17.404147246
 30
0.0
 11
22.6168549834
 21
17.404147246
 31
0.0
  0
LINE
  5
141
330
1F
100
AcDbEntity
  8
0
  6
Continuous
 62
     7
370
    25
100
AcDbLine
 10
22.3054204211
 20
17.4038701225
 30
0.0
 11
22.1840215702
 21
17.4038701225
 31
0.0
  0
LINE
  5
142
330
1F
100
AcDbEntity
  8
0
  6
Continuous
 62
     7
370
    25
100
AcDbLine
 10
21.8724186365
 20
17.4042193685
 30
0.0
 11
21.7504288724
 21
17.4042193685
 31
0.0
  0
LINE
  5
143
330
1F
100
AcDbEntity
  8
0
  6
Continuous
 62
     7
370
    25
100
AcDbLine
 10
21.4393952922
 20
17.4038287264
 30
0.0
 11
21.3180256276
 21
17.4038287264
 31
0.0
  0
LINE
  5
144
330
1F
100
AcDbEntity
  8
0
  6
Continuous
 62
     7
370
    25
100
AcDbLine
 10
18.0332039741
 20
16.4517402983
 30
0.0
 11
18.1558399441
 21
16.4517402983
 31
0.0
  0
LINE
  5
145
330
1F
100
AcDbEntity
  8
0
  6
Continuous
 62
     7
370
    25
100
AcDbLine
 10
18.4649551465
 20
16.4515495238
 30
0.0
 11
18.5890501396
 21
16.4515495238
 31
0.0
  0
LINE
  5
146
330
1F
100
AcDbEntity
  8
0
  6
Continuous
 62
     7
370
    25
100
AcDbLine
 10
18.8970841279
 20
16.4518939299
 30
0.0
 11
19.0220456176
 21
16.4518939299
 31
0.0
  0
LINE
  5
147
330
1F
100
AcDbEntity
  8
0
  6
Continuous
 62
     7
370
    25
100
AcDbLine
 10
19.3278579248
 20
16.4516060998
 30
0.0
 11
19.4551748541
 21
16.4516060998
 31
0.0
  0
LINE
  5
148
330
1F
100
AcDbEntity
  8
0
  6
Continuous
 62
     7
370
    25
100
AcDbLine
 10
19.2743087835
 20
17.4041483827
 30
0.0
 11
19.1523275259
 21
17.4041483827
 31
0.0
  0
LINE
  5
149
330
1F
100
AcDbEntity
  8
0
  6
Continuous
 62
     7
370
    25
100
AcDbLine
 10
18.8410117623
 20
17.4040757468
 30
0.0
 11
18.7195796184
 21
17.4040757468
 31
0.0
  0
LINE
  5
14A
330
1F
100
AcDbEntity
  8
0
  6
Continuous
 62
     7
370
    25
100
AcDbLine
 10
18.4080884434
 20
17.4038830657
 30
0.0
 11
18.2864480353
 21
17.4038830657
 31
0.0
  0
LINE
  5
14B
330
1F
100
AcDbEntity
  8
0
  6
Continuous
 62
     7
370
    25
100
AcDbLine
 10
22.7959937806
 20
16.4518111008
 30
0.0
 11
22.9193787686
 21
16.4518111008
 31
0.0
  0
LINE
  5
14C
330
1F
100
AcDbEntity
  8
0
  6
Continuous
 62
     7
370
    25
100
AcDbLine
 10
23.2273942771
 20
16.4517112953
 30
0.0
 11
23.3525356514
 21
16.4517112953
 31
0.0
  0
LINE
  5
14D
330
1F
100
AcDbEntity
  8
0
  6
Continuous
 62
     7
370
    25
100
AcDbLine
 10
23.6047991839
 20
17.4042550814
 30
0.0
 11
23.4827519272
 21
17.4042550814
 31
0.0
  0
LINE
  5
14E
330
1F
100
AcDbEntity
  8
0
  6
Continuous
 62
     7
370
    25
100
AcDbLine
 10
23.1717022138
 20
17.403828543
 30
0.0
 11
23.0497043831
 21
17.403828543
 31
0.0
  0
LINE
  5
14F
330
1F
100
AcDbEntity
  8
0
  6
Continuous
 62
     7
370
    25
100
AcDbLine
 10
19.7622734131
 20
16.4518710135
 30
0.0
 11
19.887597752
 21
16.4518710135
 31
0.0
  0
LINE
  5
150
330
1F
100
AcDbEntity
  8
0
  6
Continuous
 62
     7
370
    25
100
AcDbLine
 10
20.1976879832
 20
16.4515082376
 30
0.0
 11
20.320652776
 21
16.4515082376
 31
0.0
  0
LINE
  5
151
330
1F
100
AcDbEntity
  8
0
  6
Continuous
 62
     7
370
    25
100
AcDbLine
 10
20.6305690625
 20
16.4518111741
 30
0.0
 11
20.7538717714
 21
16.4518111741
 31
0.0
  0
LINE
  5
152
330
1F
100
AcDbEntity
  8
0
  6
Continuous
 62
     7
370
    25
100
AcDbLine
 10
21.0654312923
 20
16.4518133008
 30
0.0
 11
21.1872274586
 21
16.4518133008
 31
0.0
  0
LINE
  5
153
330
1F
100
AcDbEntity
  8
0
  6
Continuous
 62
     7
370
    25
100
AcDbLine
 10
21.0064933864
 20
17.4042525881
 30
0.0
 11
20.8846705271
 21
17.4042525881
 31
0.0
  0
LINE
  5
154
330
1F
100
AcDbEntity
  8
0
  6
Continuous
 62
     7
370
    25
100
AcDbLine
 10
20.5732870042
 20
17.4039249386
 30
0.0
 11
20.4514227853
 21
17.4039249386
 31
0.0
  0
LINE
  5
155
330
1F
100
AcDbEntity
  8
0
  6
Continuous
 62
     7
370
    25
100
AcDbLine
 10
20.140429098
 20
17.404007401
 30
0.0
 11
20.0182325362
 21
17.404007401
 31
0.0
  0
LINE
  5
156
330
1F
100
AcDbEntity
  8
0
  6
Continuous
 62
     7
370
    25
100
AcDbLine
 10
19.7070775174
 20
17.4041987621
 30
0.0
 11
19.5851188463
 21
17.4041987621
 31
0.0
  0
LINE
  5
157
330
1F
100
AcDbEntity
  8
0
  6
Continuous
 62
     7
370
    25
100
AcDbLine
 10
17.5997532481
 20
16.451502481
 30
0.0
 11
17.7223727915
 21
16.451502481
 31
0.0
  0
LINE
  5
158
330
1F
100
AcDbEntity
  8
0
  6
Continuous
 62
     7
370
    25
100
AcDbLine
 10
17.9747057699
 20
17.4039485516
 30
0.0
 11
17.8530812016
 21
17.4039485516
 31
0.0
  0
LINE
  5
159
330
1F
100
AcDbEntity
  8
0
  6
Continuous
 62
     7
370
    25
100
AcDbLine
 10
17.3292085867
 20
17.8806330316
 30
0.0
 11
15.2504684405
 21
17.8806330316
 31
0.0
  0
LINE
  5
15A
330
1F
100
AcDbEntity
  8
0
  6
Continuous
 62
     7
370
    25
100
AcDbLine
 10
15.2504684405
 20
15.9751212309
 30
0.0
 11
17.3292085867
 21
15.9751212309
 31
0.0
  0
ARC
  5
15B
330
1F
100
AcDbEntity
  8
0
  6
Continuous
 62
     7
370
    25
100
AcDbCircle
 10
15.2504685486
 20
16.0144915977
 30
0.0
 40
0.0393703667956091
100
AcDbArc
 50
180.0004098155
 51
269.9996969061
  0
ARC
  5
15C
330
1F
100
AcDbEntity
  8
0
  6
Continuous
 62
     7
370
    25
100
AcDbCircle
 10
15.2504685486
 20
17.8412626648
 30
0.0
 40
0.0393703667956124
100
AcDbArc
 50
90.0003030939
 51
179.9995901845
  0
SPLINE
  5
15D
330
1F
100
AcDbEntity
  8
0
  6
Continuous
 62
     7
370
    25
100
AcDbSpline
210
0.0
220
0.0
230
1.0
 70
     8
 71
     3
 72
    14
 73
    10
 74
     0
 42
0.000000001
 43
0.00000001
 40
0.0
 40
0.0
 40
0.0
 40
0.0
 40
0.0341871430802677
 40
0.1188608441068135
 40
0.2545879829769799
 40
0.433751903574867
 40
0.6458940928234381
 40
0.8795865224117132
 40
1.0
 40
1.0
 40
1.0
 40
1.0
 10
22.79779717314761
 20
16.45368613914984
 30
0.0
 10
22.79258748660947
 20
16.45619966905318
 30
0.0
 10
22.77447460311988
 20
16.46493863519895
 30
0.0
 10
22.76438259284487
 20
16.51034817177422
 30
0.0
 10
22.74621000013079
 20
16.57098278578826
 30
0.0
 10
22.73098284894318
 20
16.65742284427053
 30
0.0
 10
22.71414430817751
 20
16.75839285133603
 30
0.0
 10
22.700629768317
 20
16.85061302907722
 30
0.0
 10
22.69229038609398
 20
16.90822036860243
 30
0.0
 10
22.68945458473044
 20
16.92780970599064
 30
0.0
  0
SPLINE
  5
15E
330
1F
100
AcDbEntity
  8
0
  6
Continuous
 62
     7
370
    25
100
AcDbSpline
210
0.0
220
0.0
230
1.0
 70
     8
 71
     3
 72
    14
 73
    10
 74
     0
 42
0.000000001
 43
0.00000001
 40
0.0
 40
0.0
 40
0.0
 40
0.0
 40
0.0160632152269784
 40
0.0823728786793105
 40
0.198624090787576
 40
0.3607638199960157
 40
0.5614370697611475
 40
0.78813617911446
 40
1.0
 40
1.0
 40
1.0
 40
1.0
 10
22.3646855364902
 20
16.45527521745933
 30
0.0
 10
22.36192399178709
 20
16.45479376477655
 30
0.0
 10
22.34776266831717
 20
16.45232485410899
 30
0.0
 10
22.33686354989367
 20
16.49541698004145
 30
0.0
 10
22.3194253805093
 20
16.54214697944865
 30
0.0
 10
22.30407115263593
 20
16.62303735663017
 30
0.0
 10
22.28745727061996
 20
16.71757340469006
 30
0.0
 10
22.27171700795276
 20
16.82219308762014
 30
0.0
 10
22.26134471565408
 20
16.89371199542968
 30
0.0
 10
22.25633400150971
 20
16.92826181263798
 30
0.0
  0
SPLINE
  5
15F
330
1F
100
AcDbEntity
  8
0
  6
Continuous
 62
     7
370
    25
100
AcDbSpline
210
0.0
220
0.0
230
1.0
 70
     8
 71
     3
 72
    15
 73
    11
 74
     0
 42
0.000000001
 43
0.00000001
 40
0.0
 40
0.0
 40
0.0
 40
0.0
 40
0.0037030721651102
 40
0.0520507927518549
 40
0.1482428816997631
 40
0.2943873697082766
 40
0.4818308802669491
 40
0.6994830236192278
 40
0.9354519818130158
 40
1.0
 40
1.0
 40
1.0
 40
1.0
 10
21.93175811103809
 20
16.45297430070639
 30
0.0
 10
21.93125719438831
 20
16.45259474302269
 30
0.0
 10
21.92421625444398
 20
16.44725963815556
 30
0.0
 10
21.90599059616788
 20
16.4814186108193
 30
0.0
 10
21.89407673814338
 20
16.51744233956928
 30
0.0
 10
21.87661749173752
 20
16.59120159141358
 30
0.0
 10
21.86095951894209
 20
16.67877484258393
 30
0.0
 10
21.84422509551638
 20
16.78377157909872
 30
0.0
 10
21.83195683334528
 20
16.86812728696427
 30
0.0
 10
21.82483880467096
 20
16.91715485447677
 30
0.0
 10
21.82330992384081
 20
16.92768548192276
 30
0.0
  0
SPLINE
  5
160
330
1F
100
AcDbEntity
  8
0
  6
Continuous
 62
     7
370
    25
100
AcDbSpline
210
0.0
220
0.0
230
1.0
 70
     8
 71
     3
 72
    12
 73
     8
 74
     0
 42
0.000000001
 43
0.00000001
 40
0.0
 40
0.0
 40
0.0
 40
0.0
 40
0.3971908756963116
 40
0.6716956816314862
 40
0.8675305610780866
 40
0.9766074608000768
 40
1.0
 40
1.0
 40
1.0
 40
1.0
 10
23.09298800307796
 20
17.15681959482549
 30
0.0
 10
23.08660625676871
 20
17.20033901557681
 30
0.0
 10
23.07581398610117
 20
17.27393538642626
 30
0.0
 10
23.05988174310449
 20
17.37433055114333
 30
0.0
 10
23.04130493375387
 20
17.42705096474761
 30
0.0
 10
23.03249914664354
 20
17.478016137358
 30
0.0
 10
23.01703033497769
 20
17.47519993843357
 30
0.0
 10
23.01429872543654
 20
17.47470263094687
 30
0.0
  0
SPLINE
  5
161
330
1F
100
AcDbEntity
  8
0
  6
Continuous
 62
     7
370
    25
100
AcDbSpline
210
0.0
220
0.0
230
1.0
 70
     8
 71
     3
 72
    22
 73
    18
 74
     0
 42
0.000000001
 43
0.00000001
 40
0.0
 40
0.0
 40
0.0
 40
0.0
 40
0.0454405275968608
 40
0.068006075195583
 40
0.084976857708136
 40
0.1238216195871082
 40
0.186920299007705
 40
0.2705084446623615
 40
0.3696174324462363
 40
0.478859330895224
 40
0.5915845098819946
 40
0.700826400863463
 40
0.7999353886473379
 40
0.8835235046093716
 40
0.9466222133966758
 40
0.9854670033662332
 40
1.0
 40
1.0
 40
1.0
 40
1.0
 10
22.83393600900203
 20
16.45181110081044
 30
0.0
 10
22.82997965768029
 20
16.43557999968008
 30
0.0
 10
22.82405860130802
 20
16.41128861174175
 30
0.0
 10
22.80359133781166
 20
16.36947439897303
 30
0.0
 10
22.77310906687307
 20
16.39645024753089
 30
0.0
 10
22.76514052136648
 20
16.44248745676305
 30
0.0
 10
22.74582127436636
 20
16.51620106260304
 30
0.0
 10
22.73110457660474
 20
16.61462256709184
 30
0.0
 10
22.71409686978201
 20
16.73194391179723
 30
0.0
 10
22.69776251471269
 20
16.86119633540816
 30
0.0
 10
22.68112961449532
 20
16.99453119192529
 30
0.0
 10
22.66478060746187
 20
17.12393359403985
 30
0.0
 10
22.64782329743963
 20
17.24073902164908
 30
0.0
 10
22.63296142760148
 20
17.34064670040704
 30
0.0
 10
22.61399576989152
 20
17.41074020084647
 30
0.0
 10
22.60553874065293
 20
17.46250751558782
 30
0.0
 10
22.58625369971412
 20
17.47357548557393
 30
0.0
 10
22.58100302423879
 20
17.47658892582289
 30
0.0
  0
SPLINE
  5
162
330
1F
100
AcDbEntity
  8
0
  6
Continuous
 62
     7
370
    25
100
AcDbSpline
210
0.0
220
0.0
230
1.0
 70
     8
 71
     3
 72
    23
 73
    19
 74
     0
 42
0.000000001
 43
0.00000001
 40
0.0
 40
0.0
 40
0.0
 40
0.0
 40
0.0299251184456285
 40
0.0615741573137952
 40
0.0756325190713603
 40
0.1056746899021207
 40
0.1596327964401157
 40
0.2353053065256987
 40
0.3291499641806777
 40
0.4352518937829526
 40
0.5470818756080031
 40
0.6581146403404963
 40
0.7619233467346116
 40
0.8521318976878708
 40
0.9230310330665781
 40
0.9714842805981959
 40
0.9961889937783237
 40
1.0
 40
1.0
 40
1.0
 40
1.0
 10
22.40010072737089
 20
16.45188417663293
 30
0.0
 10
22.3969097478775
 20
16.44061899341787
 30
0.0
 10
22.39034396356262
 20
16.4174396644968
 30
0.0
 10
22.38415369605094
 20
16.3811065381354
 30
0.0
 10
22.3472385364067
 20
16.3768809314813
 30
0.0
 10
22.33751467444318
 20
16.42646736569418
 30
0.0
 10
22.31901936365926
 20
16.48242498339317
 30
0.0
 10
22.30420014828726
 20
16.57501374007348
 30
0.0
 10
22.28740204515304
 20
16.684682034652
 30
0.0
 10
22.27106880997232
 20
16.81069443827195
 30
0.0
 10
22.25445177945944
 20
16.94332458788524
 30
0.0
 10
22.23791477072012
 20
17.07485949066739
 30
0.0
 10
22.22138743207674
 20
17.19852659761524
 30
0.0
 10
22.20528903304907
 20
17.30263546241524
 30
0.0
 10
22.18885626374859
 20
17.3924255980653
 30
0.0
 10
22.17437124393976
 20
17.43610379538386
 30
0.0
 10
22.15972496728628
 20
17.48349193161675
 30
0.0
 10
22.14936122993702
 20
17.47680494765957
 30
0.0
 10
22.14797615993541
 20
17.47591126031801
 30
0.0
  0
SPLINE
  5
163
330
1F
100
AcDbEntity
  8
0
  6
Continuous
 62
     7
370
    25
100
AcDbSpline
210
0.0
220
0.0
230
1.0
 70
     8
 71
     3
 72
    23
 73
    19
 74
     0
 42
0.000000001
 43
0.00000001
 40
0.0
 40
0.0
 40
0.0
 40
0.0
 40
0.0112263822028037
 40
0.0525010398152047
 40
0.0705455462082386
 40
0.091756368224152
 40
0.1362283903069184
 40
0.204435809580249
 40
0.2921629255293818
 40
0.3941419485942844
 40
0.5047559159385301
 40
0.6173156528119861
 40
0.7248655270648041
 40
0.8208169303927095
 40
0.9000304997559491
 40
0.9578646399057485
 40
0.991107515895524
 40
1.0
 40
1.0
 40
1.0
 40
1.0
 10
21.9673404999873
 20
16.45161508307485
 30
0.0
 10
21.9663306350681
 20
16.447145223708
 30
0.0
 10
21.96160792410268
 20
16.42624158259298
 30
0.0
 10
21.95727296052683
 20
16.40019205353456
 30
0.0
 10
21.92841568730291
 20
16.36879016359498
 30
0.0
 10
21.90556242545821
 20
16.40843633916731
 30
0.0
 10
21.89416889327382
 20
16.45508880249776
 30
0.0
 10
21.87653507137819
 20
16.53770433381417
 30
0.0
 10
21.86097230829552
 20
16.63998095058678
 30
0.0
 10
21.84421928337812
 20
16.76108194867065
 30
0.0
 10
21.82778138774042
 20
16.89188278944197
 30
0.0
 10
21.81116245664594
 20
17.02497489780607
 30
0.0
 10
21.79487047038387
 20
17.15249742393526
 30
0.0
 10
21.77782585635437
 20
17.26491887685021
 30
0.0
 10
21.76332902407075
 20
17.36117029062872
 30
0.0
 10
21.74401629012696
 20
17.42141173965855
 30
0.0
 10
21.73640047873522
 20
17.47167214005151
 30
0.0
 10
21.71871357297492
 20
17.47415556241307
 30
0.0
 10
21.71498082860109
 20
17.47467967787869
 30
0.0
  0
LINE
  5
164
330
1F
100
AcDbEntity
  8
0
  6
Continuous
 62
     7
370
    25
100
AcDbLine
 10
21.5341039048
 20
16.4518083142
 30
0.0
 11
21.518185182
 21
16.3994543823
 31
0.0
  0
SPLINE
  5
165
330
1F
100
AcDbEntity
  8
0
  6
Continuous
 62
     7
370
    25
100
AcDbSpline
210
0.0
220
0.0
230
1.0
 70
     8
 71
     3
 72
    23
 73
    19
 74
     0
 42
0.000000001
 43
0.00000001
 40
0.0
 40
0.0
 40
0.0
 40
0.0
 40
0.0367690392627125
 40
0.064491872185373
 40
0.0788508222713036
 40
0.1120558020675117
 40
0.1698240124893722
 40
0.2489472800159515
 40
0.3447893007214062
 40
0.4522165703339374
 40
0.5646479914269613
 40
0.67513586112794
 40
0.7769986302081074
 40
0.8646257390529172
 40
0.932755403273878
 40
0.9771767281679385
 40
0.9983633702838614
 40
0.9999999999999999
 40
0.9999999999999999
 40
0.9999999999999999
 40
0.9999999999999999
 10
21.40384135624416
 20
17.40382872635492
 30
0.0
 10
21.40760645415752
 20
17.41716308895872
 30
0.0
 10
21.41421033117642
 20
17.44055119008839
 30
0.0
 10
21.42486507795218
 20
17.48107822586762
 30
0.0
 10
21.46064785552492
 20
17.47119583916741
 30
0.0
 10
21.46826329886621
 20
17.42346672688466
 30
0.0
 10
21.48781286740401
 20
17.36022962025016
 30
0.0
 10
21.50220764964378
 20
17.26526929852131
 30
0.0
 10
21.51928906655805
 20
17.15238081219582
 30
0.0
 10
21.53556903687916
 20
17.02501697329151
 30
0.0
 10
21.55219242626748
 20
16.89184194665129
 30
0.0
 10
21.56862561111848
 20
16.76119630505329
 30
0.0
 10
21.58539137089875
 20
16.63962042205287
 30
0.0
 10
21.60091712967496
 20
16.53873818799103
 30
0.0
 10
21.61864490549533
 20
16.45257958469445
 30
0.0
 10
21.62984935679761
 20
16.41305790528197
 30
0.0
 10
21.64847698121245
 20
16.37166298416303
 30
0.0
 10
21.65569925976047
 20
16.37798932093571
 30
0.0
 10
21.65621716077733
 20
16.37844297503196
 30
0.0
  0
SPLINE
  5
166
330
1F
100
AcDbEntity
  8
0
  6
Continuous
 62
     7
370
    25
100
AcDbSpline
210
0.0
220
0.0
230
1.0
 70
     8
 71
     3
 72
    23
 73
    19
 74
     0
 42
0.000000001
 43
0.00000001
 40
0.0
 40
0.0
 40
0.0
 40
0.0
 40
0.0189198375859605
 40
0.0561844724341161
 40
0.0721829538648216
 40
0.0969064351046584
 40
0.1453964923509301
 40
0.2163494894845342
 40
0.3066265714690266
 40
0.4105141408714154
 40
0.5216312566968745
 40
0.6335461952571376
 40
0.7397287300190636
 40
0.8336446630930257
 40
0.9093746612448437
 40
0.9633737595141696
 40
0.9934387532472575
 40
1.0
 40
1.0
 40
1.0
 40
1.0
 10
21.83702280542843
 20
17.40421936850886
 30
0.0
 10
21.83887275959695
 20
17.41167179942087
 30
0.0
 10
21.844366395497
 20
17.4338025866034
 30
0.0
 10
21.84869853555512
 20
17.46309027464061
 30
0.0
 10
21.88154936885411
 20
17.4857906654751
 30
0.0
 10
21.89895568247801
 20
17.43948892598435
 30
0.0
 10
21.91317717474316
 20
17.3907077484723
 30
0.0
 10
21.92973425067511
 20
17.30332477441141
 30
0.0
 10
21.94578482576448
 20
17.19828943155624
 30
0.0
 10
21.96232818782271
 20
17.07493447932794
 30
0.0
 10
21.97886012129939
 20
16.94329362082466
 30
0.0
 10
21.99547958991445
 20
16.81073938935911
 30
0.0
 10
22.01180862193023
 20
16.68454753859155
 30
0.0
 10
22.02861872824835
 20
16.57541357516811
 30
0.0
 10
22.04340511928989
 20
16.48138658384184
 30
0.0
 10
22.06197424973592
 20
16.4286599010963
 30
0.0
 10
22.07083626270942
 20
16.37770675537814
 30
0.0
 10
22.08635352188382
 20
16.38055798390525
 30
0.0
 10
22.08913329302656
 20
16.38106875469872
 30
0.0
  0
SPLINE
  5
167
330
1F
100
AcDbEntity
  8
0
  6
Continuous
 62
     7
370
    25
100
AcDbSpline
210
0.0
220
0.0
230
1.0
 70
     8
 71
     3
 72
    22
 73
    18
 74
     0
 42
0.000000001
 43
0.00000001
 40
0.0
 40
0.0
 40
0.0
 40
0.0
 40
0.0455016443582904
 40
0.0680663452645175
 40
0.0850364732552455
 40
0.1238797650756865
 40
0.1869760402991876
 40
0.2705609324707938
 40
0.3696660978619467
 40
0.4789037756492502
 40
0.5916246070999055
 40
0.7008622923544402
 40
0.7999674577455931
 40
0.8835523796086769
 40
0.9466486254666032
 40
0.9854918891975424
 40
1.0
 40
1.0
 40
1.0
 40
1.0
 10
22.26934010459543
 20
17.40387012254338
 30
0.0
 10
22.27330129412839
 20
17.42012311476916
 30
0.0
 10
22.27922687546092
 20
17.44443612138734
 30
0.0
 10
22.29970743205805
 20
17.48627972245016
 30
0.0
 10
22.3301900637054
 20
17.45930415173919
 30
0.0
 10
22.33815838995546
 20
17.41326673806708
 30
0.0
 10
22.35747774433598
 20
17.33955321494953
 30
0.0
 10
22.3721944097267
 20
17.24113167350281
 30
0.0
 10
22.38920212712707
 20
17.12381035810484
 30
0.0
 10
22.40553647161126
 20
16.99455792680921
 30
0.0
 10
22.42216940611706
 20
16.86122309830315
 30
0.0
 10
22.43851829386016
 20
16.73182059776557
 30
0.0
 10
22.45547598330534
 20
16.61501545951202
 30
0.0
 10
22.47033677311439
 20
16.51510690863825
 30
0.0
 10
22.4893050313644
 20
16.44501553586148
 30
0.0
 10
22.49775551786777
 20
16.3932551620308
 30
0.0
 10
22.51703005347956
 20
16.38219080637265
 30
0.0
 10
22.52227147604398
 20
16.37918201982778
 30
0.0
  0
SPLINE
  5
168
330
1F
100
AcDbEntity
  8
0
  6
Continuous
 62
     7
370
    25
100
AcDbSpline
210
0.0
220
0.0
230
1.0
 70
     8
 71
     3
 72
    14
 73
    10
 74
     0
 42
0.000000001
 43
0.00000001
 40
0.0
 40
0.0
 40
0.0
 40
0.0
 40
0.0861904277945804
 40
0.1780581947846094
 40
0.2188606704890274
 40
0.3061058064493503
 40
0.4627442947694175
 40
0.6823069077206192
 40
0.9999999999999999
 40
0.9999999999999999
 40
0.9999999999999999
 40
0.9999999999999999
 10
22.70326983846878
 20
17.40414724600869
 30
0.0
 10
22.70643569984753
 20
17.41532694322874
 30
0.0
 10
22.71297595700209
 20
17.43842274117495
 30
0.0
 10
22.71914303835807
 20
17.47466438001036
 30
0.0
 10
22.75606930997951
 20
17.47886645292353
 30
0.0
 10
22.76577772012849
 20
17.42926904054124
 30
0.0
 10
22.78426127563995
 20
17.37328885008447
 30
0.0
 10
22.80023621522456
 20
17.27438710806836
 30
0.0
 10
22.81102047209093
 20
17.20050687404327
 30
0.0
 10
22.81739748005653
 20
17.15681959482549
 30
0.0
  0
LINE
  5
169
330
1F
100
AcDbEntity
  8
0
  6
Continuous
 62
     7
370
    25
100
AcDbLine
 10
22.8173974801
 20
17.1257488404
 30
0.0
 11
22.8173974801
 21
17.1568195948
 31
0.0
  0
SPLINE
  5
16A
330
1F
100
AcDbEntity
  8
0
  6
Continuous
 62
     7
370
    25
100
AcDbSpline
210
0.0
220
0.0
230
1.0
 70
     8
 71
     3
 72
    12
 73
     8
 74
     0
 42
0.000000001
 43
0.00000001
 40
0.0
 40
0.0
 40
0.0
 40
0.0
 40
0.3935762035734199
 40
0.666151807488189
 40
0.8616820067152304
 40
0.9732516373653359
 40
1.0
 40
1.0
 40
1.0
 40
1.0
 10
22.81739748005653
 20
17.12574884042416
 30
0.0
 10
22.81107680972572
 20
17.16343130888553
 30
0.0
 10
22.80037868842882
 20
17.22721119254782
 30
0.0
 10
22.78386100669537
 20
17.31357346006175
 30
0.0
 10
22.7664232455432
 20
17.36030749430357
 30
0.0
 10
22.75556020008378
 20
17.40341049531425
 30
0.0
 10
22.74142437834392
 20
17.40096252446463
 30
0.0
 10
22.7386907492834
 20
17.40048912826758
 30
0.0
  0
SPLINE
  5
16B
330
1F
100
AcDbEntity
  8
0
  6
Continuous
 62
     7
370
    25
100
AcDbSpline
210
0.0
220
0.0
230
1.0
 70
     8
 71
     3
 72
    14
 73
    10
 74
     0
 42
0.000000001
 43
0.00000001
 40
0.0
 40
0.0
 40
0.0
 40
0.0
 40
0.1206310425912859
 40
0.3542097989906907
 40
0.5662487692493378
 40
0.7453255840324952
 40
0.8809867075424278
 40
0.9656192925505521
 40
1.0
 40
1.0
 40
1.0
 40
1.0
 10
22.41386391504404
 20
16.92780970599064
 30
0.0
 10
22.4110216391218
 20
16.94744399467301
 30
0.0
 10
22.4026758438649
 20
17.00509629791199
 30
0.0
 10
22.38915439959048
 20
17.0973611295827
 30
0.0
 10
22.37231703593739
 20
17.19833224737777
 30
0.0
 10
22.35708649770424
 20
17.2847691458741
 30
0.0
 10
22.33892221408527
 20
17.34541151491766
 30
0.0
 10
22.32880619697447
 20
17.39084399173877
 30
0.0
 10
22.31065580806426
 20
17.39959335824294
 30
0.0
 10
22.30541250121736
 20
17.40212088608404
 30
0.0
  0
SPLINE
  5
16C
330
1F
100
AcDbEntity
  8
0
  6
Continuous
 62
     7
370
    25
100
AcDbSpline
210
0.0
220
0.0
230
1.0
 70
     8
 71
     3
 72
    15
 73
    11
 74
     0
 42
0.000000001
 43
0.00000001
 40
0.0
 40
0.0
 40
0.0
 40
0.0
 40
0.0269978250673956
 40
0.2641170186843232
 40
0.4858940584744344
 40
0.6788066497646194
 40
0.8308044503559893
 40
0.9354501599215281
 40
0.9908521482454451
 40
1.0
 40
1.0
 40
1.0
 40
1.0
 10
21.98074362515325
 20
16.92826181263798
 30
0.0
 10
21.98010055171565
 20
16.93266833718085
 30
0.0
 10
21.97380942868219
 20
16.97577692545102
 30
0.0
 10
21.96233709990862
 20
17.05494577045566
 30
0.0
 10
21.94577573689789
 20
17.16176830930205
 30
0.0
 10
21.92971406284078
 20
17.2520902926873
 30
0.0
 10
21.91313693068
 20
17.32903995082087
 30
0.0
 10
21.89879730274013
 20
17.36854150355266
 30
0.0
 10
21.88355119502983
 20
17.40787590669123
 30
0.0
 10
21.87375655105563
 20
17.40231510357076
 30
0.0
 10
21.87236847711221
 20
17.40152703961087
 30
0.0
  0
SPLINE
  5
16D
330
1F
100
AcDbEntity
  8
0
  6
Continuous
 62
     7
370
    25
100
AcDbSpline
210
0.0
220
0.0
230
1.0
 70
     8
 71
     3
 72
    14
 73
    10
 74
     0
 42
0.000000001
 43
0.00000001
 40
0.0
 40
0.0
 40
0.0
 40
0.0
 40
0.1758766476320639
 40
0.4057725089922781
 40
0.6110261108180332
 40
0.7807589055047587
 40
0.9052497187250892
 40
0.9782072828462148
 40
1.0
 40
1.0
 40
1.0
 40
1.0
 10
21.54771940081938
 20
16.92768548192276
 30
0.0
 10
21.54357892020253
 20
16.95631153098642
 30
0.0
 10
21.53402624091878
 20
17.0223559087221
 30
0.0
 10
21.51922136961827
 20
17.12203475518973
 30
0.0
 10
21.50237846732614
 20
17.21930168453815
 30
0.0
 10
21.48729431880947
 20
17.3023677058173
 30
0.0
 10
21.46921722029053
 20
17.35503023781165
 30
0.0
 10
21.45932841236927
 20
17.39837029956302
 30
0.0
 10
21.44311859065647
 20
17.40007798750527
 30
0.0
 10
21.43939030557966
 20
17.40047075847979
 30
0.0
  0
LINE
  5
16E
330
1F
100
AcDbEntity
  8
0
  6
Continuous
 62
     7
370
    25
100
AcDbLine
 10
23.0929880031
 20
17.1565366414
 30
0.0
 11
22.8173974801
 21
17.1565366414
 31
0.0
  0
SPLINE
  5
16F
330
1F
100
AcDbEntity
  8
0
  6
Continuous
 62
     7
370
    25
100
AcDbSpline
210
0.0
220
0.0
230
1.0
 70
     8
 71
     3
 72
    15
 73
    11
 74
     0
 42
0.000000001
 43
0.00000001
 40
0.0
 40
0.0
 40
0.0
 40
0.0
 40
0.0510390494255746
 40
0.1945077943193444
 40
0.2566468519905222
 40
0.4244017546152654
 40
0.585372208536364
 40
0.6977432526768563
 40
0.8740827677215502
 40
1.0
 40
1.0
 40
1.0
 40
1.0
 10
23.61312058779529
 20
16.57666746845902
 30
0.0
 10
23.61174369695205
 20
16.58256808936556
 30
0.0
 10
23.6064964205245
 20
16.60505512175669
 30
0.0
 10
23.6012198040533
 20
16.63507620706085
 30
0.0
 10
23.59344978933483
 20
16.67870722779637
 30
0.0
 10
23.58592260069306
 20
16.72449390014211
 30
0.0
 10
23.57788017778892
 20
16.77623293429708
 30
0.0
 10
23.56996195020593
 20
16.82902237115984
 30
0.0
 10
23.56283170795279
 20
16.87772191804891
 30
0.0
 10
23.55769691694619
 20
16.91323221959941
 30
0.0
 10
23.55555781276538
 20
16.92802546715538
 30
0.0
  0
SPLINE
  5
170
330
1F
100
AcDbEntity
  8
0
  6
Continuous
 62
     7
370
    25
100
AcDbSpline
210
0.0
220
0.0
230
1.0
 70
     8
 71
     3
 72
    21
 73
    17
 74
     0
 42
0.000000001
 43
0.00000001
 40
0.0
 40
0.0
 40
0.0
 40
0.0
 40
0.0127548311562893
 40
0.0650065753738157
 40
0.1179778786769739
 40
0.1436909820089683
 40
0.2200605818940741
 40
0.302342133518403
 40
0.3642820831710638
 40
0.4682219435560613
 40
0.5855661660066726
 40
0.6350861766410302
 40
0.765505003162893
 40
0.8886993343094176
 40
0.9728050272008205
 40
1.0
 40
1.0
 40
1.0
 40
1.0
 10
23.23060990659132
 20
16.45235757449753
 30
0.0
 10
23.22846613922883
 20
16.45262148111613
 30
0.0
 10
23.21754016357883
 20
16.45396651385576
 30
0.0
 10
23.20903834389447
 20
16.47580397940608
 30
0.0
 10
23.20109402170955
 20
16.49450373940862
 30
0.0
 10
23.1934817290447
 20
16.51914092847465
 30
0.0
 10
23.18578268979616
 20
16.54842509646233
 30
0.0
 10
23.17798978506325
 20
16.58398758143225
 30
0.0
 10
23.17007529722307
 20
16.62410820152277
 30
0.0
 10
23.1618270706092
 20
16.67006223176852
 30
0.0
 10
23.15455772419536
 20
16.71410061113249
 30
0.0
 10
23.14691268880307
 20
16.76249971727102
 30
0.0
 10
23.13942249378474
 20
16.81189869326351
 30
0.0
 10
23.13134852168981
 20
16.8669737587485
 30
0.0
 10
23.12581127493521
 20
16.90522510959532
 30
0.0
 10
23.12318055340236
 20
16.92338035815174
 30
0.0
 10
23.12253776838321
 20
16.92781637376396
 30
0.0
  0
SPLINE
  5
171
330
1F
100
AcDbEntity
  8
0
  6
Continuous
 62
     7
370
    25
100
AcDbSpline
210
0.0
220
0.0
230
1.0
 70
     8
 71
     3
 72
    17
 73
    13
 74
     0
 42
0.000000001
 43
0.00000001
 40
0.0
 40
0.0
 40
0.0
 40
0.0
 40
0.1015509921590024
 40
0.238336924630702
 40
0.3844230683601683
 40
0.531034220203492
 40
0.6691133743793304
 40
0.7901488321494785
 40
0.8877682590428293
 40
0.9563698702423711
 40
0.9926956315780961
 40
1.0
 40
1.0
 40
1.0
 40
1.0
 10
23.60481744371391
 20
16.56836428771141
 30
0.0
 10
23.59987755847755
 20
16.59945695762616
 30
0.0
 10
23.58828380611498
 20
16.67243045762343
 30
0.0
 10
23.57283262796344
 20
16.79059615505386
 30
0.0
 10
23.55619801813374
 20
16.92273845699926
 30
0.0
 10
23.53965739381047
 20
17.05507273349605
 30
0.0
 10
23.52328649496206
 20
17.18038710483693
 30
0.0
 10
23.50658089612923
 20
17.28787423494618
 30
0.0
 10
23.49131659534707
 20
17.38055286230733
 30
0.0
 10
23.47428842828208
 20
17.43040047846554
 30
0.0
 10
23.46326646635797
 20
17.47969157508495
 30
0.0
 10
23.44955307995488
 20
17.47537580570629
 30
0.0
 10
23.44725724386279
 20
17.47465327818366
 30
0.0
  0
SPLINE
  5
172
330
1F
100
AcDbEntity
  8
0
  6
Continuous
 62
     7
370
    25
100
AcDbSpline
210
0.0
220
0.0
230
1.0
 70
     8
 71
     3
 72
    18
 73
    14
 74
     0
 42
0.000000001
 43
0.00000001
 40
0.0
 40
0.0
 40
0.0
 40
0.0
 40
0.0043700250338639
 40
0.0657289514802056
 40
0.0949941173227717
 40
0.1198898537853147
 40
0.1768342337140801
 40
0.2660726973550346
 40
0.3828961900650231
 40
0.5214280280316671
 40
0.6730098898277108
 40
0.828267720549667
 40
1.0
 40
1.0
 40
1.0
 40
1.0
 10
23.26700870610928
 20
16.45171129529674
 30
0.0
 10
23.26674488768876
 20
16.45044894868533
 30
0.0
 10
23.26277683074924
 20
16.43146216519344
 30
0.0
 10
23.25677101789817
 20
16.40862632292811
 30
0.0
 10
23.23393514690438
 20
16.36877403349864
 30
0.0
 10
23.20511595359323
 20
16.40015577214738
 30
0.0
 10
23.19702704272014
 20
16.44659162039189
 30
0.0
 10
23.17772580949879
 20
16.52325546653115
 30
0.0
 10
23.16281914856486
 20
16.62291602109624
 30
0.0
 10
23.14594615005313
 20
16.74158910311241
 30
0.0
 10
23.12954351908511
 20
16.87146891619074
 30
0.0
 10
23.11226673014536
 20
17.01115416789863
 30
0.0
 10
23.09962652545649
 20
17.10647499572893
 30
0.0
 10
23.09298800307796
 20
17.15653664142753
 30
0.0
  0
SPLINE
  5
173
330
1F
100
AcDbEntity
  8
0
  6
Continuous
 62
     7
370
    25
100
AcDbSpline
210
0.0
220
0.0
230
1.0
 70
     8
 71
     3
 72
    15
 73
    11
 74
     0
 42
0.000000001
 43
0.00000001
 40
0.0
 40
0.0
 40
0.0
 40
0.0
 40
0.1901707789902287
 40
0.3620982856140876
 40
0.5299551429900462
 40
0.683360825517448
 40
0.8127273877276879
 40
0.911547179794791
 40
0.9746055467181787
 40
1.0
 40
1.0
 40
1.0
 40
1.0
 10
22.81739748005653
 20
17.15653664142753
 30
0.0
 10
22.82403623451529
 20
17.10647132212417
 30
0.0
 10
22.83667688110093
 20
17.01114349949692
 30
0.0
 10
22.85395062244161
 20
16.87150648832402
 30
0.0
 10
22.87036400664526
 20
16.74145646196377
 30
0.0
 10
22.88720215633068
 20
16.62333500304064
 30
0.0
 10
22.90220919648768
 20
16.52208554281149
 30
0.0
 10
22.92126163451014
 20
16.449359883168
 30
0.0
 10
22.92973547759212
 20
16.39589436574966
 30
0.0
 10
22.94948856295069
 20
16.38220837927128
 30
0.0
 10
22.95515959528348
 20
16.37827918692405
 30
0.0
  0
SPLINE
  5
174
330
1F
100
AcDbEntity
  8
0
  6
Continuous
 62
     7
370
    25
100
AcDbSpline
210
0.0
220
0.0
230
1.0
 70
     8
 71
     3
 72
    23
 73
    19
 74
     0
 42
0.000000001
 43
0.00000001
 40
0.0
 40
0.0
 40
0.0
 40
0.0
 40
0.0268584493790605
 40
0.0600631241969055
 40
0.0744218850620269
 40
0.102144309008103
 40
0.1544984776165803
 40
0.2289979513996618
 40
0.3213676589459021
 40
0.4267444823336699
 40
0.5386325973396291
 40
0.6501200459059363
 40
0.7545099231503789
 40
0.8459848039801303
 40
0.9190111358522834
 40
0.9689961013169539
 40
0.995233212406896
 40
1.0
 40
1.0
 40
1.0
 40
1.0
 10
23.13623715679337
 20
17.40382854302371
 30
0.0
 10
23.13900920314687
 20
17.41410837411747
 30
0.0
 10
23.14520828642452
 20
17.43709699728756
 30
0.0
 10
23.15050860816129
 20
17.4712514176623
 30
0.0
 10
23.18633081363473
 20
17.48103516908364
 30
0.0
 10
23.19884054904755
 20
17.43286823137555
 30
0.0
 10
23.21565642091232
 20
17.37934908848891
 30
0.0
 10
23.23101699682159
 20
17.28833995656788
 30
0.0
 10
23.24768787282149
 20
17.18022800622035
 30
0.0
 10
23.2640649734773
 20
17.05513049337138
 30
0.0
 10
23.28062522282437
 20
16.92268428900981
 30
0.0
 10
23.29717558120342
 20
16.79074798775835
 30
0.0
 10
23.31364862311032
 20
16.66631233472348
 30
0.0
 10
23.33014869923417
 20
16.56040104272715
 30
0.0
 10
23.34564015101349
 20
16.46917328011128
 30
0.0
 10
23.36189130107968
 20
16.42229047035235
 30
0.0
 10
23.37435895456625
 20
16.3743382062692
 30
0.0
 10
23.38660269251112
 20
16.37979270770107
 30
0.0
 10
23.38848514280311
 20
16.3806313264186
 30
0.0
  0
SPLINE
  5
175
330
1F
100
AcDbEntity
  8
0
  6
Continuous
 62
     7
370
    25
100
AcDbSpline
210
0.0
220
0.0
230
1.0
 70
     8
 71
     3
 72
    14
 73
    10
 74
     0
 42
0.000000001
 43
0.00000001
 40
0.0
 40
0.0
 40
0.0
 40
0.0
 40
0.0306661948720282
 40
0.2206298412722061
 40
0.3085706627605551
 40
0.3965114842489041
 40
0.586475130649082
 40
0.8786159784217142
 40
1.0
 40
1.0
 40
1.0
 40
1.0
 10
23.56888760544514
 20
17.40425508142964
 30
0.0
 10
23.56948805380346
 20
17.40702097960339
 30
0.0
 10
23.57380801676407
 20
17.42692040558687
 30
0.0
 10
23.57909029034444
 20
17.45093087471069
 30
0.0
 10
23.60479901490053
 20
17.48794111473417
 30
0.0
 10
23.63050914578309
 20
17.45104360785358
 30
0.0
 10
23.6402558206916
 20
17.40519766607486
 30
0.0
 10
23.65388897720968
 20
17.34928264482037
 30
0.0
 10
23.65969192256903
 20
17.31195695410634
 30
0.0
 10
23.6613952901218
 20
17.30100055756804
 30
0.0
  0
SPLINE
  5
176
330
1F
100
AcDbEntity
  8
0
  6
Continuous
 62
     7
370
    25
100
AcDbSpline
210
0.0
220
0.0
230
1.0
 70
     8
 71
     3
 72
    10
 73
     6
 74
     0
 42
0.000000001
 43
0.00000001
 40
0.0
 40
0.0
 40
0.0
 40
0.0
 40
0.4503871556242202
 40
0.8188578011440905
 40
1.0
 40
1.0
 40
1.0
 40
1.0
 10
23.65261797818473
 20
17.2922232822972
 30
0.0
 10
23.64804463624337
 20
17.3101126267635
 30
0.0
 10
23.63972975274988
 20
17.34263759798138
 30
0.0
 10
23.62966414429794
 20
17.3857420800534
 30
0.0
 10
23.61096280008894
 20
17.39966601179847
 30
0.0
 10
23.60479918392485
 20
17.40425508142964
 30
0.0
  0
SPLINE
  5
177
330
1F
100
AcDbEntity
  8
0
  6
Continuous
 62
     7
370
    25
100
AcDbSpline
210
0.0
220
0.0
230
1.0
 70
     8
 71
     3
 72
    14
 73
    10
 74
     0
 42
0.000000001
 43
0.00000001
 40
0.0
 40
0.0
 40
0.0
 40
0.0
 40
0.2300070347657606
 40
0.4550239424383504
 40
0.6524426608772501
 40
0.8119978150155761
 40
0.9248015122085462
 40
0.9863188865094102
 40
1.0
 40
1.0
 40
1.0
 40
1.0
 10
23.28002126245378
 20
16.92759036442456
 30
0.0
 10
23.27459262854635
 20
16.96509710991975
 30
0.0
 10
23.26385313788193
 20
17.03929687176891
 30
0.0
 10
23.24764883746642
 20
17.14610374208692
 30
0.0
 10
23.23109675241284
 20
17.23926763612938
 30
0.0
 10
23.21537449963844
 20
17.31886397727015
 30
0.0
 10
23.19920279565863
 20
17.36340564711742
 30
0.0
 10
23.18657245055567
 20
17.40472112389062
 30
0.0
 10
23.17394649659227
 20
17.40110283040448
 30
0.0
 10
23.17164941437462
 20
17.40044454211598
 30
0.0
  0
SPLINE
  5
178
330
1F
100
AcDbEntity
  8
0
  6
Continuous
 62
     7
370
    25
100
AcDbSpline
210
0.0
220
0.0
230
1.0
 70
     8
 71
     3
 72
     9
 73
     5
 74
     0
 42
0.000000001
 43
0.00000001
 40
0.0
 40
0.0
 40
0.0
 40
0.0
 40
0.3347930715325835
 40
1.0
 40
1.0
 40
1.0
 40
1.0
 10
22.84658219624553
 20
16.93026916204657
 30
0.0
 10
22.84343839970749
 20
16.95207374505186
 30
0.0
 10
22.83404813209041
 20
17.01720228222699
 30
0.0
 10
22.82404898318631
 20
17.08224044205221
 30
0.0
 10
22.81739748005653
 20
17.12550427658272
 30
0.0
  0
SPLINE
  5
179
330
1F
100
AcDbEntity
  8
0
  6
Continuous
 62
     7
370
    25
100
AcDbSpline
210
0.0
220
0.0
230
1.0
 70
     8
 71
     3
 72
    15
 73
    11
 74
     0
 42
0.000000001
 43
0.00000001
 40
0.0
 40
0.0
 40
0.0
 40
0.0
 40
0.0155399306637491
 40
0.0801689350927449
 40
0.1929177647116385
 40
0.3501572593381312
 40
0.545074480661899
 40
0.7659831102651277
 40
0.999917331016322
 40
0.9999999999999999
 40
0.9999999999999999
 40
0.9999999999999999
 40
0.9999999999999999
 10
19.76600339668803
 20
16.45511934925994
 30
0.0
 10
19.76333306530245
 20
16.45470533909235
 30
0.0
 10
19.74955709498708
 20
16.45256950239065
 30
0.0
 10
19.7388283677885
 20
16.49399107275703
 30
0.0
 10
19.72172440360645
 20
16.53945339946943
 30
0.0
 10
19.70664388114289
 20
16.61772501659513
 30
0.0
 10
19.69033840303988
 20
16.70951470279347
 30
0.0
 10
19.67423640675296
 20
16.81570806601024
 30
0.0
 10
19.66348031850001
 20
16.88976154831914
 30
0.0
 10
19.65794465388085
 20
16.92790407976949
 30
0.0
 10
19.65794269834777
 20
16.92791755402903
 30
0.0
  0
SPLINE
  5
17A
330
1F
100
AcDbEntity
  8
0
  6
Continuous
 62
     7
370
    25
100
AcDbSpline
210
0.0
220
0.0
230
1.0
 70
     8
 71
     3
 72
    14
 73
    10
 74
     0
 42
0.000000001
 43
0.00000001
 40
0.0
 40
0.0
 40
0.0
 40
0.0
 40
0.0199518242987751
 40
0.0891571466032794
 40
0.2079236567235848
 40
0.370747076583534
 40
0.568744321804905
 40
0.7918775559338004
 40
1.0
 40
1.0
 40
1.0
 40
1.0
 10
19.33305103819062
 20
16.45522725801337
 30
0.0
 10
19.32961764670818
 20
16.45542486793623
 30
0.0
 10
19.31427512047284
 20
16.45630791184236
 30
0.0
 10
19.3042116173532
 20
16.49783229474212
 30
0.0
 10
19.28669057008841
 20
16.54773955339676
 30
0.0
 10
19.27181090193061
 20
16.62763433686737
 30
0.0
 10
19.25531387488863
 20
16.72149858448604
 30
0.0
 10
19.23990315608898
 20
16.8242047821888
 30
0.0
 10
19.2297387258969
 20
16.89443435565475
 30
0.0
 10
19.22483340832991
 20
16.92832689600723
 30
0.0
  0
SPLINE
  5
17B
330
1F
100
AcDbEntity
  8
0
  6
Continuous
 62
     7
370
    25
100
AcDbSpline
210
0.0
220
0.0
230
1.0
 70
     8
 71
     3
 72
    14
 73
    10
 74
     0
 42
0.000000001
 43
0.00000001
 40
0.0
 40
0.0
 40
0.0
 40
0.0
 40
0.025162156458598
 40
0.1007221823518858
 40
0.2241575465615179
 40
0.3920657251376071
 40
0.5944266521280357
 40
0.8195087521511508
 40
1.0
 40
1.0
 40
1.0
 40
1.0
 10
18.89993529491398
 20
16.45454555922174
 30
0.0
 10
18.89578792555127
 20
16.45565211271824
 30
0.0
 10
18.87918632409795
 20
16.46008156149142
 30
0.0
 10
18.86971586839612
 20
16.50227533928356
 30
0.0
 10
18.85156749763556
 20
16.55622476132939
 30
0.0
 10
18.83689116467649
 20
16.6377577343106
 30
0.0
 10
18.82037688617085
 20
16.73366061036633
 30
0.0
 10
18.80559154555998
 20
16.83271404765868
 30
0.0
 10
18.79603752044642
 20
16.89869905792834
 30
0.0
 10
18.79178571760046
 20
16.92806419472883
 30
0.0
  0
SPLINE
  5
17C
330
1F
100
AcDbEntity
  8
0
  6
Continuous
 62
     7
370
    25
100
AcDbSpline
210
0.0
220
0.0
230
1.0
 70
     8
 71
     3
 72
    13
 73
     9
 74
     0
 42
0.000000001
 43
0.00000001
 40
0.0
 40
0.0
 40
0.0
 40
0.0
 40
0.0358913926350802
 40
0.1308847932046898
 40
0.2814874533047741
 40
0.4808691498596028
 40
0.7272182849404363
 40
1.0
 40
1.0
 40
1.0
 40
1.0
 10
18.46672920601435
 20
16.45392600971217
 30
0.0
 10
18.46189441406167
 20
16.45595155137567
 30
0.0
 10
18.44426342516834
 20
16.46333807450255
 30
0.0
 10
18.43493013785842
 20
16.50738871797233
 30
0.0
 10
18.4167630901283
 20
16.56493085125979
 30
0.0
 10
18.40166866712608
 20
16.64925337977515
 30
0.0
 10
18.38484975967792
 20
16.74909878363149
 30
0.0
 10
18.37418339289261
 20
16.82186695553026
 30
0.0
 10
18.36857865985784
 20
16.8601036095972
 30
0.0
  0
SPLINE
  5
17D
330
1F
100
AcDbEntity
  8
0
  6
Continuous
 62
     7
370
    25
100
AcDbSpline
210
0.0
220
0.0
230
1.0
 70
     8
 71
     3
 72
    23
 73
    19
 74
     0
 42
0.000000001
 43
0.00000001
 40
0.0
 40
0.0
 40
0.0
 40
0.0
 40
0.0316500285996252
 40
0.0620458035090152
 40
0.0758237273151924
 40
0.1050828598293026
 40
0.1573906129021134
 40
0.2307517203177319
 40
0.3218800254519226
 40
0.4252478821151219
 40
0.5347461036073411
 40
0.6442442796102816
 40
0.74761215119053
 40
0.8387403902690811
 40
0.9121014991586218
 40
0.9644091309044688
 40
0.993668396307311
 40
1.0
 40
1.0
 40
1.0
 40
1.0
 10
19.80173831720851
 20
16.45187101345166
 30
0.0
 10
19.79832715302266
 20
16.44001523110204
 30
0.0
 10
19.79164000510599
 20
16.41677349721878
 30
0.0
 10
19.78488726839912
 20
16.38045904653694
 30
0.0
 10
19.74909265280459
 20
16.37720444456468
 30
0.0
 10
19.73944134011178
 20
16.42481792090385
 30
0.0
 10
19.72133678488376
 20
16.47930463563126
 30
0.0
 10
19.70676552952755
 20
16.56886748486267
 30
0.0
 10
19.69028629303219
 20
16.67535988212221
 30
0.0
 10
19.67424737716789
 20
16.7980745347854
 30
0.0
 10
19.65794864785628
 20
16.92788790450212
 30
0.0
 10
19.64164944315858
 20
17.0576377392155
 30
0.0
 10
19.62561495357642
 20
17.18052579961105
 30
0.0
 10
19.60912155821564
 20
17.28649620643052
 30
0.0
 10
19.59458976992008
 20
17.37746250671307
 30
0.0
 10
19.57639419724539
 20
17.42879433179803
 30
0.0
 10
19.56764334486552
 20
17.47774190678529
 30
0.0
 10
19.55255082168064
 20
17.47530173481678
 30
0.0
 10
19.54986586686055
 20
17.47486762904079
 30
0.0
  0
SPLINE
  5
17E
330
1F
100
AcDbEntity
  8
0
  6
Continuous
 62
     7
370
    25
100
AcDbSpline
210
0.0
220
0.0
230
1.0
 70
     8
 71
     3
 72
    23
 73
    19
 74
     0
 42
0.000000001
 43
0.00000001
 40
0.0
 40
0.0
 40
0.0
 40
0.0
 40
0.03652400624399
 40
0.0639633734922243
 40
0.0778985861558466
 40
0.10936346959264
 40
0.1645008660294973
 40
0.2404625198274134
 40
0.332999244375559
 40
0.4373662897372365
 40
0.5473931641692595
 40
0.6565466856101849
 40
0.758504799512781
 40
0.8478042104411595
 40
0.9192573696780215
 40
0.9685503281419213
 40
0.9949456842203781
 40
0.9999999999999999
 40
0.9999999999999999
 40
0.9999999999999999
 40
0.9999999999999999
 10
19.36871878615375
 20
16.4516060998453
 30
0.0
 10
19.36490706588855
 20
16.43830212900077
 30
0.0
 10
19.35823171693198
 20
16.41500329232954
 30
0.0
 10
19.34817590665954
 20
16.37563276037254
 30
0.0
 10
19.31316614364877
 20
16.382880005337
 30
0.0
 10
19.30507076776632
 20
16.42908234636156
 30
0.0
 10
19.28620860774818
 20
16.48893758735181
 30
0.0
 10
19.27196805099975
 20
16.58030408985628
 30
0.0
 10
19.255251011891
 20
16.68922744386171
 30
0.0
 10
19.23925744063997
 20
16.81301543883155
 30
0.0
 10
19.2229680500935
 20
16.94336625273049
 30
0.0
 10
19.20671662418389
 20
17.07257890225162
 30
0.0
 10
19.19058016716223
 20
17.19409663443522
 30
0.0
 10
19.1742681248884
 20
17.29767634768699
 30
0.0
 10
19.15933239437769
 20
17.38655474547217
 30
0.0
 10
19.14268730140304
 20
17.43360394498561
 30
0.0
 10
19.13141781641699
 20
17.48030086740414
 30
0.0
 10
19.1186192637033
 20
17.47583200294764
 30
0.0
 10
19.11656239241927
 20
17.47511380619693
 30
0.0
  0
SPLINE
  5
17F
330
1F
100
AcDbEntity
  8
0
  6
Continuous
 62
     7
370
    25
100
AcDbSpline
210
0.0
220
0.0
230
1.0
 70
     8
 71
     3
 72
    23
 73
    19
 74
     0
 42
0.000000001
 43
0.00000001
 40
0.0
 40
0.0
 40
0.0
 40
0.0
 40
0.0409801381087324
 40
0.0662610805609285
 40
0.0811386562541371
 40
0.1155952404660337
 40
0.1728212386996728
 40
0.2510128198493918
 40
0.3454014335650589
 40
0.4504600447019841
 40
0.5604707078035128
 40
0.6691260155115545
 40
0.769978997821534
 40
0.8570136998517403
 40
0.9258934607950852
 40
0.9729191115910624
 40
0.9964659345014104
 40
1.0
 40
1.0
 40
1.0
 40
1.0
 10
18.93595327883116
 20
16.45189392985359
 30
0.0
 10
18.93180975729341
 20
16.43730876730904
 30
0.0
 10
18.92511006746586
 20
16.41372591290784
 30
0.0
 10
18.9111622241685
 20
16.37157035826692
 30
0.0
 10
18.87781006575731
 20
16.38875963491578
 30
0.0
 10
18.87060318628715
 20
16.43377362332574
 30
0.0
 10
18.85109179303736
 20
16.49892052596872
 30
0.0
 10
18.83704639929628
 20
16.59194884445974
 30
0.0
 10
18.82031574298643
 20
16.70331338286267
 30
0.0
 10
18.80427164701329
 20
16.82813628606638
 30
0.0
 10
18.78795521634445
 20
16.95873885766352
 30
0.0
 10
18.77175519115762
 20
17.08738084553564
 30
0.0
 10
18.75555198934904
 20
17.20755661100117
 30
0.0
 10
18.73966548054695
 20
17.30852581232364
 30
0.0
 10
18.72348018926142
 20
17.39518616356846
 30
0.0
 10
18.70964657185052
 20
17.43802654901266
 30
0.0
 10
18.69494274151291
 20
17.4825993360253
 30
0.0
 10
18.68494599869336
 20
17.47660964771868
 30
0.0
 10
18.68364142022594
 20
17.47582799127994
 30
0.0
  0
SPLINE
  5
180
330
1F
100
AcDbEntity
  8
0
  6
Continuous
 62
     7
370
    25
100
AcDbSpline
210
0.0
220
0.0
230
1.0
 70
     8
 71
     3
 72
    15
 73
    11
 74
     0
 42
0.000000001
 43
0.00000001
 40
0.0
 40
0.0
 40
0.0
 40
0.0
 40
0.0956309774280481
 40
0.14368241078345
 40
0.1778404468778494
 40
0.2575606114685467
 40
0.3856695512533843
 40
0.5559126244141749
 40
0.7665800401303898
 40
1.0
 40
1.0
 40
1.0
 40
1.0
 10
18.50332328994304
 20
16.4515495238322
 30
0.0
 10
18.4991026448918
 20
16.43555563082617
 30
0.0
 10
18.49276126396761
 20
16.41152533053306
 30
0.0
 10
18.47381367753146
 20
16.37010238591713
 30
0.0
 10
18.44285662869042
 20
16.39399009389191
 30
0.0
 10
18.43573660946817
 20
16.43926099048883
 30
0.0
 10
18.41635131216392
 20
16.50911144235163
 30
0.0
 10
18.40180330322877
 20
16.60519351540525
 30
0.0
 10
18.38479996843444
 20
16.7211826910982
 30
0.0
 10
18.37416734797801
 20
16.80526590286121
 30
0.0
 10
18.36857865985784
 20
16.84946148461927
 30
0.0
  0
LINE
  5
181
330
1F
100
AcDbEntity
  8
0
  6
Continuous
 62
     7
370
    25
100
AcDbLine
 10
18.3685786599
 20
16.8601036096
 30
0.0
 11
18.3685786599
 21
16.8494614846
 31
0.0
  0
SPLINE
  5
182
330
1F
100
AcDbEntity
  8
0
  6
Continuous
 62
     7
370
    25
100
AcDbSpline
210
0.0
220
0.0
230
1.0
 70
     8
 71
     3
 72
    13
 73
     9
 74
     0
 42
0.000000001
 43
0.00000001
 40
0.0
 40
0.0
 40
0.0
 40
0.0
 40
0.2746570392434308
 40
0.5225419617582072
 40
0.7228609852563052
 40
0.873602259145537
 40
0.967406166860674
 40
1.0
 40
1.0
 40
1.0
 40
1.0
 10
18.09298813683641
 20
16.84946148461927
 30
0.0
 10
18.09858097943973
 20
16.80522574298589
 30
0.0
 10
18.10922150390542
 20
16.72106612604465
 30
0.0
 10
18.12617336583019
 20
16.60557451983171
 30
0.0
 10
18.14086571654927
 20
16.50809714733223
 30
0.0
 10
18.15990335285303
 20
16.44160740771865
 30
0.0
 10
18.16747346538457
 20
16.39135699710417
 30
0.0
 10
18.18633806674686
 20
16.38190314238791
 30
0.0
 10
18.19120262892088
 20
16.37946530322193
 30
0.0
  0
SPLINE
  5
183
330
1F
100
AcDbEntity
  8
0
  6
Continuous
 62
     7
370
    25
100
AcDbSpline
210
0.0
220
0.0
230
1.0
 70
     8
 71
     3
 72
    23
 73
    19
 74
     0
 42
0.000000001
 43
0.00000001
 40
0.0
 40
0.0
 40
0.0
 40
0.0
 40
0.0214295632792808
 40
0.057031236727448
 40
0.0724798969808281
 40
0.0960715296044121
 40
0.1431865297758314
 40
0.2121974652524978
 40
0.2993977947244358
 40
0.4004427007276245
 40
0.5093047799903043
 40
0.6195247938940727
 40
0.7247833320553754
 40
0.8193515677408275
 40
0.897691947832218
 40
0.9550268474059764
 40
0.9895490026574778
 40
1.0
 40
1.0
 40
1.0
 40
1.0
 10
18.37235557622658
 20
17.40388306572719
 30
0.0
 10
18.37446430625588
 20
17.41229416368495
 30
0.0
 10
18.38007634229825
 20
17.43467890911885
 30
0.0
 10
18.38486181836403
 20
17.46432210589163
 30
0.0
 10
18.41673107253313
 20
17.48478719308041
 30
0.0
 10
18.43423016641814
 20
17.44131035796813
 30
0.0
 10
18.44779980479095
 20
17.39350968231063
 30
0.0
 10
18.46411072321597
 20
17.30919353235298
 30
0.0
 10
18.4799491770468
 20
17.20732584314951
 30
0.0
 10
18.49616824018744
 20
17.08745418083736
 30
0.0
 10
18.51236459302881
 20
16.95870986620565
 30
0.0
 10
18.52867781096854
 20
16.82817484855108
 30
0.0
 10
18.54473732549956
 20
16.70319877113623
 30
0.0
 10
18.56141841425367
 20
16.59229831302294
 30
0.0
 10
18.57560241762541
 20
16.49797791592652
 30
0.0
 10
18.59478811931786
 20
16.4358660424517
 30
0.0
 10
18.60226522714186
 20
16.38740995595089
 30
0.0
 10
18.62022992121082
 20
16.38155595520112
 30
0.0
 10
18.62440461120128
 20
16.38019558478566
 30
0.0
  0
SPLINE
  5
184
330
1F
100
AcDbEntity
  8
0
  6
Continuous
 62
     7
370
    25
100
AcDbSpline
210
0.0
220
0.0
230
1.0
 70
     8
 71
     3
 72
    23
 73
    19
 74
     0
 42
0.000000001
 43
0.00000001
 40
0.0
 40
0.0
 40
0.0
 40
0.0
 40
0.0264390138912108
 40
0.0597955028375426
 40
0.0740125846252839
 40
0.1004300068205614
 40
0.1497641734491348
 40
0.2212770664419744
 40
0.3106511303217171
 40
0.4126944796591185
 40
0.5219391911287883
 40
0.6320581065328587
 40
0.7365124011594575
 40
0.8291264850039889
 40
0.9051516415908659
 40
0.960335132053784
 40
0.9918263196552797
 40
1.0
 40
1.0
 40
1.0
 40
1.0
 10
18.80560859791737
 20
17.40407574683466
 30
0.0
 10
18.80838170398476
 20
17.41420170232273
 30
0.0
 10
18.81465346859762
 20
17.4371029573624
 30
0.0
 10
18.81945683850103
 20
17.47069588826224
 30
0.0
 10
18.85429480145335
 20
17.48178372080917
 30
0.0
 10
18.8672627457601
 20
17.43608069238921
 30
0.0
 10
18.88365953420001
 20
17.3853260163241
 30
0.0
 10
18.89870990519994
 20
17.29815843743962
 30
0.0
 10
18.91497869809104
 20
17.19393316531817
 30
0.0
 10
18.9311295477241
 20
17.07263093942787
 30
0.0
 10
18.94737611307985
 20
16.94334308780731
 30
0.0
 10
18.9636654884992
 20
16.81305287909415
 30
0.0
 10
18.97966680135194
 20
16.68911320753863
 30
0.0
 10
18.99635811186854
 20
16.58064734694209
 30
0.0
 10
19.01066990134099
 20
16.48802297920289
 30
0.0
 10
19.02936795946536
 20
16.43106406977686
 30
0.0
 10
19.0372708356454
 20
16.38271254243781
 30
0.0
 10
19.05405906835307
 20
16.38129227463751
 30
0.0
 10
19.05751859449826
 20
16.38099960216425
 30
0.0
  0
SPLINE
  5
185
330
1F
100
AcDbEntity
  8
0
  6
Continuous
 62
     7
370
    25
100
AcDbSpline
210
0.0
220
0.0
230
1.0
 70
     8
 71
     3
 72
    23
 73
    19
 74
     0
 42
0.000000001
 43
0.00000001
 40
0.0
 40
0.0
 40
0.0
 40
0.0
 40
0.0314321255073834
 40
0.0618344880079875
 40
0.075615113923777
 40
0.104880692020766
 40
0.1571996091518134
 40
0.2305765457197428
 40
0.3217244457396576
 40
0.4251146189651764
 40
0.5346364192281667
 40
0.6441582649902495
 40
0.7475484232955009
 40
0.8386963530789652
 40
0.9120732881726544
 40
0.9643923899092384
 40
0.9936578350888247
 40
1.0
 40
1.0
 40
1.0
 40
1.0
 10
19.23863927551003
 20
17.40414838266223
 30
0.0
 10
19.24202575996446
 20
17.41592176755891
 30
0.0
 10
19.2486877826246
 20
17.43908282381761
 30
0.0
 10
19.25542009931455
 20
17.47529659319407
 30
0.0
 10
19.29121469267904
 20
17.4785491655945
 30
0.0
 10
19.30086579394215
 20
17.43093658051917
 30
0.0
 10
19.31896986522279
 20
17.37644925497155
 30
0.0
 10
19.3335423653848
 20
17.28688694272084
 30
0.0
 10
19.35002061871036
 20
17.1803943176912
 30
0.0
 10
19.36606013686689
 20
17.05767981864131
 30
0.0
 10
19.38235751120159
 20
16.92786626961324
 30
0.0
 10
19.39865802324037
 20
16.79811657242577
 30
0.0
 10
19.41469212567864
 20
16.67522856353706
 30
0.0
 10
19.43118582410088
 20
16.5692578042813
 30
0.0
 10
19.44571696568677
 20
16.47829236943502
 30
0.0
 10
19.46391189520657
 20
16.42695799479959
 30
0.0
 10
19.47266635067506
 20
16.37800981787602
 30
0.0
 10
19.4877634832864
 20
16.38045263660059
 30
0.0
 10
19.49045247320915
 20
16.38088773345656
 30
0.0
  0
SPLINE
  5
186
330
1F
100
AcDbEntity
  8
0
  6
Continuous
 62
     7
370
    25
100
AcDbSpline
210
0.0
220
0.0
230
1.0
 70
     8
 71
     3
 72
    14
 73
    10
 74
     0
 42
0.000000001
 43
0.00000001
 40
0.0
 40
0.0
 40
0.0
 40
0.0
 40
0.2338682992092701
 40
0.454792913657792
 40
0.6497240305097662
 40
0.8069749151323332
 40
0.9197315645884927
 40
0.9843655508680558
 40
1.0
 40
1.0
 40
1.0
 40
1.0
 10
19.38235217532634
 20
16.92791755402903
 30
0.0
 10
19.37682221205304
 20
16.96600511839707
 30
0.0
 10
19.36606834708719
 20
17.04007225118779
 30
0.0
 10
19.34996846386213
 20
17.146236206278
 30
0.0
 10
19.33366465030436
 20
17.2380313755314
 30
0.0
 10
19.31858048965176
 20
17.31629679531576
 30
0.0
 10
19.30148255724065
 20
17.36177111963774
 30
0.0
 10
19.29073963817038
 20
17.40319348260768
 30
0.0
 10
19.27694468444645
 20
17.40104959644183
 30
0.0
 10
19.27425774404244
 20
17.40063201661692
 30
0.0
  0
SPLINE
  5
187
330
1F
100
AcDbEntity
  8
0
  6
Continuous
 62
     7
370
    25
100
AcDbSpline
210
0.0
220
0.0
230
1.0
 70
     8
 71
     3
 72
    15
 73
    11
 74
     0
 42
0.000000001
 43
0.00000001
 40
0.0
 40
0.0
 40
0.0
 40
0.0
 40
0.0270319379734599
 40
0.2602472552438129
 40
0.4781740253639488
 40
0.6692208356899573
 40
0.8224286008068897
 40
0.9288380042756845
 40
0.9876062114037925
 40
1.0
 40
1.0
 40
1.0
 40
1.0
 10
18.94924288530849
 20
16.92832689600723
 30
0.0
 10
18.94860133709419
 20
16.93273259032159
 30
0.0
 10
18.94242489639503
 20
16.97514796778657
 30
0.0
 10
18.93114456131014
 20
17.05297249652861
 30
0.0
 10
18.91494363102978
 20
17.15795435629449
 30
0.0
 10
18.89877077909135
 20
17.24774238786355
 30
0.0
 10
18.88342586696513
 20
17.32406574760089
 30
0.0
 10
18.86750399896959
 20
17.36615581481333
 30
0.0
 10
18.85483132132305
 20
17.40522042011854
 30
0.0
 10
18.84301314553257
 20
17.40149148371041
 30
0.0
 10
18.84095485626104
 20
17.40084204085737
 30
0.0
  0
SPLINE
  5
188
330
1F
100
AcDbEntity
  8
0
  6
Continuous
 62
     7
370
    25
100
AcDbSpline
210
0.0
220
0.0
230
1.0
 70
     8
 71
     3
 72
    15
 73
    11
 74
     0
 42
0.000000001
 43
0.00000001
 40
0.0
 40
0.0
 40
0.0
 40
0.0
 40
0.0550082757966206
 40
0.2871933682511593
 40
0.5027987400317645
 40
0.6890617132851631
 40
0.8368381048910701
 40
0.9384912613256624
 40
0.991480530962677
 40
1.0
 40
1.0
 40
1.0
 40
1.0
 10
18.51619519457903
 20
16.92806419472883
 30
0.0
 10
18.51488988654003
 20
16.93703832658254
 30
0.0
 10
18.50807498811072
 20
16.9838914794377
 30
0.0
 10
18.49617045824747
 20
17.06577459102172
 30
0.0
 10
18.47994276345246
 20
17.1695756210648
 30
0.0
 10
18.46408495734572
 20
17.25717383313014
 30
0.0
 10
18.44777408135131
 20
17.33142713911859
 30
0.0
 10
18.43404414506494
 20
17.37020252452209
 30
0.0
 10
18.41878191169013
 20
17.40712438034108
 30
0.0
 10
18.40934146413486
 20
17.4021453271499
 30
0.0
 10
18.40803388406772
 20
17.40145568710181
 30
0.0
  0
LINE
  5
189
330
1F
100
AcDbEntity
  8
0
  6
Continuous
 62
     7
370
    25
100
AcDbLine
 10
18.0929881368
 20
16.8601365725
 30
0.0
 11
18.0929881368
 21
16.8494996267
 31
0.0
  0
LINE
  5
18A
330
1F
100
AcDbEntity
  8
0
  6
Continuous
 62
     7
370
    25
100
AcDbLine
 10
18.3685786599
 20
16.8494614846
 30
0.0
 11
18.0929881368
 21
16.8494614846
 31
0.0
  0
SPLINE
  5
18B
330
1F
100
AcDbEntity
  8
0
  6
Continuous
 62
     7
370
    25
100
AcDbSpline
210
0.0
220
0.0
230
1.0
 70
     8
 71
     3
 72
    14
 73
    10
 74
     0
 42
0.000000001
 43
0.00000001
 40
0.0
 40
0.0
 40
0.0
 40
0.0
 40
0.0302461694075866
 40
0.1152405713762173
 40
0.2481202228309945
 40
0.4227573679490017
 40
0.6309686770474391
 40
0.8603421547518181
 40
0.9999999999999999
 40
0.9999999999999999
 40
0.9999999999999999
 40
0.9999999999999999
 10
21.49648873930702
 20
16.45476200005473
 30
0.0
 10
21.49193505594508
 20
16.45702637250277
 30
0.0
 10
21.47458512096903
 20
16.46565383111427
 30
0.0
 10
21.465626221648
 20
16.51019590270202
 30
0.0
 10
21.44729717499963
 20
16.56927364653091
 30
0.0
 10
21.43241681743629
 20
16.65356197357977
 30
0.0
 10
21.41593367792163
 20
16.75204093196306
 30
0.0
 10
21.402161766725
 20
16.84566829882372
 30
0.0
 10
21.39349556331105
 20
16.90545863237573
 30
0.0
 10
21.39021588698008
 20
16.92808595052242
 30
0.0
  0
SPLINE
  5
18C
330
1F
100
AcDbEntity
  8
0
  6
Continuous
 62
     7
370
    25
100
AcDbSpline
210
0.0
220
0.0
230
1.0
 70
     8
 71
     3
 72
    15
 73
    11
 74
     0
 42
0.000000001
 43
0.00000001
 40
0.0
 40
0.0
 40
0.0
 40
0.0
 40
0.0001971573257093
 40
0.0443285371348591
 40
0.1335263626682637
 40
0.2713102635886098
 40
0.4500348671247472
 40
0.6596166687191223
 40
0.8891232425352891
 40
1.0
 40
1.0
 40
1.0
 40
1.0
 10
21.06550462473895
 20
16.45187336009122
 30
0.0
 10
21.06547950073176
 20
16.4518527054844
 30
0.0
 10
21.05983065922012
 20
16.44720875679075
 30
0.0
 10
21.04071777515542
 20
16.47756226184718
 30
0.0
 10
21.03027548762258
 20
16.51080057206801
 30
0.0
 10
21.01254086090995
 20
16.5803183925432
 30
0.0
 10
20.99745332658989
 20
16.66369591719335
 30
0.0
 10
20.98095107906536
 20
16.76475611974759
 30
0.0
 10
20.96782486435946
 20
16.85418591841601
 30
0.0
 10
20.95979344944311
 20
16.9096725189256
 30
0.0
 10
20.95717728947891
 20
16.92774677163384
 30
0.0
  0
SPLINE
  5
18D
330
1F
100
AcDbEntity
  8
0
  6
Continuous
 62
     7
370
    25
100
AcDbSpline
210
0.0
220
0.0
230
1.0
 70
     8
 71
     3
 72
    15
 73
    11
 74
     0
 42
0.000000001
 43
0.00000001
 40
0.0
 40
0.0
 40
0.0
 40
0.0
 40
0.0045430387613131
 40
0.0535245128674859
 40
0.1490412162492221
 40
0.2909732749436309
 40
0.4738810892245625
 40
0.6867813834785405
 40
0.9172330144447672
 40
1.0
 40
1.0
 40
1.0
 40
1.0
 10
20.63226802952507
 20
16.45292623126169
 30
0.0
 10
20.63163891680699
 20
16.45247249393472
 30
0.0
 10
20.62422692814847
 20
16.44712671753436
 30
0.0
 10
20.60712320500853
 20
16.48187725231077
 30
0.0
 10
20.59484918940723
 20
16.51727768394418
 30
0.0
 10
20.57778938977291
 20
16.58935087086126
 30
0.0
 10
20.56238687180446
 20
16.67478715914617
 30
0.0
 10
20.54604036596786
 20
16.77735837516673
 30
0.0
 10
20.53349048451336
 20
16.86300668763454
 30
0.0
 10
20.52607178037425
 20
16.91411168922204
 30
0.0
 10
20.52411141229287
 20
16.92761601720601
 30
0.0
  0
SPLINE
  5
18E
330
1F
100
AcDbEntity
  8
0
  6
Continuous
 62
     7
370
    25
100
AcDbSpline
210
0.0
220
0.0
230
1.0
 70
     8
 71
     3
 72
    15
 73
    11
 74
     0
 42
0.000000001
 43
0.00000001
 40
0.0
 40
0.0
 40
0.0
 40
0.0
 40
0.0085281066281651
 40
0.0615270661334233
 40
0.1631982456832526
 40
0.3110002071719788
 40
0.4972945786838624
 40
0.7129354195111415
 40
0.9451595207758642
 40
1.0
 40
1.0
 40
1.0
 40
1.0
 10
20.19920567229838
 20
16.45429993205925
 30
0.0
 10
20.19789698114972
 20
16.45360961578006
 30
0.0
 10
20.1884552691306
 20
16.44862924472998
 30
0.0
 10
20.17319156553106
 20
16.48555075558993
 30
0.0
 10
20.159462102563
 20
16.52432781622802
 30
0.0
 10
20.14315144678417
 20
16.59858048503744
 30
0.0
 10
20.12729375353041
 20
16.68617856986831
 30
0.0
 10
20.11106505503313
 20
16.78997878700128
 30
0.0
 10
20.0991662404627
 20
16.8718327835997
 30
0.0
 10
20.0923549661623
 20
16.91865674655815
 30
0.0
 10
20.0910537483453
 20
16.92760194127161
 30
0.0
  0
SPLINE
  5
18F
330
1F
100
AcDbEntity
  8
0
  6
Continuous
 62
     7
370
    25
100
AcDbSpline
210
0.0
220
0.0
230
1.0
 70
     8
 71
     3
 72
    22
 73
    18
 74
     0
 42
0.000000001
 43
0.00000001
 40
0.0
 40
0.0
 40
0.0
 40
0.0
 40
0.0239617383455178
 40
0.0419527606829675
 40
0.0825982129391213
 40
0.1469332284127574
 40
0.2317859732451108
 40
0.3330974208128974
 40
0.4447729059026693
 40
0.5601920905627296
 40
0.672804828561727
 40
0.7763971365714177
 40
0.8648718693370965
 40
0.9328332791973588
 40
0.977589818237304
 40
0.9989416196162871
 40
1.0
 40
1.0
 40
1.0
 40
1.0
 10
21.51818518200119
 20
16.39931849720947
 30
0.0
 10
21.51320986645904
 20
16.38843679753085
 30
0.0
 10
21.50449896997679
 20
16.36938486833195
 30
0.0
 10
21.47347552896178
 20
16.39647867674845
 30
0.0
 10
21.46631352383337
 20
16.44226633576181
 30
0.0
 10
21.44694430389395
 20
16.51421718621153
 30
0.0
 10
21.43252605965787
 20
16.61015603960256
 30
0.0
 10
21.41589019972522
 20
16.72459919515784
 30
0.0
 10
21.39985070958841
 20
16.85098316471327
 30
0.0
 10
21.38351382425433
 20
16.98186674147755
 30
0.0
 10
21.3673597238605
 20
17.10925760746117
 30
0.0
 10
21.35090704954772
 20
17.22723246030532
 30
0.0
 10
21.33587579710005
 20
17.32439409264496
 30
0.0
 10
21.31803596814273
 20
17.40719419733257
 30
0.0
 10
21.30757156303906
 20
17.44449164597534
 30
0.0
 10
21.28888793478299
 20
17.48449832824824
 30
0.0
 10
21.28233025409138
 20
17.47847644666313
 30
0.0
 10
21.28202055019517
 20
17.47819204730349
 30
0.0
  0
SPLINE
  5
190
330
1F
100
AcDbEntity
  8
0
  6
Continuous
 62
     7
370
    25
100
AcDbSpline
210
0.0
220
0.0
230
1.0
 70
     8
 71
     3
 72
    23
 73
    19
 74
     0
 42
0.000000001
 43
0.00000001
 40
0.0
 40
0.0
 40
0.0
 40
0.0
 40
0.0093611412406659
 40
0.0509491580180008
 40
0.0698408325595119
 40
0.0889430137613693
 40
0.1300261341881351
 40
0.1941813013610449
 40
0.2776610131079356
 40
0.3756760414187553
 40
0.4830685762016541
 40
0.5935580103087265
 40
0.700581845236154
 40
0.7978710207565373
 40
0.8803231323476254
 40
0.9432206649201937
 40
0.9829251959104573
 40
1.0
 40
1.0
 40
1.0
 40
1.0
 10
21.10134045076043
 20
16.45181330078503
 30
0.0
 10
21.10051612044992
 20
16.44807394867952
 30
0.0
 10
21.09602960174786
 20
16.42772206674436
 30
0.0
 10
21.0909484905225
 20
16.40308223345066
 30
0.0
 10
21.06530065583917
 20
16.36883512703205
 30
0.0
 10
21.04032687003295
 20
16.4032617591233
 30
0.0
 10
21.03034476536309
 20
16.44788353315769
 30
0.0
 10
21.01246088740814
 20
16.52491218779506
 30
0.0
 10
20.99746533377892
 20
16.62261418214671
 30
0.0
 10
20.98094021314142
 20
16.73906405538027
 30
0.0
 10
20.96483618338468
 20
16.86623310827404
 30
0.0
 10
20.94852786643971
 20
16.99714926695263
 30
0.0
 10
20.93244210369193
 20
17.12405137022021
 30
0.0
 10
20.91587630139798
 20
17.23900826583433
 30
0.0
 10
20.90102760394434
 20
17.33729252949406
 30
0.0
 10
20.8828790871833
 20
17.40829363474008
 30
0.0
 10
20.87353082559882
 20
17.45976942005897
 30
0.0
 10
20.85453195058108
 20
17.47368031379963
 30
0.0
 10
20.84881856791477
 20
17.47786362776409
 30
0.0
  0
SPLINE
  5
191
330
1F
100
AcDbEntity
  8
0
  6
Continuous
 62
     7
370
    25
100
AcDbSpline
210
0.0
220
0.0
230
1.0
 70
     8
 71
     3
 72
    23
 73
    19
 74
     0
 42
0.000000001
 43
0.00000001
 40
0.0
 40
0.0
 40
0.0
 40
0.0
 40
0.0153389114373116
 40
0.0539806814673241
 40
0.0712339079345792
 40
0.0928142503052583
 40
0.136975362489415
 40
0.20318199444844
 40
0.2887497811825573
 40
0.3884624512982812
 40
0.4964461950461327
 40
0.6067294632252307
 40
0.7130672196863458
 40
0.8091605509184281
 40
0.8892219053517194
 40
0.9494426130031987
 40
0.986906419345261
 40
0.9999999999999999
 40
0.9999999999999999
 40
0.9999999999999999
 40
0.9999999999999999
 10
20.66804929617683
 20
16.45181117414293
 30
0.0
 10
20.66661454515944
 20
16.44570909001844
 30
0.0
 10
20.66156537084409
 20
16.4242346417985
 30
0.0
 10
20.65668937273288
 20
16.39759972585746
 30
0.0
 10
20.6278851068395
 20
16.36870521009073
 30
0.0
 10
20.60672967624074
 20
16.40923138039607
 30
0.0
 10
20.59492371504836
 20
16.45466521427133
 30
0.0
 10
20.57771485507327
 20
16.53565674306213
 30
0.0
 10
20.56239766558221
 20
16.6353350475203
 30
0.0
 10
20.5460318055394
 20
16.75367348140666
 30
0.0
 10
20.52984728149629
 20
16.88161332270959
 30
0.0
 10
20.51351923018307
 20
17.01235063780918
 30
0.0
 10
20.49747187776418
 20
17.13842508566027
 30
0.0
 10
20.48087909466921
 20
17.25138403392838
 30
0.0
 10
20.46637194139172
 20
17.34767449471541
 30
0.0
 10
20.44734280912636
 20
17.41416901863024
 30
0.0
 10
20.43974471614538
 20
17.46442809214821
 30
0.0
 10
20.42085022826394
 20
17.47388078714174
 30
0.0
 10
20.41595684837029
 20
17.47632888882686
 30
0.0
  0
SPLINE
  5
192
330
1F
100
AcDbEntity
  8
0
  6
Continuous
 62
     7
370
    25
100
AcDbSpline
210
0.0
220
0.0
230
1.0
 70
     8
 71
     3
 72
    23
 73
    19
 74
     0
 42
0.000000001
 43
0.00000001
 40
0.0
 40
0.0
 40
0.0
 40
0.0
 40
0.0211262346420227
 40
0.0567333841644658
 40
0.0721844386099129
 40
0.095779944831445
 40
0.142902435404916
 40
0.2119240451763581
 40
0.2991374838434318
 40
0.40019714165783
 40
0.5090755233498312
 40
0.6193138139779608
 40
0.7245917526938099
 40
0.8191761006950731
 40
0.8975238102476035
 40
0.9548559305950286
 40
0.989378153935909
 40
0.9999999999999999
 40
0.9999999999999999
 40
0.9999999999999999
 40
0.9999999999999999
 10
20.23479392784648
 20
16.45150823764248
 30
0.0
 10
20.23271596459886
 20
16.4432171420307
 30
0.0
 10
20.22713570435823
 20
16.42095184390933
 30
0.0
 10
20.22237498519069
 20
16.39143178268363
 30
0.0
 10
20.1905050608206
 20
16.37096696164746
 30
0.0
 10
20.17300584968773
 20
16.41444383359411
 30
0.0
 10
20.15943622514189
 20
16.46224484366926
 30
0.0
 10
20.1431257483794
 20
16.54656098661706
 30
0.0
 10
20.12728728315673
 20
16.64842823812364
 30
0.0
 10
20.11106745064971
 20
16.76829915494006
 30
0.0
 10
20.09487218792416
 20
16.89704349081912
 30
0.0
 10
20.07855842023694
 20
17.02758053725093
 30
0.0
 10
20.06249831127357
 20
17.15255740425929
 30
0.0
 10
20.04582100534047
 20
17.26346339173347
 30
0.0
 10
20.03162669918282
 20
17.35776208661011
 30
0.0
 10
20.01246882084455
 20
17.41990294208037
 30
0.0
 10
20.004925945222
 20
17.46836429442647
 30
0.0
 10
19.9868906887383
 20
17.47424578441714
 30
0.0
 10
19.98264721400017
 20
17.47562962690479
 30
0.0
  0
SPLINE
  5
193
330
1F
100
AcDbEntity
  8
0
  6
Continuous
 62
     7
370
    25
100
AcDbSpline
210
0.0
220
0.0
230
1.0
 70
     8
 71
     3
 72
    23
 73
    19
 74
     0
 42
0.000000001
 43
0.00000001
 40
0.0
 40
0.0
 40
0.0
 40
0.0
 40
0.0396215478457801
 40
0.0659444041513224
 40
0.0808330706158899
 40
0.1152943185517928
 40
0.1725249582889211
 40
0.2507341097220355
 40
0.3451511340864287
 40
0.4502428317596492
 40
0.5602861062767625
 40
0.6689718775930914
 40
0.7698527566788345
 40
0.8569119111535435
 40
0.9258114188328992
 40
0.9728505477649596
 40
0.9964043125567711
 40
1.0
 40
1.0
 40
1.0
 40
1.0
 10
19.67153795462755
 20
17.40419876208024
 30
0.0
 10
19.67548894592063
 20
17.41830932184192
 30
0.0
 10
19.68206480629953
 20
17.44179433205273
 30
0.0
 10
19.69564286283332
 20
17.48433242447022
 30
0.0
 10
19.72940301402167
 20
17.46701366878794
 30
0.0
 10
19.73664638317927
 20
17.42194746021187
 30
0.0
 10
19.75614017289941
 20
17.35684087199161
 30
0.0
 10
19.7701919559363
 20
17.26380499794204
 30
0.0
 10
19.78692024157162
 20
17.15244535438721
 30
0.0
 10
19.80296447149644
 20
17.02761830985737
 30
0.0
 10
19.81928163481534
 20
16.89701484638278
 30
0.0
 10
19.83548034053292
 20
16.76837192811236
 30
0.0
 10
19.85168496583533
 20
16.64819913943244
 30
0.0
 10
19.86756956626688
 20
16.54722386439846
 30
0.0
 10
19.88375943697127
 20
16.4605803898614
 30
0.0
 10
19.89758432042845
 20
16.41770441449309
 30
0.0
 10
19.91231128513355
 20
16.37314527594383
 30
0.0
 10
19.92233329523636
 20
16.37916294734077
 30
0.0
 10
19.92366061541838
 20
16.37995993084129
 30
0.0
  0
SPLINE
  5
194
330
1F
100
AcDbEntity
  8
0
  6
Continuous
 62
     7
370
    25
100
AcDbSpline
210
0.0
220
0.0
230
1.0
 70
     8
 71
     3
 72
    23
 73
    19
 74
     0
 42
0.000000001
 43
0.00000001
 40
0.0
 40
0.0
 40
0.0
 40
0.0
 40
0.0450608365230534
 40
0.0676173974759586
 40
0.0836499466641336
 40
0.1210602862812218
 40
0.1811950495418845
 40
0.2611421438709181
 40
0.3570983004613363
 40
0.4632843273527967
 40
0.5734102040187332
 40
0.6812398380352904
 40
0.7808102025384767
 40
0.8662558706261816
 40
0.93236801534197
 40
0.9764661026957574
 40
0.9980156465346525
 40
1.0
 40
1.0
 40
1.0
 40
1.0
 10
20.10385026718549
 20
17.40400740095752
 30
0.0
 10
20.10808570457374
 20
17.42005928256008
 30
0.0
 10
20.11444131790594
 20
17.44414641769352
 30
0.0
 10
20.13342032355085
 20
17.48563940486068
 30
0.0
 10
20.16437674844255
 20
17.46177326552254
 30
0.0
 10
20.17150316524145
 20
17.41650901593156
 30
0.0
 10
20.19088927196437
 20
17.34666118650648
 30
0.0
 10
20.2052493252883
 20
17.25175404418223
 30
0.0
 10
20.22189352825199
 20
17.13830421407224
 30
0.0
 10
20.23792514371541
 20
17.01239278279423
 30
0.0
 10
20.25425777601547
 20
16.88157546105308
 30
0.0
 10
20.2704407943171
 20
16.75377654882397
 30
0.0
 10
20.28680802041864
 20
16.63501055692257
 30
0.0
 10
20.30212195853923
 20
16.53658295874832
 30
0.0
 10
20.31933894212683
 20
16.45241292215116
 30
0.0
 10
20.33112823358662
 20
16.41350960142838
 30
0.0
 10
20.34841522315738
 20
16.3714705394371
 30
0.0
 10
20.35608019061148
 20
16.37784674724064
 30
0.0
 10
20.35672649260442
 20
16.37838438237549
 30
0.0
  0
SPLINE
  5
195
330
1F
100
AcDbEntity
  8
0
  6
Continuous
 62
     7
370
    25
100
AcDbSpline
210
0.0
220
0.0
230
1.0
 70
     8
 71
     3
 72
    24
 73
    20
 74
     0
 42
0.000000001
 43
0.00000001
 40
0.0
 40
0.0
 40
0.0
 40
0.0
 40
0.0062403263209432
 40
0.0491857865426358
 40
0.0691654939953202
 40
0.087213417935895
 40
0.1269006641528529
 40
0.1897708152260081
 40
0.2721870325243824
 40
0.3694338546583375
 40
0.4764110983610636
 40
0.5868524026245945
 40
0.6941982164597962
 40
0.7921705416647344
 40
0.8756139513719039
 40
0.9397411895530006
 40
0.9808064250581828
 40
0.9999002904113578
 40
1.0
 40
1.0
 40
1.0
 40
1.0
 10
20.53725376713794
 20
17.40392493857681
 30
0.0
 10
20.53778891224935
 20
17.40641856459717
 30
0.0
 10
20.54200688609647
 20
17.4260731388689
 30
0.0
 10
20.54752468993648
 20
17.44967460075464
 30
0.0
 10
20.57119532863292
 20
17.48680588578073
 30
0.0
 10
20.59805175238507
 20
17.45542525292036
 30
0.0
 10
20.60718164758731
 20
17.41100302930661
 30
0.0
 10
20.62548249664264
 20
17.33614172199785
 30
0.0
 10
20.64026955983902
 20
17.23941880192462
 30
0.0
 10
20.65685690967116
 20
17.12391846929518
 30
0.0
 10
20.67293508375883
 20
16.99719754587507
 30
0.0
 10
20.68924898737429
 20
16.86618287017166
 30
0.0
 10
20.70533775278154
 20
16.73920644439605
 30
0.0
 10
20.72191265017048
 20
16.62217080602579
 30
0.0
 10
20.7367619592425
 20
16.52616499779382
 30
0.0
 10
20.75501287239131
 20
16.4448972988132
 30
0.0
 10
20.76427189738533
 20
16.40862414784673
 30
0.0
 10
20.78423351592376
 20
16.37172637240829
 30
0.0
 10
20.78989758370785
 20
16.37711311954322
 30
0.0
 10
20.7899270082351
 20
16.37714110340462
 30
0.0
  0
SPLINE
  5
196
330
1F
100
AcDbEntity
  8
0
  6
Continuous
 62
     7
370
    25
100
AcDbSpline
210
0.0
220
0.0
230
1.0
 70
     8
 71
     3
 72
    23
 73
    19
 74
     0
 42
0.000000001
 43
0.00000001
 40
0.0
 40
0.0
 40
0.0
 40
0.0
 40
0.0121218676993769
 40
0.0522269174849953
 40
0.0705001721640831
 40
0.0909526232204713
 40
0.1338239907421282
 40
0.198922826396263
 40
0.283670951835375
 40
0.3828998914353832
 40
0.4907693152544637
 40
0.6013269765650305
 40
0.7082986251138587
 40
0.8053427754435613
 40
0.8866214731927884
 40
0.9482466063814297
 40
0.9871801338451885
 40
0.9999999999999999
 40
0.9999999999999999
 40
0.9999999999999999
 40
0.9999999999999999
 10
20.97065257381127
 20
17.4042525881251
 30
0.0
 10
20.97174959524893
 20
17.4090797927114
 30
0.0
 10
20.97647609858366
 20
17.42987774413803
 30
0.0
 10
20.98160187524853
 20
17.45517443759159
 30
0.0
 10
21.00861160834557
 20
17.48744510848325
 30
0.0
 10
21.03177567425757
 20
17.44939113688162
 30
0.0
 10
21.04255570164013
 20
17.40456377231592
 30
0.0
 10
21.06023939101788
 20
17.32548868995471
 30
0.0
 10
21.07533273306863
 20
17.22684609388565
 30
0.0
 10
21.09176398785687
 20
17.10938069993279
 30
0.0
 10
21.10792536674593
 20
16.98182271097697
 30
0.0
 10
21.12425746730966
 20
16.85102825329619
 30
0.0
 10
21.14030785048532
 20
16.7244725168249
 30
0.0
 10
21.15691026498821
 20
16.6105455046194
 30
0.0
 10
21.17142359416488
 20
16.51314167459669
 30
0.0
 10
21.19055961876916
 20
16.44478315360975
 30
0.0
 10
21.19788489952589
 20
16.39404900471037
 30
0.0
 10
21.21637799828973
 20
16.38313306885692
 30
0.0
 10
21.22095893558416
 20
16.38042907542169
 30
0.0
  0
SPLINE
  5
197
330
1F
100
AcDbEntity
  8
0
  6
Continuous
 62
     7
370
    25
100
AcDbSpline
210
0.0
220
0.0
230
1.0
 70
     8
 71
     3
 72
    15
 73
    11
 74
     0
 42
0.000000001
 43
0.00000001
 40
0.0
 40
0.0
 40
0.0
 40
0.0
 40
0.0967455120615805
 40
0.326567184375997
 40
0.5380851732843988
 40
0.7189526004708449
 40
0.8583119861055285
 40
0.9509781631888561
 40
0.9976493452955538
 40
1.0
 40
1.0
 40
1.0
 40
1.0
 10
21.11462536395865
 20
16.92808595052242
 30
0.0
 10
21.11233651997885
 20
16.94386656922497
 30
0.0
 10
21.10461046304833
 20
16.99713448943734
 30
0.0
 10
21.09175302755449
 20
17.08469186083334
 30
0.0
 10
21.0753464441323
 20
17.18657079969267
 30
0.0
 10
21.06015590298485
 20
17.2709374949969
 30
0.0
 10
21.0426413463855
 20
17.34178713252162
 30
0.0
 10
21.03135967943815
 20
17.37587761371289
 30
0.0
 10
21.01319230727316
 20
17.40888118755244
 30
0.0
 10
21.00674000911552
 20
17.40375271311861
 30
0.0
 10
21.00643061383364
 20
17.40350679674055
 30
0.0
  0
SPLINE
  5
198
330
1F
100
AcDbEntity
  8
0
  6
Continuous
 62
     7
370
    25
100
AcDbSpline
210
0.0
220
0.0
230
1.0
 70
     8
 71
     3
 72
    14
 73
    10
 74
     0
 42
0.000000001
 43
0.00000001
 40
0.0
 40
0.0
 40
0.0
 40
0.0
 40
0.1252600498886632
 40
0.3540704242245934
 40
0.5621898506995727
 40
0.7388019748602231
 40
0.8739781924191816
 40
0.9603269067635045
 40
1.0
 40
1.0
 40
1.0
 40
1.0
 10
20.68158676645748
 20
16.92774677163384
 30
0.0
 10
20.67863432412582
 20
16.94815084594495
 30
0.0
 10
20.67028870627083
 20
17.00582669114593
 30
0.0
 10
20.65682467817237
 20
17.09746389213819
 30
0.0
 10
20.64034424601854
 20
17.19682736740296
 30
0.0
 10
20.6252252736247
 20
17.28187915786501
 30
0.0
 10
20.60765943780676
 20
17.3432403350736
 30
0.0
 10
20.59701693232416
 20
17.38845948747253
 30
0.0
 10
20.57896586993611
 20
17.39965695435084
 30
0.0
 10
20.57328319092296
 20
17.40318204382546
 30
0.0
  0
SPLINE
  5
199
330
1F
100
AcDbEntity
  8
0
  6
Continuous
 62
     7
370
    25
100
AcDbSpline
210
0.0
220
0.0
230
1.0
 70
     8
 71
     3
 72
    14
 73
    10
 74
     0
 42
0.000000001
 43
0.00000001
 40
0.0
 40
0.0
 40
0.0
 40
0.0
 40
0.1528998951927617
 40
0.3803553671054433
 40
0.586027705251146
 40
0.7576456881635281
 40
0.8872219618841122
 40
0.9689311048553323
 40
1.0
 40
1.0
 40
1.0
 40
1.0
 10
20.24852088927145
 20
16.92761601720601
 30
0.0
 10
20.24491485897181
 20
16.95249994505201
 30
0.0
 10
20.23594446055078
 20
17.01440146237455
 30
0.0
 10
20.2218417507508
 20
17.10988573449173
 30
0.0
 10
20.20538137669347
 20
17.20754017419206
 30
0.0
 10
20.19047413015
 20
17.29083811188694
 30
0.0
 10
20.17231570042646
 20
17.34838632643824
 30
0.0
 10
20.16295269563457
 20
17.39244619881418
 30
0.0
 10
20.14528973570241
 20
17.39983150035811
 30
0.0
 10
20.14042381801804
 20
17.40186605569453
 30
0.0
  0
SPLINE
  5
19A
330
1F
100
AcDbEntity
  8
0
  6
Continuous
 62
     7
370
    25
100
AcDbSpline
210
0.0
220
0.0
230
1.0
 70
     8
 71
     3
 72
    14
 73
    10
 74
     0
 42
0.000000001
 43
0.00000001
 40
0.0
 40
0.0
 40
0.0
 40
0.0
 40
0.1805525683725357
 40
0.405493004139715
 40
0.6077238520558692
 40
0.7755112621532843
 40
0.8988406659764491
 40
0.9743402494419977
 40
1.0
 40
1.0
 40
1.0
 40
1.0
 10
19.81546322532387
 20
16.92760194127161
 30
0.0
 10
19.81120728816483
 20
16.95699653054032
 30
0.0
 10
19.80164911483278
 20
17.02301220905133
 30
0.0
 10
19.7868586560169
 20
17.12209504261
 30
0.0
 10
19.77034843841443
 20
17.21800383673885
 30
0.0
 10
19.75566114566542
 20
17.29951498465447
 30
0.0
 10
19.73754101075704
 20
17.35349699461969
 30
0.0
 10
19.72799429960476
 20
17.39570802761252
 30
0.0
 10
19.71130079215201
 20
17.40015925769513
 30
0.0
 10
19.70706637086692
 20
17.40128834236832
 30
0.0
  0
SPLINE
  5
19B
330
1F
100
AcDbEntity
  8
0
  6
Continuous
 62
     7
370
    25
100
AcDbSpline
210
0.0
220
0.0
230
1.0
 70
     8
 71
     3
 72
    19
 73
    15
 74
     0
 42
0.000000001
 43
0.00000001
 40
0.0
 40
0.0
 40
0.0
 40
0.0
 40
0.0701128278305933
 40
0.1625897053474147
 40
0.2729966863104525
 40
0.3946928679805731
 40
0.5204674551883287
 40
0.643185283294833
 40
0.7560744321199752
 40
0.8524896578005199
 40
0.9265504148443127
 40
0.9753233221336366
 40
0.9985911150946618
 40
1.0
 40
1.0
 40
1.0
 40
1.0
 10
17.5733031002823
 20
17.42221831391684
 30
0.0
 10
17.57915839283858
 20
17.39794047132342
 30
0.0
 10
17.59273665406274
 20
17.34164082693776
 30
0.0
 10
17.60800705916687
 20
17.24556560751446
 30
0.0
 10
17.62434423261928
 20
17.13116393227688
 30
0.0
 10
17.64047702250807
 20
17.00476542147129
 30
0.0
 10
17.65678757802432
 20
16.87388866575959
 30
0.0
 10
17.67294886239918
 20
16.74649412345141
 30
0.0
 10
17.68940030886754
 20
16.62853191427131
 30
0.0
 10
17.70443017463041
 20
16.53133350459925
 30
0.0
 10
17.72227304455847
 20
16.44862410221849
 30
0.0
 10
17.73273319044671
 20
16.41114297271352
 30
0.0
 10
17.75148693316359
 20
16.37124137944906
 30
0.0
 10
17.75811390853057
 20
16.37739064811825
 30
0.0
 10
17.7584922676279
 20
16.37774173313276
 30
0.0
  0
SPLINE
  5
19C
330
1F
100
AcDbEntity
  8
0
  6
Continuous
 62
     7
370
    25
100
AcDbSpline
210
0.0
220
0.0
230
1.0
 70
     8
 71
     3
 72
    17
 73
    13
 74
     0
 42
0.000000001
 43
0.00000001
 40
0.0
 40
0.0
 40
0.0
 40
0.0
 40
0.0155902778983388
 40
0.0849141860654038
 40
0.1164093503607788
 40
0.1482474382242193
 40
0.2167369758573008
 40
0.323700011640324
 40
0.4628614288260732
 40
0.6262007812035325
 40
0.8105069730297417
 40
1.0
 40
1.0
 40
1.0
 40
1.0
 10
17.93896879608098
 20
17.40394855163736
 30
0.0
 10
17.93979241761204
 20
17.40768467832467
 30
0.0
 10
17.94427836407123
 20
17.4280339087078
 30
0.0
 10
17.94936050520995
 20
17.45267016134379
 30
0.0
 10
17.97500430479644
 20
17.48692500670945
 30
0.0
 10
17.99998378306488
 20
17.4524981235669
 30
0.0
 10
18.00996160022574
 20
17.40786656563374
 30
0.0
 10
18.02784488097248
 20
17.33082615792064
 30
0.0
 10
18.04283931223942
 20
17.23312391386014
 30
0.0
 10
18.05955140088559
 20
17.11540004779031
 30
0.0
 10
18.07594665477268
 20
16.98567786147634
 30
0.0
 10
18.08725533642138
 20
16.89531035124163
 30
0.0
 10
18.09298813683641
 20
16.84949962667865
 30
0.0
  0
SPLINE
  5
19D
330
1F
100
AcDbEntity
  8
0
  6
Continuous
 62
     7
370
    25
100
AcDbSpline
210
0.0
220
0.0
230
1.0
 70
     8
 71
     3
 72
    15
 73
    11
 74
     0
 42
0.000000001
 43
0.00000001
 40
0.0
 40
0.0
 40
0.0
 40
0.0
 40
0.0919826986468376
 40
0.3314164554846488
 40
0.5437297939279351
 40
0.7248415693857851
 40
0.8644860470464423
 40
0.954879631070105
 40
0.999593320066992
 40
1.0
 40
1.0
 40
1.0
 40
1.0
 10
18.08220063478789
 20
16.93451508535407
 30
0.0
 10
18.08005698432075
 20
16.94931230396287
 30
0.0
 10
18.07233334661423
 20
17.00262713180011
 30
0.0
 10
18.05953650785496
 20
17.08988150497737
 30
0.0
 10
18.04285292263891
 20
17.1920398656317
 30
0.0
 10
18.02776231238788
 20
17.2754338167663
 30
0.0
 10
18.01003689325019
 20
17.34492200668242
 30
0.0
 10
17.99958196544182
 20
17.37824937919629
 30
0.0
 10
17.98045812350006
 20
17.40854037814637
 30
0.0
 10
17.97477575944021
 20
17.40386387348046
 30
0.0
 10
17.97472454302754
 20
17.40382172310249
 30
0.0
  0
SPLINE
  5
19E
330
1F
100
AcDbEntity
  8
0
  6
Continuous
 62
     7
370
    25
100
AcDbSpline
210
0.0
220
0.0
230
1.0
 70
     8
 71
     3
 72
    12
 73
     8
 74
     0
 42
0.000000001
 43
0.00000001
 40
0.0
 40
0.0
 40
0.0
 40
0.0
 40
0.1576579533698479
 40
0.4169531432572702
 40
0.6523356416241188
 40
0.8497757796226525
 40
1.0
 40
1.0
 40
1.0
 40
1.0
 10
17.65007752004432
 20
16.92776053651389
 30
0.0
 10
17.64680375371146
 20
16.9503603037254
 30
0.0
 10
17.63814572451854
 20
17.01012921340808
 30
0.0
 10
17.62433705489383
 20
17.10361219153701
 30
0.0
 10
17.60800172865217
 20
17.20250054103682
 30
0.0
 10
17.59269993015361
 20
17.28563839364571
 30
0.0
 10
17.57915556159504
 20
17.33416221051311
 30
0.0
 10
17.5733031002823
 20
17.35512913560342
 30
0.0
  0
SPLINE
  5
19F
330
1F
100
AcDbEntity
  8
0
  6
Continuous
 62
     7
370
    25
100
AcDbSpline
210
0.0
220
0.0
230
1.0
 70
     8
 71
     3
 72
    15
 73
    11
 74
     0
 42
0.000000001
 43
0.00000001
 40
0.0
 40
0.0
 40
0.0
 40
0.0
 40
0.002744951930791
 40
0.0493886714642479
 40
0.142000372029166
 40
0.2812790839558558
 40
0.4620420019778264
 40
0.6734370386422146
 40
0.903122562758473
 40
0.9999999999999999
 40
0.9999999999999999
 40
0.9999999999999999
 40
0.9999999999999999
 10
18.03403292455872
 20
16.45236520107609
 30
0.0
 10
18.03367136843079
 20
16.45207556058737
 30
0.0
 10
18.02716605348601
 20
16.44686419102566
 30
0.0
 10
18.00894707801168
 20
16.47980120158735
 30
0.0
 10
17.99766658571202
 20
16.51400658559315
 30
0.0
 10
17.98015046345207
 20
16.58480043131095
 30
0.0
 10
17.96496108849409
 20
16.66918980560622
 30
0.0
 10
17.94855406176409
 20
16.77106103315522
 30
0.0
 10
17.93569258768794
 20
16.858650984619
 30
0.0
 10
17.92796197575878
 20
16.91194920557184
 30
0.0
 10
17.92566862972564
 20
16.92776053651389
 30
0.0
  0
SPLINE
  5
1A0
330
1F
100
AcDbEntity
  8
0
  6
Continuous
 62
     7
370
    25
100
AcDbSpline
210
0.0
220
0.0
230
1.0
 70
     8
 71
     3
 72
    10
 73
     6
 74
     0
 42
0.000000001
 43
0.00000001
 40
0.0
 40
0.0
 40
0.0
 40
0.0
 40
0.0645170203292754
 40
0.5516385282894355
 40
1.0
 40
1.0
 40
1.0
 40
1.0
 10
17.60081862242064
 20
16.45382627753095
 30
0.0
 10
17.59983981780351
 20
16.45321632505463
 30
0.0
 10
17.59147076517642
 20
16.44800106116544
 30
0.0
 10
17.57989993851495
 20
16.47235676241925
 30
0.0
 10
17.57544045617925
 20
16.48590263612111
 30
0.0
 10
17.5733031002823
 20
16.49239494864903
 30
0.0
  0
SPLINE
  5
1A1
330
1F
100
AcDbEntity
  8
0
  6
Continuous
 62
     7
370
    25
100
AcDbSpline
210
0.0
220
0.0
230
1.0
 70
     8
 71
     3
 72
    15
 73
    11
 74
     0
 42
0.000000001
 43
0.00000001
 40
0.0
 40
0.0
 40
0.0
 40
0.0
 40
0.2143955517114493
 40
0.4229226321650129
 40
0.6077274829242583
 40
0.7651770170391401
 40
0.886196768721254
 40
0.9636869668677602
 40
0.999709107218029
 40
1.0
 40
1.0
 40
1.0
 40
1.0
 10
18.36857865985784
 20
16.84949962667865
 30
0.0
 10
18.36284474574185
 20
16.89532335266298
 30
0.0
 10
18.35153386717564
 20
16.9857165098633
 30
0.0
 10
18.33515413858622
 20
17.11525745278776
 30
0.0
 10
18.3183922462947
 20
17.23356273002823
 30
0.0
 10
18.30354191802818
 20
17.32958270578114
 30
0.0
 10
18.28529815605205
 20
17.41083139608323
 30
0.0
 10
18.2760302872158
 20
17.44717496859616
 30
0.0
 10
18.25606368216102
 20
17.48402644203527
 30
0.0
 10
18.25037762845112
 20
17.47861616632879
 30
0.0
 10
18.25033207918576
 20
17.47857282623804
 30
0.0
  0
SPLINE
  5
1A2
330
1F
100
AcDbEntity
  8
0
  6
Continuous
 62
     7
370
    25
100
AcDbSpline
210
0.0
220
0.0
230
1.0
 70
     8
 71
     3
 72
    23
 73
    19
 74
     0
 42
0.000000001
 43
0.00000001
 40
0.0
 40
0.0
 40
0.0
 40
0.0
 40
0.0122950458385212
 40
0.0523090841281974
 40
0.070540711069109
 40
0.090946573092226
 40
0.133720428707983
 40
0.1986717368142005
 40
0.2832279212129719
 40
0.3822317415878405
 40
0.489855255426465
 40
0.6001596694503382
 40
0.7068872605055081
 40
0.8037142188549513
 40
0.8848164706283744
 40
0.9463054435257251
 40
0.9851390774340532
 40
1.0
 40
1.0
 40
1.0
 40
1.0
 10
18.06970829910042
 20
16.45174029829502
 30
0.0
 10
18.06859291508128
 20
16.44683251665876
 30
0.0
 10
18.06384753086245
 20
16.42595243488713
 30
0.0
 10
18.05870456023504
 20
16.40057959290081
 30
0.0
 10
18.03169576614626
 20
16.36830928015416
 30
0.0
 10
18.00853130912559
 20
16.40636277699568
 30
0.0
 10
17.99775212105807
 20
16.45119050355565
 30
0.0
 10
17.98006702276849
 20
16.53026555832262
 30
0.0
 10
17.96497475011913
 20
16.62890880145501
 30
0.0
 10
17.94854328440319
 20
16.74637434977183
 30
0.0
 10
17.93238166802809
 20
16.87393017387686
 30
0.0
 10
17.91605251296104
 20
17.0047272293592
 30
0.0
 10
17.89998706330017
 20
17.13126731473384
 30
0.0
 10
17.8834340799732
 20
17.24524876538426
 30
0.0
 10
17.86877923908729
 20
17.34251566259756
 30
0.0
 10
17.8499932104196
 20
17.41122643053128
 30
0.0
 10
17.84187536587224
 20
17.46222045416407
 30
0.0
 10
17.82275011849802
 20
17.47381072954259
 30
0.0
 10
17.81745686646383
 20
17.47701854419324
 30
0.0
  0
SPLINE
  5
1A3
330
1F
100
AcDbEntity
  8
0
  6
Continuous
 62
     7
370
    25
100
AcDbSpline
210
0.0
220
0.0
230
1.0
 70
     8
 71
     3
 72
    12
 73
     8
 74
     0
 42
0.000000001
 43
0.00000001
 40
0.0
 40
0.0
 40
0.0
 40
0.0
 40
0.1585292478020977
 40
0.4790433324951859
 40
0.6196375327151771
 40
0.8134051775245019
 40
1.0
 40
1.0
 40
1.0
 40
1.0
 10
17.63644061091239
 20
16.45150248104231
 30
0.0
 10
17.63469661483479
 20
16.44426759771822
 30
0.0
 10
17.62942661132154
 20
16.42240524319477
 30
0.0
 10
17.62456577268651
 20
16.39445731325038
 30
0.0
 10
17.59440527549562
 20
16.36992507795587
 30
0.0
 10
17.57971092849115
 20
16.40019435105047
 30
0.0
 10
17.57541202028153
 20
16.4161741868088
 30
0.0
 10
17.5733031002823
 20
16.42401343193148
 30
0.0
  0
LINE
  5
1A4
330
1F
100
AcDbEntity
  8
0
  6
Continuous
 62
     7
370
    25
100
AcDbLine
 10
18.3528309484
 20
16.8578972184
 30
0.0
 11
18.3528309484
 21
16.8517389854
 31
0.0
  0
LINE
  5
1A5
330
1F
100
AcDbEntity
  8
0
  6
Continuous
 62
     7
370
    25
100
AcDbLine
 10
17.9158227168
 20
16.8561828286
 30
0.0
 11
17.9158227168
 21
16.8539423791
 31
0.0
  0
LINE
  5
1A6
330
1F
100
AcDbEntity
  8
0
  6
Continuous
 62
     7
370
    25
100
AcDbLine
 10
18.0929881368
 20
16.8429145986
 30
0.0
 11
18.0929881368
 21
16.849298439
 31
0.0
  0
LINE
  5
1A7
330
1F
100
AcDbEntity
  8
0
  6
Continuous
 62
     7
370
    25
100
AcDbLine
 10
17.5733031003
 20
17.8137039381
 30
0.0
 11
17.5733031003
 21
16.0420503244
 31
0.0
  0
LINE
  5
1A8
330
1F
100
AcDbEntity
  8
0
  6
Continuous
 62
     7
370
    25
100
AcDbLine
 10
17.5733031003
 20
16.0420503244
 30
0.0
 11
17.5339329418
 21
16.0420503244
 31
0.0
  0
LINE
  5
1A9
330
1F
100
AcDbEntity
  8
0
  6
Continuous
 62
     7
370
    25
100
AcDbLine
 10
17.5339329418
 20
16.0420503244
 30
0.0
 11
17.5339329418
 21
17.8137039381
 31
0.0
  0
LINE
  5
1AA
330
1F
100
AcDbEntity
  8
0
  6
Continuous
 62
     7
370
    25
100
AcDbLine
 10
17.5339329418
 20
17.8137039381
 30
0.0
 11
17.5733031003
 21
17.8137039381
 31
0.0
  0
LINE
  5
1AB
330
1F
100
AcDbEntity
  8
0
  6
Continuous
 62
     7
370
    25
100
AcDbLine
 10
17.3292085867
 20
17.8137039381
 30
0.0
 11
17.5339329418
 21
17.8137039381
 31
0.0
  0
LINE
  5
1AC
330
1F
100
AcDbEntity
  8
0
  6
Continuous
 62
     7
370
    25
100
AcDbLine
 10
17.3292085867
 20
16.0420503244
 30
0.0
 11
17.5339329418
 21
16.0420503244
 31
0.0
  0
LINE
  5
1AD
330
1F
100
AcDbEntity
  8
0
  6
Continuous
 62
     7
370
    25
100
AcDbLine
 10
17.3292085867
 20
16.0420503244
 30
0.0
 11
17.3292085867
 21
15.9751212309
 31
0.0
  0
LINE
  5
1AE
330
1F
100
AcDbEntity
  8
0
  6
Continuous
 62
     7
370
    25
100
AcDbLine
 10
17.3292085867
 20
17.8806330316
 30
0.0
 11
17.3292085867
 21
17.8137039381
 31
0.0
  0
LINE
  5
1AF
330
1F
100
AcDbEntity
  8
0
  6
Continuous
 62
     7
370
    25
100
AcDbLine
 10
15.211098282
 20
16.9278771313
 30
0.0
 11
15.211098282
 21
17.8412629464
 31
0.0
  0
LINE
  5
1B0
330
1F
100
AcDbEntity
  8
0
  6
Continuous
 62
     7
370
    25
100
AcDbLine
 10
15.211098282
 20
16.0144913161
 30
0.0
 11
15.211098282
 21
16.9278771313
 31
0.0
  0
LINE
  5
1B1
330
1F
100
AcDbEntity
  8
0
  6
Continuous
 62
     7
370
    25
100
AcDbLine
 10
21.518185182
 20
16.4518083142
 30
0.0
 11
21.518185182
 21
16.3994543823
 31
0.0
  0
LINE
  5
1B2
330
1F
100
AcDbEntity
  8
0
  6
Continuous
 62
     7
370
    25
100
AcDbLine
 10
22.8173974801
 20
17.1255042766
 30
0.0
 11
22.6641576636
 21
17.1255042766
 31
0.0
  0
LINE
  5
1B3
330
1F
100
AcDbEntity
  8
0
  6
Continuous
 62
     7
370
    25
100
AcDbLine
 10
18.0929881368
 20
16.8601036096
 30
0.0
 11
17.9355679287
 21
16.8601036096
 31
0.0
  0
LINE
  5
1B4
330
1F
100
AcDbEntity
  8
0
  6
Continuous
 62
     7
370
    25
100
AcDbLine
 10
15.2504684405
 20
16.9278771313
 30
0.0
 11
15.2504684405
 21
15.9751212309
 31
0.0
  0
LINE
  5
1B5
330
1F
100
AcDbEntity
  8
0
  6
Continuous
 62
     7
370
    25
100
AcDbLine
 10
15.2504684405
 20
17.8806330316
 30
0.0
 11
15.2504684405
 21
16.9278771313
 31
0.0
  0
INSERT
  5
1BD
330
1F
100
AcDbEntity
  8
0
  6
Continuous
 62
     7
370
     0
100
AcDbBlockReference
  2
SW_NOTE_0
 10
13.7322136785
 20
15.5366597932
 30
0.0
  0
LINE
  5
1BE
330
1F
100
AcDbEntity
  8
0
  6
HIDDEN
 62
     7
370
    18
100
AcDbLine
 10
23.6264237532
 20
17.6040582336
 30
0.0
 11
23.7051639107
 21
17.3447691917
 31
0.0
  0
LINE
  5
1BF
330
1F
100
AcDbEntity
  8
0
  6
HIDDEN
 62
     7
370
    18
100
AcDbLine
 10
23.7051639107
 20
17.3447691917
 30
0.0
 11
23.5476835957
 21
17.1872888767
 31
0.0
  0
LINE
  5
1C0
330
1F
100
AcDbEntity
  8
0
  6
HIDDEN
 62
     7
370
    18
100
AcDbLine
 10
23.5476835957
 20
17.1872888767
 30
0.0
 11
23.7051639107
 21
16.6687107929
 31
0.0
  0
LINE
  5
1C1
330
1F
100
AcDbEntity
  8
0
  6
HIDDEN
 62
     7
370
    18
100
AcDbLine
 10
23.7051639107
 20
16.6687107929
 30
0.0
 11
23.5476835957
 21
16.511230478
 31
0.0
  0
LINE
  5
1C2
330
1F
100
AcDbEntity
  8
0
  6
HIDDEN
 62
     7
370
    18
100
AcDbLine
 10
23.5476835957
 20
16.511230478
 30
0.0
 11
23.6264237532
 21
16.2519414361
 31
0.0
  0
LINE
  5
1C3
330
1F
100
AcDbEntity
  8
0
  6
HIDDEN
 62
     7
370
    18
100
AcDbLine
 10
24.0201245406
 20
17.6035647139
 30
0.0
 11
24.0988646981
 21
17.3444279276
 31
0.0
  0
LINE
  5
1C4
330
1F
100
AcDbEntity
  8
0
  6
HIDDEN
 62
     7
370
    18
100
AcDbLine
 10
24.0988646981
 20
17.3444279276
 30
0.0
 11
23.9413843831
 21
17.1869476126
 31
0.0
  0
LINE
  5
1C5
330
1F
100
AcDbEntity
  8
0
  6
HIDDEN
 62
     7
370
    18
100
AcDbLine
 10
23.9413843831
 20
17.1869476126
 30
0.0
 11
24.0988646981
 21
16.6686740399
 31
0.0
  0
LINE
  5
1C6
330
1F
100
AcDbEntity
  8
0
  6
HIDDEN
 62
     7
370
    18
100
AcDbLine
 10
24.0988646981
 20
16.6686740399
 30
0.0
 11
23.9413843831
 21
16.5111937249
 31
0.0
  0
LINE
  5
1C7
330
1F
100
AcDbEntity
  8
0
  6
HIDDEN
 62
     7
370
    18
100
AcDbLine
 10
23.9413843831
 20
16.5111937249
 30
0.0
 11
24.0201245406
 21
16.2520569386
 31
0.0
  0
ENDSEC
  0
SECTION
  2
OBJECTS
  0
DICTIONARY
  5
C
330
0
100
AcDbDictionary
281
     1
  3
ACAD_GROUP
350
D
  3
ACAD_LAYOUT
350
1A
  3
ACAD_MLINESTYLE
350
17
  3
ACAD_PLOTSETTINGS
350
19
  3
ACAD_PLOTSTYLENAME
350
E
  3
ACAD_SCALELIST
350
47
  0
DICTIONARY
  5
D
102
{ACAD_REACTORS
330
C
102
}
330
C
100
AcDbDictionary
281
     1
  0
DICTIONARY
  5
1A
102
{ACAD_REACTORS
330
C
102
}
330
C
100
AcDbDictionary
281
     1
  3
Layout1
350
1E
  3
Layout2
350
26
  3
Model
350
22
  0
DICTIONARY
  5
17
102
{ACAD_REACTORS
330
C
102
}
330
C
100
AcDbDictionary
281
     1
  3
Standard
350
18
  0
DICTIONARY
  5
19
102
{ACAD_REACTORS
330
C
102
}
330
C
100
AcDbDictionary
281
     1
  0
ACDBDICTIONARYWDFLT
  5
E
102
{ACAD_REACTORS
330
C
102
}
330
C
100
AcDbDictionary
281
     1
  3
Normal
350
F
100
AcDbDictionaryWithDefault
340
F
  0
DICTIONARY
  5
47
102
{ACAD_REACTORS
330
C
102
}
330
C
100
AcDbDictionary
281
     1
  3
A0
350
48
  3
A1
350
49
  3
A2
350
4A
  3
A3
350
4B
  3
A4
350
4C
  3
A5
350
4D
  3
A6
350
4E
  3
A7
350
4F
  3
A8
350
50
  3
A9
350
51
  3
B0
350
52
  3
B1
350
53
  3
B2
350
54
  3
B3
350
55
  3
B4
350
56
  3
B5
350
57
  3
B6
350
58
  3
B7
350
59
  3
B8
350
5A
  3
B9
350
5B
  3
C0
350
5C
  3
C1
350
5D
  3
C2
350
5E
  3
C3
350
5F
  3
C4
350
60
  3
C5
350
61
  3
C6
350
62
  3
C7
350
63
  3
C8
350
64
  3
C9
350
65
  3
D0
350
66
  3
D1
350
67
  3
D2
350
68
  0
LAYOUT
  5
1E
102
{ACAD_REACTORS
330
1A
102
}
330
1A
100
AcDbPlotSettings
  1

  2
none_device
  4

  6

 40
0.0
 41
0.0
 42
0.0
 43
0.0
 44
0.0
 45
0.0
 46
0.0
 47
0.0
 48
0.0
 49
0.0
140
0.0
141
0.0
142
1.0
143
1.0
 70
   688
 72
     0
 73
     0
 74
     5
  7

 75
    16
147
1.0
148
0.0
149
0.0
100
AcDbLayout
  1
Layout1
 70
     1
 71
     1
 10
0.0
 20
0.0
 11
12.0
 21
9.0
 12
0.0
 22
0.0
 32
0.0
 14
1.0000000000E+20
 24
1.0000000000E+20
 34
1.0000000000E+20
 15
-1.0000000000E+20
 25
-1.0000000000E+20
 35
-1.0000000000E+20
146
0.0
 13
0.0
 23
0.0
 33
0.0
 16
1.0
 26
0.0
 36
0.0
 17
0.0
 27
1.0
 37
0.0
 76
     0
330
1B
  0
LAYOUT
  5
26
102
{ACAD_REACTORS
330
1A
102
}
330
1A
100
AcDbPlotSettings
  1

  2
none_device
  4

  6

 40
0.0
 41
0.0
 42
0.0
 43
0.0
 44
0.0
 45
0.0
 46
0.0
 47
0.0
 48
0.0
 49
0.0
140
0.0
141
0.0
142
1.0
143
1.0
 70
   688
 72
     0
 73
     0
 74
     5
  7

 75
    16
147
1.0
148
0.0
149
0.0
100
AcDbLayout
  1
Layout2
 70
     1
 71
     2
 10
0.0
 20
0.0
 11
0.0
 21
0.0
 12
0.0
 22
0.0
 32
0.0
 14
0.0
 24
0.0
 34
0.0
 15
0.0
 25
0.0
 35
0.0
146
0.0
 13
0.0
 23
0.0
 33
0.0
 16
1.0
 26
0.0
 36
0.0
 17
0.0
 27
1.0
 37
0.0
 76
     0
330
23
  0
LAYOUT
  5
22
102
{ACAD_REACTORS
330
1A
102
}
330
1A
100
AcDbPlotSettings
  1

  2
none_device
  4
Letter_(8.50_x_11.00_Inches)
  6

 40
6.35
 41
6.35
 42
6.35000508
 43
6.35000508
 44
215.9
 45
279.4
 46
0.0
 47
0.0
 48
0.0
 49
0.0
140
0.0
141
0.0
142
1.0
143
1.0
 70
  1712
 72
     0
 73
     0
 74
     0
  7

 75
     0
147
1.0
148
0.0
149
0.0
100
AcDbLayout
  1
Model
 70
     1
 71
     0
 10
0.0
 20
0.0
 11
46.811023622
 21
33.1102362205
 12
0.0
 22
0.0
 32
0.0
 14
0.0
 24
0.0
 34
0.0
 15
46.811023622
 25
33.1102362205
 35
0.0
146
0.0
 13
0.0
 23
0.0
 33
0.0
 16
1.0
 26
0.0
 36
0.0
 17
0.0
 27
1.0
 37
0.0
 76
     0
330
1F
331
29
  0
MLINESTYLE
  5
18
102
{ACAD_REACTORS
330
17
102
}
330
17
100
AcDbMlineStyle
  2
Standard
 70
     0
  3

 62
   256
 51
90.0
 52
90.0
 71
     2
 49
0.5
 62
   256
  6
BYLAYER
 49
-0.5
 62
   256
  6
BYLAYER
  0
ACDBPLACEHOLDER
  5
F
102
{ACAD_REACTORS
330
E
102
}
330
E
  0
SCALE
  5
48
102
{ACAD_REACTORS
330
47
102
}
330
47
100
AcDbScale
 70
     0
300
1:1
140
1.0
141
1.0
290
     1
  0
SCALE
  5
49
102
{ACAD_REACTORS
330
47
102
}
330
47
100
AcDbScale
 70
     0
300
1:2
140
1.0
141
2.0
290
     0
  0
SCALE
  5
4A
102
{ACAD_REACTORS
330
47
102
}
330
47
100
AcDbScale
 70
     0
300
1:4
140
1.0
141
4.0
290
     0
  0
SCALE
  5
4B
102
{ACAD_REACTORS
330
47
102
}
330
47
100
AcDbScale
 70
     0
300
1:5
140
1.0
141
5.0
290
     0
  0
SCALE
  5
4C
102
{ACAD_REACTORS
330
47
102
}
330
47
100
AcDbScale
 70
     0
300
1:8
140
1.0
141
8.0
290
     0
  0
SCALE
  5
4D
102
{ACAD_REACTORS
330
47
102
}
330
47
100
AcDbScale
 70
     0
300
1:10
140
1.0
141
10.0
290
     0
  0
SCALE
  5
4E
102
{ACAD_REACTORS
330
47
102
}
330
47
100
AcDbScale
 70
     0
300
1:16
140
1.0
141
16.0
290
     0
  0
SCALE
  5
4F
102
{ACAD_REACTORS
330
47
102
}
330
47
100
AcDbScale
 70
     0
300
1:20
140
1.0
141
20.0
290
     0
  0
SCALE
  5
50
102
{ACAD_REACTORS
330
47
102
}
330
47
100
AcDbScale
 70
     0
300
1:30
140
1.0
141
30.0
290
     0
  0
SCALE
  5
51
102
{ACAD_REACTORS
330
47
102
}
330
47
100
AcDbScale
 70
     0
300
1:40
140
1.0
141
40.0
290
     0
  0
SCALE
  5
52
102
{ACAD_REACTORS
330
47
102
}
330
47
100
AcDbScale
 70
     0
300
1:50
140
1.0
141
50.0
290
     0
  0
SCALE
  5
53
102
{ACAD_REACTORS
330
47
102
}
330
47
100
AcDbScale
 70
     0
300
1:100
140
1.0
141
100.0
290
     0
  0
SCALE
  5
54
102
{ACAD_REACTORS
330
47
102
}
330
47
100
AcDbScale
 70
     0
300
2:1
140
2.0
141
1.0
290
     0
  0
SCALE
  5
55
102
{ACAD_REACTORS
330
47
102
}
330
47
100
AcDbScale
 70
     0
300
4:1
140
4.0
141
1.0
290
     0
  0
SCALE
  5
56
102
{ACAD_REACTORS
330
47
102
}
330
47
100
AcDbScale
 70
     0
300
8:1
140
8.0
141
1.0
290
     0
  0
SCALE
  5
57
102
{ACAD_REACTORS
330
47
102
}
330
47
100
AcDbScale
 70
     0
300
10:1
140
10.0
141
1.0
290
     0
  0
SCALE
  5
58
102
{ACAD_REACTORS
330
47
102
}
330
47
100
AcDbScale
 70
     0
300
100:1
140
100.0
141
1.0
290
     0
  0
SCALE
  5
59
102
{ACAD_REACTORS
330
47
102
}
330
47
100
AcDbScale
 70
     0
300
1/128" = 1'-0"
140
0.0078125
141
12.0
290
     0
  0
SCALE
  5
5A
102
{ACAD_REACTORS
330
47
102
}
330
47
100
AcDbScale
 70
     0
300
1/64" = 1'-0"
140
0.015625
141
12.0
290
     0
  0
SCALE
  5
5B
102
{ACAD_REACTORS
330
47
102
}
330
47
100
AcDbScale
 70
     0
300
1/32" = 1'-0"
140
0.03125
141
12.0
290
     0
  0
SCALE
  5
5C
102
{ACAD_REACTORS
330
47
102
}
330
47
100
AcDbScale
 70
     0
300
1/16" = 1'-0"
140
0.0625
141
12.0
290
     0
  0
SCALE
  5
5D
102
{ACAD_REACTORS
330
47
102
}
330
47
100
AcDbScale
 70
     0
300
3/32" = 1'-0"
140
0.09375
141
12.0
290
     0
  0
SCALE
  5
5E
102
{ACAD_REACTORS
330
47
102
}
330
47
100
AcDbScale
 70
     0
300
1/8" = 1'-0"
140
0.125
141
12.0
290
     0
  0
SCALE
  5
5F
102
{ACAD_REACTORS
330
47
102
}
330
47
100
AcDbScale
 70
     0
300
3/16" = 1'-0"
140
0.1875
141
12.0
290
     0
  0
SCALE
  5
60
102
{ACAD_REACTORS
330
47
102
}
330
47
100
AcDbScale
 70
     0
300
1/4" = 1'-0"
140
0.25
141
12.0
290
     0
  0
SCALE
  5
61
102
{ACAD_REACTORS
330
47
102
}
330
47
100
AcDbScale
 70
     0
300
3/8" = 1'-0"
140
0.375
141
12.0
290
     0
  0
SCALE
  5
62
102
{ACAD_REACTORS
330
47
102
}
330
47
100
AcDbScale
 70
     0
300
1/2" = 1'-0"
140
0.5
141
12.0
290
     0
  0
SCALE
  5
63
102
{ACAD_REACTORS
330
47
102
}
330
47
100
AcDbScale
 70
     0
300
3/4" = 1'-0"
140
0.75
141
12.0
290
     0
  0
SCALE
  5
64
102
{ACAD_REACTORS
330
47
102
}
330
47
100
AcDbScale
 70
     0
300
1" = 1'-0"
140
1.0
141
12.0
290
     0
  0
SCALE
  5
65
102
{ACAD_REACTORS
330
47
102
}
330
47
100
AcDbScale
 70
     0
300
1-1/2" = 1'-0"
140
1.5
141
12.0
290
     0
  0
SCALE
  5
66
102
{ACAD_REACTORS
330
47
102
}
330
47
100
AcDbScale
 70
     0
300
3" = 1'-0"
140
3.0
141
12.0
290
     0
  0
SCALE
  5
67
102
{ACAD_REACTORS
330
47
102
}
330
47
100
AcDbScale
 70
     0
300
6" = 1'-0"
140
6.0
141
12.0
290
     0
  0
SCALE
  5
68
102
{ACAD_REACTORS
330
47
102
}
330
47
100
AcDbScale
 70
     0
300
1'-0" = 1'-0"
140
12.0
141
12.0
290
     0
  0
ENDSEC
  0
EOF
