  0
SECTION
  2
HEADER
  9
$ACADVER
  1
AC1015
  9
$ACADMAINTVER
 70
     6
  9
$DWGCODEPAGE
  3
ANSI_1252
  9
$INSBASE
 10
0.0
 20
0.0
 30
0.0
  9
$EXTMIN
 10
0.0
 20
0.0
 30
0.0
  9
$EXTMAX
 10
11.0
 20
8.5
 30
0.0
  9
$LIMMIN
 10
0.0
 20
0.0
  9
$LIMMAX
 10
11.0
 20
8.5
  9
$ORTHOMODE
 70
     0
  9
$REGENMODE
 70
     1
  9
$FILLMODE
 70
     1
  9
$QTEXTMODE
 70
     0
  9
$MIRRTEXT
 70
     1
  9
$LTSCALE
 40
1.0
  9
$ATTMODE
 70
     1
  9
$TEXTSIZE
 40
0.1377952756
  9
$TRACEWID
 40
0.05
  9
$TEXTSTYLE
  7
Standard
  9
$CLAYER
  8
0
  9
$CELTYPE
  6
ByLayer
  9
$CECOLOR
 62
   256
  9
$CELTSCALE
 40
1.0
  9
$DISPSILH
 70
     0
  9
$DIMSCALE
 40
1.0
  9
$DIMASZ
 40
0.13
  9
$DIMEXO
 40
0.0393700787
  9
$DIMDLI
 40
0.38
  9
$DIMRND
 40
0.0
  9
$DIMDLE
 40
0.0
  9
$DIMEXE
 40
0.0393700787
  9
$DIMTP
 40
0.0
  9
$DIMTM
 40
0.0
  9
$DIMTXT
 40
0.1377952756
  9
$DIMCEN
 40
0.09
  9
$DIMTSZ
 40
0.0
  9
$DIMTOL
 70
     0
  9
$DIMLIM
 70
     0
  9
$DIMTIH
 70
     1
  9
$DIMTOH
 70
     1
  9
$DIMSE1
 70
     0
  9
$DIMSE2
 70
     0
  9
$DIMTAD
 70
     1
  9
$DIMZIN
 70
     0
  9
$DIMBLK
  1

  9
$DIMASO
 70
     1
  9
$DIMSHO
 70
     1
  9
$DIMPOST
  1

  9
$DIMAPOST
  1

  9
$DIMALT
 70
     0
  9
$DIMALTD
 70
     2
  9
$DIMALTF
 40
25.4
  9
$DIMLFAC
 40
2.0
  9
$DIMTOFL
 70
     0
  9
$DIMTVP
 40
0.0
  9
$DIMTIX
 70
     0
  9
$DIMSOXD
 70
     0
  9
$DIMSAH
 70
     0
  9
$DIMBLK1
  1

  9
$DIMBLK2
  1

  9
$DIMSTYLE
  2
Standard
  9
$DIMCLRD
 70
     0
  9
$DIMCLRE
 70
     0
  9
$DIMCLRT
 70
     0
  9
$DIMTFAC
 40
1.0
  9
$DIMGAP
 40
0.06
  9
$DIMJUST
 70
     0
  9
$DIMSD1
 70
     0
  9
$DIMSD2
 70
     0
  9
$DIMTOLJ
 70
     1
  9
$DIMTZIN
 70
     0
  9
$DIMALTZ
 70
     0
  9
$DIMALTTZ
 70
     0
  9
$DIMUPT
 70
     0
  9
$DIMDEC
 70
     2
  9
$DIMTDEC
 70
     2
  9
$DIMALTU
 70
     2
  9
$DIMALTTD
 70
     2
  9
$DIMTXSTY
  7
Standard
  9
$DIMAUNIT
 70
     0
  9
$DIMADEC
 70
     2
  9
$DIMALTRND
 40
0.0
  9
$DIMAZIN
 70
     0
  9
$DIMDSEP
 70
    46
  9
$DIMATFIT
 70
     3
  9
$DIMFRAC
 70
     0
  9
$DIMLDRBLK
  1

  9
$DIMLUNIT
 70
     2
  9
$DIMLWD
 70
    -2
  9
$DIMLWE
 70
    -2
  9
$DIMTMOVE
 70
     0
  9
$LUNITS
 70
     2
  9
$LUPREC
 70
     2
  9
$SKETCHINC
 40
0.1
  9
$FILLETRAD
 40
0.5
  9
$AUNITS
 70
     0
  9
$AUPREC
 70
     2
  9
$MENU
  1
.
  9
$ELEVATION
 40
0.0
  9
$PELEVATION
 40
0.0
  9
$THICKNESS
 40
0.0
  9
$LIMCHECK
 70
     0
  9
$CHAMFERA
 40
0.0
  9
$CHAMFERB
 40
0.0
  9
$CHAMFERC
 40
0.0
  9
$CHAMFERD
 40
0.0
  9
$SKPOLY
 70
     0
  9
$TDCREATE
 40
2459276.60379206
  9
$TDUCREATE
 40
2459276.812125394
  9
$TDUPDATE
 40
2459276.603792732
  9
$TDUUPDATE
 40
2459276.812126065
  9
$TDINDWG
 40
0.0000000116
  9
$TDUSRTIMER
 40
0.0000000116
  9
$USRTIMER
 70
     1
  9
$ANGBASE
 50
0.0
  9
$ANGDIR
 70
     0
  9
$PDMODE
 70
     0
  9
$PDSIZE
 40
-1.0
  9
$PLINEWID
 40
0.0
  9
$SPLFRAME
 70
     0
  9
$SPLINETYPE
 70
     6
  9
$SPLINESEGS
 70
     8
  9
$HANDSEED
  5
1ED
  9
$SURFTAB1
 70
     6
  9
$SURFTAB2
 70
     6
  9
$SURFTYPE
 70
     6
  9
$SURFU
 70
     6
  9
$SURFV
 70
     6
  9
$UCSBASE
  2

  9
$UCSNAME
  2

  9
$UCSORG
 10
0.0
 20
0.0
 30
0.0
  9
$UCSXDIR
 10
1.0
 20
0.0
 30
0.0
  9
$UCSYDIR
 10
0.0
 20
1.0
 30
0.0
  9
$UCSORTHOREF
  2

  9
$UCSORTHOVIEW
 70
     0
  9
$UCSORGTOP
 10
0.0
 20
0.0
 30
0.0
  9
$UCSORGBOTTOM
 10
0.0
 20
0.0
 30
0.0
  9
$UCSORGLEFT
 10
0.0
 20
0.0
 30
0.0
  9
$UCSORGRIGHT
 10
0.0
 20
0.0
 30
0.0
  9
$UCSORGFRONT
 10
0.0
 20
0.0
 30
0.0
  9
$UCSORGBACK
 10
0.0
 20
0.0
 30
0.0
  9
$PUCSBASE
  2

  9
$PUCSNAME
  2

  9
$PUCSORG
 10
0.0
 20
0.0
 30
0.0
  9
$PUCSXDIR
 10
1.0
 20
0.0
 30
0.0
  9
$PUCSYDIR
 10
0.0
 20
1.0
 30
0.0
  9
$PUCSORTHOREF
  2

  9
$PUCSORTHOVIEW
 70
     0
  9
$PUCSORGTOP
 10
0.0
 20
0.0
 30
0.0
  9
$PUCSORGBOTTOM
 10
0.0
 20
0.0
 30
0.0
  9
$PUCSORGLEFT
 10
0.0
 20
0.0
 30
0.0
  9
$PUCSORGRIGHT
 10
0.0
 20
0.0
 30
0.0
  9
$PUCSORGFRONT
 10
0.0
 20
0.0
 30
0.0
  9
$PUCSORGBACK
 10
0.0
 20
0.0
 30
0.0
  9
$USERI1
 70
     0
  9
$USERI2
 70
     0
  9
$USERI3
 70
     0
  9
$USERI4
 70
     0
  9
$USERI5
 70
     0
  9
$USERR1
 40
0.0
  9
$USERR2
 40
0.0
  9
$USERR3
 40
0.0
  9
$USERR4
 40
0.0
  9
$USERR5
 40
0.0
  9
$WORLDVIEW
 70
     1
  9
$SHADEDGE
 70
     3
  9
$SHADEDIF
 70
    70
  9
$TILEMODE
 70
     1
  9
$MAXACTVP
 70
    64
  9
$PINSBASE
 10
0.0
 20
0.0
 30
0.0
  9
$PLIMCHECK
 70
     0
  9
$PEXTMIN
 10
1.0000000000E+20
 20
1.0000000000E+20
 30
1.0000000000E+20
  9
$PEXTMAX
 10
-1.0000000000E+20
 20
-1.0000000000E+20
 30
-1.0000000000E+20
  9
$PLIMMIN
 10
0.0
 20
0.0
  9
$PLIMMAX
 10
12.0
 20
9.0
  9
$UNITMODE
 70
     0
  9
$VISRETAIN
 70
     1
  9
$PLINEGEN
 70
     0
  9
$PSLTSCALE
 70
     1
  9
$TREEDEPTH
 70
  3020
  9
$CMLSTYLE
  2
Standard
  9
$CMLJUST
 70
     0
  9
$CMLSCALE
 40
1.0
  9
$PROXYGRAPHICS
 70
     1
  9
$MEASUREMENT
 70
     0
  9
$CELWEIGHT
370
    -1
  9
$ENDCAPS
280
     0
  9
$JOINSTYLE
280
     0
  9
$LWDISPLAY
290
     1
  9
$INSUNITS
 70
     1
  9
$HYPERLINKBASE
  1

  9
$STYLESHEET
  1

  9
$XEDIT
290
     1
  9
$CEPSNTYPE
380
     0
  9
$PSTYLEMODE
290
     1
  9
$FINGERPRINTGUID
  2
{E60C5F5B-AD82-4B04-B12F-255020BBFF75}
  9
$VERSIONGUID
  2
{FAEB1C32-E019-11D5-929B-00C0DF256EC4}
  9
$EXTNAMES
290
     1
  9
$PSVPSCALE
 40
0.0
  9
$OLESTARTUP
290
     0
  0
ENDSEC
  0
SECTION
  2
CLASSES
  0
CLASS
  1
ACDBDICTIONARYWDFLT
  2
AcDbDictionaryWithDefault
  3
ObjectDBX Classes
 90
        0
280
     0
281
     0
  0
CLASS
  1
VISUALSTYLE
  2
AcDbVisualStyle
  3
ObjectDBX Classes
 90
     4095
280
     0
281
     0
  0
CLASS
  1
MATERIAL
  2
AcDbMaterial
  3
ObjectDBX Classes
 90
     1153
280
     0
281
     0
  0
CLASS
  1
SCALE
  2
AcDbScale
  3
ObjectDBX Classes
 90
     1153
280
     0
281
     0
  0
CLASS
  1
TABLESTYLE
  2
AcDbTableStyle
  3
ObjectDBX Classes
 90
     4095
280
     0
281
     0
  0
CLASS
  1
MLEADERSTYLE
  2
AcDbMLeaderStyle
  3
ACDB_MLEADERSTYLE_CLASS
 90
     4095
280
     0
281
     0
  0
CLASS
  1
SUN
  2
AcDbSun
  3
SCENEOE
 90
     1153
280
     0
281
     0
  0
CLASS
  1
ACDBPLACEHOLDER
  2
AcDbPlaceHolder
  3
ObjectDBX Classes
 90
        0
280
     0
281
     0
  0
CLASS
  1
LAYOUT
  2
AcDbLayout
  3
ObjectDBX Classes
 90
        0
280
     0
281
     0
  0
ENDSEC
  0
SECTION
  2
TABLES
  0
TABLE
  2
VPORT
  5
8
330
0
100
AcDbSymbolTable
 70
     1
  0
VPORT
  5
29
330
8
100
AcDbSymbolTableRecord
100
AcDbViewportTableRecord
  2
*Active
 70
     0
 10
0.0
 20
0.0
 11
1.0
 21
1.0
 12
5.5
 22
4.25
 13
0.0
 23
0.0
 14
0.5
 24
0.5
 15
0.5
 25
0.5
 16
0.0
 26
0.0
 36
1.0
 17
0.0
 27
0.0
 37
0.0
 40
8.5
 41
1.2941176471
 42
50.0
 43
0.0
 44
0.0
 50
0.0
 51
0.0
 71
     0
 72
  2000
 73
     1
 74
     3
 75
     0
 76
     0
 77
     0
 78
     0
281
     0
 65
     1
110
0.0
120
0.0
130
0.0
111
1.0
121
0.0
131
0.0
112
0.0
122
1.0
132
0.0
 79
     0
146
0.0
  0
ENDTAB
  0
TABLE
  2
LTYPE
  5
5
330
0
100
AcDbSymbolTable
 70
     6
  0
LTYPE
  5
14
330
5
100
AcDbSymbolTableRecord
100
AcDbLinetypeTableRecord
  2
ByBlock
 70
     0
  3

 72
    65
 73
     0
 40
0.0
  0
LTYPE
  5
15
330
5
100
AcDbSymbolTableRecord
100
AcDbLinetypeTableRecord
  2
ByLayer
 70
     0
  3

 72
    65
 73
     0
 40
0.0
  0
LTYPE
  5
16
330
5
100
AcDbSymbolTableRecord
100
AcDbLinetypeTableRecord
  2
Continuous
 70
     0
  3
Solid line
 72
    65
 73
     0
 40
0.0
  0
LTYPE
  5
6E
330
5
100
AcDbSymbolTableRecord
100
AcDbLinetypeTableRecord
  2
HIDDEN
 70
     0
  3
Hidden __ __ __ __ __ __ __ __ __ __ __ __ __ __
 72
    65
 73
     2
 40
0.075
 49
0.05
 74
     0
 49
-0.025
 74
     0
  0
LTYPE
  5
6F
330
5
100
AcDbSymbolTableRecord
100
AcDbLinetypeTableRecord
  2
PHANTOM
 70
     0
  3
Phantom ______  __  __  ______  __  __  ______
 72
    65
 73
     6
 40
0.5
 49
0.25
 74
     0
 49
-0.05
 74
     0
 49
0.05
 74
     0
 49
-0.05
 74
     0
 49
0.05
 74
     0
 49
-0.05
 74
     0
  0
LTYPE
  5
70
330
5
100
AcDbSymbolTableRecord
100
AcDbLinetypeTableRecord
  2
CENTER
 70
     0
  3
Center ____ _ ____ _ ____ _ ____ _ ____ _ ____
 72
    65
 73
     4
 40
0.4
 49
0.25
 74
     0
 49
-0.05
 74
     0
 49
0.05
 74
     0
 49
-0.05
 74
     0
  0
LTYPE
  5
71
330
5
100
AcDbSymbolTableRecord
100
AcDbLinetypeTableRecord
  2
CENTERX2
 70
     0
  3
Center (2x) ________  __  ________  __  _____
 72
    65
 73
     4
 40
0.8
 49
0.5
 74
     0
 49
-0.1
 74
     0
 49
0.1
 74
     0
 49
-0.1
 74
     0
  0
LTYPE
  5
72
330
5
100
AcDbSymbolTableRecord
100
AcDbLinetypeTableRecord
  2
DOT2
 70
     0
  3
Dot (.5x) ........................................
 72
    65
 73
     2
 40
0.025
 49
0.0
 74
     0
 49
-0.025
 74
     0
  0
ENDTAB
  0
TABLE
  2
LAYER
  5
2
330
0
100
AcDbSymbolTable
 70
     2
  0
LAYER
  5
10
330
2
100
AcDbSymbolTableRecord
100
AcDbLayerTableRecord
  2
0
 70
     0
 62
     7
  6
Continuous
370
    -3
390
F
  0
LAYER
  5
73
330
2
100
AcDbSymbolTableRecord
100
AcDbLayerTableRecord
  2
FORMAT
 70
     0
 62
     7
  6
Continuous
370
    -3
390
F
  0
ENDTAB
  0
TABLE
  2
STYLE
  5
3
330
0
100
AcDbSymbolTable
 70
     2
  0
STYLE
  5
11
330
3
100
AcDbSymbolTableRecord
100
AcDbTextStyleTableRecord
  2
Standard
 70
     0
 40
0.0
 41
1.0
 50
0.0
 71
     0
 42
0.1377952756
  3
txt
  4

  0
STYLE
  5
77
330
3
100
AcDbSymbolTableRecord
100
AcDbTextStyleTableRecord
  2
SLDTEXTSTYLE0
 70
     0
 40
0.0
 41
0.605
 50
0.0
 71
     0
 42
0.1377952756
  3
TXT
  4

  0
ENDTAB
  0
TABLE
  2
VIEW
  5
6
330
0
100
AcDbSymbolTable
 70
     0
  0
ENDTAB
  0
TABLE
  2
UCS
  5
7
330
0
100
AcDbSymbolTable
 70
     0
  0
ENDTAB
  0
TABLE
  2
APPID
  5
9
330
0
100
AcDbSymbolTable
 70
     1
  0
APPID
  5
12
330
9
100
AcDbSymbolTableRecord
100
AcDbRegAppTableRecord
  2
ACAD
 70
     0
  0
ENDTAB
  0
TABLE
  2
DIMSTYLE
  5
A
330
0
100
AcDbSymbolTable
 70
     1
100
AcDbDimStyleTable
  0
DIMSTYLE
105
27
330
A
100
AcDbSymbolTableRecord
100
AcDbDimStyleTableRecord
  2
Standard
 70
     0
178
     0
340
11
  0
ENDTAB
  0
TABLE
  2
BLOCK_RECORD
  5
1
330
0
100
AcDbSymbolTable
 70
     2
  0
BLOCK_RECORD
  5
1F
330
1
100
AcDbSymbolTableRecord
100
AcDbBlockTableRecord
  2
*Model_Space
340
22
  0
BLOCK_RECORD
  5
1B
330
1
100
AcDbSymbolTableRecord
100
AcDbBlockTableRecord
  2
*Paper_Space
340
1E
  0
BLOCK_RECORD
  5
23
330
1
100
AcDbSymbolTableRecord
100
AcDbBlockTableRecord
  2
*Paper_Space0
340
26
  0
BLOCK_RECORD
  5
74
330
1
100
AcDbSymbolTableRecord
100
AcDbBlockTableRecord
  2
SW_NOTE_0
340
0
102
{BLKREFS
331
7B
102
}
  0
ENDTAB
  0
ENDSEC
  0
SECTION
  2
BLOCKS
  0
BLOCK
  5
20
330
1F
100
AcDbEntity
  8
0
100
AcDbBlockBegin
  2
*Model_Space
 70
     0
 10
0.0
 20
0.0
 30
0.0
  3
*Model_Space
  1

  0
ENDBLK
  5
21
330
1F
100
AcDbEntity
  8
0
100
AcDbBlockEnd
  0
BLOCK
  5
1C
330
1B
100
AcDbEntity
 67
     1
  8
0
100
AcDbBlockBegin
  2
*Paper_Space
 70
     0
 10
0.0
 20
0.0
 30
0.0
  3
*Paper_Space
  1

  0
ENDBLK
  5
1D
330
1B
100
AcDbEntity
 67
     1
  8
0
100
AcDbBlockEnd
  0
BLOCK
  5
24
330
23
100
AcDbEntity
  8
0
100
AcDbBlockBegin
  2
*Paper_Space0
 70
     0
 10
0.0
 20
0.0
 30
0.0
  3
*Paper_Space0
  1

  0
ENDBLK
  5
25
330
23
100
AcDbEntity
  8
0
100
AcDbBlockEnd
  0
BLOCK
  5
75
330
74
100
AcDbEntity
  8
0
100
AcDbBlockBegin
  2
SW_NOTE_0
 70
     0
 10
0.0
 20
0.0
 30
0.0
  3
SW_NOTE_0
  1

  0
MTEXT
  5
78
330
74
100
AcDbEntity
  8
0
  6
Continuous
 62
     0
370
     0
100
AcDbMText
 10
0.0
 20
0.1611334675
 30
0.0
 40
0.125
 41
0.0
 71
     1
 72
     1
  1
TBW02014U
  7
SLDTEXTSTYLE0
 73
     1
 44
1.0
  0
MTEXT
  5
79
330
74
100
AcDbEntity
  8
0
  6
Continuous
 62
     0
370
     0
100
AcDbMText
 10
0.0
 20
-0.0439810737
 30
0.0
 40
0.1041666667
 41
0.0
 71
     1
 72
     1
  1
Wall Mount, Square
  7
SLDTEXTSTYLE0
 73
     1
 44
1.0
  0
MTEXT
  5
7A
330
74
100
AcDbEntity
  8
0
  6
Continuous
 62
     0
370
     0
100
AcDbMText
 10
0.0
 20
-0.2213178443
 30
0.0
 40
0.0833333333
 41
0.0
 71
     1
 72
     1
  1
AD-01019, v01
  7
SLDTEXTSTYLE0
 73
     1
 44
1.0
  0
ENDBLK
  5
76
330
74
100
AcDbEntity
  8
0
100
AcDbBlockEnd
  0
ENDSEC
  0
SECTION
  2
ENTITIES
  0
INSERT
  5
7B
330
1F
100
AcDbEntity
  8
0
  6
Continuous
 62
     7
370
     0
100
AcDbBlockReference
  2
SW_NOTE_0
 10
2.9028491193
 20
3.0854907851
 30
0.0
  0
ARC
  5
7C
330
1F
100
AcDbEntity
  8
0
  6
Continuous
 62
     7
370
    25
100
AcDbCircle
 10
6.4331770373
 20
3.3659135826
 30
0.0
 40
0.0314960629921268
100
AcDbArc
 50
190.0399877803
 51
269.0
  0
LWPOLYLINE
  5
7D
330
1F
100
AcDbEntity
  8
0
  6
Continuous
 62
     7
370
    25
100
AcDbPolyline
 90
        3
 70
   128
 43
0.0
 10
6.1287494559
 20
4.9046285829
 10
6.1956291695
 20
4.5269037111
 10
6.4021589611
 20
3.3604219343
  0
ARC
  5
7E
330
1F
100
AcDbEntity
  8
0
  6
Continuous
 62
     7
370
    25
100
AcDbCircle
 10
6.1597628019
 20
4.9101197466
 30
0.0
 40
0.0314960629921259
100
AcDbArc
 50
105.0
 51
190.0406208796
  0
ARC
  5
7F
330
1F
100
AcDbEntity
  8
0
  6
Continuous
 62
     7
370
    25
100
AcDbCircle
 10
7.090925786
 20
5.1678643072
 30
0.0
 40
0.4727158135166171
100
AcDbArc
 50
192.1460474425
 51
195.9466687688
  0
SPLINE
  5
80
330
1F
100
AcDbEntity
  8
0
  6
Continuous
 62
     7
370
    25
100
AcDbSpline
210
0.0
220
0.0
230
1.0
 70
     8
 71
     3
 72
    24
 73
    20
 74
     0
 42
0.000000001
 43
0.00000001
 40
0.0
 40
0.0
 40
0.0
 40
0.0
 40
0.0624999999999999
 40
0.0624999999999999
 40
0.1249999999999998
 40
0.1249999999999998
 40
0.2499999999999997
 40
0.2499999999999997
 40
0.4999999999999997
 40
0.4999999999999997
 40
0.6249999999999996
 40
0.6249999999999996
 40
0.7499999999999994
 40
0.7499999999999994
 40
0.8749999999999994
 40
0.8749999999999994
 40
0.9374999999999998
 40
0.9374999999999998
 40
1.0
 40
1.0
 40
1.0
 40
1.0
 10
6.636401095876702
 20
5.037989188098763
 30
0.0
 10
6.625455320706629
 20
5.035058885310531
 30
0.0
 10
6.614371535212952
 20
5.03209684556365
 30
0.0
 10
6.592360300306615
 20
5.026228375053572
 30
0.0
 10
6.581366237267781
 20
5.023303738765383
 30
0.0
 10
6.548429508507023
 20
5.014533630034529
 30
0.0
 10
6.52652789488751
 20
5.00870562677926
 30
0.0
 10
6.461036698327966
 20
4.99129090146533
 30
0.0
 10
6.417648220718361
 20
4.979767761408604
 30
0.0
 10
6.353235534963983
 20
4.962717486327091
 30
0.0
 10
6.331817016000166
 20
4.957055996834549
 30
0.0
 10
6.289540803120781
 20
4.945902208169809
 30
0.0
 10
6.268940755799895
 20
4.940480547226272
 30
0.0
 10
6.229068655013632
 20
4.930011310365283
 30
0.0
 10
6.20979281414638
 20
4.924962042533523
 30
0.0
 10
6.182093107214695
 20
4.917723774016072
 30
0.0
 10
6.173062817092484
 20
4.915366498522042
 30
0.0
 10
6.155454094954596
 20
4.910774810215095
 30
0.0
 10
6.146845439006865
 20
4.908532554608384
 30
0.0
 10
6.138638326660205
 20
4.906397157613899
 30
0.0
  0
ARC
  5
81
330
1F
100
AcDbEntity
  8
0
  6
Continuous
 62
     7
370
    25
100
AcDbCircle
 10
6.1640539357
 20
4.9162781913
 30
0.0
 40
0.0272688102214833
100
AcDbArc
 50
117.1489797245
 51
201.2449943581
  0
SPLINE
  5
82
330
1F
100
AcDbEntity
  8
0
  6
Continuous
 62
     7
370
    25
100
AcDbSpline
210
0.0
220
0.0
230
1.0
 70
    24
 71
     3
 72
    22
 73
    18
 74
     0
 42
0.000000001
 43
0.00000001
 40
0.0
 40
0.0
 40
0.0
 40
0.0
 40
0.0625000000000001
 40
0.0625000000000001
 40
0.1250000000000003
 40
0.1250000000000003
 40
0.2500000000000007
 40
0.2500000000000007
 40
0.3750000000000011
 40
0.3750000000000011
 40
0.5000000000000014
 40
0.5000000000000014
 40
0.7500000000000007
 40
0.7500000000000007
 40
0.8750000000000003
 40
0.8750000000000003
 40
1.0
 40
1.0
 40
1.0
 40
1.0
 10
6.151611020941732
 20
4.940542607276091
 30
0.0
 10
6.159486099099729
 20
4.942652728108859
 30
0.0
 10
6.167732799679979
 20
4.944862424869559
 30
0.0
 10
6.184620542247099
 20
4.949387481852402
 30
0.0
 10
6.193287856520644
 20
4.951709881712547
 30
0.0
 10
6.21988691257391
 20
4.95883707730145
 30
0.0
 10
6.238412258002239
 20
4.963800928648477
 30
0.0
 10
6.276734233017577
 20
4.974069270906202
 30
0.0
 10
6.296534149601101
 20
4.97937464256496
 30
0.0
 10
6.337152016322317
 20
4.990258167151186
 30
0.0
 10
6.357621411994198
 20
4.995742925191019
 30
0.0
 10
6.419321880845779
 20
5.012275515992422
 30
0.0
 10
6.46087687494782
 20
5.023410143103543
 30
0.0
 10
6.523590522521519
 20
5.040214214325325
 30
0.0
 10
6.544561660968929
 20
5.045833413936672
 30
0.0
 10
6.586609047589831
 20
5.057099977225581
 30
0.0
 10
6.607695502198749
 20
5.062750075709276
 30
0.0
 10
6.628791973643887
 20
5.068402858196147
 30
0.0
  0
ARC
  5
83
330
1F
100
AcDbEntity
  8
0
  6
Continuous
 62
     7
370
    25
100
AcDbCircle
 10
7.3846437728
 20
3.3414326322
 30
0.0
 40
0.457414289663103
100
AcDbArc
 50
178.0139590665
 51
181.9604910085
  0
SPLINE
  5
84
330
1F
100
AcDbEntity
  8
0
  6
Continuous
 62
     7
370
    25
100
AcDbSpline
210
0.0
220
0.0
230
1.0
 70
    24
 71
     3
 72
    20
 73
    16
 74
     0
 42
0.000000001
 43
0.00000001
 40
0.0
 40
0.0
 40
0.0
 40
0.0
 40
0.1250000000000003
 40
0.1250000000000003
 40
0.2500000000000006
 40
0.2500000000000006
 40
0.5000000000000012
 40
0.5000000000000012
 40
0.6250000000000009
 40
0.6250000000000009
 40
0.7500000000000004
 40
0.7500000000000004
 40
0.8750000000000001
 40
0.8750000000000001
 40
1.0
 40
1.0
 40
1.0
 40
1.0
 10
6.927497228385298
 20
3.325784330860348
 30
0.0
 10
6.90560837712806
 20
3.326166402180248
 30
0.0
 10
6.883734480759371
 20
3.326548212461595
 30
0.0
 10
6.840129992383175
 20
3.327309331637363
 30
0.0
 10
6.818386969173102
 20
3.327688857519235
 30
0.0
 10
6.753368291035753
 20
3.32882376276767
 30
0.0
 10
6.710291905805351
 20
3.329575663868736
 30
0.0
 10
6.646291567454178
 20
3.330692793930083
 30
0.0
 10
6.625001587874572
 20
3.331064411905966
 30
0.0
 10
6.583356608787337
 20
3.331791327719868
 30
0.0
 10
6.562937416826586
 20
3.332147746041324
 30
0.0
 10
6.523154793439559
 20
3.33284215431556
 30
0.0
 10
6.503714926418732
 20
3.333181478456604
 30
0.0
 10
6.466506581661683
 20
3.333830952530209
 30
0.0
 10
6.448924336308221
 20
3.334137851764438
 30
0.0
 10
6.432627355192335
 20
3.33442231662795
 30
0.0
  0
ARC
  5
85
330
1F
100
AcDbEntity
  8
0
  6
Continuous
 62
     7
370
    25
100
AcDbCircle
 10
6.4383104541
 20
3.3601887832
 30
0.0
 40
0.0263857615666041
100
AcDbArc
 50
175.6678744841
 51
257.5618809538
  0
SPLINE
  5
86
330
1F
100
AcDbEntity
  8
0
  6
Continuous
 62
     7
370
    25
100
AcDbSpline
210
0.0
220
0.0
230
1.0
 70
     8
 71
     3
 72
    28
 73
    24
 74
     0
 42
0.000000001
 43
0.00000001
 40
0.0
 40
0.0
 40
0.0
 40
0.0
 40
0.1250000000000011
 40
0.1250000000000011
 40
0.1875000000000016
 40
0.1875000000000016
 40
0.2500000000000022
 40
0.2500000000000022
 40
0.3750000000000016
 40
0.3750000000000016
 40
0.500000000000001
 40
0.500000000000001
 40
0.6250000000000004
 40
0.6250000000000004
 40
0.7499999999999998
 40
0.7499999999999998
 40
0.8749999999999992
 40
0.8749999999999992
 40
0.9374999999999989
 40
0.9374999999999989
 40
0.9687499999999996
 40
0.9687499999999996
 40
1.0
 40
1.0
 40
1.0
 40
1.0
 10
6.412000078324928
 20
3.362181906457823
 30
0.0
 10
6.428641431952177
 20
3.362162925547509
 30
0.0
 10
6.446667855942091
 20
3.362117459251773
 30
0.0
 10
6.475487066571678
 20
3.362005931152062
 30
0.0
 10
6.485399056217327
 20
3.361962105743184
 30
0.0
 10
6.505448915388352
 20
3.361862560937673
 30
0.0
 10
6.515628183457586
 20
3.36180656551832
 30
0.0
 10
6.546580436129194
 20
3.361619820576895
 30
0.0
 10
6.567768706461713
 20
3.361467646323875
 30
0.0
 10
6.611007635700595
 20
3.361101934453038
 30
0.0
 10
6.633104384311864
 20
3.360894322843658
 30
0.0
 10
6.677681279606113
 20
3.36044993420596
 30
0.0
 10
6.700211117927571
 20
3.360209812184553
 30
0.0
 10
6.745357840171016
 20
3.359697126640547
 30
0.0
 10
6.767999334154701
 20
3.359425569037555
 30
0.0
 10
6.813397182484557
 20
3.358864834500154
 30
0.0
 10
6.836153841178231
 20
3.358573738507157
 30
0.0
 10
6.870361668912133
 20
3.358120614979664
 30
0.0
 10
6.881776279188136
 20
3.357969432229468
 30
0.0
 10
6.898915609821405
 20
3.357734521591621
 30
0.0
 10
6.904631476290849
 20
3.35765252441453
 30
0.0
 10
6.91606633997012
 20
3.357477359817518
 30
0.0
 10
6.92185282817598
 20
3.35738296425394
 30
0.0
 10
6.927504259298633
 20
3.357284787393802
 30
0.0
  0
ELLIPSE
  5
87
330
1F
100
AcDbEntity
  8
0
  6
Continuous
 62
     7
370
    25
100
AcDbEllipse
 10
8.2530283115
 20
3.3341479605
 30
0.0
 11
0.0003435273958487529
 21
0.03149486435450655
 31
0.0
210
0.0
220
0.0
230
1.0
 40
0.0107694625
 41
1.570734762729929
 42
3.141522152291923
  0
ARC
  5
88
330
1F
100
AcDbEntity
  8
0
  6
Continuous
 62
     7
370
    25
100
AcDbCircle
 10
8.2577520701
 20
-13.9188289696
 30
0.0
 40
17.25298331143527
100
AcDbArc
 50
89.9503147754
 51
90.0168135539
  0
LINE
  5
89
330
1F
100
AcDbEntity
  8
0
  6
Continuous
 62
     7
370
    25
100
AcDbLine
 10
8.2727133509
 20
3.3341478549
 30
0.0
 11
8.2727133509
 21
3.3223351377
 31
0.0
  0
ARC
  5
8A
330
1F
100
AcDbEntity
  8
0
  6
Continuous
 62
     7
370
    25
100
AcDbCircle
 10
8.2530283115
 20
3.3223351377
 30
0.0
 40
0.0196850393700796
100
AcDbArc
 50
269.0
 51
0.0
  0
LINE
  5
8B
330
1F
100
AcDbEntity
  8
0
  6
Continuous
 62
     7
370
    25
100
AcDbLine
 10
8.2526891499
 20
3.334153599
 30
0.0
 11
8.2526891499
 21
5.4710722669
 31
0.0
  0
ARC
  5
8C
330
1F
100
AcDbEntity
  8
0
  6
Continuous
 62
     7
370
    25
100
AcDbCircle
 10
8.2577520701
 20
-11.7819103089
 30
0.0
 40
17.25298331862255
100
AcDbArc
 50
89.9503147754
 51
90.0168135539
  0
LINE
  5
8D
330
1F
100
AcDbEntity
  8
0
  6
Continuous
 62
     7
370
    25
100
AcDbLine
 10
8.2727133509
 20
5.4710665228
 30
0.0
 11
8.2727133509
 21
3.3341478549
 31
0.0
  0
LINE
  5
8E
330
1F
100
AcDbEntity
  8
0
  6
Continuous
 62
     7
370
    25
100
AcDbLine
 10
6.9275042519
 20
3.3572847875
 30
0.0
 11
8.2526891499
 21
3.334153599
 31
0.0
  0
LINE
  5
8F
330
1F
100
AcDbEntity
  8
0
  6
Continuous
 62
     7
370
    25
100
AcDbLine
 10
8.2526847602
 20
3.3026530965
 30
0.0
 11
6.9274972284
 21
3.3257843309
 31
0.0
  0
LINE
  5
90
330
1F
100
AcDbEntity
  8
0
  6
Continuous
 62
     7
370
    25
100
AcDbLine
 10
6.9275042519
 20
3.3572847875
 30
0.0
 11
6.636401096
 21
5.0379891881
 31
0.0
  0
LINE
  5
91
330
1F
100
AcDbEntity
  8
0
  6
Continuous
 62
     7
370
    25
100
AcDbLine
 10
8.2526891499
 20
5.4710722669
 30
0.0
 11
6.636401096
 21
5.0379891881
 31
0.0
  0
LINE
  5
92
330
1F
100
AcDbEntity
  8
0
  6
Continuous
 62
     7
370
    25
100
AcDbLine
 10
8.2727133509
 20
5.4832362209
 30
0.0
 11
8.2727133509
 21
5.4710665228
 31
0.0
  0
ELLIPSE
  5
93
330
1F
100
AcDbEntity
  8
0
  6
Continuous
 62
     7
370
    25
100
AcDbEllipse
 10
8.2530283115
 20
5.4710085495
 30
0.0
 11
-0.005094535889996977
 21
0.03124202971424684
 31
0.0
210
0.0
220
0.0
230
1.0
 40
0.0102508634
 41
0.0010301254407573
 42
1.567085276106572
  0
ARC
  5
94
330
1F
100
AcDbEntity
  8
0
  6
Continuous
 62
     7
370
    25
100
AcDbCircle
 10
8.2530283115
 20
5.4832362209
 30
0.0
 40
0.0196850393700796
100
AcDbArc
 50
0.0
 51
105.0
  0
LINE
  5
95
330
1F
100
AcDbEntity
  8
0
  6
Continuous
 62
     7
370
    25
100
AcDbLine
 10
6.6287919736
 20
5.0684028582
 30
0.0
 11
8.2479334484
 21
5.5022505088
 31
0.0
  0
LWPOLYLINE
  5
96
330
1F
100
AcDbEntity
  8
0
  6
Continuous
 62
     7
370
    25
100
AcDbPolyline
 90
        5
 70
   128
 43
0.0
 10
6.1386383267
 20
4.9063971576
 10
6.1496187297
 20
4.8443694492
 10
6.1935409382
 20
4.5962587213
 10
6.369228291
 20
3.603815547
 10
6.4120000783
 20
3.3621819065
  0
SPLINE
  5
97
330
1F
100
AcDbEntity
  8
0
  6
Continuous
 62
     7
370
    25
100
AcDbSpline
210
0.0
220
0.0
230
1.0
 70
     8
 71
     3
 72
    39
 73
    35
 74
     0
 42
0.000000001
 43
0.00000001
 40
0.0
 40
0.0
 40
0.0
 40
0.0
 40
0.0156249999999999
 40
0.0156249999999999
 40
0.0312499999999998
 40
0.0624999999999997
 40
0.0624999999999997
 40
0.1249999999999993
 40
0.1249999999999993
 40
0.187499999999999
 40
0.187499999999999
 40
0.2499999999999988
 40
0.2499999999999988
 40
0.3749999999999983
 40
0.3749999999999983
 40
0.4374999999999981
 40
0.4374999999999981
 40
0.4999999999999979
 40
0.4999999999999979
 40
0.6249999999999982
 40
0.6249999999999982
 40
0.6874999999999989
 40
0.6874999999999989
 40
0.7499999999999996
 40
0.7499999999999996
 40
0.8749999999999998
 40
0.8749999999999998
 40
0.9374999999999999
 40
0.9374999999999999
 40
0.9687500000000004
 40
0.9687500000000004
 40
0.9843750000000002
 40
0.9843750000000002
 40
1.0
 40
1.0
 40
1.0
 40
1.0
 10
7.007625153659514
 20
5.196858937125802
 30
0.0
 10
7.007625144261049
 20
5.196858934607492
 30
0.0
 10
7.007572087850297
 20
5.196844902708862
 30
0.0
 10
7.007361459571703
 20
5.196789194359231
 30
0.0
 10
7.006888707377687
 20
5.196664155545606
 30
0.0
 10
7.005952056941862
 20
5.196416402638893
 30
0.0
 10
7.003471697261775
 20
5.195760289456508
 30
0.0
 10
7.00101061640088
 20
5.195109237476481
 30
0.0
 10
6.994486857872062
 20
5.193383364281548
 30
0.0
 10
6.990424291926078
 20
5.192308572875885
 30
0.0
 10
6.980648489314812
 20
5.189722322659814
 30
0.0
 10
6.974933801502014
 20
5.1882104846151
 30
0.0
 10
6.955694755018415
 20
5.183121024945105
 30
0.0
 10
6.939997138918907
 20
5.178967534750663
 30
0.0
 10
6.912304370231605
 20
5.171638838489732
 30
0.0
 10
6.902375824021145
 20
5.16901114033932
 30
0.0
 10
6.881068511540955
 20
5.163371694047211
 30
0.0
 10
6.86967728740821
 20
5.160356649377805
 30
0.0
 10
6.83377271133582
 20
5.150853325398567
 30
0.0
 10
6.807861392512462
 20
5.143992959589378
 30
0.0
 10
6.766205557812491
 20
5.13296133705596
 30
0.0
 10
6.751850770733257
 20
5.129159387843327
 30
0.0
 10
6.722175408722705
 20
5.121299041402205
 30
0.0
 10
6.706807601688385
 20
5.11722813065958
 30
0.0
 10
6.660228678866966
 20
5.104888753776138
 30
0.0
 10
6.628249707501556
 20
5.09641387494461
 30
0.0
 10
6.578931351470581
 20
5.083339794425846
 30
0.0
 10
6.56222342659437
 20
5.078909949912654
 30
0.0
 10
6.536945923874082
 20
5.072207167696599
 30
0.0
 10
6.528508054050858
 20
5.069969575949769
 30
0.0
 10
6.515833133090731
 20
5.066608191508611
 30
0.0
 10
6.511605138246418
 20
5.065486896710464
 30
0.0
 10
6.503143073711885
 20
5.06324263417826
 30
0.0
 10
6.498856594162483
 20
5.062105765836454
 30
0.0
 10
6.494671901855805
 20
5.060995864554402
 30
0.0
  0
LINE
  5
98
330
1F
100
AcDbEntity
  8
0
  6
Continuous
 62
     7
370
    25
100
AcDbLine
 10
7.0076251537
 20
5.1968589371
 30
0.0
 11
7.01313994
 21
5.1713885854
 31
0.0
  0
LINE
  5
99
330
1F
100
AcDbEntity
  8
0
  6
Continuous
 62
     7
370
    25
100
AcDbLine
 10
6.4946717054
 20
5.060996674
 30
0.0
 11
6.4946719019
 21
5.0609958646
 31
0.0
  0
SPLINE
  5
9A
330
1F
100
AcDbEntity
  8
0
  6
Continuous
 62
     7
370
    25
100
AcDbSpline
210
0.0
220
0.0
230
1.0
 70
     8
 71
     3
 72
    10
 73
     6
 74
     0
 42
0.000000001
 43
0.00000001
 40
0.0
 40
0.0
 40
0.0
 40
0.0
 40
0.5
 40
0.5
 40
1.0
 40
1.0
 40
1.0
 40
1.0
 10
6.494671695898213
 20
5.060996671403928
 30
0.0
 10
6.49253469896142
 20
5.068960589847239
 30
0.0
 10
6.49041084364793
 20
5.076875463084695
 30
0.0
 10
6.487386994923556
 20
5.08813769475762
 30
0.0
 10
6.486505586574578
 20
5.0914156927978
 30
0.0
 10
6.486502720899473
 20
5.09141492494247
 30
0.0
  0
SPLINE
  5
9B
330
1F
100
AcDbEntity
  8
0
  6
Continuous
 62
     7
370
    25
100
AcDbSpline
210
0.0
220
0.0
230
1.0
 70
    24
 71
     3
 72
    28
 73
    24
 74
     0
 42
0.000000001
 43
0.00000001
 40
0.0
 40
0.0
 40
0.0
 40
0.0
 40
0.1249999999999998
 40
0.1249999999999998
 40
0.2499999999999996
 40
0.2499999999999996
 40
0.3124999999999994
 40
0.3124999999999994
 40
0.3749999999999993
 40
0.3749999999999993
 40
0.4999999999999988
 40
0.4999999999999988
 40
0.5624999999999989
 40
0.5624999999999989
 40
0.6249999999999989
 40
0.6249999999999989
 40
0.7499999999999992
 40
0.7499999999999992
 40
0.8124999999999996
 40
0.8124999999999996
 40
0.8749999999999998
 40
0.8749999999999998
 40
1.0
 40
1.0
 40
1.0
 40
1.0
 10
6.486502720899474
 20
5.09141492494247
 30
0.0
 10
6.518368805067824
 20
5.099953416461321
 30
0.0
 10
6.550258366616748
 20
5.108498198725338
 30
0.0
 10
6.612074204126958
 20
5.125061702465652
 30
0.0
 10
6.642136333698753
 20
5.133116825807176
 30
0.0
 10
6.685921691846134
 20
5.144849077163075
 30
0.0
 10
6.700367523477269
 20
5.148719826082632
 30
0.0
 10
6.728262075512821
 20
5.156194148773787
 30
0.0
 10
6.741755509709126
 20
5.159809703569809
 30
0.0
 10
6.780912356694021
 20
5.170301749097561
 30
0.0
 10
6.805270263103965
 20
5.176828430449419
 30
0.0
 10
6.839020503325313
 20
5.185871780061085
 30
0.0
 10
6.849727623647061
 20
5.188740744304561
 30
0.0
 10
6.869755476002555
 20
5.194107191169345
 30
0.0
 10
6.879087997483622
 20
5.196607832763545
 30
0.0
 10
6.905119262261651
 20
5.203582889138779
 30
0.0
 10
6.919876792190761
 20
5.20753715736556
 30
0.0
 10
6.937961402750462
 20
5.212382914160464
 30
0.0
 10
6.943332671284086
 20
5.213822141226379
 30
0.0
 10
6.952520789808848
 20
5.21628409016505
 30
0.0
 10
6.956339160201274
 20
5.217307219428104
 30
0.0
 10
6.965537391344455
 20
5.219771878034714
 30
0.0
 10
6.968690593921282
 20
5.220616776118747
 30
0.0
 10
6.968690593921284
 20
5.220616776118747
 30
0.0
  0
ARC
  5
9C
330
1F
100
AcDbEntity
  8
0
  6
Continuous
 62
     7
370
    25
100
AcDbCircle
 10
6.9768423749
 20
5.1901939154
 30
0.0
 40
0.0314960629921256
100
AcDbArc
 50
12.2169792461
 51
105.0
  0
LINE
  5
9D
330
1F
100
AcDbEntity
  8
0
  6
Continuous
 62
     7
370
    25
100
AcDbLine
 10
6.4946717054
 20
5.060996674
 30
0.0
 11
6.145370868
 21
4.9674017967
 31
0.0
  0
LINE
  5
9E
330
1F
100
AcDbEntity
  8
0
  6
Continuous
 62
     7
370
    25
100
AcDbLine
 10
6.145370868
 20
4.9674017967
 30
0.0
 11
6.1372190871
 21
4.9978246573
 31
0.0
  0
LINE
  5
9F
330
1F
100
AcDbEntity
  8
0
  6
Continuous
 62
     7
370
    25
100
AcDbLine
 10
6.1372190871
 20
4.9978246573
 30
0.0
 11
6.4865027209
 21
5.0914149249
 31
0.0
  0
ARC
  5
A0
330
1F
100
AcDbEntity
  8
0
  6
Continuous
 62
     7
370
    25
100
AcDbCircle
 10
6.4261486272
 20
3.3750319959
 30
0.0
 40
0.031496062992126
100
AcDbArc
 50
190.0
 51
228.1556612074
  0
LINE
  5
A1
330
1F
100
AcDbEntity
  8
0
  6
Continuous
 62
     7
370
    25
100
AcDbLine
 10
6.3951310601
 20
3.369562762
 30
0.0
 11
6.114353301
 21
4.9619325627
 31
0.0
  0
LINE
  5
A2
330
1F
100
AcDbEntity
  8
0
  6
Continuous
 62
     7
370
    25
100
AcDbLine
 10
6.145370868
 20
4.9674017967
 30
0.0
 11
6.114353301
 21
4.9619325627
 31
0.0
  0
ARC
  5
A3
330
1F
100
AcDbEntity
  8
0
  6
Continuous
 62
     7
370
    25
100
AcDbCircle
 10
6.145370868
 20
4.9674017967
 30
0.0
 40
0.0314960629921262
100
AcDbArc
 50
105.0
 51
190.0
  0
ARC
  5
A4
330
1F
100
AcDbEntity
  8
0
  6
Continuous
 62
     7
370
    25
100
AcDbCircle
 10
6.7230559488
 20
1.5944975067
 30
0.0
 40
1.794843695664604
100
AcDbArc
 50
99.9800503339
 51
100.2990469313
  0
ARC
  5
A5
330
1F
100
AcDbEntity
  8
0
  6
Continuous
 62
     7
370
    25
100
AcDbCircle
 10
6.4532831515
 20
3.1185429552
 30
0.0
 40
1.815330277100421
100
AcDbArc
 50
99.9812848518
 51
100.2983625819
  0
LINE
  5
A6
330
1F
100
AcDbEntity
  8
0
  6
Continuous
 62
     7
370
    25
100
AcDbLine
 10
6.4946719019
 20
5.0609958646
 30
0.0
 11
6.5011722656
 21
5.0342072605
 31
0.0
  0
LINE
  5
A7
330
1F
100
AcDbEntity
  8
0
  6
Continuous
 62
     7
370
    25
100
AcDbLine
 10
6.145370868
 20
4.9674017967
 30
0.0
 11
6.1501808751
 21
4.9401228908
 31
0.0
  0
LINE
  5
A8
330
1F
100
AcDbEntity
  8
0
  6
Continuous
 62
     7
370
    25
100
AcDbLine
 10
6.399854402
 20
3.3703956146
 30
0.0
 11
6.3951310601
 21
3.369562762
 31
0.0
  0
SPLINE
  5
A9
330
1F
100
AcDbEntity
  8
0
  6
Continuous
 62
     7
370
    25
100
AcDbSpline
210
0.0
220
0.0
230
1.0
 70
     8
 71
     3
 72
    14
 73
    10
 74
     0
 42
0.000000001
 43
0.00000001
 40
0.0
 40
0.0
 40
0.0
 40
0.0
 40
0.137862799778656
 40
0.3062304791820819
 40
0.4747233527087872
 40
0.642586055319252
 40
0.8094192748038865
 40
0.9656995034740814
 40
0.9999999999999999
 40
0.9999999999999999
 40
0.9999999999999999
 40
0.9999999999999999
 10
5.313350833848581
 20
5.471072262283476
 30
0.0
 10
5.313208384272239
 20
5.473354619989766
 30
0.0
 10
5.312891965324615
 20
5.478424352326434
 30
0.0
 10
5.310125593587839
 20
5.485903092211727
 30
0.0
 10
5.305364443737068
 20
5.492848548061739
 30
0.0
 10
5.298936207000967
 20
5.498292135730512
 30
0.0
 10
5.291503191706382
 20
5.501759853965039
 30
0.0
 10
5.285621951022025
 20
5.502857094555732
 30
0.0
 10
5.282472357308917
 20
5.502911502146113
 30
0.0
 10
5.281905497107794
 20
5.50292129436074
 30
0.0
  0
SPLINE
  5
AA
330
1F
100
AcDbEntity
  8
0
  6
Continuous
 62
     7
370
    25
100
AcDbSpline
210
0.0
220
0.0
230
1.0
 70
     8
 71
     3
 72
    14
 73
    10
 74
     0
 42
0.000000001
 43
0.00000001
 40
0.0
 40
0.0
 40
0.0
 40
0.0
 40
0.139061429320921
 40
0.3032769778529436
 40
0.4672708862624538
 40
0.6315250373719019
 40
0.7965945865778254
 40
0.9558316835106457
 40
1.0
 40
1.0
 40
1.0
 40
1.0
 10
3.807612034938343
 20
5.502921294360741
 30
0.0
 10
3.805309122510016
 20
5.502771350295355
 30
0.0
 10
3.800286735461835
 20
5.50244433954033
 30
0.0
 10
3.792954351624751
 20
5.499633555821121
 30
0.0
 10
3.786229327486943
 20
5.494918144612332
 30
0.0
 10
3.780927769177796
 20
5.488591829179957
 30
0.0
 10
3.77745639939583
 20
5.481212848102846
 30
0.0
 10
3.776254338429163
 20
5.475164186901126
 30
0.0
 10
3.776182333626599
 20
5.471802280858661
 30
0.0
 10
3.776166698197556
 20
5.471072262283476
 30
0.0
  0
LINE
  5
AB
330
1F
100
AcDbEntity
  8
0
  6
Continuous
 62
     7
370
    25
100
AcDbLine
 10
5.2819054971
 20
5.5029212944
 30
0.0
 11
3.8076120349
 21
5.5029212944
 31
0.0
  0
SPLINE
  5
AC
330
1F
100
AcDbEntity
  8
0
  6
Continuous
 62
     7
370
    25
100
AcDbSpline
210
0.0
220
0.0
230
1.0
 70
     8
 71
     3
 72
    17
 73
    13
 74
     0
 42
0.000000001
 43
0.00000001
 40
0.0
 40
0.0
 40
0.0
 40
0.0
 40
0.0843800068379419
 40
0.1905496817409983
 40
0.2910841465686188
 40
0.3978072112320691
 40
0.5011836813058765
 40
0.6045684140498316
 40
0.7092660670459059
 40
0.8158078989251362
 40
0.924206747660427
 40
1.0
 40
1.0
 40
1.0
 40
1.0
 10
5.003914361818445
 20
5.056917879963575
 30
0.0
 10
5.003919136694921
 20
5.056838211847528
 30
0.0
 10
5.003929919476611
 20
5.056658302711147
 30
0.0
 10
5.003506317531268
 20
5.055284735827933
 30
0.0
 10
5.001890964575797
 20
5.052450462124282
 30
0.0
 10
4.998569223564298
 20
5.048397235403526
 30
0.0
 10
4.993214450975509
 20
5.043426871927836
 30
0.0
 10
4.985896953285955
 20
5.037948016231485
 30
0.0
 10
4.976556200262118
 20
5.032110516088354
 30
0.0
 10
4.965073671112461
 20
5.026055786142634
 30
0.0
 10
4.953161072220944
 20
5.020530575186369
 30
0.0
 10
4.94431624082733
 20
5.017112720072756
 30
0.0
 10
4.94067667901222
 20
5.015706306043194
 30
0.0
  0
SPLINE
  5
AD
330
1F
100
AcDbEntity
  8
0
  6
Continuous
 62
     7
370
    25
100
AcDbSpline
210
0.0
220
0.0
230
1.0
 70
     8
 71
     3
 72
    17
 73
    13
 74
     0
 42
0.000000001
 43
0.00000001
 40
0.0
 40
0.0
 40
0.0
 40
0.0
 40
0.1057749428132918
 40
0.2160556320568669
 40
0.3247777265600699
 40
0.4316946545218467
 40
0.5366882233498111
 40
0.6399929209244377
 40
0.7426460634281906
 40
0.8463316556977459
 40
0.9562489147682756
 40
0.9999999999999999
 40
0.9999999999999999
 40
0.9999999999999999
 40
0.9999999999999999
 10
4.148677688252145
 20
5.015700769440486
 30
0.0
 10
4.143714423731116
 20
5.017681556137197
 30
0.0
 10
4.133576472108216
 20
5.021727506060166
 30
0.0
 10
4.120686923364212
 20
5.027926887158689
 30
0.0
 10
4.109582122460306
 20
5.034098827292238
 30
0.0
 10
4.100720550927049
 20
5.039984845057946
 30
0.0
 10
4.094047307481724
 20
5.045377699948016
 30
0.0
 10
4.089489176900107
 20
5.050033156625568
 30
0.0
 10
4.08684165222749
 20
5.053668631761536
 30
0.0
 10
4.085736336933706
 20
5.056018809888129
 30
0.0
 10
4.085573728389654
 20
5.056782992508824
 30
0.0
 10
4.085584715566686
 20
5.056948720988963
 30
0.0
 10
4.085587843738079
 20
5.056995905728882
 30
0.0
  0
SPLINE
  5
AE
330
1F
100
AcDbEntity
  8
0
  6
Continuous
 62
     7
370
    25
100
AcDbSpline
210
0.0
220
0.0
230
1.0
 70
     8
 71
     3
 72
    33
 73
    29
 74
     0
 42
0.000000001
 43
0.00000001
 40
0.0
 40
0.0
 40
0.0
 40
0.0
 40
0.00273423847439
 40
0.0452943915233605
 40
0.0842527781581285
 40
0.125549257957164
 40
0.1664449940366292
 40
0.2076026034753653
 40
0.2489745312470694
 40
0.2905108781285801
 40
0.3321616580991491
 40
0.3738814788396402
 40
0.4156322198010935
 40
0.4573939965739333
 40
0.4991646111901045
 40
0.5406304225726161
 40
0.5825606980443906
 40
0.6248476058635525
 40
0.6675850783377276
 40
0.7108747245493275
 40
0.7547999504917782
 40
0.7993263872398036
 40
0.8393174865250264
 40
0.8764753002442257
 40
0.9107304455787681
 40
0.9431080267292679
 40
0.9768285704694596
 40
1.0
 40
1.0
 40
1.0
 40
1.0
 10
4.544757911381847
 20
5.221792041989853
 30
0.0
 10
4.544020487394079
 20
5.221790976488362
 30
0.0
 10
4.531804592133465
 20
5.221773325781523
 30
0.0
 10
4.509099831199652
 20
5.221425653695264
 30
0.0
 10
4.47612327668066
 20
5.220578764974815
 30
0.0
 10
4.443874011756439
 20
5.219150035287172
 30
0.0
 10
4.411463572060236
 20
5.217152707382311
 30
0.0
 10
4.37958602170138
 20
5.214607770150861
 30
0.0
 10
4.348227655811251
 20
5.211515148098018
 30
0.0
 10
4.317559150245817
 20
5.207882924444203
 30
0.0
 10
4.287747215644395
 20
5.203723586969256
 30
0.0
 10
4.258950226504942
 20
5.199050901944833
 30
0.0
 10
4.23131500649542
 20
5.193879394523419
 30
0.0
 10
4.204970246630848
 20
5.188223237420342
 30
0.0
 10
4.180098646667833
 20
5.182106347284735
 30
0.0
 10
4.156691937594108
 20
5.175531820152328
 30
0.0
 10
4.134745509649485
 20
5.168487528091797
 30
0.0
 10
4.114228951570495
 20
5.160923580478517
 30
0.0
 10
4.095216792962734
 20
5.152811324227388
 30
0.0
 10
4.077750971282944
 20
5.144083568819694
 30
0.0
 10
4.061886020179514
 20
5.134636393392817
 30
0.0
 10
4.048232995218316
 20
5.124696633224673
 30
0.0
 10
4.03696144904702
 20
5.114416247648145
 30
0.0
 10
4.028125150643429
 20
5.104048468939388
 30
0.0
 10
4.021351005776014
 20
5.093420987090406
 30
0.0
 10
4.016470292959863
 20
5.082068441318636
 30
0.0
 10
4.013871640397644
 20
5.072018508122228
 30
0.0
 10
4.013324782999965
 20
5.066245159495696
 30
0.0
 10
4.013102054433435
 20
5.063893742711147
 30
0.0
  0
SPLINE
  5
AF
330
1F
100
AcDbEntity
  8
0
  6
Continuous
 62
     7
370
    25
100
AcDbSpline
210
0.0
220
0.0
230
1.0
 70
     8
 71
     3
 72
    33
 73
    29
 74
     0
 42
0.000000001
 43
0.00000001
 40
0.0
 40
0.0
 40
0.0
 40
0.0
 40
0.0026062253195623
 40
0.0362369774543106
 40
0.0681861034134424
 40
0.1022285454798563
 40
0.1366974796173689
 40
0.1739234821168325
 40
0.2142117990477226
 40
0.2569981507549243
 40
0.3009958903975706
 40
0.3449540481406867
 40
0.3884596860912785
 40
0.4314969349015866
 40
0.474144764649108
 40
0.5164933406628143
 40
0.5580652259202282
 40
0.5994455197916545
 40
0.6408705999562505
 40
0.6823473885881849
 40
0.7238627988806979
 40
0.7653751529178238
 40
0.8068382056591282
 40
0.8482011018677802
 40
0.889413376783171
 40
0.9304296883914295
 40
0.9711781995221789
 40
1.0
 40
1.0
 40
1.0
 40
1.0
 10
5.07651982974055
 20
5.063815496948382
 30
0.0
 10
5.076508097947598
 20
5.064064732245882
 30
0.0
 10
5.076344979005611
 20
5.067530101793372
 30
0.0
 10
5.074942794525048
 20
5.07510163107132
 30
0.0
 10
5.071523544750775
 20
5.086289723647479
 30
0.0
 10
5.065892117910388
 20
5.097388838778904
 30
0.0
 10
5.058445059972053
 20
5.107805063187933
 30
0.0
 10
5.049028632417138
 20
5.117883899421102
 30
0.0
 10
5.037361537202485
 20
5.12775033732417
 30
0.0
 10
5.023340633474197
 20
5.137362081427857
 30
0.0
 10
5.007101568686219
 20
5.146566217014978
 30
0.0
 10
4.988918838980083
 20
5.155243696618249
 30
0.0
 10
4.969046717782355
 20
5.163347976918784
 30
0.0
 10
4.947617575596205
 20
5.170897235713281
 30
0.0
 10
4.924703409991913
 20
5.177918384549256
 30
0.0
 10
4.900477097788542
 20
5.184403652359099
 30
0.0
 10
4.875002140385758
 20
5.190360192915675
 30
0.0
 10
4.848363443854625
 20
5.195801934867502
 30
0.0
 10
4.820503382390731
 20
5.200760599753035
 30
0.0
 10
4.791482730813781
 20
5.205232021758559
 30
0.0
 10
4.76142660507172
 20
5.209200927080815
 30
0.0
 10
4.730478391896665
 20
5.212650308321924
 30
0.0
 10
4.698796834518569
 20
5.215564813253732
 30
0.0
 10
4.666548260120826
 20
5.217929203466219
 30
0.0
 10
4.633905617300314
 20
5.219737203836803
 30
0.0
 10
4.60104610162826
 20
5.220963280293932
 30
0.0
 10
4.571295508619425
 20
5.221599955727235
 30
0.0
 10
4.552534939066045
 20
5.221715345120985
 30
0.0
 10
4.544762753200901
 20
5.221763148990294
 30
0.0
  0
LINE
  5
B0
330
1F
100
AcDbEntity
  8
0
  6
Continuous
 62
     7
370
    25
100
AcDbLine
 10
5.0762541461
 20
4.2685938368
 30
0.0
 11
5.0762547695
 21
4.2688109009
 31
0.0
  0
LINE
  5
B1
330
1F
100
AcDbEntity
  8
0
  6
Continuous
 62
     7
370
    25
100
AcDbLine
 10
4.0132627626
 20
4.2688109009
 30
0.0
 11
4.0132633859
 21
4.2685938368
 31
0.0
  0
ARC
  5
B2
330
1F
100
AcDbEntity
  8
0
  6
Continuous
 62
     7
370
    25
100
AcDbCircle
 10
3.9840808672
 20
4.90690664
 30
0.0
 40
0.036057477299738
100
AcDbArc
 50
111.1176191271
 51
180.8095989772
  0
ARC
  5
B3
330
1F
100
AcDbEntity
  8
0
  6
Continuous
 62
     7
370
    25
100
AcDbCircle
 10
3.9715349669
 20
4.9094909264
 30
0.0
 40
0.0310548600848044
100
AcDbArc
 50
1.028961374
 51
90.8210846203
  0
ARC
  5
B4
330
1F
100
AcDbEntity
  8
0
  6
Continuous
 62
     7
370
    25
100
AcDbCircle
 10
3.9695885758
 20
4.9936479886
 30
0.0
 40
0.0898755211799781
100
AcDbArc
 50
256.1190669332
 51
291.5388922393
  0
ARC
  5
B5
330
1F
100
AcDbEntity
  8
0
  6
Continuous
 62
     7
370
    25
100
AcDbCircle
 10
5.1179825651
 20
4.9094909264
 30
0.0
 40
0.031054860084804
100
AcDbArc
 50
89.1789153797
 51
178.971038626
  0
ARC
  5
B6
330
1F
100
AcDbEntity
  8
0
  6
Continuous
 62
     7
370
    25
100
AcDbCircle
 10
5.1054366648
 20
4.90690664
 30
0.0
 40
0.0360574772997388
100
AcDbArc
 50
359.1904010228
 51
68.8823808729
  0
ARC
  5
B7
330
1F
100
AcDbEntity
  8
0
  6
Continuous
 62
     7
370
    25
100
AcDbCircle
 10
5.1199289562
 20
4.9936479886
 30
0.0
 40
0.0898755211799782
100
AcDbArc
 50
248.4611077607
 51
283.8809330668
  0
LWPOLYLINE
  5
B8
330
1F
100
AcDbEntity
  8
0
  6
Continuous
 62
     7
370
    25
100
AcDbPolyline
 90
        3
 70
   128
 43
0.0
 10
5.0881158224
 20
3.3658424421
 10
5.0876099383
 20
4.0261118679
 10
5.0869327128
 20
4.9100486033
  0
LWPOLYLINE
  5
B9
330
1F
100
AcDbEntity
  8
0
  6
Continuous
 62
     7
370
    25
100
AcDbPolyline
 90
        5
 70
   128
 43
0.0
 10
5.1414905425
 20
4.9063971588
 10
5.1415361187
 20
4.8443694437
 10
5.1417185699
 20
4.5962587213
 10
5.1424475681
 20
3.6038155263
 10
5.1426240061
 20
3.3621819777
  0
ARC
  5
BA
330
1F
100
AcDbEntity
  8
0
  6
Continuous
 62
     7
370
    25
100
AcDbCircle
 10
5.1211038194
 20
3.4493961172
 30
0.0
 40
0.0898299758606387
100
AcDbArc
 50
248.4552964972
 51
283.8609127919
  0
LWPOLYLINE
  5
BB
330
1F
100
AcDbEntity
  8
0
  6
Continuous
 62
     7
370
    25
100
AcDbPolyline
 90
        5
 70
   128
 43
0.0
 10
3.9480269895
 20
4.9063971588
 10
3.9479814134
 20
4.8443694437
 10
3.9477989622
 20
4.5962587213
 10
3.9470699639
 20
3.6038155263
 10
3.9468935259
 20
3.3621819777
  0
LWPOLYLINE
  5
BC
330
1F
100
AcDbEntity
  8
0
  6
Continuous
 62
     7
370
    25
100
AcDbPolyline
 90
        3
 70
   128
 43
0.0
 10
4.0014017096
 20
3.3658424421
 10
4.0019075938
 20
4.0261118679
 10
4.0025848193
 20
4.9100486033
  0
ARC
  5
BD
330
1F
100
AcDbEntity
  8
0
  6
Continuous
 62
     7
370
    25
100
AcDbCircle
 10
3.9684137127
 20
3.4493961172
 30
0.0
 40
0.0898299758606424
100
AcDbArc
 50
256.1390872081
 51
291.5447035028
  0
LINE
  5
BE
330
1F
100
AcDbEntity
  8
0
  6
Continuous
 62
     7
370
    25
100
AcDbLine
 10
5.2911293306
 20
3.3572848343
 30
0.0
 11
5.2856225008
 21
5.0379891886
 31
0.0
  0
SPLINE
  5
BF
330
1F
100
AcDbEntity
  8
0
  6
Continuous
 62
     7
370
    25
100
AcDbSpline
210
0.0
220
0.0
230
1.0
 70
     8
 71
     3
 72
    28
 73
    24
 74
     0
 42
0.000000001
 43
0.00000001
 40
0.0
 40
0.0
 40
0.0
 40
0.0
 40
0.1250000000000011
 40
0.1250000000000011
 40
0.1875000000000016
 40
0.1875000000000016
 40
0.2500000000000022
 40
0.2500000000000022
 40
0.3750000000000016
 40
0.3750000000000016
 40
0.500000000000001
 40
0.500000000000001
 40
0.6250000000000004
 40
0.6250000000000004
 40
0.7499999999999998
 40
0.7499999999999998
 40
0.8749999999999992
 40
0.8749999999999992
 40
0.9374999999999989
 40
0.9374999999999989
 40
0.9687499999999996
 40
0.9687499999999996
 40
1.0
 40
1.0
 40
1.0
 40
1.0
 10
5.142624022534428
 20
3.362181906457824
 30
0.0
 10
5.157934390731698
 20
3.362162925547509
 30
0.0
 10
5.17172147598575
 20
3.362117459251774
 30
0.0
 10
5.190444931514398
 20
3.362005931152064
 30
0.0
 10
5.196357007677139
 20
3.361962105743185
 30
0.0
 10
5.207384987577873
 20
3.361862560937674
 30
0.0
 10
5.21252925173144
 20
3.361806565518321
 30
0.0
 10
5.226969177032966
 20
3.361619820576896
 30
0.0
 10
5.235269920973213
 20
3.361467646323876
 30
0.0
 10
5.24980506468999
 20
3.361101934453039
 30
0.0
 10
5.25606116615347
 20
3.360894322843659
 30
0.0
 10
5.266746526943773
 20
3.360449934205961
 30
0.0
 10
5.271188212606119
 20
3.360209812184555
 30
0.0
 10
5.278560020285707
 20
3.359697126640548
 30
0.0
 10
5.281506905164542
 20
3.359425569037556
 30
0.0
 10
5.286155924793827
 20
3.358864834500155
 30
0.0
 10
5.287854502599977
 20
3.358573738507159
 30
0.0
 10
5.289612267088571
 20
3.358120614979665
 30
0.0
 10
5.290068367334409
 20
3.357969432229468
 30
0.0
 10
5.290563032587951
 20
3.357734521591622
 30
0.0
 10
5.290697599298771
 20
3.357652524414532
 30
0.0
 10
5.290931327606955
 20
3.357477359817519
 30
0.0
 10
5.29103188134855
 20
3.357382964253941
 30
0.0
 10
5.291129295317545
 20
3.357284787393803
 30
0.0
  0
SPLINE
  5
C0
330
1F
100
AcDbEntity
  8
0
  6
Continuous
 62
     7
370
    25
100
AcDbSpline
210
0.0
220
0.0
230
1.0
 70
     8
 71
     3
 72
    24
 73
    20
 74
     0
 42
0.000000001
 43
0.00000001
 40
0.0
 40
0.0
 40
0.0
 40
0.0
 40
0.0624999999999999
 40
0.0624999999999999
 40
0.1249999999999998
 40
0.1249999999999998
 40
0.2499999999999997
 40
0.2499999999999997
 40
0.4999999999999997
 40
0.4999999999999997
 40
0.6249999999999996
 40
0.6249999999999996
 40
0.7499999999999994
 40
0.7499999999999994
 40
0.8749999999999994
 40
0.8749999999999994
 40
0.9374999999999998
 40
0.9374999999999998
 40
1.0
 40
1.0
 40
1.0
 40
1.0
 10
5.285622509278635
 20
5.037989188098764
 30
0.0
 10
5.285434746176017
 20
5.035058885310532
 30
0.0
 10
5.28523129220464
 20
5.032096845563651
 30
0.0
 10
5.284655749159965
 20
5.026228375053574
 30
0.0
 10
5.284262648550956
 20
5.023303738765383
 30
0.0
 10
5.2827363128028
 20
5.014533630034529
 30
0.0
 10
5.281261849301956
 20
5.008705626779262
 30
0.0
 10
5.275105535532477
 20
4.99129090146533
 30
0.0
 10
5.26879571423486
 20
4.979767761408605
 30
0.0
 10
5.253862182310525
 20
4.962717486327092
 30
0.0
 10
5.247933787509359
 20
4.95705599683455
 30
0.0
 10
5.233782263545257
 20
4.94590220816981
 30
0.0
 10
5.225642523828978
 20
4.940480547226273
 30
0.0
 10
5.206741383425575
 20
4.930011310365284
 30
0.0
 10
5.195987760958823
 20
4.924962042533524
 30
0.0
 10
5.177463664165996
 20
4.917723774016074
 30
0.0
 10
5.170889133510907
 20
4.915366498522043
 30
0.0
 10
5.156850167652191
 20
4.910774810215097
 30
0.0
 10
5.149352514780436
 20
4.908532554608385
 30
0.0
 10
5.14149055685689
 20
4.9063971576139
 30
0.0
  0
SPLINE
  5
C1
330
1F
100
AcDbEntity
  8
0
  6
Continuous
 62
     7
370
    25
100
AcDbSpline
210
0.0
220
0.0
230
1.0
 70
     8
 71
     3
 72
    28
 73
    24
 74
     0
 42
0.000000001
 43
0.00000001
 40
0.0
 40
0.0
 40
0.0
 40
0.0
 40
0.1250000000000011
 40
0.1250000000000011
 40
0.1875000000000016
 40
0.1875000000000016
 40
0.2500000000000022
 40
0.2500000000000022
 40
0.3750000000000016
 40
0.3750000000000016
 40
0.500000000000001
 40
0.500000000000001
 40
0.6250000000000004
 40
0.6250000000000004
 40
0.7499999999999998
 40
0.7499999999999998
 40
0.8749999999999992
 40
0.8749999999999992
 40
0.9374999999999989
 40
0.9374999999999989
 40
0.9687499999999996
 40
0.9687499999999996
 40
1.0
 40
1.0
 40
1.0
 40
1.0
 10
3.94689350951171
 20
3.362181906457824
 30
0.0
 10
3.93158314131444
 20
3.362162925547509
 30
0.0
 10
3.917796056060388
 20
3.362117459251774
 30
0.0
 10
3.899072600531739
 20
3.362005931152064
 30
0.0
 10
3.893160524368999
 20
3.361962105743185
 30
0.0
 10
3.882132544468265
 20
3.361862560937674
 30
0.0
 10
3.876988280314698
 20
3.361806565518321
 30
0.0
 10
3.862548355013171
 20
3.361619820576896
 30
0.0
 10
3.854247611072925
 20
3.361467646323876
 30
0.0
 10
3.839712467356148
 20
3.361101934453039
 30
0.0
 10
3.833456365892668
 20
3.360894322843659
 30
0.0
 10
3.822771005102365
 20
3.360449934205961
 30
0.0
 10
3.818329319440019
 20
3.360209812184555
 30
0.0
 10
3.810957511760432
 20
3.359697126640548
 30
0.0
 10
3.808010626881596
 20
3.359425569037556
 30
0.0
 10
3.803361607252311
 20
3.358864834500155
 30
0.0
 10
3.80166302944616
 20
3.358573738507159
 30
0.0
 10
3.799905264957567
 20
3.358120614979665
 30
0.0
 10
3.799449164711728
 20
3.357969432229468
 30
0.0
 10
3.798954499458188
 20
3.357734521591622
 30
0.0
 10
3.798819932747366
 20
3.357652524414532
 30
0.0
 10
3.798586204439184
 20
3.35747735981752
 30
0.0
 10
3.798485650604289
 20
3.357382963465522
 30
0.0
 10
3.798388236728592
 20
3.357284787393803
 30
0.0
  0
LINE
  5
C2
330
1F
100
AcDbEntity
  8
0
  6
Continuous
 62
     7
370
    25
100
AcDbLine
 10
3.7983882015
 20
3.3572848343
 30
0.0
 11
3.8038950312
 21
5.0379891886
 31
0.0
  0
SPLINE
  5
C3
330
1F
100
AcDbEntity
  8
0
  6
Continuous
 62
     7
370
    25
100
AcDbSpline
210
0.0
220
0.0
230
1.0
 70
     8
 71
     3
 72
    24
 73
    20
 74
     0
 42
0.000000001
 43
0.00000001
 40
0.0
 40
0.0
 40
0.0
 40
0.0
 40
0.0624999999999999
 40
0.0624999999999999
 40
0.1249999999999998
 40
0.1249999999999998
 40
0.2499999999999997
 40
0.2499999999999997
 40
0.4999999999999997
 40
0.4999999999999997
 40
0.6249999999999996
 40
0.6249999999999996
 40
0.7499999999999994
 40
0.7499999999999994
 40
0.8749999999999994
 40
0.8749999999999994
 40
0.9374999999999998
 40
0.9374999999999998
 40
1.0
 40
1.0
 40
1.0
 40
1.0
 10
3.803895022767502
 20
5.037989188098764
 30
0.0
 10
3.804082784827053
 20
5.03505888567399
 30
0.0
 10
3.804286239841498
 20
5.032096845563651
 30
0.0
 10
3.804861782886172
 20
5.026228375053574
 30
0.0
 10
3.805254883495182
 20
5.023303738765383
 30
0.0
 10
3.806781219243338
 20
5.014533630034529
 30
0.0
 10
3.808255682744182
 20
5.008705626779262
 30
0.0
 10
3.81441199651366
 20
4.99129090146533
 30
0.0
 10
3.820721817811278
 20
4.979767761408605
 30
0.0
 10
3.835655349735613
 20
4.962717486327092
 30
0.0
 10
3.841583744536779
 20
4.95705599683455
 30
0.0
 10
3.855735268500879
 20
4.94590220816981
 30
0.0
 10
3.86387500821716
 20
4.940480547226273
 30
0.0
 10
3.882776148620563
 20
4.930011310365284
 30
0.0
 10
3.893529771087315
 20
4.924962042533524
 30
0.0
 10
3.912053867880141
 20
4.917723774016074
 30
0.0
 10
3.918628398535231
 20
4.915366498522043
 30
0.0
 10
3.932667364393947
 20
4.910774810215097
 30
0.0
 10
3.940165017265702
 20
4.908532554608385
 30
0.0
 10
3.948026975189247
 20
4.9063971576139
 30
0.0
  0
ARC
  5
C4
330
1F
100
AcDbEntity
  8
0
  6
Continuous
 62
     7
370
    25
100
AcDbCircle
 10
5.2544973899
 20
5.0372716206
 30
0.0
 40
0.031133381393468
100
AcDbArc
 50
1.3206809033
 51
90.6740899754
  0
SPLINE
  5
C5
330
1F
100
AcDbEntity
  8
0
  6
Continuous
 62
     7
370
    25
100
AcDbSpline
210
0.0
220
0.0
230
1.0
 70
     8
 71
     3
 72
    22
 73
    18
 74
     0
 42
0.000000001
 43
0.00000001
 40
0.0
 40
0.0
 40
0.0
 40
0.0
 40
0.0625000000000001
 40
0.0625000000000001
 40
0.1250000000000003
 40
0.1250000000000003
 40
0.2500000000000007
 40
0.2500000000000007
 40
0.3750000000000011
 40
0.3750000000000011
 40
0.5000000000000014
 40
0.5000000000000014
 40
0.7500000000000007
 40
0.7500000000000007
 40
0.8750000000000003
 40
0.8750000000000003
 40
1.0
 40
1.0
 40
1.0
 40
1.0
 10
5.118427580867754
 20
4.940542607276092
 30
0.0
 10
5.125981333087124
 20
4.942652728108861
 30
0.0
 10
5.133137449634639
 20
4.94486242486956
 30
0.0
 10
5.146511032854029
 20
4.949387481852404
 30
0.0
 10
5.15275659702453
 20
4.951709881712548
 30
0.0
 10
5.17031418455469
 20
4.958837077301451
 30
0.0
 10
5.180454033223225
 20
4.963800928648478
 30
0.0
 10
5.198223356644082
 20
4.974069270906204
 30
0.0
 10
5.205846340644316
 20
4.979374642564963
 30
0.0
 10
5.219082022539379
 20
4.990258167151187
 30
0.0
 10
5.224583185685657
 20
4.995742925191021
 30
0.0
 10
5.238470530750289
 20
5.012275515992423
 30
0.0
 10
5.244334075194349
 20
5.023410143103544
 30
0.0
 10
5.250058520288906
 20
5.040214214325328
 30
0.0
 10
5.251430177484535
 20
5.045833413936673
 30
0.0
 10
5.25332665196379
 20
5.057099977225582
 30
0.0
 10
5.253769238827828
 20
5.062750075709276
 30
0.0
 10
5.254131122820493
 20
5.068402858196148
 30
0.0
  0
ARC
  5
C6
330
1F
100
AcDbEntity
  8
0
  6
Continuous
 62
     7
370
    25
100
AcDbCircle
 10
3.8350201422
 20
5.0372716206
 30
0.0
 40
0.031133381393468
100
AcDbArc
 50
89.3259100246
 51
178.6793190967
  0
SPLINE
  5
C7
330
1F
100
AcDbEntity
  8
0
  6
Continuous
 62
     7
370
    25
100
AcDbSpline
210
0.0
220
0.0
230
1.0
 70
     8
 71
     3
 72
    22
 73
    18
 74
     0
 42
0.000000001
 43
0.00000001
 40
0.0
 40
0.0
 40
0.0
 40
0.0
 40
0.0625000000000001
 40
0.0625000000000001
 40
0.1250000000000003
 40
0.1250000000000003
 40
0.2500000000000007
 40
0.2500000000000007
 40
0.3750000000000011
 40
0.3750000000000011
 40
0.5000000000000014
 40
0.5000000000000014
 40
0.7500000000000007
 40
0.7500000000000007
 40
0.8750000000000003
 40
0.8750000000000003
 40
1.0
 40
1.0
 40
1.0
 40
1.0
 10
3.971089951178385
 20
4.940542607276092
 30
0.0
 10
3.963536198959015
 20
4.942652728108861
 30
0.0
 10
3.956380082411499
 20
4.94486242486956
 30
0.0
 10
3.943006499192108
 20
4.949387481852404
 30
0.0
 10
3.936760935021607
 20
4.951709881712548
 30
0.0
 10
3.919203347491448
 20
4.958837077301451
 30
0.0
 10
3.909063498822913
 20
4.963800928648478
 30
0.0
 10
3.891294175402057
 20
4.974069270906204
 30
0.0
 10
3.883671191401822
 20
4.979374642564963
 30
0.0
 10
3.870435509506759
 20
4.990258167151187
 30
0.0
 10
3.864934346360481
 20
4.995742925191021
 30
0.0
 10
3.851047001295848
 20
5.012275515992423
 30
0.0
 10
3.845183456851789
 20
5.023410143103544
 30
0.0
 10
3.839459011757231
 20
5.040214214325328
 30
0.0
 10
3.838087354561603
 20
5.045833413936673
 30
0.0
 10
3.836190880082347
 20
5.057099977225582
 30
0.0
 10
3.835748293218309
 20
5.062750075709276
 30
0.0
 10
3.835386409225644
 20
5.068402858196148
 30
0.0
  0
LINE
  5
C8
330
1F
100
AcDbEntity
  8
0
  6
Continuous
 62
     7
370
    25
100
AcDbLine
 10
3.9738926407
 20
5.0236637241
 30
0.0
 11
3.9710899464
 21
4.9405425977
 31
0.0
  0
SPLINE
  5
C9
330
1F
100
AcDbEntity
  8
0
  6
Continuous
 62
     7
370
    25
100
AcDbSpline
210
0.0
220
0.0
230
1.0
 70
     8
 71
     3
 72
    10
 73
     6
 74
     0
 42
0.000000001
 43
0.00000001
 40
0.0
 40
0.0
 40
0.0
 40
0.0
 40
0.5
 40
0.5
 40
1.0
 40
1.0
 40
1.0
 40
1.0
 10
4.005390192365965
 20
4.993206599062651
 30
0.0
 10
4.005389784406165
 20
5.001182827651197
 30
0.0
 10
4.001995173260219
 20
5.009109895265691
 30
0.0
 10
3.990334145494718
 20
5.020396750941611
 30
0.0
 10
3.982139526835889
 20
5.023687190561195
 30
0.0
 10
3.973894142242691
 20
5.023699083447405
 30
0.0
  0
LINE
  5
CA
330
1F
100
AcDbEntity
  8
0
  6
Continuous
 62
     7
370
    25
100
AcDbLine
 10
4.0025848193
 20
4.9100486033
 30
0.0
 11
4.0053886869
 21
4.993205076
 31
0.0
  0
SPLINE
  5
CB
330
1F
100
AcDbEntity
  8
0
  6
Continuous
 62
     7
370
    25
100
AcDbSpline
210
0.0
220
0.0
230
1.0
 70
     8
 71
     3
 72
    10
 73
     6
 74
     0
 42
0.000000001
 43
0.00000001
 40
0.0
 40
0.0
 40
0.0
 40
0.0
 40
0.5
 40
0.5
 40
1.0
 40
1.0
 40
1.0
 40
1.0
 10
5.115623708481783
 20
5.023699083451276
 30
0.0
 10
5.107378372441447
 20
5.023680459879063
 30
0.0
 10
5.099183809801128
 20
5.020383185092183
 30
0.0
 10
5.087523143746561
 20
5.009093080000192
 30
0.0
 10
5.084128844763225
 20
5.001169772273577
 30
0.0
 10
5.084128844763226
 20
4.993205085974936
 30
0.0
  0
LINE
  5
CC
330
1F
100
AcDbEntity
  8
0
  6
Continuous
 62
     7
370
    25
100
AcDbLine
 10
5.1156248913
 20
5.0236637241
 30
0.0
 11
5.1184275856
 21
4.9405425977
 31
0.0
  0
LINE
  5
CD
330
1F
100
AcDbEntity
  8
0
  6
Continuous
 62
     7
370
    25
100
AcDbLine
 10
5.0869327128
 20
4.9100486033
 30
0.0
 11
5.0841288452
 21
4.993205076
 31
0.0
  0
LINE
  5
CE
330
1F
100
AcDbEntity
  8
0
  6
Continuous
 62
     7
370
    25
100
AcDbLine
 10
3.8353864208
 20
5.0684028473
 30
0.0
 11
3.8076120349
 21
5.5022505221
 31
0.0
  0
LINE
  5
CF
330
1F
100
AcDbEntity
  8
0
  6
Continuous
 62
     7
370
    25
100
AcDbLine
 10
5.2819054971
 20
5.5022505221
 30
0.0
 11
3.8076120349
 21
5.5022505221
 31
0.0
  0
LINE
  5
D0
330
1F
100
AcDbEntity
  8
0
  6
Continuous
 62
     7
370
    25
100
AcDbLine
 10
5.2541311113
 20
5.0684028473
 30
0.0
 11
5.2819054971
 21
5.5022505221
 31
0.0
  0
LINE
  5
D1
330
1F
100
AcDbEntity
  8
0
  6
Continuous
 62
     7
370
    25
100
AcDbLine
 10
5.0841288452
 20
4.993205846
 30
0.0
 11
5.0841288452
 21
3.3575478046
 31
0.0
  0
LINE
  5
D2
330
1F
100
AcDbEntity
  8
0
  6
Continuous
 62
     7
370
    25
100
AcDbLine
 10
5.0841288452
 20
3.3575478046
 30
0.0
 11
5.0881158224
 21
3.3658424421
 31
0.0
  0
LINE
  5
D3
330
1F
100
AcDbEntity
  8
0
  6
Continuous
 62
     7
370
    25
100
AcDbLine
 10
4.0053886869
 20
4.993205846
 30
0.0
 11
4.0053886869
 21
3.3575478046
 31
0.0
  0
LINE
  5
D4
330
1F
100
AcDbEntity
  8
0
  6
Continuous
 62
     7
370
    25
100
AcDbLine
 10
4.0053886869
 20
3.3575478046
 30
0.0
 11
4.0014017096
 21
3.3658424421
 31
0.0
  0
ARC
  5
D5
330
1F
100
AcDbEntity
  8
0
  6
Continuous
 62
     7
370
    25
100
AcDbCircle
 10
5.1150449732
 20
3.3616264105
 30
0.0
 40
0.0275846281701871
100
AcDbArc
 50
279.5272634538
 51
1.1540415695
  0
ARC
  5
D6
330
1F
100
AcDbEntity
  8
0
  6
Continuous
 62
     7
370
    25
100
AcDbCircle
 10
5.1196143407
 20
3.365920874
 30
0.0
 40
0.0314986158543633
100
AcDbArc
 50
180.1426673513
 51
269.9933690941
  0
ARC
  5
D7
330
1F
100
AcDbEntity
  8
0
  6
Continuous
 62
     7
370
    25
100
AcDbCircle
 10
3.9699031914
 20
3.365920874
 30
0.0
 40
0.0314986158543633
100
AcDbArc
 50
270.0066309059
 51
359.8573326487
  0
ARC
  5
D8
330
1F
100
AcDbEntity
  8
0
  6
Continuous
 62
     7
370
    25
100
AcDbCircle
 10
3.9744725589
 20
3.3616264105
 30
0.0
 40
0.027584628170188
100
AcDbArc
 50
178.8459584305
 51
260.4727365462
  0
LINE
  5
D9
330
1F
100
AcDbEntity
  8
0
  6
Continuous
 62
     7
370
    25
100
AcDbLine
 10
4.0053901902
 20
4.993206616
 30
0.0
 11
4.0054488928
 21
4.9944785679
 31
0.0
  0
ARC
  5
DA
330
1F
100
AcDbEntity
  8
0
  6
Continuous
 62
     7
370
    25
100
AcDbCircle
 10
5.2596268004
 20
3.3572868064
 30
0.0
 40
0.0315025301684863
100
AcDbArc
 50
270.0202620979
 51
359.9964132163
  0
SPLINE
  5
DB
330
1F
100
AcDbEntity
  8
0
  6
Continuous
 62
     7
370
    25
100
AcDbSpline
210
0.0
220
0.0
230
1.0
 70
     8
 71
     3
 72
    20
 73
    16
 74
     0
 42
0.000000001
 43
0.00000001
 40
0.0
 40
0.0
 40
0.0
 40
0.0
 40
0.1250000000000003
 40
0.1250000000000003
 40
0.2500000000000006
 40
0.2500000000000006
 40
0.5000000000000012
 40
0.5000000000000012
 40
0.6250000000000009
 40
0.6250000000000009
 40
0.7500000000000004
 40
0.7500000000000004
 40
0.8750000000000001
 40
0.8750000000000001
 40
1.0
 40
1.0
 40
1.0
 40
1.0
 10
5.259637908729533
 20
3.325784330860349
 30
0.0
 10
5.259260609458229
 20
3.326166402180248
 30
0.0
 10
5.25876005747046
 20
3.326548212461597
 30
0.0
 10
5.256577891413447
 20
3.327309331637364
 30
0.0
 10
5.254998730764732
 20
3.327688857519236
 30
0.0
 10
5.248527279158175
 20
3.328823762767671
 30
0.0
 10
5.241992680310893
 20
3.329575663868737
 30
0.0
 10
5.227128444998538
 20
3.330692793930084
 30
0.0
 10
5.221286551239388
 20
3.331064411905967
 30
0.0
 10
5.207691582044681
 20
3.331791327719869
 30
0.0
 10
5.199924211198593
 20
3.332147746041325
 30
0.0
 10
5.181850481751847
 20
3.332842154315561
 30
0.0
 10
5.171505313240267
 20
3.333181478456605
 30
0.0
 10
5.14778895779507
 20
3.33383095253021
 30
0.0
 10
5.134561126734008
 20
3.334137851764439
 30
0.0
 10
5.119610700604383
 20
3.334422316627951
 30
0.0
  0
SPLINE
  5
DC
330
1F
100
AcDbEntity
  8
0
  6
Continuous
 62
     7
370
    25
100
AcDbSpline
210
0.0
220
0.0
230
1.0
 70
     8
 71
     3
 72
    20
 73
    16
 74
     0
 42
0.000000001
 43
0.00000001
 40
0.0
 40
0.0
 40
0.0
 40
0.0
 40
0.1250000000000003
 40
0.1250000000000003
 40
0.2500000000000006
 40
0.2500000000000006
 40
0.5000000000000012
 40
0.5000000000000012
 40
0.6250000000000009
 40
0.6250000000000009
 40
0.7500000000000004
 40
0.7500000000000004
 40
0.8750000000000001
 40
0.8750000000000001
 40
1.0
 40
1.0
 40
1.0
 40
1.0
 10
3.829879623316605
 20
3.325784330860349
 30
0.0
 10
3.830256922587909
 20
3.326166402180248
 30
0.0
 10
3.830757474575678
 20
3.326548212461597
 30
0.0
 10
3.832939640632691
 20
3.327309331637364
 30
0.0
 10
3.834518801281406
 20
3.327688857519236
 30
0.0
 10
3.840990252887962
 20
3.328823762767671
 30
0.0
 10
3.847524851735245
 20
3.329575663868737
 30
0.0
 10
3.8623890870476
 20
3.330692793930084
 30
0.0
 10
3.868230980806751
 20
3.331064411905967
 30
0.0
 10
3.881825950001457
 20
3.331791327719869
 30
0.0
 10
3.889593320847545
 20
3.332147746041325
 30
0.0
 10
3.907667050294291
 20
3.332842154315561
 30
0.0
 10
3.918012218805871
 20
3.333181478456605
 30
0.0
 10
3.941728574251067
 20
3.33383095253021
 30
0.0
 10
3.95495640531213
 20
3.334137851764439
 30
0.0
 10
3.969906831441755
 20
3.334422316627951
 30
0.0
  0
ARC
  5
DD
330
1F
100
AcDbEntity
  8
0
  6
Continuous
 62
     7
370
    25
100
AcDbCircle
 10
3.8298907316
 20
3.3572868064
 30
0.0
 40
0.0315025301684864
100
AcDbArc
 50
180.0035867837
 51
269.9797379021
  0
SPLINE
  5
DE
330
1F
100
AcDbEntity
  8
0
  6
Continuous
 62
     7
370
    25
100
AcDbSpline
210
0.0
220
0.0
230
1.0
 70
     8
 71
     3
 72
    10
 73
     6
 74
     0
 42
0.000000001
 43
0.00000001
 40
0.0
 40
0.0
 40
0.0
 40
0.0
 40
0.0055855254775907
 40
0.7488545043706832
 40
0.9999999999999999
 40
0.9999999999999999
 40
0.9999999999999999
 40
0.9999999999999999
 10
4.013262689244436
 20
3.894422415877043
 30
0.0
 10
4.013229524251165
 20
3.894411563441602
 30
0.0
 10
4.008783075175359
 20
3.892956571391804
 30
0.0
 10
4.006832995724163
 20
3.890957985969894
 30
0.0
 10
4.005886457849267
 20
3.888983031405365
 30
0.0
 10
4.005647403883528
 20
3.888484244475306
 30
0.0
  0
SPLINE
  5
DF
330
1F
100
AcDbEntity
  8
0
  6
Continuous
 62
     7
370
    25
100
AcDbSpline
210
0.0
220
0.0
230
1.0
 70
     8
 71
     3
 72
    14
 73
    10
 74
     0
 42
0.000000001
 43
0.00000001
 40
0.0007999801053017
 40
0.0007999801053017
 40
0.0007999801053017
 40
0.0007999801053017
 40
0.013349742844119
 40
0.013349742844119
 40
0.013349742844119
 40
0.021599749680552
 40
0.021599749680552
 40
0.021599749680552
 40
0.0298497572958165
 40
0.0298497572958165
 40
0.0298497572958165
 40
0.0298497572958165
 10
4.005390192404918
 20
4.993205842554948
 30
0.0
 10
4.005398383565847
 20
4.834122641396597
 30
0.0
 10
4.005411578535301
 20
4.675039440260613
 30
0.0
 10
4.005433686416376
 20
4.515956240338776
 30
0.0
 10
4.005448219772416
 20
4.411377571026547
 30
0.0
 10
4.005466627586715
 20
4.306798902095673
 30
0.0
 10
4.005490305859268
 20
4.202220234342242
 30
0.0
 10
4.005513984133247
 20
4.097641560285952
 30
0.0
 10
4.005537165697155
 20
3.993062863705625
 30
0.0
 10
4.005647422215385
 20
3.888484241376267
 30
0.0
  0
SPLINE
  5
E0
330
1F
100
AcDbEntity
  8
0
  6
Continuous
 62
     7
370
    25
100
AcDbSpline
210
0.0
220
0.0
230
1.0
 70
     8
 71
     3
 72
    14
 73
    10
 74
     0
 42
0.000000001
 43
0.00000001
 40
0.0007999801053017
 40
0.0007999801053017
 40
0.0007999801053017
 40
0.0007999801053017
 40
0.013349742844119
 40
0.013349742844119
 40
0.013349742844119
 40
0.021599749680552
 40
0.021599749680552
 40
0.021599749680552
 40
0.0298497572958165
 40
0.0298497572958165
 40
0.0298497572958165
 40
0.0298497572958165
 10
5.084127339641221
 20
4.993205842554948
 30
0.0
 10
5.084119148480291
 20
4.834122641396597
 30
0.0
 10
5.084105953510837
 20
4.675039440260613
 30
0.0
 10
5.084083845629761
 20
4.515956240338776
 30
0.0
 10
5.084069312273722
 20
4.411377571026547
 30
0.0
 10
5.084050904459422
 20
4.306798902095673
 30
0.0
 10
5.08402722618687
 20
4.202220234342242
 30
0.0
 10
5.084003547912892
 20
4.097641560285952
 30
0.0
 10
5.083980366348983
 20
3.993062863705625
 30
0.0
 10
5.083870109830753
 20
3.888484241376267
 30
0.0
  0
SPLINE
  5
E1
330
1F
100
AcDbEntity
  8
0
  6
Continuous
 62
     7
370
    25
100
AcDbSpline
210
0.0
220
0.0
230
1.0
 70
     8
 71
     3
 72
    10
 73
     6
 74
     0
 42
0.000000001
 43
0.00000001
 40
0.0
 40
0.0
 40
0.0
 40
0.0
 40
0.0055855254775907
 40
0.7488545043706832
 40
0.9999999999999999
 40
0.9999999999999999
 40
0.9999999999999999
 40
0.9999999999999999
 10
5.076254842801702
 20
3.894422415877043
 30
0.0
 10
5.076288007794972
 20
3.894411563441602
 30
0.0
 10
5.080734456870779
 20
3.892956571391804
 30
0.0
 10
5.082684536321975
 20
3.890957985969894
 30
0.0
 10
5.083631074196871
 20
3.888983031405365
 30
0.0
 10
5.083870128162609
 20
3.888484244475306
 30
0.0
  0
LINE
  5
E2
330
1F
100
AcDbEntity
  8
0
  6
Continuous
 62
     7
370
    25
100
AcDbLine
 10
5.1196106953
 20
3.3344222584
 30
0.0
 11
5.1155503489
 21
3.3259749426
 31
0.0
  0
LINE
  5
E3
330
1F
100
AcDbEntity
  8
0
  6
Continuous
 62
     7
370
    25
100
AcDbLine
 10
3.9699068368
 20
3.3344222584
 30
0.0
 11
3.9739671832
 21
3.3259749426
 31
0.0
  0
LINE
  5
E4
330
1F
100
AcDbEntity
  8
0
  6
Continuous
 62
     7
370
    25
100
AcDbLine
 10
3.9739671832
 20
3.3259749426
 30
0.0
 11
3.9742511999
 21
3.3259749426
 31
0.0
  0
SPLINE
  5
E5
330
1F
100
AcDbEntity
  8
0
  6
Continuous
 62
     7
370
    25
100
AcDbSpline
210
0.0
220
0.0
230
1.0
 70
     8
 71
     3
 72
    20
 73
    16
 74
     0
 42
0.000000001
 43
0.00000001
 40
0.0
 40
0.0
 40
0.0
 40
0.0
 40
0.009051142339336
 40
0.0929050477822992
 40
0.1764898235413253
 40
0.2600708586669874
 40
0.343914876540943
 40
0.4274905593250909
 40
0.495932502152402
 40
0.5643758338962501
 40
0.6476747553610535
 40
0.7312382030439273
 40
0.8145335174782401
 40
0.907268673901031
 40
1.0
 40
1.0
 40
1.0
 40
1.0
 10
3.988771398836579
 20
3.323985138950477
 30
0.0
 10
3.989177207497863
 20
3.323945250639571
 30
0.0
 10
3.993342612443839
 20
3.323535818847235
 30
0.0
 10
4.007912397608516
 20
3.322784645409886
 30
0.0
 10
4.032683780557212
 20
3.321748773290849
 30
0.0
 10
4.064811999006309
 20
3.320773042698321
 30
0.0
 10
4.102707293849953
 20
3.319864347029661
 30
0.0
 10
4.143595239947381
 20
3.31908481693775
 30
0.0
 10
4.185915385344334
 20
3.318430571749141
 30
0.0
 10
4.231409547645023
 20
3.317846469178583
 30
0.0
 10
4.283502953291628
 20
3.317313194596877
 30
0.0
 10
4.342143517466613
 20
3.316856520777606
 30
0.0
 10
4.405646839126885
 20
3.316506454515692
 30
0.0
 10
4.473463457546121
 20
3.316273861803471
 30
0.0
 10
4.52099399040359
 20
3.316243306098326
 30
0.0
 10
4.544758766023069
 20
3.316228028561278
 30
0.0
  0
SPLINE
  5
E6
330
1F
100
AcDbEntity
  8
0
  6
Continuous
 62
     7
370
    25
100
AcDbSpline
210
0.0
220
0.0
230
1.0
 70
     8
 71
     3
 72
    20
 73
    16
 74
     0
 42
0.000000001
 43
0.00000001
 40
0.0
 40
0.0
 40
0.0
 40
0.0
 40
0.0100104347585355
 40
0.093783165057908
 40
0.1772870262055227
 40
0.2607871503409101
 40
0.3445500026429798
 40
0.4280447796182108
 40
0.496420466920424
 40
0.5647975417946273
 40
0.6480158253705316
 40
0.7314983790887325
 40
0.814713059125948
 40
0.9073584428709041
 40
1.0
 40
1.0
 40
1.0
 40
1.0
 10
5.100880074995585
 20
3.323997898803074
 30
0.0
 10
5.100431959636651
 20
3.323953748592616
 30
0.0
 10
5.096233772676182
 20
3.323540125550805
 30
0.0
 10
5.081614125877619
 20
3.322784567791934
 30
0.0
 10
5.056831345785418
 20
3.321748794057909
 30
0.0
 10
5.024706180267001
 20
3.320773037111179
 30
0.0
 10
4.986810064015976
 20
3.319864348533258
 30
0.0
 10
4.945922329391639
 20
3.319084816615823
 30
0.0
 10
4.903602137621704
 20
3.318430571827524
 30
0.0
 10
4.858107987428043
 20
3.317846469152454
 30
0.0
 10
4.806014577874405
 20
3.317313194604474
 30
0.0
 10
4.747374014813897
 20
3.316856520775582
 30
0.0
 10
4.683870692848891
 20
3.3165064545163
 30
0.0
 10
4.616054074518385
 20
3.316273861803312
 30
0.0
 10
4.568523541648671
 20
3.316243306098273
 30
0.0
 10
4.544758766023069
 20
3.316228028561278
 30
0.0
  0
LINE
  5
E7
330
1F
100
AcDbEntity
  8
0
  6
Continuous
 62
     7
370
    25
100
AcDbLine
 10
5.1155503489
 20
3.3259749426
 30
0.0
 11
5.1152663321
 21
3.3259749426
 31
0.0
  0
LINE
  5
E8
330
1F
100
AcDbEntity
  8
0
  6
Continuous
 62
     7
370
    25
100
AcDbLine
 10
5.2824802771
 20
3.3026531587
 30
0.0
 11
5.259637941
 21
3.3257842782
 31
0.0
  0
LINE
  5
E9
330
1F
100
AcDbEntity
  8
0
  6
Continuous
 62
     7
370
    25
100
AcDbLine
 10
3.8070372549
 20
3.3026531587
 30
0.0
 11
5.2824802771
 21
3.3026531587
 31
0.0
  0
LINE
  5
EA
330
1F
100
AcDbEntity
  8
0
  6
Continuous
 62
     7
370
    25
100
AcDbLine
 10
3.8070372549
 20
3.3026531587
 30
0.0
 11
3.829879591
 21
3.3257842782
 31
0.0
  0
SPLINE
  5
EB
330
1F
100
AcDbEntity
  8
0
  6
Continuous
 62
     7
370
    25
100
AcDbSpline
210
0.0
220
0.0
230
1.0
 70
     8
 71
     3
 72
    12
 73
     8
 74
     0
 42
0.000000001
 43
0.00000001
 40
0.0
 40
0.0
 40
0.0
 40
0.0
 40
0.2500000000000021
 40
0.2500000000000021
 40
0.5000000000000042
 40
0.5000000000000042
 40
1.0
 40
1.0
 40
1.0
 40
1.0
 10
5.083893893866328
 20
3.357570384008212
 30
0.0
 10
5.083893701430243
 20
3.353482618335446
 30
0.0
 10
5.084665415247179
 20
3.349478890311989
 30
0.0
 10
5.087711284273727
 20
3.341896944696512
 30
0.0
 10
5.089963275739985
 20
3.338413558863476
 30
0.0
 10
5.098568051368252
 20
3.329554921580472
 30
0.0
 10
5.106791748517457
 20
3.325974988351451
 30
0.0
 10
5.115266345515455
 20
3.325974988351451
 30
0.0
  0
LWPOLYLINE
  5
EC
330
1F
100
AcDbEntity
  8
0
  6
Continuous
 62
     7
370
    25
100
AcDbPolyline
 90
        4
 70
   128
 43
0.0
 10
5.0838701282
 20
3.8884842445
 10
5.0838927512
 20
3.6472488912
 10
5.0838970045
 20
3.4866119536
 10
5.0838938879
 20
3.357570391
  0
SPLINE
  5
ED
330
1F
100
AcDbEntity
  8
0
  6
Continuous
 62
     7
370
    25
100
AcDbSpline
210
0.0
220
0.0
230
1.0
 70
     8
 71
     3
 72
    12
 73
     8
 74
     0
 42
0.000000001
 43
0.00000001
 40
0.0
 40
0.0
 40
0.0
 40
0.0
 40
0.2500000000000021
 40
0.2500000000000021
 40
0.5000000000000042
 40
0.5000000000000042
 40
1.0
 40
1.0
 40
1.0
 40
1.0
 10
4.00562363817981
 20
3.357570384008212
 30
0.0
 10
4.005623830615893
 20
3.353482618335446
 30
0.0
 10
4.004852116798959
 20
3.349478890311989
 30
0.0
 10
4.001806247772412
 20
3.341896944696512
 30
0.0
 10
3.999554256306154
 20
3.338413558863476
 30
0.0
 10
3.990949480677886
 20
3.329554921580472
 30
0.0
 10
3.982725783528681
 20
3.325974988351451
 30
0.0
 10
3.974251186530683
 20
3.325974988351451
 30
0.0
  0
LWPOLYLINE
  5
EE
330
1F
100
AcDbEntity
  8
0
  6
Continuous
 62
     7
370
    25
100
AcDbPolyline
 90
        4
 70
   128
 43
0.0
 10
4.0056474039
 20
3.8884842445
 10
4.0056247808
 20
3.6472488912
 10
4.0056205275
 20
3.4866119536
 10
4.0056236442
 20
3.357570391
  0
ELLIPSE
  5
EF
330
1F
100
AcDbEntity
  8
0
  6
Continuous
 62
     7
370
    25
100
AcDbEllipse
 10
5.2818530636
 20
5.4710085495
 30
0.0
 11
0.03143171899457631
 21
-0.002012218936874532
 31
0.0
210
0.0
220
0.0
230
1.0
 40
0.9919026442
 41
0.0664914340014135
 42
1.632546584670535
  0
LINE
  5
F0
330
1F
100
AcDbEntity
  8
0
  6
Continuous
 62
     7
370
    25
100
AcDbLine
 10
5.3133479739
 20
5.4710722623
 30
0.0
 11
5.2856225008
 21
5.0379891886
 31
0.0
  0
LINE
  5
F1
330
1F
100
AcDbEntity
  8
0
  6
Continuous
 62
     7
370
    25
100
AcDbLine
 10
3.7761695582
 20
5.4710722623
 30
0.0
 11
3.8038950312
 21
5.0379891886
 31
0.0
  0
ELLIPSE
  5
F2
330
1F
100
AcDbEntity
  8
0
  6
Continuous
 62
     7
370
    25
100
AcDbEllipse
 10
3.8076644685
 20
5.4710085495
 30
0.0
 11
0.0314317189945772
 21
0.002012218936874533
 31
0.0
210
0.0
220
0.0
230
1.0
 40
0.9919026442
 41
1.509046068919247
 42
3.07510121958838
  0
LINE
  5
F3
330
1F
100
AcDbEntity
  8
0
  6
Continuous
 62
     7
370
    25
100
AcDbLine
 10
5.3139715933
 20
3.3341535682
 30
0.0
 11
5.3133479739
 21
5.4710722623
 31
0.0
  0
LINE
  5
F4
330
1F
100
AcDbEntity
  8
0
  6
Continuous
 62
     7
370
    25
100
AcDbLine
 10
5.2911293306
 20
3.3572848343
 30
0.0
 11
5.3139715933
 21
3.3341535682
 31
0.0
  0
LINE
  5
F5
330
1F
100
AcDbEntity
  8
0
  6
Continuous
 62
     7
370
    25
100
AcDbLine
 10
3.7983882015
 20
3.3572848343
 30
0.0
 11
3.7755459387
 21
3.3341535682
 31
0.0
  0
LINE
  5
F6
330
1F
100
AcDbEntity
  8
0
  6
Continuous
 62
     7
370
    25
100
AcDbLine
 10
3.7761695582
 20
5.4710722623
 30
0.0
 11
3.7755459387
 21
3.3341535682
 31
0.0
  0
LINE
  5
F7
330
1F
100
AcDbEntity
  8
0
  6
Continuous
 62
     7
370
    25
100
AcDbLine
 10
4.544758766
 20
3.3162280286
 30
0.0
 11
4.544758766
 21
3.3395674123
 31
0.0
  0
ELLIPSE
  5
F8
330
1F
100
AcDbEntity
  8
0
  6
Continuous
 62
     7
370
    25
100
AcDbEllipse
 10
3.8070408359
 20
3.3341479605
 30
0.0
 11
0.02241058678521846
 21
-0.02213069325498296
 31
0.0
210
0.0
220
0.0
230
1.0
 40
0.9999248434
 41
3.920565532410789
 42
5.491352921968415
  0
ELLIPSE
  5
F9
330
1F
100
AcDbEntity
  8
0
  6
Continuous
 62
     7
370
    25
100
AcDbEllipse
 10
5.2824766961
 20
3.3341479605
 30
0.0
 11
0.02241058678521846
 21
0.02213069325498296
 31
0.0
210
0.0
220
0.0
230
1.0
 40
0.9999248434
 41
3.933425038800954
 42
5.504212428358628
  0
LINE
  5
FA
330
1F
100
AcDbEntity
  8
0
  6
Continuous
 62
     7
370
    25
100
AcDbLine
 10
5.04475876
 20
4.9619325472
 30
0.0
 11
5.04475876
 21
4.9978246559
 31
0.0
  0
ARC
  5
FB
330
1F
100
AcDbEntity
  8
0
  6
Continuous
 62
     7
370
    25
100
AcDbCircle
 10
5.0452862383
 20
4.9668557293
 30
0.0
 40
0.030973418448019
100
AcDbArc
 50
1.0101831855
 51
90.9757961861
  0
ARC
  5
FC
330
1F
100
AcDbEntity
  8
0
  6
Continuous
 62
     7
370
    25
100
AcDbCircle
 10
5.0523952728
 20
5.0113795216
 30
0.0
 40
0.050033185010808
100
AcDbArc
 50
261.2206907179
 51
298.4814948314
  0
ARC
  5
FD
330
1F
100
AcDbEntity
  8
0
  6
Continuous
 62
     7
370
    25
100
AcDbCircle
 10
5.0501089809
 20
4.9649354249
 30
0.0
 40
0.0406687806341965
100
AcDbArc
 50
126.0299585555
 51
183.0260497231
  0
LINE
  5
FE
330
1F
100
AcDbEntity
  8
0
  6
Continuous
 62
     7
370
    25
100
AcDbLine
 10
5.0261872712
 20
4.9619325472
 30
0.0
 11
5.0261872712
 21
4.9978246559
 31
0.0
  0
ARC
  5
FF
330
1F
100
AcDbEntity
  8
0
  6
Continuous
 62
     7
370
    25
100
AcDbCircle
 10
5.0259243998
 20
5.1199550296
 30
0.0
 40
0.1580227010066317
100
AcDbArc
 50
264.0329485837
 51
270.0953118082
  0
LINE
  5
100
330
1F
100
AcDbEntity
  8
0
  6
Continuous
 62
     7
370
    25
100
AcDbLine
 10
5.04475876
 20
4.9619325472
 30
0.0
 11
5.0261872712
 21
4.9619325472
 31
0.0
  0
LINE
  5
101
330
1F
100
AcDbEntity
  8
0
  6
Continuous
 62
     7
370
    25
100
AcDbLine
 10
5.0261872712
 20
4.9978246559
 30
0.0
 11
5.04475876
 21
4.9978246559
 31
0.0
  0
ARC
  5
102
330
1F
100
AcDbEntity
  8
0
  6
Continuous
 62
     7
370
    25
100
AcDbCircle
 10
4.0442312937
 20
4.9668557293
 30
0.0
 40
0.0309734184480172
100
AcDbArc
 50
89.0242038139
 51
178.9898168145
  0
LINE
  5
103
330
1F
100
AcDbEntity
  8
0
  6
Continuous
 62
     7
370
    25
100
AcDbLine
 10
4.0447587721
 20
4.9619325472
 30
0.0
 11
4.0447587721
 21
4.9978246559
 31
0.0
  0
ARC
  5
104
330
1F
100
AcDbEntity
  8
0
  6
Continuous
 62
     7
370
    25
100
AcDbCircle
 10
4.0371222593
 20
5.0113795216
 30
0.0
 40
0.050033185010797
100
AcDbArc
 50
241.5185051686
 51
278.7793092821
  0
LINE
  5
105
330
1F
100
AcDbEntity
  8
0
  6
Continuous
 62
     7
370
    25
100
AcDbLine
 10
4.0633302609
 20
4.9619325472
 30
0.0
 11
4.0633302609
 21
4.9978246559
 31
0.0
  0
ARC
  5
106
330
1F
100
AcDbEntity
  8
0
  6
Continuous
 62
     7
370
    25
100
AcDbCircle
 10
4.0394085511
 20
4.9649354249
 30
0.0
 40
0.0406687806341922
100
AcDbArc
 50
356.9739502769
 51
53.9700414445
  0
ARC
  5
107
330
1F
100
AcDbEntity
  8
0
  6
Continuous
 62
     7
370
    25
100
AcDbCircle
 10
4.0635931323
 20
5.1199550296
 30
0.0
 40
0.1580227010066486
100
AcDbArc
 50
269.9046881918
 51
275.9670514163
  0
LINE
  5
108
330
1F
100
AcDbEntity
  8
0
  6
Continuous
 62
     7
370
    25
100
AcDbLine
 10
4.0633302609
 20
4.9978246559
 30
0.0
 11
4.0447587721
 21
4.9978246559
 31
0.0
  0
LINE
  5
109
330
1F
100
AcDbEntity
  8
0
  6
Continuous
 62
     7
370
    25
100
AcDbLine
 10
4.0447587721
 20
4.9619325472
 30
0.0
 11
4.0633302609
 21
4.9619325472
 31
0.0
  0
LINE
  5
10A
330
1F
100
AcDbEntity
  8
0
  6
Continuous
 62
     7
370
    25
100
AcDbLine
 10
4.0824709197
 20
3.3704186825
 30
0.0
 11
4.0800206247
 21
4.9627885207
 31
0.0
  0
ARC
  5
10B
330
1F
100
AcDbEntity
  8
0
  6
Continuous
 62
     7
370
    25
100
AcDbCircle
 10
4.0660428628
 20
3.5276029679
 30
0.0
 40
0.1580404398090625
100
AcDbArc
 50
269.9049035367
 51
275.9665849912
  0
LINE
  5
10C
330
1F
100
AcDbEntity
  8
0
  6
Continuous
 62
     7
370
    25
100
AcDbLine
 10
4.0633302609
 20
4.9619325472
 30
0.0
 11
4.0657805559
 21
3.3695627458
 31
0.0
  0
LINE
  5
10D
330
1F
100
AcDbEntity
  8
0
  6
Continuous
 62
     7
370
    25
100
AcDbLine
 10
5.0261872712
 20
4.9619325472
 30
0.0
 11
5.0237369762
 21
3.3695627458
 31
0.0
  0
ARC
  5
10E
330
1F
100
AcDbEntity
  8
0
  6
Continuous
 62
     7
370
    25
100
AcDbCircle
 10
5.0234746692
 20
3.5276029679
 30
0.0
 40
0.1580404398090599
100
AcDbArc
 50
264.0334150088
 51
270.0950964633
  0
LINE
  5
10F
330
1F
100
AcDbEntity
  8
0
  6
Continuous
 62
     7
370
    25
100
AcDbLine
 10
5.0070466123
 20
3.3704186825
 30
0.0
 11
5.0094969073
 21
4.9627885207
 31
0.0
  0
LINE
  5
110
330
1F
100
AcDbEntity
  8
0
  6
Continuous
 62
     7
370
    25
100
AcDbLine
 10
5.0762548428
 20
4.9674017941
 30
0.0
 11
5.0762548428
 21
3.3750320293
 31
0.0
  0
ARC
  5
111
330
1F
100
AcDbEntity
  8
0
  6
Continuous
 62
     7
370
    25
100
AcDbCircle
 10
5.052395288
 20
3.4190093379
 30
0.0
 40
0.0500328095546114
100
AcDbArc
 50
261.2206067247
 51
298.4817083218
  0
LINE
  5
112
330
1F
100
AcDbEntity
  8
0
  6
Continuous
 62
     7
370
    25
100
AcDbLine
 10
5.04475876
 20
3.3695627458
 30
0.0
 11
5.04475876
 21
4.9619325472
 31
0.0
  0
LINE
  5
113
330
1F
100
AcDbEntity
  8
0
  6
Continuous
 62
     7
370
    25
100
AcDbLine
 10
4.0657805559
 20
3.3695627458
 30
0.0
 11
4.0447587721
 21
3.3695627458
 31
0.0
  0
LINE
  5
114
330
1F
100
AcDbEntity
  8
0
  6
Continuous
 62
     7
370
    25
100
AcDbLine
 10
4.0447587721
 20
3.3695627458
 30
0.0
 11
4.0447587721
 21
4.9619325472
 31
0.0
  0
ARC
  5
115
330
1F
100
AcDbEntity
  8
0
  6
Continuous
 62
     7
370
    25
100
AcDbCircle
 10
4.0371222441
 20
3.4190093379
 30
0.0
 40
0.0500328095546006
100
AcDbArc
 50
241.5182916782
 51
278.7793932753
  0
LINE
  5
116
330
1F
100
AcDbEntity
  8
0
  6
Continuous
 62
     7
370
    25
100
AcDbLine
 10
4.0132626892
 20
4.9674017941
 30
0.0
 11
4.0132626892
 21
3.3750320293
 31
0.0
  0
LINE
  5
117
330
1F
100
AcDbEntity
  8
0
  6
Continuous
 62
     7
370
    25
100
AcDbLine
 10
5.0237369762
 20
3.3695627458
 30
0.0
 11
5.04475876
 21
3.3695627458
 31
0.0
  0
LINE
  5
118
330
1F
100
AcDbEntity
  8
0
  6
Continuous
 62
     7
370
    25
100
AcDbLine
 10
5.0094969073
 20
4.9627885207
 30
0.0
 11
4.9381295118
 21
4.9743756768
 31
0.0
  0
ARC
  5
119
330
1F
100
AcDbEntity
  8
0
  6
Continuous
 62
     7
370
    25
100
AcDbCircle
 10
4.9787415854
 20
4.976522581
 30
0.0
 40
0.0406687806341914
100
AcDbArc
 50
126.0299585555
 51
183.0260497231
  0
LINE
  5
11A
330
1F
100
AcDbEntity
  8
0
  6
Continuous
 62
     7
370
    25
100
AcDbLine
 10
4.9548198756
 20
5.0094118121
 30
0.0
 11
5.0261872712
 21
4.9978246559
 31
0.0
  0
LINE
  5
11B
330
1F
100
AcDbEntity
  8
0
  6
Continuous
 62
     7
370
    25
100
AcDbLine
 10
4.1346976564
 20
5.0094118121
 30
0.0
 11
4.0633302609
 21
4.9978246559
 31
0.0
  0
ARC
  5
11C
330
1F
100
AcDbEntity
  8
0
  6
Continuous
 62
     7
370
    25
100
AcDbCircle
 10
4.1107759467
 20
4.976522581
 30
0.0
 40
0.0406687806341956
100
AcDbArc
 50
356.9739502769
 51
53.9700414445
  0
LINE
  5
11D
330
1F
100
AcDbEntity
  8
0
  6
Continuous
 62
     7
370
    25
100
AcDbLine
 10
4.0800206247
 20
4.9627885207
 30
0.0
 11
4.1513880203
 21
4.9743756768
 31
0.0
  0
LINE
  5
11E
330
1F
100
AcDbEntity
  8
0
  6
Continuous
 62
     7
370
    25
100
AcDbLine
 10
4.9381295118
 20
4.9743756768
 30
0.0
 11
4.9357744023
 21
3.4438540542
 31
0.0
  0
LINE
  5
11F
330
1F
100
AcDbEntity
  8
0
  6
Continuous
 62
     7
370
    25
100
AcDbLine
 10
4.9647977137
 20
3.3704186825
 30
0.0
 11
5.0070466123
 21
3.3704186825
 31
0.0
  0
LINE
  5
120
330
1F
100
AcDbEntity
  8
0
  6
Continuous
 62
     7
370
    25
100
AcDbLine
 10
4.9535180407
 20
3.3899261505
 30
0.0
 11
4.9647977137
 21
3.3704186825
 31
0.0
  0
LINE
  5
121
330
1F
100
AcDbEntity
  8
0
  6
Continuous
 62
     7
370
    25
100
AcDbLine
 10
4.9473773616
 20
3.4005460145
 30
0.0
 11
4.9535180407
 21
3.3899261505
 31
0.0
  0
ELLIPSE
  5
122
330
1F
100
AcDbEntity
  8
0
  6
Continuous
 62
     7
370
    25
100
AcDbEllipse
 10
5.022873454
 20
3.4434512593
 30
0.0
 11
0.08512036334361905
 21
-0.01859942624470667
 31
0.0
210
0.0
220
0.0
230
1.0
 40
0.9925285837
 41
3.353631778864223
 42
3.877240999554169
  0
LINE
  5
123
330
1F
100
AcDbEntity
  8
0
  6
Continuous
 62
     7
370
    25
100
AcDbLine
 10
4.1421401704
 20
3.4005460145
 30
0.0
 11
4.1359994914
 21
3.3899261505
 31
0.0
  0
LINE
  5
124
330
1F
100
AcDbEntity
  8
0
  6
Continuous
 62
     7
370
    25
100
AcDbLine
 10
4.1359994914
 20
3.3899261505
 30
0.0
 11
4.1247198183
 21
3.3704186825
 31
0.0
  0
LINE
  5
125
330
1F
100
AcDbEntity
  8
0
  6
Continuous
 62
     7
370
    25
100
AcDbLine
 10
4.1247198183
 20
3.3704186825
 30
0.0
 11
4.0824709197
 21
3.3704186825
 31
0.0
  0
LINE
  5
126
330
1F
100
AcDbEntity
  8
0
  6
Continuous
 62
     7
370
    25
100
AcDbLine
 10
4.1513880203
 20
4.9743756768
 30
0.0
 11
4.1537431297
 21
3.4438540542
 31
0.0
  0
ELLIPSE
  5
127
330
1F
100
AcDbEntity
  8
0
  6
Continuous
 62
     7
370
    25
100
AcDbEllipse
 10
4.066644078
 20
3.4434512593
 30
0.0
 11
0.08512036334361905
 21
0.01859942624470712
 31
0.0
210
0.0
220
0.0
230
1.0
 40
0.9925285837
 41
5.54753696121523
 42
6.07114618190518
  0
LINE
  5
128
330
1F
100
AcDbEntity
  8
0
  6
Continuous
 62
     7
370
    25
100
AcDbLine
 10
4.9545518087
 20
5.0176427237
 30
0.0
 11
4.9548198756
 21
5.0094118121
 31
0.0
  0
LWPOLYLINE
  5
129
330
1F
100
AcDbEntity
  8
0
  6
Continuous
 62
     7
370
    25
100
AcDbPolyline
 90
       62
 70
   128
 43
0.0
 10
4.1349657233
 20
5.0176427237
 10
4.1169485915
 20
5.0252981586
 10
4.1010627583
 20
5.0332634599
 10
4.0873873496
 20
5.0414989548
 10
4.0759904546
 20
5.049963577
 10
4.0669289426
 20
5.058615197
 10
4.0602478398
 20
5.0674106954
 10
4.0559805491
 20
5.076306256
 10
4.0541482269
 20
5.0852575492
 10
4.0547600765
 20
5.0942200257
 10
4.0578130179
 20
5.1031489892
 10
4.0632918346
 20
5.1120000003
 10
4.071169247
 20
5.1207289128
 10
4.0814059854
 20
5.1292922772
 10
4.0939510838
 20
5.1376474507
 10
4.1087420263
 20
5.1457527437
 10
4.1257051503
 20
5.1535678235
 10
4.1447559402
 20
5.1610537503
 10
4.1657994671
 20
5.1681732347
 10
4.1887309022
 20
5.1748907838
 10
4.2134359935
 20
5.1811729579
 10
4.2397917074
 20
5.186988444
 10
4.2676667053
 20
5.1923082759
 10
4.2969221324
 20
5.1971059805
 10
4.3274122402
 20
5.2013576147
 10
4.3589851388
 20
5.2050419855
 10
4.39148353
 20
5.2081407964
 10
4.4247455141
 20
5.2106385742
 10
4.4586053871
 20
5.2125228891
 10
4.4928944522
 20
5.2137843178
 10
4.5274419055
 20
5.2144166272
 10
4.5620756265
 20
5.2144166272
 10
4.5966230798
 20
5.2137843178
 10
4.6309121449
 20
5.2125228891
 10
4.664772018
 20
5.2106385742
 10
4.698034002
 20
5.2081407964
 10
4.7305323933
 20
5.2050419855
 10
4.7621052919
 20
5.2013576147
 10
4.7925953997
 20
5.1971059805
 10
4.8218508267
 20
5.1923082759
 10
4.8497258247
 20
5.186988444
 10
4.8760815386
 20
5.1811729579
 10
4.9007866298
 20
5.1748907838
 10
4.9237180649
 20
5.1681732347
 10
4.9447615918
 20
5.1610537503
 10
4.9638123817
 20
5.1535678235
 10
4.9807755058
 20
5.1457527437
 10
4.9955664483
 20
5.1376474507
 10
5.0081115467
 20
5.1292922772
 10
5.0183482851
 20
5.1207289128
 10
5.0262256974
 20
5.1120000003
 10
5.0317045141
 20
5.1031489892
 10
5.0347574555
 20
5.0942200257
 10
5.0353693051
 20
5.0852575492
 10
5.0335369829
 20
5.076306256
 10
5.0292696922
 20
5.0674106954
 10
5.0225885894
 20
5.058615197
 10
5.0135270774
 20
5.049963577
 10
5.0021301824
 20
5.0414989548
 10
4.9884547737
 20
5.0332634599
 10
4.9725689406
 20
5.0252981586
 10
4.9545518087
 20
5.0176427237
  0
LINE
  5
12A
330
1F
100
AcDbEntity
  8
0
  6
Continuous
 62
     7
370
    25
100
AcDbLine
 10
4.1349657233
 20
5.0176427237
 30
0.0
 11
4.1346976564
 21
5.0094118121
 31
0.0
  0
LINE
  5
12B
330
1F
100
AcDbEntity
  8
0
  6
Continuous
 62
     7
370
    25
100
AcDbLine
 10
4.0447587721
 20
4.9978246559
 30
0.0
 11
4.0447587721
 21
5.0914149115
 31
0.0
  0
SPLINE
  5
12C
330
1F
100
AcDbEntity
  8
0
  6
Continuous
 62
     7
370
    25
100
AcDbSpline
210
0.0
220
0.0
230
1.0
 70
     8
 71
     3
 72
    28
 73
    24
 74
     0
 42
0.000000001
 43
0.00000001
 40
0.0
 40
0.0
 40
0.0
 40
0.0
 40
0.1249999999999999
 40
0.1249999999999999
 40
0.2499999999999999
 40
0.2499999999999999
 40
0.3124999999999999
 40
0.3124999999999999
 40
0.3749999999999998
 40
0.3749999999999998
 40
0.4999999999999998
 40
0.4999999999999998
 40
0.5625
 40
0.5625
 40
0.6250000000000001
 40
0.6250000000000001
 40
0.7500000000000001
 40
0.7500000000000001
 40
0.8125000000000001
 40
0.8125000000000001
 40
0.875
 40
0.875
 40
1.0
 40
1.0
 40
1.0
 40
1.0
 10
4.044758766023069
 20
5.09141492494247
 30
0.0
 10
4.04479664206157
 20
5.099953416461322
 30
0.0
 10
4.048170301361291
 20
5.108498198725339
 30
0.0
 10
4.061042857266836
 20
5.125061702465654
 30
0.0
 10
4.070500530827317
 20
5.133116825807177
 30
0.0
 10
4.089358998033199
 20
5.144849077163077
 30
0.0
 10
4.096476170017367
 20
5.148719826082634
 30
0.0
 10
4.112009436694625
 20
5.156194148773788
 30
0.0
 10
4.120435234787795
 20
5.159809703569811
 30
0.0
 10
4.147634830255242
 20
5.170301749097562
 30
0.0
 10
4.168304759169005
 20
5.17682843044942
 30
0.0
 10
4.203356968590437
 20
5.185871780061086
 30
0.0
 10
4.215657773788044
 20
5.188740744304562
 30
0.0
 10
4.241065630483899
 20
5.194107191169347
 30
0.0
 10
4.254173859757399
 20
5.196607832763545
 30
0.0
 10
4.294665221037101
 20
5.203582889138779
 30
0.0
 10
4.323200141936422
 20
5.207537157365561
 30
0.0
 10
4.368406527446725
 20
5.212382914160465
 30
0.0
 10
4.383973278350685
 20
5.21382214122638
 30
0.0
 10
4.415438606741541
 20
5.216284090165052
 30
0.0
 10
4.43130162273915
 20
5.217307219428106
 30
0.0
 10
4.479269931529882
 20
5.219771878034715
 30
0.0
 10
4.511749406442991
 20
5.220616776118749
 30
0.0
 10
4.544758766023069
 20
5.220616776118749
 30
0.0
  0
SPLINE
  5
12D
330
1F
100
AcDbEntity
  8
0
  6
Continuous
 62
     7
370
    25
100
AcDbSpline
210
0.0
220
0.0
230
1.0
 70
     8
 71
     3
 72
    28
 73
    24
 74
     0
 42
0.000000001
 43
0.00000001
 40
0.0
 40
0.0
 40
0.0
 40
0.0
 40
0.1249999999999998
 40
0.1249999999999998
 40
0.2499999999999996
 40
0.2499999999999996
 40
0.3124999999999994
 40
0.3124999999999994
 40
0.3749999999999993
 40
0.3749999999999993
 40
0.4999999999999988
 40
0.4999999999999988
 40
0.5624999999999989
 40
0.5624999999999989
 40
0.6249999999999989
 40
0.6249999999999989
 40
0.7499999999999992
 40
0.7499999999999992
 40
0.8124999999999996
 40
0.8124999999999996
 40
0.8749999999999998
 40
0.8749999999999998
 40
1.0
 40
1.0
 40
1.0
 40
1.0
 10
5.044758766023069
 20
5.09141492494247
 30
0.0
 10
5.044720889984569
 20
5.099953416461322
 30
0.0
 10
5.041347230684847
 20
5.108498198725339
 30
0.0
 10
5.028474674779302
 20
5.125061702465654
 30
0.0
 10
5.019017001218821
 20
5.133116825807177
 30
0.0
 10
5.000158534012938
 20
5.144849077163075
 30
0.0
 10
4.993041362028771
 20
5.148719826082633
 30
0.0
 10
4.977508095351513
 20
5.156194148773788
 30
0.0
 10
4.969082297258343
 20
5.159809703569811
 30
0.0
 10
4.941882701790896
 20
5.170301749097562
 30
0.0
 10
4.921212772877132
 20
5.17682843044942
 30
0.0
 10
4.8861605634557
 20
5.185871780061087
 30
0.0
 10
4.873859758258094
 20
5.188740744304562
 30
0.0
 10
4.848451901562238
 20
5.194107191169347
 30
0.0
 10
4.835343672288738
 20
5.196607832763545
 30
0.0
 10
4.794852311009037
 20
5.203582889138779
 30
0.0
 10
4.766317390109716
 20
5.207537157365562
 30
0.0
 10
4.721111004599413
 20
5.212382914160465
 30
0.0
 10
4.705544253695453
 20
5.21382214122638
 30
0.0
 10
4.674078925304595
 20
5.216284090165051
 30
0.0
 10
4.658215909306987
 20
5.217307219428106
 30
0.0
 10
4.610247600516256
 20
5.219771878034717
 30
0.0
 10
4.577768125603146
 20
5.220616776118749
 30
0.0
 10
4.544758766023069
 20
5.220616776118749
 30
0.0
  0
LINE
  5
12E
330
1F
100
AcDbEntity
  8
0
  6
Continuous
 62
     7
370
    25
100
AcDbLine
 10
5.04475876
 20
4.9978246559
 30
0.0
 11
5.04475876
 21
5.0914149115
 31
0.0
  0
LINE
  5
12F
330
1F
100
AcDbEntity
  8
0
  6
Continuous
 62
     7
370
    25
100
AcDbLine
 10
4.0132626892
 20
5.0609966695
 30
0.0
 11
4.0132626892
 21
4.9674017941
 31
0.0
  0
LINE
  5
130
330
1F
100
AcDbEntity
  8
0
  6
Continuous
 62
     7
370
    25
100
AcDbLine
 10
4.0132626892
 20
5.0609966695
 30
0.0
 11
4.013829806
 21
5.0637501944
 31
0.0
  0
LINE
  5
131
330
1F
100
AcDbEntity
  8
0
  6
Continuous
 62
     7
370
    25
100
AcDbLine
 10
5.0762548428
 20
5.0609966695
 30
0.0
 11
5.0757063891
 21
5.0636596654
 31
0.0
  0
LINE
  5
132
330
1F
100
AcDbEntity
  8
0
  6
Continuous
 62
     7
370
    25
100
AcDbLine
 10
5.0762548428
 20
5.0609966695
 30
0.0
 11
5.0762548428
 21
4.9674017941
 31
0.0
  0
ARC
  5
133
330
1F
100
AcDbEntity
  8
0
  6
Continuous
 62
     7
370
    25
100
AcDbCircle
 10
4.1351438413
 20
4.9783599591
 30
0.0
 40
0.0310550584195603
100
AcDbArc
 50
1.1605516271
 51
90.8232278891
  0
ARC
  5
134
330
1F
100
AcDbEntity
  8
0
  6
Continuous
 62
     7
370
    25
100
AcDbCircle
 10
4.1531668511
 20
4.9947285073
 30
0.0
 40
0.0204304172340264
100
AcDbArc
 50
265.0050596866
 51
309.610337649
  0
ARC
  5
135
330
1F
100
AcDbEntity
  8
0
  6
Continuous
 62
     7
370
    25
100
AcDbCircle
 10
4.9363506809
 20
4.9947285073
 30
0.0
 40
0.0204304172340325
100
AcDbArc
 50
230.389662351
 51
274.9949403134
  0
ARC
  5
136
330
1F
100
AcDbEntity
  8
0
  6
Continuous
 62
     7
370
    25
100
AcDbCircle
 10
4.9543736907
 20
4.9783599591
 30
0.0
 40
0.0310550584195609
100
AcDbArc
 50
89.1767721109
 51
178.8394483729
  0
ARC
  5
137
330
1F
100
AcDbEntity
  8
0
  6
Continuous
 62
     7
370
    25
100
AcDbCircle
 10
4.9339956725
 20
3.4642072092
 30
0.0
 40
0.0204307316704297
100
AcDbArc
 50
230.3900240517
 51
274.9945786127
  0
LINE
  5
138
330
1F
100
AcDbEntity
  8
0
  6
Continuous
 62
     7
370
    25
100
AcDbLine
 10
4.9209698933
 20
3.4484673276
 30
0.0
 11
4.9233250028
 21
4.9789889502
 31
0.0
  0
LINE
  5
139
330
1F
100
AcDbEntity
  8
0
  6
Continuous
 62
     7
370
    25
100
AcDbLine
 10
4.1685476387
 20
3.4484673276
 30
0.0
 11
4.1661925293
 21
4.9789889502
 31
0.0
  0
ARC
  5
13A
330
1F
100
AcDbEntity
  8
0
  6
Continuous
 62
     7
370
    25
100
AcDbCircle
 10
4.1555218595
 20
3.4642072092
 30
0.0
 40
0.0204307316704353
100
AcDbArc
 50
265.0054213873
 51
309.6099759483
  0
SPLINE
  5
13B
330
1F
100
AcDbEntity
  8
0
  6
Continuous
 62
     7
370
    25
100
AcDbSpline
210
0.0
220
0.0
230
1.0
 70
     8
 71
     3
 72
    14
 73
    10
 74
     0
 42
0.000000001
 43
0.00000001
 40
0.0
 40
0.0
 40
0.0
 40
0.0
 40
0.25
 40
0.25
 40
0.5
 40
0.5
 40
0.75
 40
0.75
 40
1.0
 40
1.0
 40
1.0
 40
1.0
 10
4.923011844519544
 20
4.991151109765712
 30
0.0
 10
4.92321282626738
 20
4.995118323766534
 30
0.0
 10
4.92422076764263
 20
4.998903469625207
 30
0.0
 10
4.927663805063168
 20
5.005732362992107
 30
0.0
 10
4.930096163567439
 20
5.008738754766892
 30
0.0
 10
4.935921658759078
 20
5.013519583856664
 30
0.0
 10
4.939359679489157
 20
5.01532666636832
 30
0.0
 10
4.946661932375445
 20
5.017523936802694
 30
0.0
 10
4.950649263520573
 20
5.01794087193074
 30
0.0
 10
4.954551805787569
 20
5.017642720735752
 30
0.0
  0
LINE
  5
13C
330
1F
100
AcDbEntity
  8
0
  6
Continuous
 62
     7
370
    25
100
AcDbLine
 10
4.9233250028
 20
4.9789889502
 30
0.0
 11
4.9229741802
 21
4.9897608691
 31
0.0
  0
SPLINE
  5
13D
330
1F
100
AcDbEntity
  8
0
  6
Continuous
 62
     7
370
    25
100
AcDbSpline
210
0.0
220
0.0
230
1.0
 70
     8
 71
     3
 72
     8
 73
     4
 74
     0
 42
0.000000001
 43
0.00000001
 40
0.0
 40
0.0
 40
0.0
 40
0.0
 40
0.0000370914981225
 40
0.0000370914981225
 40
0.0000370914981225
 40
0.0000370914981225
 10
4.922974183579237
 20
4.989760871460665
 30
0.0
 10
4.922975612511625
 20
4.990219268217548
 30
0.0
 10
4.922988150988979
 20
4.990683419006737
 30
0.0
 10
4.923011844519544
 20
4.991151109765712
 30
0.0
  0
LINE
  5
13E
330
1F
100
AcDbEntity
  8
0
  6
Continuous
 62
     7
370
    25
100
AcDbLine
 10
4.1661925293
 20
4.9789889502
 30
0.0
 11
4.1665433519
 21
4.9897608691
 31
0.0
  0
SPLINE
  5
13F
330
1F
100
AcDbEntity
  8
0
  6
Continuous
 62
     7
370
    25
100
AcDbSpline
210
0.0
220
0.0
230
1.0
 70
     8
 71
     3
 72
    14
 73
    10
 74
     0
 42
0.000000001
 43
0.00000001
 40
0.0
 40
0.0
 40
0.0
 40
0.0
 40
0.25
 40
0.25
 40
0.5
 40
0.5
 40
0.75
 40
0.75
 40
1.0
 40
1.0
 40
1.0
 40
1.0
 10
4.166505687526594
 20
4.991151109765712
 30
0.0
 10
4.166304705778757
 20
4.995118323766534
 30
0.0
 10
4.165296764403507
 20
4.998903469625207
 30
0.0
 10
4.16185372698297
 20
5.005732362992107
 30
0.0
 10
4.159421368478699
 20
5.008738754766892
 30
0.0
 10
4.15359587328706
 20
5.013519583856664
 30
0.0
 10
4.150157852556981
 20
5.01532666636832
 30
0.0
 10
4.142855599670693
 20
5.017523936802694
 30
0.0
 10
4.138868268525564
 20
5.01794087193074
 30
0.0
 10
4.134965726258567
 20
5.017642720735752
 30
0.0
  0
SPLINE
  5
140
330
1F
100
AcDbEntity
  8
0
  6
Continuous
 62
     7
370
    25
100
AcDbSpline
210
0.0
220
0.0
230
1.0
 70
     8
 71
     3
 72
     8
 73
     4
 74
     0
 42
0.000000001
 43
0.00000001
 40
0.0
 40
0.0
 40
0.0
 40
0.0
 40
0.0000370914981225
 40
0.0000370914981225
 40
0.0000370914981225
 40
0.0000370914981225
 10
4.166543348466901
 20
4.989760871460665
 30
0.0
 10
4.166541919534512
 20
4.990219268217548
 30
0.0
 10
4.166529381057159
 20
4.990683419006737
 30
0.0
 10
4.166505687526594
 20
4.991151109765712
 30
0.0
  0
ELLIPSE
  5
141
330
1F
100
AcDbEntity
  8
0
  6
Continuous
 62
     7
370
    25
100
AcDbEllipse
 10
4.544758766
 20
-155.7484272584
 30
0.0
 11
0.393684720424071
 21
168.3732746586237
 31
0.0
210
0.0
220
0.0
230
1.0
 40
0.0000211246
 41
5.951557504873868
 42
5.956590455313594
  0
SPLINE
  5
142
330
1F
100
AcDbEntity
  8
0
  6
Continuous
 62
     7
370
    25
100
AcDbSpline
210
0.0
220
0.0
230
1.0
 70
     8
 71
     3
 72
    12
 73
     8
 74
     0
 42
0.000000001
 43
0.00000001
 40
0.0
 40
0.0
 40
0.0
 40
0.0
 40
0.5
 40
0.5
 40
0.75
 40
0.75
 40
1.0
 40
1.0
 40
1.0
 40
1.0
 10
4.922974183579237
 20
4.98976087146066
 30
0.0
 10
4.922312011070315
 20
4.777338133352501
 30
0.0
 10
4.921640727178581
 20
4.565295499443128
 30
0.0
 10
4.920603330846665
 20
4.248502701714272
 30
0.0
 10
4.920252389024917
 20
4.14311965747654
 30
0.0
 10
4.919532161706798
 20
3.933118821420913
 30
0.0
 10
4.919163743190699
 20
3.828464861345322
 30
0.0
 10
4.918774514054565
 20
3.724679068508129
 30
0.0
  0
LINE
  5
143
330
1F
100
AcDbEntity
  8
0
  6
Continuous
 62
     7
370
    25
100
AcDbLine
 10
4.9181510659
 20
3.4507931407
 30
0.0
 11
4.9209698933
 21
3.4484673276
 31
0.0
  0
SPLINE
  5
144
330
1F
100
AcDbEntity
  8
0
  6
Continuous
 62
     7
370
    25
100
AcDbSpline
210
0.0
220
0.0
230
1.0
 70
     8
 71
     3
 72
    12
 73
     8
 74
     0
 42
0.000000001
 43
0.00000001
 40
0.0
 40
0.0
 40
0.0
 40
0.0
 40
0.5
 40
0.5
 40
0.75
 40
0.75
 40
1.0
 40
1.0
 40
1.0
 40
1.0
 10
4.166543348466901
 20
4.98976087146066
 30
0.0
 10
4.167205520975822
 20
4.777338133352501
 30
0.0
 10
4.167876804867556
 20
4.565295499443128
 30
0.0
 10
4.168914201199472
 20
4.248502701714272
 30
0.0
 10
4.169265143021221
 20
4.14311965747654
 30
0.0
 10
4.169985370339339
 20
3.933118821420913
 30
0.0
 10
4.170353788855438
 20
3.828464861345322
 30
0.0
 10
4.170743017991573
 20
3.724679068508129
 30
0.0
  0
ELLIPSE
  5
145
330
1F
100
AcDbEntity
  8
0
  6
Continuous
 62
     7
370
    25
100
AcDbEllipse
 10
4.544758766
 20
-155.7484272584
 30
0.0
 11
-0.393684720424071
 21
168.3732746586237
 31
0.0
210
0.0
220
0.0
230
1.0
 40
0.0000211246
 41
0.326594852441366
 42
0.3316278029111894
  0
LINE
  5
146
330
1F
100
AcDbEntity
  8
0
  6
Continuous
 62
     7
370
    25
100
AcDbLine
 10
4.1713664661
 20
3.4507931407
 30
0.0
 11
4.1685476387
 21
3.4484673276
 31
0.0
  0
SPLINE
  5
147
330
1F
100
AcDbEntity
  8
0
  6
Continuous
 62
     7
370
    25
100
AcDbSpline
210
0.0
220
0.0
230
1.0
 70
     8
 71
     3
 72
    28
 73
    24
 74
     0
 42
0.000000001
 43
0.00000001
 40
0.0
 40
0.0
 40
0.0
 40
0.0
 40
0.1249999999999998
 40
0.1249999999999998
 40
0.1874999999999998
 40
0.1874999999999998
 40
0.2499999999999998
 40
0.2499999999999998
 40
0.3124999999999998
 40
0.3124999999999998
 40
0.3749999999999998
 40
0.3749999999999998
 40
0.4999999999999998
 40
0.4999999999999998
 40
0.6249999999999998
 40
0.6249999999999998
 40
0.7499999999999998
 40
0.7499999999999998
 40
0.8124999999999997
 40
0.8124999999999997
 40
0.8749999999999996
 40
0.8749999999999996
 40
1.0
 40
1.0
 40
1.0
 40
1.0
 10
4.346747571160027
 20
4.948399992252697
 30
0.0
 10
4.359615578925824
 20
4.961503709752062
 30
0.0
 10
4.373585057469715
 20
4.973241364113189
 30
0.0
 10
4.396279734154889
 20
4.988814480738035
 30
0.0
 10
4.40414016202422
 20
4.993659051201761
 30
0.0
 10
4.420168212524251
 20
5.002480514186634
 30
0.0
 10
4.428370658863033
 20
5.006482913950482
 30
0.0
 10
4.445158517882117
 20
5.013671949605123
 30
0.0
 10
4.453743891607208
 20
5.016858631252231
 30
0.0
 10
4.471314426409586
 20
5.022391349001231
 30
0.0
 10
4.480344653008832
 20
5.024746091447687
 30
0.0
 10
4.50773977689443
 20
5.03040315112248
 30
0.0
 10
4.526252375224932
 20
5.032300916514098
 30
0.0
 10
4.563770267211839
 20
5.032266210290407
 30
0.0
 10
4.582533781938102
 20
5.03028438549918
 30
0.0
 10
4.618629642582779
 20
5.022754792806737
 30
0.0
 10
4.6360934500901
 20
5.017230361630038
 30
0.0
 10
4.661445349564616
 20
5.006345462171991
 30
0.0
 10
4.66978948467025
 20
5.002256968574967
 30
0.0
 10
4.685836419552672
 20
4.993386611962836
 30
0.0
 10
4.693579141264705
 20
4.988592057933955
 30
0.0
 10
4.716009534616848
 20
4.973164260474984
 30
0.0
 10
4.729906827872122
 20
4.961498745706987
 30
0.0
 10
4.742769960886112
 20
4.948399992252697
 30
0.0
  0
SPLINE
  5
148
330
1F
100
AcDbEntity
  8
0
  6
Continuous
 62
     7
370
    25
100
AcDbSpline
210
0.0
220
0.0
230
1.0
 70
     8
 71
     3
 72
    12
 73
     8
 74
     0
 42
0.000000001
 43
0.00000001
 40
0.0
 40
0.0
 40
0.0
 40
0.0
 40
0.5000000000000014
 40
0.5000000000000014
 40
0.7500000000000007
 40
0.7500000000000007
 40
1.0
 40
1.0
 40
1.0
 40
1.0
 10
4.346747571160027
 20
4.948399992252697
 30
0.0
 10
4.33774355199054
 20
4.939231041961112
 30
0.0
 10
4.33056247237516
 20
4.928155162614854
 30
0.0
 10
4.32335263904732
 20
4.910113142523773
 30
0.0
 10
4.32151025665511
 20
4.903763192976263
 30
0.0
 10
4.319112040478214
 20
4.891087261144193
 30
0.0
 10
4.318523457130698
 20
4.884709112523423
 30
0.0
 10
4.318530295382417
 20
4.878293502679097
 30
0.0
  0
SPLINE
  5
149
330
1F
100
AcDbEntity
  8
0
  6
Continuous
 62
     7
370
    25
100
AcDbSpline
210
0.0
220
0.0
230
1.0
 70
     8
 71
     3
 72
     8
 73
     4
 74
     0
 42
0.000000001
 43
0.00000001
 40
0.0
 40
0.0
 40
0.0
 40
0.0
 40
1.0
 40
1.0
 40
1.0
 40
1.0
 10
4.318530295382417
 20
4.878293502679097
 30
0.0
 10
4.318899064403002
 20
4.532316452431489
 30
0.0
 10
4.319308013220578
 20
4.186271744614351
 30
0.0
 10
4.319774251625547
 20
3.840116373040102
 30
0.0
  0
ARC
  5
14A
330
1F
100
AcDbEntity
  8
0
  6
Continuous
 62
     7
370
    25
100
AcDbCircle
 10
4.3595999453
 20
3.4857327325
 30
0.0
 40
0.3566143913763989
100
AcDbArc
 50
96.4120062466
 51
122.0680626412
  0
ARC
  5
14B
330
1F
100
AcDbEntity
  8
0
  6
Continuous
 62
     7
370
    25
100
AcDbCircle
 10
4.7299175868
 20
3.4857327325
 30
0.0
 40
0.3566143913763892
100
AcDbArc
 50
57.9319373588
 51
83.5879937534
  0
SPLINE
  5
14C
330
1F
100
AcDbEntity
  8
0
  6
Continuous
 62
     7
370
    25
100
AcDbSpline
210
0.0
220
0.0
230
1.0
 70
     8
 71
     3
 72
     8
 73
     4
 74
     0
 42
0.000000001
 43
0.00000001
 40
0.0
 40
0.0
 40
0.0
 40
0.0
 40
1.0
 40
1.0
 40
1.0
 40
1.0
 10
4.77098723666372
 20
4.878293502679097
 30
0.0
 10
4.770618467643136
 20
4.532316452431489
 30
0.0
 10
4.77020951882556
 20
4.186271744614351
 30
0.0
 10
4.769743280420591
 20
3.840116373040102
 30
0.0
  0
SPLINE
  5
14D
330
1F
100
AcDbEntity
  8
0
  6
Continuous
 62
     7
370
    25
100
AcDbSpline
210
0.0
220
0.0
230
1.0
 70
     8
 71
     3
 72
    12
 73
     8
 74
     0
 42
0.000000001
 43
0.00000001
 40
0.0
 40
0.0
 40
0.0
 40
0.0
 40
0.500000000000001
 40
0.500000000000001
 40
0.7500000000000004
 40
0.7500000000000004
 40
1.0
 40
1.0
 40
1.0
 40
1.0
 10
4.742769960886112
 20
4.948399992252697
 30
0.0
 10
4.751773980055598
 20
4.939231041961112
 30
0.0
 10
4.758955059670978
 20
4.928155162614854
 30
0.0
 10
4.766164892998817
 20
4.910113142523773
 30
0.0
 10
4.768007275391027
 20
4.903763192976263
 30
0.0
 10
4.770405491567923
 20
4.891087261144193
 30
0.0
 10
4.77099407491544
 20
4.884709112523422
 30
0.0
 10
4.77098723666372
 20
4.878293502679097
 30
0.0
  0
SPLINE
  5
14E
330
1F
100
AcDbEntity
  8
0
  6
Continuous
 62
     7
370
    25
100
AcDbSpline
210
0.0
220
0.0
230
1.0
 70
    24
 71
     3
 72
    10
 73
     6
 74
     0
 42
0.000000001
 43
0.00000001
 40
0.0
 40
0.0
 40
0.0
 40
0.0
 40
0.5
 40
0.5
 40
1.0
 40
1.0
 40
1.0
 40
1.0
 10
5.076254829015195
 20
4.933343027577396
 30
0.0
 10
5.076254829015195
 20
4.936804797452536
 30
0.0
 10
5.076254829015195
 20
4.939171603861265
 30
0.0
 10
5.076254829015195
 20
4.942359892755298
 30
0.0
 10
5.076254829015195
 20
4.943186427996823
 30
0.0
 10
5.076254829015195
 20
4.9431852892286
 30
0.0
  0
SPLINE
  5
14F
330
1F
100
AcDbEntity
  8
0
  6
Continuous
 62
     7
370
    25
100
AcDbSpline
210
0.0
220
0.0
230
1.0
 70
    24
 71
     3
 72
    10
 73
     6
 74
     0
 42
0.000000001
 43
0.00000001
 40
0.0
 40
0.0
 40
0.0
 40
0.0
 40
0.5
 40
0.5
 40
1.0
 40
1.0
 40
1.0
 40
1.0
 10
4.013262703030943
 20
4.933343027577396
 30
0.0
 10
4.013262703030943
 20
4.936804797452536
 30
0.0
 10
4.013262703030943
 20
4.939171603861265
 30
0.0
 10
4.013262703030943
 20
4.942359892755298
 30
0.0
 10
4.013262703030943
 20
4.943186427996823
 30
0.0
 10
4.013262703030943
 20
4.9431852892286
 30
0.0
  0
LWPOLYLINE
  5
150
330
1F
100
AcDbEntity
  8
0
  6
Continuous
 62
     7
370
    25
100
AcDbPolyline
 90
        9
 70
   128
 43
0.0
 10
5.0237369762
 20
3.3435358731
 10
5.020749924
 20
3.3440335074
 10
5.0178572874
 20
3.345510277
 10
5.015150402
 20
3.3479196891
 10
5.0127147368
 20
3.3511856247
 10
5.0106272909
 20
3.3552048316
 10
5.0089540269
 20
3.3598505913
 10
5.0077477442
 20
3.3649757988
 10
5.0070466123
 20
3.3704186825
  0
LINE
  5
151
330
1F
100
AcDbEntity
  8
0
  6
Continuous
 62
     7
370
    25
100
AcDbLine
 10
5.0237369762
 20
3.3435358731
 30
0.0
 11
5.0237369762
 21
3.3695627458
 31
0.0
  0
LWPOLYLINE
  5
152
330
1F
100
AcDbEntity
  8
0
  6
Continuous
 62
     7
370
    25
100
AcDbPolyline
 90
        9
 70
   128
 43
0.0
 10
4.0657805559
 20
3.3435358731
 10
4.068767608
 20
3.3440335074
 10
4.0716602446
 20
3.345510277
 10
4.07436713
 20
3.3479196891
 10
4.0768027952
 20
3.3511856247
 10
4.0788902411
 20
3.3552048316
 10
4.0805635051
 20
3.3598505913
 10
4.0817697878
 20
3.3649757988
 10
4.0824709197
 20
3.3704186825
  0
LINE
  5
153
330
1F
100
AcDbEntity
  8
0
  6
Continuous
 62
     7
370
    25
100
AcDbLine
 10
4.0657805559
 20
3.3435358731
 30
0.0
 11
4.0657805559
 21
3.3695627458
 31
0.0
  0
LINE
  5
154
330
1F
100
AcDbEntity
  8
0
  6
Continuous
 62
     7
370
    25
100
AcDbLine
 10
4.0447587721
 20
3.3435358731
 30
0.0
 11
4.0657805559
 21
3.3435358731
 31
0.0
  0
LINE
  5
155
330
1F
100
AcDbEntity
  8
0
  6
Continuous
 62
     7
370
    25
100
AcDbLine
 10
4.0447587721
 20
3.3435358731
 30
0.0
 11
4.0447587721
 21
3.3695627458
 31
0.0
  0
LINE
  5
156
330
1F
100
AcDbEntity
  8
0
  6
Continuous
 62
     7
370
    25
100
AcDbLine
 10
5.04475876
 20
3.3435358731
 30
0.0
 11
5.04475876
 21
3.3695627458
 31
0.0
  0
ARC
  5
157
330
1F
100
AcDbEntity
  8
0
  6
Continuous
 62
     7
370
    25
100
AcDbCircle
 10
5.044758766
 20
3.3750319959
 30
0.0
 40
0.0314960629921259
100
AcDbArc
 50
270.0
 51
0.0
  0
ARC
  5
158
330
1F
100
AcDbEntity
  8
0
  6
Continuous
 62
     7
370
    25
100
AcDbCircle
 10
4.044758766
 20
3.3750319959
 30
0.0
 40
0.0314960629921259
100
AcDbArc
 50
180.0
 51
270.0
  0
LINE
  5
159
330
1F
100
AcDbEntity
  8
0
  6
Continuous
 62
     7
370
    25
100
AcDbLine
 10
5.04475876
 20
3.3435358731
 30
0.0
 11
5.0237369762
 21
3.3435358731
 31
0.0
  0
LINE
  5
15A
330
1F
100
AcDbEntity
  8
0
  6
Continuous
 62
     7
370
    25
100
AcDbLine
 10
5.0237369762
 20
3.3435358731
 30
0.0
 11
4.9814880776
 21
3.3435358731
 31
0.0
  0
LWPOLYLINE
  5
15B
330
1F
100
AcDbEntity
  8
0
  6
Continuous
 62
     7
370
    25
100
AcDbPolyline
 90
        9
 70
   128
 43
0.0
 10
4.9814880776
 20
3.3435358731
 10
4.9785010621
 20
3.3440335074
 10
4.9756083888
 20
3.345510277
 10
4.9729015034
 20
3.3479196891
 10
4.9704658382
 20
3.3511856247
 10
4.9683783923
 20
3.3552048316
 10
4.9667051283
 20
3.3598505913
 10
4.9654988456
 20
3.3649757988
 10
4.9647977137
 20
3.3704186825
  0
LWPOLYLINE
  5
15C
330
1F
100
AcDbEntity
  8
0
  6
Continuous
 62
     7
370
    25
100
AcDbPolyline
 90
        9
 70
   128
 43
0.0
 10
4.1080294545
 20
3.3435358731
 10
4.11101647
 20
3.3440335074
 10
4.1139091432
 20
3.345510277
 10
4.1166160286
 20
3.3479196891
 10
4.1190516938
 20
3.3511856247
 10
4.1211391397
 20
3.3552048316
 10
4.1228124037
 20
3.3598505913
 10
4.1240186864
 20
3.3649757988
 10
4.1247198183
 20
3.3704186825
  0
LINE
  5
15D
330
1F
100
AcDbEntity
  8
0
  6
Continuous
 62
     7
370
    25
100
AcDbLine
 10
4.0657805559
 20
3.3435358731
 30
0.0
 11
4.1080294545
 21
3.3435358731
 31
0.0
  0
ARC
  5
15E
330
1F
100
AcDbEntity
  8
0
  6
Continuous
 62
     7
370
    25
100
AcDbCircle
 10
4.1273096005
 20
3.3710652791
 30
0.0
 40
0.0207664795663588
100
AcDbArc
 50
21.8422343982
 51
65.2627532652
  0
LINE
  5
15F
330
1F
100
AcDbEntity
  8
0
  6
Continuous
 62
     7
370
    25
100
AcDbLine
 10
4.1353056561
 20
3.3592840245
 30
0.0
 11
4.1465852924
 21
3.3787914925
 31
0.0
  0
ARC
  5
160
330
1F
100
AcDbEntity
  8
0
  6
Continuous
 62
     7
370
    25
100
AcDbCircle
 10
4.1160297593
 20
3.3515575879
 30
0.0
 40
0.0207667526855239
100
AcDbArc
 50
21.8425960132
 51
65.2625898531
  0
ARC
  5
161
330
1F
100
AcDbEntity
  8
0
  6
Continuous
 62
     7
370
    25
100
AcDbCircle
 10
4.1080292298
 20
3.3750318777
 30
0.0
 40
0.0314960046482953
100
AcDbArc
 50
270.0004086667
 51
330.0003131646
  0
ARC
  5
162
330
1F
100
AcDbEntity
  8
0
  6
Continuous
 62
     7
370
    25
100
AcDbCircle
 10
4.9734877727
 20
3.3515575879
 30
0.0
 40
0.0207667526855287
100
AcDbArc
 50
114.7374101469
 51
158.1574039868
  0
ARC
  5
163
330
1F
100
AcDbEntity
  8
0
  6
Continuous
 62
     7
370
    25
100
AcDbCircle
 10
4.9814883022
 20
3.3750318777
 30
0.0
 40
0.0314960046482926
100
AcDbArc
 50
209.9996868354
 51
269.9995913333
  0
LINE
  5
164
330
1F
100
AcDbEntity
  8
0
  6
Continuous
 62
     7
370
    25
100
AcDbLine
 10
4.954211876
 20
3.3592840245
 30
0.0
 11
4.9429322396
 21
3.3787914925
 31
0.0
  0
ARC
  5
165
330
1F
100
AcDbEntity
  8
0
  6
Continuous
 62
     7
370
    25
100
AcDbCircle
 10
4.9622079316
 20
3.3710652791
 30
0.0
 40
0.0207664795663621
100
AcDbArc
 50
114.7372467348
 51
158.1577656018
  0
LINE
  5
166
330
1F
100
AcDbEntity
  8
0
  6
Continuous
 62
     7
370
    25
100
AcDbLine
 10
4.1465852924
 20
3.3787914925
 30
0.0
 11
4.1527260082
 21
3.3894113565
 31
0.0
  0
ARC
  5
167
330
1F
100
AcDbEntity
  8
0
  6
Continuous
 62
     7
370
    25
100
AcDbCircle
 10
4.1334501747
 20
3.38168498
 30
0.0
 40
0.0207666716118863
100
AcDbArc
 50
21.8425069532
 51
65.2626789131
  0
LINE
  5
168
330
1F
100
AcDbEntity
  8
0
  6
Continuous
 62
     7
370
    25
100
AcDbLine
 10
4.9429322396
 20
3.3787914925
 30
0.0
 11
4.9367915239
 21
3.3894113565
 31
0.0
  0
ARC
  5
169
330
1F
100
AcDbEntity
  8
0
  6
Continuous
 62
     7
370
    25
100
AcDbCircle
 10
4.9560673574
 20
3.38168498
 30
0.0
 40
0.0207666716118823
100
AcDbArc
 50
114.7373210869
 51
158.1574930468
  0
ELLIPSE
  5
16A
330
1F
100
AcDbEntity
  8
0
  6
Continuous
 62
     7
370
    25
100
AcDbEllipse
 10
5.0395638054
 20
3.4480645243
 30
0.0
 11
0.1159309082694904
 21
-0.02512890864496597
 31
0.0
210
0.0
220
0.0
230
1.0
 40
0.9945220721
 41
3.352774671381225
 42
3.876383892071176
  0
ELLIPSE
  5
16B
330
1F
100
AcDbEntity
  8
0
  6
Continuous
 62
     7
370
    25
100
AcDbEllipse
 10
4.0499537267
 20
3.4480645243
 30
0.0
 11
0.1159309082694895
 21
0.02512890864496553
 31
0.0
210
0.0
220
0.0
230
1.0
 40
0.9945220721
 41
5.548394068698236
 42
6.072003289388188
  0
LINE
  5
16C
330
1F
100
AcDbEntity
  8
0
  6
Continuous
 62
     7
370
    25
100
AcDbLine
 10
4.9520281079
 20
3.3592840245
 30
0.0
 11
4.9429322396
 21
3.3750385558
 31
0.0
  0
LINE
  5
16D
330
1F
100
AcDbEntity
  8
0
  6
Continuous
 62
     7
370
    25
100
AcDbLine
 10
4.9429322396
 20
3.3750385558
 30
0.0
 11
4.9429322396
 21
3.3787914925
 31
0.0
  0
LINE
  5
16E
330
1F
100
AcDbEntity
  8
0
  6
Continuous
 62
     7
370
    25
100
AcDbLine
 10
4.9520281079
 20
3.3592840245
 30
0.0
 11
4.954211876
 21
3.3592840245
 31
0.0
  0
LINE
  5
16F
330
1F
100
AcDbEntity
  8
0
  6
Continuous
 62
     7
370
    25
100
AcDbLine
 10
4.1465852924
 20
3.3750385558
 30
0.0
 11
4.1465852924
 21
3.3787914925
 31
0.0
  0
LINE
  5
170
330
1F
100
AcDbEntity
  8
0
  6
Continuous
 62
     7
370
    25
100
AcDbLine
 10
4.1374894242
 20
3.3592840245
 30
0.0
 11
4.1465852924
 21
3.3750385558
 31
0.0
  0
LINE
  5
171
330
1F
100
AcDbEntity
  8
0
  6
Continuous
 62
     7
370
    25
100
AcDbLine
 10
4.1374894242
 20
3.3592840245
 30
0.0
 11
4.1353056561
 21
3.3592840245
 31
0.0
  0
SPLINE
  5
172
330
1F
100
AcDbEntity
  8
0
  6
Continuous
 62
     7
370
    25
100
AcDbSpline
210
0.0
220
0.0
230
1.0
 70
     8
 71
     3
 72
    10
 73
     6
 74
     0
 42
0.000000001
 43
0.00000001
 40
0.0
 40
0.0
 40
0.0
 40
0.0
 40
0.5
 40
0.5
 40
1.0
 40
1.0
 40
1.0
 40
1.0
 10
4.952028115452961
 20
3.35928397365633
 30
0.0
 10
4.954801880034833
 20
3.354479682438146
 30
0.0
 10
4.958812314210361
 20
3.350496564805781
 30
0.0
 10
4.968284286534833
 20
3.345024130653557
 30
0.0
 10
4.973829704834752
 20
3.343535932936398
 30
0.0
 10
4.979304583139694
 20
3.343535932938036
 30
0.0
  0
LINE
  5
173
330
1F
100
AcDbEntity
  8
0
  6
Continuous
 62
     7
370
    25
100
AcDbLine
 10
4.9814880776
 20
3.3435358731
 30
0.0
 11
4.9793045661
 21
3.3435358731
 31
0.0
  0
SPLINE
  5
174
330
1F
100
AcDbEntity
  8
0
  6
Continuous
 62
     7
370
    25
100
AcDbSpline
210
0.0
220
0.0
230
1.0
 70
     8
 71
     3
 72
    10
 73
     6
 74
     0
 42
0.000000001
 43
0.00000001
 40
0.0
 40
0.0
 40
0.0
 40
0.0
 40
0.5
 40
0.5
 40
1.0
 40
1.0
 40
1.0
 40
1.0
 10
4.137489416593176
 20
3.35928397365633
 30
0.0
 10
4.134715652011304
 20
3.354479682438146
 30
0.0
 10
4.130705217835778
 20
3.350496564805781
 30
0.0
 10
4.121233245511306
 20
3.345024130653557
 30
0.0
 10
4.115687827211386
 20
3.343535932936398
 30
0.0
 10
4.110212948906444
 20
3.343535932938036
 30
0.0
  0
LINE
  5
175
330
1F
100
AcDbEntity
  8
0
  6
Continuous
 62
     7
370
    25
100
AcDbLine
 10
4.1080294545
 20
3.3435358731
 30
0.0
 11
4.1102129659
 21
3.3435358731
 31
0.0
  0
LINE
  5
176
330
1F
100
AcDbEntity
  8
0
  6
Continuous
 62
     7
370
    25
100
AcDbLine
 10
4.9429322396
 20
3.3750385558
 30
0.0
 11
4.938454448
 21
3.3827942729
 31
0.0
  0
ELLIPSE
  5
177
330
1F
100
AcDbEntity
  8
0
  6
Continuous
 62
     7
370
    25
100
AcDbEllipse
 10
4.544758766
 20
4.066160884
 30
0.0
 11
-0.3936983039915508
 21
0.6833661793889247
 31
0.0
210
0.0
220
0.0
230
1.0
 40
0.0020462945
 41
3.140045860588357
 42
3.307433191284175
  0
LINE
  5
178
330
1F
100
AcDbEntity
  8
0
  6
Continuous
 62
     7
370
    25
100
AcDbLine
 10
4.9367915239
 20
3.3894113565
 30
0.0
 11
4.9332863411
 21
3.3923035164
 31
0.0
  0
LINE
  5
179
330
1F
100
AcDbEntity
  8
0
  6
Continuous
 62
     7
370
    25
100
AcDbLine
 10
4.1527260082
 20
3.3894113565
 30
0.0
 11
4.156231191
 21
3.3923035164
 31
0.0
  0
ELLIPSE
  5
17A
330
1F
100
AcDbEntity
  8
0
  6
Continuous
 62
     7
370
    25
100
AcDbEllipse
 10
4.544758766
 20
4.066160884
 30
0.0
 11
0.3936983039915508
 21
0.6833661793889247
 31
0.0
210
0.0
220
0.0
230
1.0
 40
0.0020462945
 41
2.97575211590205
 42
3.143139446598054
  0
LINE
  5
17B
330
1F
100
AcDbEntity
  8
0
  6
Continuous
 62
     7
370
    25
100
AcDbLine
 10
4.1465852924
 20
3.3750385558
 30
0.0
 11
4.151063084
 21
3.3827942729
 31
0.0
  0
SPLINE
  5
17C
330
1F
100
AcDbEntity
  8
0
  6
Continuous
 62
     7
370
    25
100
AcDbSpline
210
0.0
220
0.0
230
1.0
 70
     8
 71
     3
 72
    14
 73
    10
 74
     0
 42
0.000000001
 43
0.00000001
 40
0.0
 40
0.0
 40
0.0
 40
0.0
 40
0.25
 40
0.25
 40
0.5
 40
0.5
 40
0.75
 40
0.75
 40
1.0
 40
1.0
 40
1.0
 40
1.0
 10
4.933286352884148
 20
3.392303518412047
 30
0.0
 10
4.93206507106967
 20
3.394484586552493
 30
0.0
 10
4.930678128147816
 20
3.397110670658022
 30
0.0
 10
4.927715422525565
 20
3.403489291373453
 30
0.0
 10
4.926136695852492
 20
3.407231366076948
 30
0.0
 10
4.923008867530363
 20
3.416366615017846
 30
0.0
 10
4.921449549949632
 20
3.421788045795296
 30
0.0
 10
4.919011449876947
 20
3.434701968023112
 30
0.0
 10
4.91813165903957
 20
3.442270402689708
 30
0.0
 10
4.918151063798308
 20
3.450793153036377
 30
0.0
  0
SPLINE
  5
17D
330
1F
100
AcDbEntity
  8
0
  6
Continuous
 62
     7
370
    25
100
AcDbSpline
210
0.0
220
0.0
230
1.0
 70
     8
 71
     3
 72
    14
 73
    10
 74
     0
 42
0.000000001
 43
0.00000001
 40
0.0
 40
0.0
 40
0.0
 40
0.0
 40
0.25
 40
0.25
 40
0.5
 40
0.5
 40
0.75
 40
0.75
 40
1.0
 40
1.0
 40
1.0
 40
1.0
 10
4.15623117916199
 20
3.392303518412047
 30
0.0
 10
4.157452460976468
 20
3.394484586552493
 30
0.0
 10
4.158839403898321
 20
3.397110670658022
 30
0.0
 10
4.161802109520573
 20
3.403489291373453
 30
0.0
 10
4.163380836193646
 20
3.407231366076948
 30
0.0
 10
4.166508664515774
 20
3.416366615017846
 30
0.0
 10
4.168067982096505
 20
3.421788045795296
 30
0.0
 10
4.170506082169189
 20
3.434701968023112
 30
0.0
 10
4.171385873006567
 20
3.442270402689708
 30
0.0
 10
4.171366468247829
 20
3.450793153036377
 30
0.0
  0
SPLINE
  5
17E
330
1F
100
AcDbEntity
  8
0
  6
Continuous
 62
     7
370
    25
100
AcDbSpline
210
0.0
220
0.0
230
1.0
 70
     8
 71
     3
 72
    20
 73
    16
 74
     0
 42
0.000000001
 43
0.00000001
 40
0.0
 40
0.0
 40
0.0
 40
0.0
 40
0.1249999999999998
 40
0.1249999999999998
 40
0.2499999999999997
 40
0.2499999999999997
 40
0.3749999999999995
 40
0.3749999999999995
 40
0.4999999999999993
 40
0.4999999999999993
 40
0.6249999999999991
 40
0.6249999999999991
 40
0.7499999999999991
 40
0.7499999999999991
 40
1.0
 40
1.0
 40
1.0
 40
1.0
 10
4.938454436054683
 20
3.38279427601968
 30
0.0
 10
4.938370871325691
 20
3.383033433813772
 30
0.0
 10
4.937262136446038
 20
3.382991346986632
 30
0.0
 10
4.933032627459314
 20
3.382656847226971
 30
0.0
 10
4.92992494823539
 20
3.382373681999126
 30
0.0
 10
4.921786118448509
 20
3.381598426898307
 30
0.0
 10
4.916732093220014
 20
3.381090902943517
 30
0.0
 10
4.904779935574497
 20
3.379619595290157
 30
0.0
 10
4.897947609344437
 20
3.378651146386641
 30
0.0
 10
4.882611582440249
 20
3.376492120497113
 30
0.0
 10
4.874106720233227
 20
3.375300424157668
 30
0.0
 10
4.855402175426081
 20
3.372710184817037
 30
0.0
 10
4.845130413736368
 20
3.371299657891757
 30
0.0
 10
4.81222856163668
 20
3.366614657210246
 30
0.0
 10
4.787776100468227
 20
3.36287672407718
 30
0.0
 10
4.760608537608482
 20
3.359306401685053
 30
0.0
  0
SPLINE
  5
17F
330
1F
100
AcDbEntity
  8
0
  6
Continuous
 62
     7
370
    25
100
AcDbSpline
210
0.0
220
0.0
230
1.0
 70
     8
 71
     3
 72
    14
 73
    10
 74
     0
 42
0.000000001
 43
0.00000001
 40
0.0
 40
0.0
 40
0.0
 40
0.0
 40
0.2499999999999999
 40
0.2499999999999999
 40
0.4999999999999999
 40
0.4999999999999999
 40
0.7499999999999998
 40
0.7499999999999998
 40
1.0
 40
1.0
 40
1.0
 40
1.0
 10
4.544758766023069
 20
3.350811504308278
 30
0.0
 10
4.564084581167187
 20
3.350729906287531
 30
0.0
 10
4.583279646879133
 20
3.350837755851518
 30
0.0
 10
4.621408183239488
 20
3.35150567784151
 30
0.0
 10
4.640090875954288
 20
3.352014595297111
 30
0.0
 10
4.67637613428286
 20
3.353166662909977
 30
0.0
 10
4.694033679282751
 20
3.353875727382294
 30
0.0
 10
4.728336805958597
 20
3.355941850765712
 30
0.0
 10
4.744961450727987
 20
3.357250083827271
 30
0.0
 10
4.76060853760848
 20
3.359306401685055
 30
0.0
  0
SPLINE
  5
180
330
1F
100
AcDbEntity
  8
0
  6
Continuous
 62
     7
370
    25
100
AcDbSpline
210
0.0
220
0.0
230
1.0
 70
     8
 71
     3
 72
    14
 73
    10
 74
     0
 42
0.000000001
 43
0.00000001
 40
0.0
 40
0.0
 40
0.0
 40
0.0
 40
0.2500000000000001
 40
0.2500000000000001
 40
0.5000000000000001
 40
0.5000000000000001
 40
0.7500000000000002
 40
0.7500000000000002
 40
1.0
 40
1.0
 40
1.0
 40
1.0
 10
4.544758766023069
 20
3.350811504308278
 30
0.0
 10
4.525432950878952
 20
3.350729906287532
 30
0.0
 10
4.506237885167004
 20
3.350837755851516
 30
0.0
 10
4.468109348806649
 20
3.351505677841509
 30
0.0
 10
4.44942665609185
 20
3.35201459529711
 30
0.0
 10
4.413141397763278
 20
3.353166662909977
 30
0.0
 10
4.395483852763386
 20
3.353875727382295
 30
0.0
 10
4.361180726087539
 20
3.355941850765712
 30
0.0
 10
4.344556081318149
 20
3.357250083827269
 30
0.0
 10
4.328908994437659
 20
3.359306401685055
 30
0.0
  0
SPLINE
  5
181
330
1F
100
AcDbEntity
  8
0
  6
Continuous
 62
     7
370
    25
100
AcDbSpline
210
0.0
220
0.0
230
1.0
 70
     8
 71
     3
 72
    20
 73
    16
 74
     0
 42
0.000000001
 43
0.00000001
 40
0.0
 40
0.0
 40
0.0
 40
0.0
 40
0.1249999999999999
 40
0.1249999999999999
 40
0.2499999999999998
 40
0.2499999999999998
 40
0.3749999999999997
 40
0.3749999999999997
 40
0.4999999999999996
 40
0.4999999999999996
 40
0.6249999999999994
 40
0.6249999999999994
 40
0.7499999999999993
 40
0.7499999999999993
 40
1.0
 40
1.0
 40
1.0
 40
1.0
 10
4.151063095991455
 20
3.38279427601968
 30
0.0
 10
4.151146660720447
 20
3.383033433813771
 30
0.0
 10
4.1522553956001
 20
3.382991346986631
 30
0.0
 10
4.156484904586824
 20
3.382656847226971
 30
0.0
 10
4.159592583810748
 20
3.382373681999126
 30
0.0
 10
4.167731413597628
 20
3.381598426898307
 30
0.0
 10
4.172785438826123
 20
3.381090902943518
 30
0.0
 10
4.18473759647164
 20
3.379619595290156
 30
0.0
 10
4.1915699227017
 20
3.378651146386642
 30
0.0
 10
4.206905949605888
 20
3.376492120497112
 30
0.0
 10
4.215410811812911
 20
3.375300424157669
 30
0.0
 10
4.234115356620056
 20
3.372710184817037
 30
0.0
 10
4.24438711830977
 20
3.371299657891757
 30
0.0
 10
4.277288970409458
 20
3.366614657210246
 30
0.0
 10
4.301741431577911
 20
3.36287672407718
 30
0.0
 10
4.328908994437656
 20
3.359306401685055
 30
0.0
  0
ARC
  5
182
330
1F
100
AcDbEntity
  8
0
  6
Continuous
 62
     7
370
    25
100
AcDbCircle
 10
4.3205308639
 20
3.8360788406
 30
0.0
 40
0.0041077762093176
100
AcDbArc
 50
100.4346290273
 51
100.6138296976
  0
LINE
  5
183
330
1F
100
AcDbEntity
  8
0
  6
Continuous
 62
     7
370
    25
100
AcDbLine
 10
4.3197868899
 20
3.8401186832
 30
0.0
 11
4.3197868899
 21
3.7302716055
 31
0.0
  0
SPLINE
  5
184
330
1F
100
AcDbEntity
  8
0
  6
Continuous
 62
     7
370
    25
100
AcDbSpline
210
0.0
220
0.0
230
1.0
 70
     8
 71
     3
 72
    12
 73
     8
 74
     0
 42
0.000000001
 43
0.00000001
 40
0.0
 40
0.0
 40
0.0
 40
0.0
 40
0.2500000000000006
 40
0.2500000000000006
 40
0.5000000000000011
 40
0.5000000000000011
 40
1.0
 40
1.0
 40
1.0
 40
1.0
 10
4.319786887507883
 20
3.730271587554154
 30
0.0
 10
4.319786887507883
 20
3.723234805063123
 30
0.0
 10
4.320512031714179
 20
3.716339187579332
 30
0.0
 10
4.323157116361046
 20
3.703246947099913
 30
0.0
 10
4.325071499888265
 20
3.697002038008836
 30
0.0
 10
4.332463935151853
 20
3.679053347941807
 30
0.0
 10
4.339288248324146
 20
3.668687052480677
 30
0.0
 10
4.347908372322282
 20
3.659750765401495
 30
0.0
  0
SPLINE
  5
185
330
1F
100
AcDbEntity
  8
0
  6
Continuous
 62
     7
370
    25
100
AcDbSpline
210
0.0
220
0.0
230
1.0
 70
     8
 71
     3
 72
    28
 73
    24
 74
     0
 42
0.000000001
 43
0.00000001
 40
0.0
 40
0.0
 40
0.0
 40
0.0
 40
0.1249999999999997
 40
0.1249999999999997
 40
0.1874999999999997
 40
0.1874999999999997
 40
0.2499999999999998
 40
0.2499999999999998
 40
0.3749999999999998
 40
0.3749999999999998
 40
0.4999999999999999
 40
0.4999999999999999
 40
0.5625
 40
0.5625
 40
0.625
 40
0.625
 40
0.7499999999999999
 40
0.7499999999999999
 40
0.8749999999999999
 40
0.8749999999999999
 40
0.9374999999999999
 40
0.9374999999999999
 40
1.0
 40
1.0
 40
1.0
 40
1.0
 10
4.741609159723857
 20
3.659750765401495
 30
0.0
 10
4.729852112306263
 20
3.647562500946146
 30
0.0
 10
4.717029012116181
 20
3.636376213298022
 30
0.0
 10
4.695895695412621
 20
3.621159853045148
 30
0.0
 10
4.688532389713901
 20
3.616350760386041
 30
0.0
 10
4.673075719054292
 20
3.607305965859791
 30
0.0
 10
4.6649517634684
 20
3.603061615922416
 30
0.0
 10
4.639922738821617
 20
3.591572974327897
 30
0.0
 10
4.622217066245942
 20
3.585445930048413
 30
0.0
 10
4.584239699487711
 20
3.576895900519282
 30
0.0
 10
4.5647034136778
 20
3.574662108885478
 30
0.0
 10
4.534797757476779
 20
3.574661259147558
 30
0.0
 10
4.524816297581597
 20
3.575228809728616
 30
0.0
 10
4.505250292339436
 20
3.577431827229537
 30
0.0
 10
4.495676060959116
 20
3.57905776457193
 30
0.0
 10
4.467528867611757
 20
3.58539416805604
 30
0.0
 10
4.44936494634833
 20
3.59166938804226
 30
0.0
 10
4.416226699544495
 20
3.60689850608593
 30
0.0
 10
4.400985986684564
 20
3.61588046599745
 30
0.0
 10
4.379735554594934
 20
3.631147046301284
 30
0.0
 10
4.372914325408551
 20
3.636550257944967
 30
0.0
 10
4.359951976027922
 20
3.64779742695667
 30
0.0
 10
4.353786117044256
 20
3.653657440731794
 30
0.0
 10
4.347908372322282
 20
3.659750765401496
 30
0.0
  0
SPLINE
  5
186
330
1F
100
AcDbEntity
  8
0
  6
Continuous
 62
     7
370
    25
100
AcDbSpline
210
0.0
220
0.0
230
1.0
 70
     8
 71
     3
 72
    12
 73
     8
 74
     0
 42
0.000000001
 43
0.00000001
 40
0.0
 40
0.0
 40
0.0
 40
0.0
 40
0.2500000000000006
 40
0.2500000000000006
 40
0.5000000000000011
 40
0.5000000000000011
 40
1.0
 40
1.0
 40
1.0
 40
1.0
 10
4.769730644538255
 20
3.730271587554154
 30
0.0
 10
4.769730644538255
 20
3.723234805063123
 30
0.0
 10
4.769005500331959
 20
3.716339187579332
 30
0.0
 10
4.766360415685091
 20
3.703246947099913
 30
0.0
 10
4.764446032157872
 20
3.697002038008836
 30
0.0
 10
4.757053596894284
 20
3.679053347941807
 30
0.0
 10
4.750229283721992
 20
3.668687052480677
 30
0.0
 10
4.741609159723857
 20
3.659750765401495
 30
0.0
  0
LINE
  5
187
330
1F
100
AcDbEntity
  8
0
  6
Continuous
 62
     7
370
    25
100
AcDbLine
 10
4.7697306421
 20
3.8401186832
 30
0.0
 11
4.7697306421
 21
3.7302716055
 31
0.0
  0
ARC
  5
188
330
1F
100
AcDbEntity
  8
0
  6
Continuous
 62
     7
370
    25
100
AcDbCircle
 10
4.7689866681
 20
3.8360788406
 30
0.0
 40
0.0041077762093176
100
AcDbArc
 50
79.3861703024
 51
79.5653709727
  0
SPLINE
  5
189
330
1F
100
AcDbEntity
  8
0
  6
Continuous
 62
     7
370
    25
100
AcDbSpline
210
0.0
220
0.0
230
1.0
 70
     8
 71
     3
 72
    20
 73
    16
 74
     0
 42
0.000000001
 43
0.00000001
 40
0.0
 40
0.0
 40
0.0
 40
0.0
 40
0.1250000000000001
 40
0.1250000000000001
 40
0.2500000000000002
 40
0.2500000000000002
 40
0.3750000000000006
 40
0.3750000000000006
 40
0.500000000000001
 40
0.500000000000001
 40
0.7500000000000011
 40
0.7500000000000011
 40
0.8750000000000006
 40
0.8750000000000006
 40
1.0
 40
1.0
 40
1.0
 40
1.0
 10
4.760608537608481
 20
3.359306401685052
 30
0.0
 10
4.775244316278923
 20
3.359313892580736
 30
0.0
 10
4.789250857230109
 20
3.359295184706146
 30
0.0
 10
4.815993410752428
 20
3.359272938131955
 30
0.0
 10
4.828689595772997
 20
3.359272396460567
 30
0.0
 10
4.852338923488642
 20
3.35927769965812
 30
0.0
 10
4.863289161642752
 20
3.359283249593558
 30
0.0
 10
4.883524653719741
 20
3.359287113901254
 30
0.0
 10
4.892854450432386
 20
3.359286748971644
 30
0.0
 10
4.917788359076665
 20
3.359284366310857
 30
0.0
 10
4.930403842956181
 20
3.359277549172027
 30
0.0
 10
4.943280253171976
 20
3.359281602440974
 30
0.0
 10
4.946548783475644
 20
3.359291161846362
 30
0.0
 10
4.950910688346804
 20
3.359307239654441
 30
0.0
 10
4.952033495937876
 20
3.359311927702632
 30
0.0
 10
4.952028115452945
 20
3.35928397365624
 30
0.0
  0
SPLINE
  5
18A
330
1F
100
AcDbEntity
  8
0
  6
Continuous
 62
     7
370
    25
100
AcDbSpline
210
0.0
220
0.0
230
1.0
 70
    24
 71
     3
 72
     8
 73
     4
 74
     0
 42
0.000000001
 43
0.00000001
 40
0.0
 40
0.0
 40
0.0
 40
0.0
 40
1.0
 40
1.0
 40
1.0
 40
1.0
 10
4.544758766023069
 20
3.343535932938036
 30
0.0
 10
4.544758766023069
 20
3.343535932938036
 30
0.0
 10
4.544758766023069
 20
3.346109785250892
 30
0.0
 10
4.544758766023069
 20
3.350811504308272
 30
0.0
  0
SPLINE
  5
18B
330
1F
100
AcDbEntity
  8
0
  6
Continuous
 62
     7
370
    25
100
AcDbSpline
210
0.0
220
0.0
230
1.0
 70
    24
 71
     3
 72
    28
 73
    24
 74
     0
 42
0.000000001
 43
0.00000001
 40
0.0
 40
0.0
 40
0.0
 40
0.0
 40
0.1249999999999995
 40
0.1249999999999995
 40
0.1874999999999992
 40
0.1874999999999992
 40
0.249999999999999
 40
0.249999999999999
 40
0.3124999999999988
 40
0.3124999999999988
 40
0.3749999999999985
 40
0.3749999999999985
 40
0.4999999999999987
 40
0.4999999999999987
 40
0.6249999999999989
 40
0.6249999999999989
 40
0.7499999999999991
 40
0.7499999999999991
 40
0.8124999999999994
 40
0.8124999999999994
 40
0.8749999999999998
 40
0.8749999999999998
 40
1.0
 40
1.0
 40
1.0
 40
1.0
 10
4.979304583130269
 20
3.343535932938036
 30
0.0
 10
4.979334789605362
 20
3.343535932938037
 30
0.0
 10
4.976446904933812
 20
3.343535932938038
 30
0.0
 10
4.968040971663197
 20
3.343535932938038
 30
0.0
 10
4.964553901372029
 20
3.343535932938038
 30
0.0
 10
4.956311601871145
 20
3.343535932938037
 30
0.0
 10
4.951547962491595
 20
3.343535932938037
 30
0.0
 10
4.940706485330721
 20
3.343535932938037
 30
0.0
 10
4.934630780406968
 20
3.343535932938036
 30
0.0
 10
4.92119853555399
 20
3.343535932938036
 30
0.0
 10
4.913803163756538
 20
3.343535932938041
 30
0.0
 10
4.889992690407142
 20
3.34353593293804
 30
0.0
 10
4.871974326592865
 20
3.343535932938039
 30
0.0
 10
4.831394380594582
 20
3.343535932938039
 30
0.0
 10
4.809053495024905
 20
3.343535932938037
 30
0.0
 10
4.761918278703376
 20
3.343535932938036
 30
0.0
 10
4.736978324349312
 20
3.343535932938035
 30
0.0
 10
4.697492146821236
 20
3.343535932938035
 30
0.0
 10
4.683954084069293
 20
3.343535932938036
 30
0.0
 10
4.656777460583574
 20
3.343535932938037
 30
0.0
 10
4.643061577204215
 20
3.343535932938035
 30
0.0
 10
4.601538531128271
 20
3.343535932938034
 30
0.0
 10
4.573381462361403
 20
3.343535932938036
 30
0.0
 10
4.544758766023069
 20
3.343535932938036
 30
0.0
  0
SPLINE
  5
18C
330
1F
100
AcDbEntity
  8
0
  6
Continuous
 62
     7
370
    25
100
AcDbSpline
210
0.0
220
0.0
230
1.0
 70
     8
 71
     3
 72
    20
 73
    16
 74
     0
 42
0.000000001
 43
0.00000001
 40
0.0
 40
0.0
 40
0.0
 40
0.0
 40
0.1250000000000005
 40
0.1250000000000005
 40
0.2500000000000009
 40
0.2500000000000009
 40
0.3750000000000011
 40
0.3750000000000011
 40
0.5000000000000012
 40
0.5000000000000012
 40
0.7500000000000006
 40
0.7500000000000006
 40
0.8750000000000003
 40
0.8750000000000003
 40
1.0
 40
1.0
 40
1.0
 40
1.0
 10
4.328908994437658
 20
3.359306401685052
 30
0.0
 10
4.314273215767215
 20
3.359313892580736
 30
0.0
 10
4.300266674816028
 20
3.359295184706143
 30
0.0
 10
4.273524121293709
 20
3.359272938131953
 30
0.0
 10
4.260827936273142
 20
3.359272396460568
 30
0.0
 10
4.237178608557496
 20
3.359277699658122
 30
0.0
 10
4.226228370403387
 20
3.359283249593559
 30
0.0
 10
4.205992878326398
 20
3.359287113901254
 30
0.0
 10
4.196663081613753
 20
3.359286748971649
 30
0.0
 10
4.171729172969473
 20
3.359284366310863
 30
0.0
 10
4.159113689089958
 20
3.359277549172029
 30
0.0
 10
4.146237278874163
 20
3.359281602440975
 30
0.0
 10
4.142968748570492
 20
3.359291161846361
 30
0.0
 10
4.138606843699334
 20
3.359307239654442
 30
0.0
 10
4.137484075672145
 20
3.359311906408566
 30
0.0
 10
4.137489416593193
 20
3.35928397365624
 30
0.0
  0
SPLINE
  5
18D
330
1F
100
AcDbEntity
  8
0
  6
Continuous
 62
     7
370
    25
100
AcDbSpline
210
0.0
220
0.0
230
1.0
 70
    24
 71
     3
 72
    28
 73
    24
 74
     0
 42
0.000000001
 43
0.00000001
 40
0.0
 40
0.0
 40
0.0
 40
0.0
 40
0.1249999999999989
 40
0.1249999999999989
 40
0.187499999999999
 40
0.187499999999999
 40
0.249999999999999
 40
0.249999999999999
 40
0.312499999999999
 40
0.312499999999999
 40
0.3749999999999991
 40
0.3749999999999991
 40
0.4999999999999992
 40
0.4999999999999992
 40
0.6249999999999994
 40
0.6249999999999994
 40
0.7499999999999998
 40
0.7499999999999998
 40
0.8124999999999998
 40
0.8124999999999998
 40
0.8749999999999998
 40
0.8749999999999998
 40
1.0
 40
1.0
 40
1.0
 40
1.0
 10
4.110212948915867
 20
3.343535932938036
 30
0.0
 10
4.110182742440775
 20
3.343535932938036
 30
0.0
 10
4.113070627112326
 20
3.343535932938038
 30
0.0
 10
4.12147656038294
 20
3.343535932938038
 30
0.0
 10
4.124963630674108
 20
3.343535932938037
 30
0.0
 10
4.133205930174991
 20
3.343535932938037
 30
0.0
 10
4.137969569554545
 20
3.343535932938038
 30
0.0
 10
4.148811046715418
 20
3.343535932938038
 30
0.0
 10
4.154886751639169
 20
3.343535932938036
 30
0.0
 10
4.168318996492147
 20
3.343535932938036
 30
0.0
 10
4.175714368289598
 20
3.343535932938035
 30
0.0
 10
4.199524841638993
 20
3.343535932938035
 30
0.0
 10
4.217543205453272
 20
3.343535932938037
 30
0.0
 10
4.258123151451555
 20
3.343535932938037
 30
0.0
 10
4.280464037021232
 20
3.343535932938035
 30
0.0
 10
4.327599253342761
 20
3.343535932938035
 30
0.0
 10
4.352539207696824
 20
3.343535932938035
 30
0.0
 10
4.392025385224901
 20
3.343535932938036
 30
0.0
 10
4.405563447976844
 20
3.343535932938037
 30
0.0
 10
4.432740071462564
 20
3.343535932938037
 30
0.0
 10
4.446455954841921
 20
3.343535932938034
 30
0.0
 10
4.487979000917866
 20
3.343535932938034
 30
0.0
 10
4.516136069684734
 20
3.343535932938036
 30
0.0
 10
4.544758766023069
 20
3.343535932938036
 30
0.0
  0
ARC
  5
18E
330
1F
100
AcDbEntity
  8
0
  6
Continuous
 62
     7
370
    25
100
AcDbCircle
 10
4.7515154302
 20
4.9376642721
 30
0.0
 40
0.0138469854199777
100
AcDbArc
 50
129.1667755706
 51
178.6737708795
  0
SPLINE
  5
18F
330
1F
100
AcDbEntity
  8
0
  6
Continuous
 62
     7
370
    25
100
AcDbSpline
210
0.0
220
0.0
230
1.0
 70
     8
 71
     3
 72
    28
 73
    24
 74
     0
 42
0.000000001
 43
0.00000001
 40
0.0
 40
0.0
 40
0.0
 40
0.0
 40
0.1249999999999997
 40
0.1249999999999997
 40
0.1874999999999995
 40
0.1874999999999995
 40
0.2499999999999993
 40
0.2499999999999993
 40
0.3749999999999996
 40
0.3749999999999996
 40
0.4999999999999998
 40
0.4999999999999998
 40
0.6250000000000001
 40
0.6250000000000001
 40
0.6875000000000001
 40
0.6875000000000001
 40
0.7500000000000002
 40
0.7500000000000002
 40
0.8125000000000002
 40
0.8125000000000002
 40
0.8750000000000003
 40
0.8750000000000003
 40
1.0
 40
1.0
 40
1.0
 40
1.0
 10
4.737672151850149
 20
4.937984747897576
 30
0.0
 10
4.72502109594679
 20
4.950385263033994
 30
0.0
 10
4.71138845455718
 20
4.961383336864081
 30
0.0
 10
4.689444905775027
 20
4.975892636910061
 30
0.0
 10
4.681879494719735
 20
4.980394670576058
 30
0.0
 10
4.666220398489459
 20
4.988713271199539
 30
0.0
 10
4.658091234000373
 20
4.992540200791666
 30
0.0
 10
4.633410870477178
 20
5.002722492331442
 30
0.0
 10
4.616430537174262
 20
5.00788111418038
 30
0.0
 10
4.581377030442739
 20
5.014904938016344
 30
0.0
 10
4.563182769186588
 20
5.016748648687909
 30
0.0
 10
4.526805383602452
 20
5.016779709183989
 30
0.0
 10
4.50884689021396
 20
5.015011389912449
 30
0.0
 10
4.482258141278668
 20
5.009735579151152
 30
0.0
 10
4.473486868586691
 20
5.007538327778234
 30
0.0
 10
4.456404424005545
 20
5.002369619284
 30
0.0
 10
4.448050387937167
 20
4.99939026822045
 30
0.0
 10
4.431701390223691
 20
4.992661942057654
 30
0.0
 10
4.423706459599514
 20
4.988912944542061
 30
0.0
 10
4.408070274813801
 20
4.980641130104622
 30
0.0
 10
4.400395946054386
 20
4.976095162270787
 30
0.0
 10
4.378201686915104
 20
4.961453322305418
 30
0.0
 10
4.364500214204178
 20
4.950388966317459
 30
0.0
 10
4.351845380195988
 20
4.937984747897576
 30
0.0
  0
ARC
  5
190
330
1F
100
AcDbEntity
  8
0
  6
Continuous
 62
     7
370
    25
100
AcDbCircle
 10
4.3380021018
 20
4.9376642721
 30
0.0
 40
0.0138469854199777
100
AcDbArc
 50
1.3262291205
 51
50.8332244294
  0
SPLINE
  5
191
330
1F
100
AcDbEntity
  8
0
  6
Continuous
 62
     7
370
    25
100
AcDbSpline
210
0.0
220
0.0
230
1.0
 70
     8
 71
     3
 72
    12
 73
     8
 74
     0
 42
0.000000001
 43
0.00000001
 40
0.0
 40
0.0
 40
0.0
 40
0.0
 40
0.2500000000000001
 40
0.2500000000000001
 40
0.5000000000000002
 40
0.5000000000000002
 40
1.0
 40
1.0
 40
1.0
 40
1.0
 10
4.328223332952202
 20
4.881753027988093
 30
0.0
 10
4.328223332952202
 20
4.88691086635803
 30
0.0
 10
4.328725260088961
 20
4.892052766089465
 30
0.0
 10
4.330771807607555
 20
4.902298897659356
 30
0.0
 10
4.332349870410853
 20
4.907451208189268
 30
0.0
 10
4.338459862364491
 20
4.921972062971554
 30
0.0
 10
4.344490285683642
 20
4.930775313244249
 30
0.0
 10
4.351845380195991
 20
4.937984747897579
 30
0.0
  0
ARC
  5
192
330
1F
100
AcDbEntity
  8
0
  6
Continuous
 62
     7
370
    25
100
AcDbCircle
 10
4.3197131464
 20
4.8902883152
 30
0.0
 40
0.0120529860197371
100
AcDbArc
 50
264.3680927083
 51
314.9156225319
  0
ARC
  5
193
330
1F
100
AcDbEntity
  8
0
  6
Continuous
 62
     7
370
    25
100
AcDbCircle
 10
4.7698043857
 20
4.8902883152
 30
0.0
 40
0.0120529860197371
100
AcDbArc
 50
225.0843774681
 51
275.6319072917
  0
SPLINE
  5
194
330
1F
100
AcDbEntity
  8
0
  6
Continuous
 62
     7
370
    25
100
AcDbSpline
210
0.0
220
0.0
230
1.0
 70
     8
 71
     3
 72
    12
 73
     8
 74
     0
 42
0.000000001
 43
0.00000001
 40
0.0
 40
0.0
 40
0.0
 40
0.0
 40
0.2500000000000001
 40
0.2500000000000001
 40
0.5000000000000002
 40
0.5000000000000002
 40
1.0
 40
1.0
 40
1.0
 40
1.0
 10
4.761294199093935
 20
4.881753027988093
 30
0.0
 10
4.761294199093935
 20
4.88691086635803
 30
0.0
 10
4.760792271957175
 20
4.892052766089465
 30
0.0
 10
4.758745724438582
 20
4.902298897659356
 30
0.0
 10
4.757167661635284
 20
4.907451208189268
 30
0.0
 10
4.751057669681646
 20
4.921972062971554
 30
0.0
 10
4.745027246362496
 20
4.930775313244249
 30
0.0
 10
4.737672151850146
 20
4.937984747897579
 30
0.0
  0
SPLINE
  5
195
330
1F
100
AcDbEntity
  8
0
  6
Continuous
 62
     7
370
    25
100
AcDbSpline
210
0.0
220
0.0
230
1.0
 70
    24
 71
     3
 72
     8
 73
     4
 74
     0
 42
0.000000001
 43
0.00000001
 40
0.0
 40
0.0
 40
0.0
 40
0.0
 40
1.0
 40
1.0
 40
1.0
 40
1.0
 10
4.328223332952202
 20
3.843837878823728
 30
0.0
 10
4.328223332952202
 20
4.189917329545423
 30
0.0
 10
4.328223332952202
 20
4.535872819707901
 30
0.0
 10
4.328223332952202
 20
4.881753027988093
 30
0.0
  0
SPLINE
  5
196
330
1F
100
AcDbEntity
  8
0
  6
Continuous
 62
     7
370
    25
100
AcDbSpline
210
0.0
220
0.0
230
1.0
 70
     8
 71
     3
 72
    10
 73
     6
 74
     0
 42
0.000000001
 43
0.00000001
 40
0.0
 40
0.0
 40
0.0
 40
0.0
 40
0.5
 40
0.5
 40
1.0
 40
1.0
 40
1.0
 40
1.0
 10
4.319786887507884
 20
3.840118524638956
 30
0.0
 10
4.322401389426353
 20
3.840537668947493
 30
0.0
 10
4.324529698016261
 20
3.84109776662578
 30
0.0
 10
4.327439369300691
 20
3.842379626225073
 30
0.0
 10
4.328223332952208
 20
3.843114879233607
 30
0.0
 10
4.328223332952202
 20
3.843837878823737
 30
0.0
  0
SPLINE
  5
197
330
1F
100
AcDbEntity
  8
0
  6
Continuous
 62
     7
370
    25
100
AcDbSpline
210
0.0
220
0.0
230
1.0
 70
     8
 71
     3
 72
    10
 73
     6
 74
     0
 42
0.000000001
 43
0.00000001
 40
0.0
 40
0.0
 40
0.0
 40
0.0
 40
0.5
 40
0.5
 40
1.0
 40
1.0
 40
1.0
 40
1.0
 10
4.769730644538255
 20
3.840118524638956
 30
0.0
 10
4.767116142619785
 20
3.840537668947493
 30
0.0
 10
4.764987834029878
 20
3.84109776662578
 30
0.0
 10
4.762078162745446
 20
3.842379626225073
 30
0.0
 10
4.76129419909393
 20
3.843114879233607
 30
0.0
 10
4.761294199093935
 20
3.843837878823737
 30
0.0
  0
SPLINE
  5
198
330
1F
100
AcDbEntity
  8
0
  6
Continuous
 62
     7
370
    25
100
AcDbSpline
210
0.0
220
0.0
230
1.0
 70
    24
 71
     3
 72
     8
 73
     4
 74
     0
 42
0.000000001
 43
0.00000001
 40
0.0
 40
0.0
 40
0.0
 40
0.0
 40
1.0
 40
1.0
 40
1.0
 40
1.0
 10
4.761294199093935
 20
3.843837878823728
 30
0.0
 10
4.761294199093935
 20
4.189917329545423
 30
0.0
 10
4.761294199093935
 20
4.535872819707901
 30
0.0
 10
4.761294199093935
 20
4.881753027988093
 30
0.0
  0
LWPOLYLINE
  5
199
330
1F
100
AcDbEntity
  8
0
  6
Continuous
 62
     7
370
    25
100
AcDbPolyline
 90
        9
 70
   128
 43
0.0
 10
4.7612941979
 20
3.7344527305
 10
4.7614365179
 20
3.7338411376
 10
4.7618614064
 20
3.7332384912
 10
4.7625627216
 20
3.7326533713
 10
4.7635303071
 20
3.7320942111
 10
4.7647502113
 20
3.7315692238
 10
4.7662047795
 20
3.7310858894
 10
4.7678729469
 20
3.7306512478
 10
4.7697306421
 20
3.7302716055
  0
LINE
  5
19A
330
1F
100
AcDbEntity
  8
0
  6
Continuous
 62
     7
370
    25
100
AcDbLine
 10
4.7612941979
 20
3.7344527305
 30
0.0
 11
4.7612941979
 21
3.8438378869
 31
0.0
  0
LWPOLYLINE
  5
19B
330
1F
100
AcDbEntity
  8
0
  6
Continuous
 62
     7
370
    25
100
AcDbPolyline
 90
        9
 70
   128
 43
0.0
 10
4.3282233341
 20
3.7344527305
 10
4.3280810141
 20
3.7338411376
 10
4.3276561257
 20
3.7332384912
 10
4.3269548104
 20
3.7326533713
 10
4.325987225
 20
3.7320942111
 10
4.3247673207
 20
3.7315692238
 10
4.3233127525
 20
3.7310858894
 10
4.3216445851
 20
3.7306512478
 10
4.3197868899
 20
3.7302716055
  0
LINE
  5
19C
330
1F
100
AcDbEntity
  8
0
  6
Continuous
 62
     7
370
    25
100
AcDbLine
 10
4.3282233341
 20
3.7344527305
 30
0.0
 11
4.3282233341
 21
3.8438378869
 31
0.0
  0
SPLINE
  5
19D
330
1F
100
AcDbEntity
  8
0
  6
Continuous
 62
     7
370
    25
100
AcDbSpline
210
0.0
220
0.0
230
1.0
 70
     8
 71
     3
 72
    12
 73
     8
 74
     0
 42
0.000000001
 43
0.00000001
 40
0.0
 40
0.0
 40
0.0
 40
0.0
 40
0.5000000000000002
 40
0.5000000000000002
 40
0.7500000000000001
 40
0.7500000000000001
 40
1.0
 40
1.0
 40
1.0
 40
1.0
 10
4.351845380196298
 20
3.67822097624591
 30
0.0
 10
4.344847279177024
 20
3.685080487284223
 30
0.0
 10
4.33918377870728
 20
3.693061796443058
 30
0.0
 10
4.332884966496681
 20
3.707264361034715
 30
0.0
 10
4.331221094483785
 20
3.712256299921854
 30
0.0
 10
4.328888695439509
 20
3.722880447600461
 30
0.0
 10
4.328223332952202
 20
3.728566413026563
 30
0.0
 10
4.328223332952202
 20
3.734452696155697
 30
0.0
  0
LWPOLYLINE
  5
19E
330
1F
100
AcDbEntity
  8
0
  6
Continuous
 62
     7
370
    25
100
AcDbPolyline
 90
        9
 70
   128
 43
0.0
 10
4.3518453779
 20
3.6782209401
 10
4.3529038957
 20
3.6767745302
 10
4.3535221619
 20
3.6749538312
 10
4.3536818434
 20
3.6728130359
 10
4.3533782102
 20
3.670415577
 10
4.3526202456
 20
3.6678325868
 10
4.3514304627
 20
3.6651407712
 10
4.3498441527
 20
3.662419916
 10
4.3479083767
 20
3.6597507602
  0
SPLINE
  5
19F
330
1F
100
AcDbEntity
  8
0
  6
Continuous
 62
     7
370
    25
100
AcDbSpline
210
0.0
220
0.0
230
1.0
 70
     8
 71
     3
 72
    12
 73
     8
 74
     0
 42
0.000000001
 43
0.00000001
 40
0.0
 40
0.0
 40
0.0
 40
0.0
 40
0.5000000000000002
 40
0.5000000000000002
 40
0.7500000000000001
 40
0.7500000000000001
 40
1.0
 40
1.0
 40
1.0
 40
1.0
 10
4.737672151849841
 20
3.67822097624591
 30
0.0
 10
4.744670252869113
 20
3.685080487284223
 30
0.0
 10
4.750333753338857
 20
3.693061796443058
 30
0.0
 10
4.756632565549456
 20
3.707264361034715
 30
0.0
 10
4.758296437562353
 20
3.712256299921854
 30
0.0
 10
4.760628836606628
 20
3.722880447600461
 30
0.0
 10
4.761294199093935
 20
3.728566413026563
 30
0.0
 10
4.761294199093935
 20
3.734452696155697
 30
0.0
  0
LWPOLYLINE
  5
1A0
330
1F
100
AcDbEntity
  8
0
  6
Continuous
 62
     7
370
    25
100
AcDbPolyline
 90
        9
 70
   128
 43
0.0
 10
4.7376721541
 20
3.6782209401
 10
4.7366136364
 20
3.6767745302
 10
4.7359953702
 20
3.6749538312
 10
4.7358356887
 20
3.6728130359
 10
4.7361393218
 20
3.670415577
 10
4.7368972864
 20
3.6678325868
 10
4.7380870693
 20
3.6651407712
 10
4.7396733794
 20
3.662419916
 10
4.7416091553
 20
3.6597507602
  0
SPLINE
  5
1A1
330
1F
100
AcDbEntity
  8
0
  6
Continuous
 62
     7
370
    25
100
AcDbSpline
210
0.0
220
0.0
230
1.0
 70
     8
 71
     3
 72
    26
 73
    22
 74
     0
 42
0.000000001
 43
0.00000001
 40
0.0
 40
0.0
 40
0.0
 40
0.0
 40
0.125
 40
0.125
 40
0.25
 40
0.25
 40
0.375
 40
0.375
 40
0.4374999999999999
 40
0.4374999999999999
 40
0.4999999999999997
 40
0.4999999999999997
 40
0.6249999999999994
 40
0.6249999999999994
 40
0.7499999999999992
 40
0.7499999999999992
 40
0.8124999999999994
 40
0.8124999999999994
 40
0.8749999999999997
 40
0.8749999999999997
 40
1.0
 40
1.0
 40
1.0
 40
1.0
 10
4.351845380196298
 20
3.67822097624591
 30
0.0
 10
4.363411340461449
 20
3.666884067577544
 30
0.0
 10
4.376172250465974
 20
3.656374946092368
 30
0.0
 10
4.403976811951172
 20
3.637518290895803
 30
0.0
 10
4.418920503872135
 20
3.629210974892674
 30
0.0
 10
4.451390160747778
 20
3.615136735961792
 30
0.0
 10
4.469173307040141
 20
3.609345066468535
 30
0.0
 10
4.496724225428617
 20
3.60349751679499
 30
0.0
 10
4.506094757554147
 20
3.601997306954547
 30
0.0
 10
4.525242837260432
 20
3.599964776037591
 30
0.0
 10
4.535009933299247
 20
3.599441240217097
 30
0.0
 10
4.564273772119993
 20
3.599441853994751
 30
0.0
 10
4.583389800952886
 20
3.601501663096681
 30
0.0
 10
4.620564228103398
 20
3.609391765997775
 30
0.0
 10
4.637901896666985
 20
3.615047772692312
 30
0.0
 10
4.662421580225632
 20
3.625662920343703
 30
0.0
 10
4.670382226777688
 20
3.62958582188192
 30
0.0
 10
4.685537812140844
 20
3.63795323597673
 30
0.0
 10
4.692761307310297
 20
3.642405063046642
 30
0.0
 10
4.713503848440824
 20
3.656503256447226
 30
0.0
 10
4.726104428729615
 20
3.666882339633948
 30
0.0
 10
4.737672151849841
 20
3.67822097624591
 30
0.0
  0
LINE
  5
1A2
330
1F
100
AcDbEntity
  8
0
  6
Continuous
 62
     7
370
    25
100
AcDbLine
 10
4.7612941979
 20
4.6781508497
 30
0.0
 11
4.7416091553
 21
4.6781508497
 31
0.0
  0
ARC
  5
1A3
330
1F
100
AcDbEntity
  8
0
  6
Continuous
 62
     7
370
    25
100
AcDbCircle
 10
4.544758766
 20
4.7411737282
 30
0.0
 40
0.2066929133858273
100
AcDbArc
 50
342.2472098381
 51
17.7527901619
  0
LINE
  5
1A4
330
1F
100
AcDbEntity
  8
0
  6
Continuous
 62
     7
370
    25
100
AcDbLine
 10
4.7612941979
 20
4.8041966061
 30
0.0
 11
4.7416091553
 21
4.8041966061
 31
0.0
  0
ARC
  5
1A5
330
1F
100
AcDbEntity
  8
0
  6
Continuous
 62
     7
370
    25
100
AcDbCircle
 10
4.544758766
 20
4.7411737282
 30
0.0
 40
0.2066929133858265
100
AcDbArc
 50
162.2472098381
 51
197.7527901619
  0
LINE
  5
1A6
330
1F
100
AcDbEntity
  8
0
  6
Continuous
 62
     7
370
    25
100
AcDbLine
 10
4.3282233341
 20
4.6781508497
 30
0.0
 11
4.3479083767
 21
4.6781508497
 31
0.0
  0
LINE
  5
1A7
330
1F
100
AcDbEntity
  8
0
  6
Continuous
 62
     7
370
    25
100
AcDbLine
 10
4.3282233341
 20
4.8041966061
 30
0.0
 11
4.3479083767
 21
4.8041966061
 31
0.0
  0
ARC
  5
1A8
330
1F
100
AcDbEntity
  8
0
  6
Continuous
 62
     7
370
    25
100
AcDbCircle
 10
4.544758766
 20
4.0325126786
 30
0.0
 40
0.2066929133858268
100
AcDbArc
 50
162.2472098381
 51
180.0
  0
LINE
  5
1A9
330
1F
100
AcDbEntity
  8
0
  6
Continuous
 62
     7
370
    25
100
AcDbLine
 10
4.3282233341
 20
4.032512694
 30
0.0
 11
4.3380658554
 21
4.032512694
 31
0.0
  0
LINE
  5
1AA
330
1F
100
AcDbEntity
  8
0
  6
Continuous
 62
     7
370
    25
100
AcDbLine
 10
4.3282233341
 20
4.0955355493
 30
0.0
 11
4.3479083767
 21
4.0955355493
 31
0.0
  0
LINE
  5
1AB
330
1F
100
AcDbEntity
  8
0
  6
Continuous
 62
     7
370
    25
100
AcDbLine
 10
4.7612941979
 20
4.032512694
 30
0.0
 11
4.7514516766
 21
4.032512694
 31
0.0
  0
ARC
  5
1AC
330
1F
100
AcDbEntity
  8
0
  6
Continuous
 62
     7
370
    25
100
AcDbCircle
 10
4.544758766
 20
4.0325126786
 30
0.0
 40
0.206692913385827
100
AcDbArc
 50
0.0
 51
17.7527901619
  0
LINE
  5
1AD
330
1F
100
AcDbEntity
  8
0
  6
Continuous
 62
     7
370
    25
100
AcDbLine
 10
4.7612941979
 20
4.0955355493
 30
0.0
 11
4.7416091553
 21
4.0955355493
 31
0.0
  0
LINE
  5
1AE
330
1F
100
AcDbEntity
  8
0
  6
Continuous
 62
     7
370
    25
100
AcDbLine
 10
4.7612941979
 20
3.8120094613
 30
0.0
 11
4.7416091553
 21
3.8120094613
 31
0.0
  0
ARC
  5
1AF
330
1F
100
AcDbEntity
  8
0
  6
Continuous
 62
     7
370
    25
100
AcDbCircle
 10
4.544758766
 20
3.8750323636
 30
0.0
 40
0.2066929133858268
100
AcDbArc
 50
342.2472098381
 51
0.0
  0
LINE
  5
1B0
330
1F
100
AcDbEntity
  8
0
  6
Continuous
 62
     7
370
    25
100
AcDbLine
 10
4.7612941979
 20
3.8750323532
 30
0.0
 11
4.7514516766
 21
3.8750323532
 31
0.0
  0
ARC
  5
1B1
330
1F
100
AcDbEntity
  8
0
  6
Continuous
 62
     7
370
    25
100
AcDbCircle
 10
4.544758766
 20
3.8750323636
 30
0.0
 40
0.2066929133858268
100
AcDbArc
 50
180.0
 51
197.7527901619
  0
LINE
  5
1B2
330
1F
100
AcDbEntity
  8
0
  6
Continuous
 62
     7
370
    25
100
AcDbLine
 10
4.3282233341
 20
3.8120094613
 30
0.0
 11
4.3479083767
 21
3.8120094613
 31
0.0
  0
LINE
  5
1B3
330
1F
100
AcDbEntity
  8
0
  6
Continuous
 62
     7
370
    25
100
AcDbLine
 10
4.3282233341
 20
3.8750323532
 30
0.0
 11
4.3380658554
 21
3.8750323532
 31
0.0
  0
ARC
  5
1B4
330
1F
100
AcDbEntity
  8
0
  6
Continuous
 62
     7
370
    25
100
AcDbCircle
 10
4.4069634904
 20
3.7344526962
 30
0.0
 40
0.0590551181102364
100
AcDbArc
 50
180.0
 51
225.5729959992
  0
LWPOLYLINE
  5
1B5
330
1F
100
AcDbEntity
  8
0
  6
Continuous
 62
     7
370
    25
100
AcDbPolyline
 90
        9
 70
   128
 43
0.0
 10
4.3518453779
 20
3.6782209401
 10
4.3521101448
 20
3.678491097
 10
4.3528942891
 20
3.6792910811
 10
4.3541676527
 20
3.6805901661
 10
4.3558813046
 20
3.6823384126
 10
4.3579694105
 20
3.6844687213
 10
4.360351708
 20
3.6868991799
 10
4.3629366598
 20
3.6895363627
 10
4.3656249004
 20
3.6922789244
  0
LINE
  5
1B6
330
1F
100
AcDbEntity
  8
0
  6
Continuous
 62
     7
370
    25
100
AcDbLine
 10
4.3282233341
 20
3.7344527305
 30
0.0
 11
4.3479083767
 21
3.7344527305
 31
0.0
  0
LINE
  5
1B7
330
1F
100
AcDbEntity
  8
0
  6
Continuous
 62
     7
370
    25
100
AcDbLine
 10
4.3479083767
 20
3.7344527305
 30
0.0
 11
4.3479083767
 21
3.8120094613
 31
0.0
  0
LINE
  5
1B8
330
1F
100
AcDbEntity
  8
0
  6
Continuous
 62
     7
370
    25
100
AcDbLine
 10
4.3479083767
 20
4.8041966061
 30
0.0
 11
4.3479083767
 21
4.8817530251
 31
0.0
  0
LINE
  5
1B9
330
1F
100
AcDbEntity
  8
0
  6
Continuous
 62
     7
370
    25
100
AcDbLine
 10
4.3282233341
 20
4.8817530251
 30
0.0
 11
4.3479083767
 21
4.8817530251
 31
0.0
  0
LWPOLYLINE
  5
1BA
330
1F
100
AcDbEntity
  8
0
  6
Continuous
 62
     7
370
    25
100
AcDbPolyline
 90
        9
 70
   128
 43
0.0
 10
4.7376721541
 20
3.6782209401
 10
4.7374073872
 20
3.678491097
 10
4.7366232429
 20
3.6792910811
 10
4.7353498793
 20
3.6805901661
 10
4.7336362274
 20
3.6823384126
 10
4.7315481215
 20
3.6844687213
 10
4.7291658241
 20
3.6868991799
 10
4.7265808723
 20
3.6895363627
 10
4.7238926317
 20
3.6922789244
  0
ARC
  5
1BB
330
1F
100
AcDbEntity
  8
0
  6
Continuous
 62
     7
370
    25
100
AcDbCircle
 10
4.6825540416
 20
3.7344526962
 30
0.0
 40
0.0590551181102361
100
AcDbArc
 50
314.4270040008
 51
0.0
  0
LINE
  5
1BC
330
1F
100
AcDbEntity
  8
0
  6
Continuous
 62
     7
370
    25
100
AcDbLine
 10
4.7612941979
 20
3.7344527305
 30
0.0
 11
4.7416091553
 21
3.7344527305
 31
0.0
  0
LINE
  5
1BD
330
1F
100
AcDbEntity
  8
0
  6
Continuous
 62
     7
370
    25
100
AcDbLine
 10
4.7416091553
 20
3.7344527305
 30
0.0
 11
4.7416091553
 21
3.8120094613
 31
0.0
  0
LINE
  5
1BE
330
1F
100
AcDbEntity
  8
0
  6
Continuous
 62
     7
370
    25
100
AcDbLine
 10
4.7416091553
 20
4.8041966061
 30
0.0
 11
4.7416091553
 21
4.8817530251
 31
0.0
  0
LINE
  5
1BF
330
1F
100
AcDbEntity
  8
0
  6
Continuous
 62
     7
370
    25
100
AcDbLine
 10
4.7612941979
 20
4.8817530251
 30
0.0
 11
4.7416091553
 21
4.8817530251
 31
0.0
  0
LINE
  5
1C0
330
1F
100
AcDbEntity
  8
0
  6
Continuous
 62
     7
370
    25
100
AcDbLine
 10
4.7416091553
 20
4.0955355493
 30
0.0
 11
4.7416091553
 21
4.6781508497
 31
0.0
  0
LINE
  5
1C1
330
1F
100
AcDbEntity
  8
0
  6
Continuous
 62
     7
370
    25
100
AcDbLine
 10
4.3479083767
 20
4.0955355493
 30
0.0
 11
4.3479083767
 21
4.6781508497
 31
0.0
  0
LINE
  5
1C2
330
1F
100
AcDbEntity
  8
0
  6
Continuous
 62
     7
370
    25
100
AcDbLine
 10
4.7376721541
 20
4.9379847606
 30
0.0
 11
4.7238926317
 21
4.923926813
 31
0.0
  0
ARC
  5
1C3
330
1F
100
AcDbEntity
  8
0
  6
Continuous
 62
     7
370
    25
100
AcDbCircle
 10
4.544758766
 20
4.7411737282
 30
0.0
 40
0.2559055118110239
100
AcDbArc
 50
45.5729959992
 51
134.4270040008
  0
LINE
  5
1C4
330
1F
100
AcDbEntity
  8
0
  6
Continuous
 62
     7
370
    25
100
AcDbLine
 10
4.3518453779
 20
4.9379847606
 30
0.0
 11
4.3656249004
 21
4.923926813
 31
0.0
  0
ARC
  5
1C5
330
1F
100
AcDbEntity
  8
0
  6
Continuous
 62
     7
370
    25
100
AcDbCircle
 10
4.6825540416
 20
4.881753028
 30
0.0
 40
0.0590551181102361
100
AcDbArc
 50
0.0
 51
45.5729959992
  0
ARC
  5
1C6
330
1F
100
AcDbEntity
  8
0
  6
Continuous
 62
     7
370
    25
100
AcDbCircle
 10
4.4069634904
 20
4.881753028
 30
0.0
 40
0.0590551181102367
100
AcDbArc
 50
134.4270040008
 51
180.0
  0
ARC
  5
1C7
330
1F
100
AcDbEntity
  8
0
  6
Continuous
 62
     7
370
    25
100
AcDbCircle
 10
4.544758766
 20
3.8750319959
 30
0.0
 40
0.2559055118110236
100
AcDbArc
 50
225.5729959992
 51
314.4270040008
  0
LINE
  5
1C8
330
1F
100
AcDbEntity
  8
0
  6
Continuous
 62
     7
370
    25
100
AcDbLine
 10
4.7514516766
 20
4.032512694
 30
0.0
 11
4.7514516766
 21
3.8750323532
 31
0.0
  0
LINE
  5
1C9
330
1F
100
AcDbEntity
  8
0
  6
Continuous
 62
     7
370
    25
100
AcDbLine
 10
4.3380658554
 20
4.032512694
 30
0.0
 11
4.3380658554
 21
3.8750323532
 31
0.0
  0
ARC
  5
1CA
330
1F
100
AcDbEntity
  8
0
  6
Continuous
 62
     7
370
    25
100
AcDbCircle
 10
4.544758766
 20
4.7411737282
 30
0.0
 40
0.206692913385827
100
AcDbArc
 50
17.7527901619
 51
162.2472098381
  0
ARC
  5
1CB
330
1F
100
AcDbEntity
  8
0
  6
Continuous
 62
     7
370
    25
100
AcDbCircle
 10
4.544758766
 20
4.7411737282
 30
0.0
 40
0.2066929133858273
100
AcDbArc
 50
197.7527901619
 51
342.2472098381
  0
ARC
  5
1CC
330
1F
100
AcDbEntity
  8
0
  6
Continuous
 62
     7
370
    25
100
AcDbCircle
 10
4.544758766
 20
4.0325126786
 30
0.0
 40
0.206692913385827
100
AcDbArc
 50
17.7527901619
 51
162.2472098381
  0
ARC
  5
1CD
330
1F
100
AcDbEntity
  8
0
  6
Continuous
 62
     7
370
    25
100
AcDbCircle
 10
4.544758766
 20
3.8750323636
 30
0.0
 40
0.2066929133858268
100
AcDbArc
 50
197.7527901619
 51
342.2472098381
  0
CIRCLE
  5
1CE
330
1F
100
AcDbEntity
  8
0
  6
Continuous
 62
     7
370
    25
100
AcDbCircle
 10
4.544758766
 20
4.7411737282
 30
0.0
 40
0.1870078740157481
  0
LINE
  5
1CF
330
1F
100
AcDbEntity
  8
0
  6
Continuous
 62
     7
370
    25
100
AcDbLine
 10
4.357750898
 20
3.8750323532
 30
0.0
 11
4.357750898
 21
4.032512694
 31
0.0
  0
LINE
  5
1D0
330
1F
100
AcDbEntity
  8
0
  6
Continuous
 62
     7
370
    25
100
AcDbLine
 10
4.3380658554
 20
3.8750323532
 30
0.0
 11
4.357750898
 21
3.8750323532
 31
0.0
  0
LINE
  5
1D1
330
1F
100
AcDbEntity
  8
0
  6
Continuous
 62
     7
370
    25
100
AcDbLine
 10
4.3380658554
 20
4.032512694
 30
0.0
 11
4.357750898
 21
4.032512694
 31
0.0
  0
ARC
  5
1D2
330
1F
100
AcDbEntity
  8
0
  6
Continuous
 62
     7
370
    25
100
AcDbCircle
 10
4.544758766
 20
3.8750323636
 30
0.0
 40
0.1870078740157481
100
AcDbArc
 50
180.0
 51
0.0
  0
LINE
  5
1D3
330
1F
100
AcDbEntity
  8
0
  6
Continuous
 62
     7
370
    25
100
AcDbLine
 10
4.7514516766
 20
3.8750323532
 30
0.0
 11
4.731766634
 21
3.8750323532
 31
0.0
  0
LINE
  5
1D4
330
1F
100
AcDbEntity
  8
0
  6
Continuous
 62
     7
370
    25
100
AcDbLine
 10
4.731766634
 20
3.8750323532
 30
0.0
 11
4.731766634
 21
4.032512694
 31
0.0
  0
LINE
  5
1D5
330
1F
100
AcDbEntity
  8
0
  6
Continuous
 62
     7
370
    25
100
AcDbLine
 10
4.7514516766
 20
4.032512694
 30
0.0
 11
4.731766634
 21
4.032512694
 31
0.0
  0
ARC
  5
1D6
330
1F
100
AcDbEntity
  8
0
  6
Continuous
 62
     7
370
    25
100
AcDbCircle
 10
4.544758766
 20
4.0325126786
 30
0.0
 40
0.1870078740157481
100
AcDbArc
 50
0.0
 51
180.0
  0
LINE
  5
1D7
330
1F
100
AcDbEntity
  8
0
  6
Continuous
 62
     7
370
    25
100
AcDbLine
 10
4.653026482
 20
4.0325123273
 30
0.0
 11
4.653026482
 21
3.8750319865
 31
0.0
  0
LINE
  5
1D8
330
1F
100
AcDbEntity
  8
0
  6
Continuous
 62
     7
370
    25
100
AcDbLine
 10
4.4364910501
 20
4.0325123273
 30
0.0
 11
4.4364910501
 21
3.8750319865
 31
0.0
  0
ARC
  5
1D9
330
1F
100
AcDbEntity
  8
0
  6
Continuous
 62
     7
370
    25
100
AcDbCircle
 10
4.544758766
 20
3.8750319959
 30
0.0
 40
0.1082677165354333
100
AcDbArc
 50
180.0
 51
0.0
  0
ARC
  5
1DA
330
1F
100
AcDbEntity
  8
0
  6
Continuous
 62
     7
370
    25
100
AcDbCircle
 10
4.544758766
 20
4.0325123109
 30
0.0
 40
0.1082677165354333
100
AcDbArc
 50
0.0
 51
180.0
  0
CIRCLE
  5
1DB
330
1F
100
AcDbEntity
  8
0
  6
Continuous
 62
     7
370
    25
100
AcDbCircle
 10
4.544758766
 20
4.7411737282
 30
0.0
 40
0.1082677165354333
  0
SPLINE
  5
1DC
330
1F
100
AcDbEntity
  8
0
  6
Continuous
 62
     7
370
    25
100
AcDbSpline
210
0.0
220
0.0
230
1.0
 70
     8
 71
     3
 72
    12
 73
     8
 74
     0
 42
0.000000001
 43
0.00000001
 40
0.0
 40
0.0
 40
0.0
 40
0.0
 40
0.0770406123042442
 40
0.3066645825065282
 40
0.5375152825126954
 40
0.7692139941811682
 40
1.0
 40
1.0
 40
1.0
 40
1.0
 10
5.068002298135802
 20
5.092505365520572
 30
0.0
 10
5.070994640481124
 20
5.090868688490421
 30
0.0
 10
5.082905831067469
 20
5.084353801560816
 30
0.0
 10
5.096483394279669
 20
5.072150018807069
 30
0.0
 10
5.108493250755141
 20
5.056188320147883
 30
0.0
 10
5.114654139986642
 20
5.039949602491483
 30
0.0
 10
5.115300730682792
 20
5.029085178879225
 30
0.0
 10
5.115623388012909
 20
5.023663687452178
 30
0.0
  0
SPLINE
  5
1DD
330
1F
100
AcDbEntity
  8
0
  6
Continuous
 62
     7
370
    25
100
AcDbSpline
210
0.0
220
0.0
230
1.0
 70
     8
 71
     3
 72
    12
 73
     8
 74
     0
 42
0.000000001
 43
0.00000001
 40
0.0
 40
0.0
 40
0.0
 40
0.0
 40
0.0746016453493407
 40
0.3048324085295643
 40
0.5362931432093448
 40
0.7686041304652234
 40
1.0
 40
1.0
 40
1.0
 40
1.0
 10
4.021217137353972
 20
5.092336444138633
 30
0.0
 10
4.018329264077781
 20
5.090755524750275
 30
0.0
 10
4.006529023450549
 20
5.084295674399953
 30
0.0
 10
3.993040209997175
 20
5.072149373475167
 30
0.0
 10
3.981022651517093
 20
5.056188493353604
 30
0.0
 10
3.974863798250683
 20
5.039949559323142
 30
0.0
 10
3.974216936582155
 20
5.029085164508721
 30
0.0
 10
3.973894144033229
 20
5.023663687452178
 30
0.0
  0
SPLINE
  5
1DE
330
1F
100
AcDbEntity
  8
0
  6
Continuous
 62
     7
370
    25
100
AcDbSpline
210
0.0
220
0.0
230
1.0
 70
     8
 71
     3
 72
    10
 73
     6
 74
     0
 42
0.000000001
 43
0.00000001
 40
0.0
 40
0.0
 40
0.0
 40
0.0
 40
0.4923620794775367
 40
0.986670191669639
 40
1.0
 40
1.0
 40
1.0
 40
1.0
 10
5.084127341857922
 20
4.993206615961535
 30
0.0
 10
5.083708078897583
 20
4.99838681842334
 30
0.0
 10
5.082867895864243
 20
5.008767697798334
 30
0.0
 10
5.080256996176344
 20
5.019390503700737
 30
0.0
 10
5.076357244417845
 20
5.024686037937386
 30
0.0
 10
5.076254842801702
 20
5.024825090702215
 30
0.0
  0
SPLINE
  5
1DF
330
1F
100
AcDbEntity
  8
0
  6
Continuous
 62
     7
370
    25
100
AcDbSpline
210
0.0
220
0.0
230
1.0
 70
     8
 71
     3
 72
    10
 73
     6
 74
     0
 42
0.000000001
 43
0.00000001
 40
0.0
 40
0.0
 40
0.0
 40
0.0
 40
0.4365928706466727
 40
0.911792920301581
 40
0.9999999999999999
 40
0.9999999999999999
 40
0.9999999999999999
 40
0.9999999999999999
 10
4.005448892843412
 20
4.994478567934503
 30
0.0
 10
4.00555137134713
 20
4.999160931229259
 30
0.0
 10
4.005765390357646
 20
5.00893971139146
 30
0.0
 10
4.007636922461526
 20
5.019809563850726
 30
0.0
 10
4.012501145907763
 20
5.025771209745814
 30
0.0
 10
4.013262689244436
 20
5.026704565657027
 30
0.0
  0
SPLINE
  5
1E0
330
1F
100
AcDbEntity
  8
0
  6
Continuous
 62
     7
370
    25
100
AcDbSpline
210
0.0
220
0.0
230
1.0
 70
     8
 71
     3
 72
     9
 73
     5
 74
     0
 42
0.000000001
 43
0.00000001
 40
0.0
 40
0.0
 40
0.0
 40
0.0
 40
0.5024394561022986
 40
0.9999999999999999
 40
0.9999999999999999
 40
0.9999999999999999
 40
0.9999999999999999
 10
3.97425119990849
 20
3.325974942630761
 30
0.0
 10
3.975140451446112
 20
3.325638276635241
 30
0.0
 10
3.976910319490555
 20
3.324968213821838
 30
0.0
 10
3.98483058648367
 20
3.324311762985598
 30
0.0
 10
3.988771398836579
 20
3.323985138950477
 30
0.0
  0
SPLINE
  5
1E1
330
1F
100
AcDbEntity
  8
0
  6
Continuous
 62
     7
370
    25
100
AcDbSpline
210
0.0
220
0.0
230
1.0
 70
     8
 71
     3
 72
     9
 73
     5
 74
     0
 42
0.000000001
 43
0.00000001
 40
0.0
 40
0.0
 40
0.0
 40
0.0
 40
0.5057105699525005
 40
1.0
 40
1.0
 40
1.0
 40
1.0
 10
5.115266332137648
 20
3.325974942630761
 30
0.0
 10
5.114380446361559
 20
3.325638271111392
 30
0.0
 10
5.112628681955739
 20
3.324972531577013
 30
0.0
 10
5.104766345032309
 20
3.324320293292822
 30
0.0
 10
5.100880074995585
 20
3.323997898803074
 30
0.0
  0
LINE
  5
1E2
330
1F
100
AcDbEntity
  8
0
  6
Continuous
 62
     7
370
    25
100
AcDbLine
 10
4.544758766
 20
3.3435358731
 30
0.0
 11
4.544758766
 21
3.3395674123
 31
0.0
  0
SPLINE
  5
1E3
330
1F
100
AcDbEntity
  8
0
  6
Continuous
 62
     7
370
    25
100
AcDbSpline
210
0.0
220
0.0
230
1.0
 70
     8
 71
     3
 72
    15
 73
    11
 74
     0
 42
0.000000001
 43
0.00000001
 40
0.0
 40
0.0
 40
0.0
 40
0.0
 40
0.0000063599033138
 40
0.1816519517379233
 40
0.3633057036328856
 40
0.5264020135315399
 40
0.690027357903522
 40
0.853132639045914
 40
0.9871180157685521
 40
1.0
 40
1.0
 40
1.0
 40
1.0
 10
4.544758766023069
 20
3.339567412276059
 30
0.0
 10
4.544757978621531
 20
3.339567412276041
 30
0.0
 10
4.522268167207604
 20
3.339567411744174
 30
0.0
 10
4.477244588960302
 20
3.339658825626838
 30
0.0
 10
4.413047673557606
 20
3.340043519700622
 30
0.0
 10
4.352978767534524
 20
3.340655209383856
 30
0.0
 10
4.297427090740622
 20
3.341447932295953
 30
0.0
 10
4.248489434867513
 20
3.342395065762253
 30
0.0
 10
4.216886655521293
 20
3.343103457275427
 30
0.0
 10
4.203352617056907
 20
3.343501003636129
 30
0.0
 10
4.202165523689439
 20
3.343535873098728
 30
0.0
  0
SPLINE
  5
1E4
330
1F
100
AcDbEntity
  8
0
  6
Continuous
 62
     7
370
    25
100
AcDbSpline
210
0.0
220
0.0
230
1.0
 70
     8
 71
     3
 72
    10
 73
     6
 74
     0
 42
0.000000001
 43
0.00000001
 40
0.0
 40
0.0
 40
0.0
 40
0.0
 40
0.0422705190009666
 40
0.5124705323626639
 40
1.0
 40
1.0
 40
1.0
 40
1.0
 10
4.022133426768919
 20
3.353122042358482
 30
0.0
 10
4.021604246678419
 20
3.353181700932283
 30
0.0
 10
4.015188683086977
 20
3.353904977149325
 30
0.0
 10
4.008506856694876
 20
3.355387708670803
 30
0.0
 10
4.006596238774707
 20
3.35683410634806
 30
0.0
 10
4.005623644158003
 20
3.35757039097078
 30
0.0
  0
SPLINE
  5
1E5
330
1F
100
AcDbEntity
  8
0
  6
Continuous
 62
     7
370
    25
100
AcDbSpline
210
0.0
220
0.0
230
1.0
 70
     8
 71
     3
 72
    15
 73
    11
 74
     0
 42
0.000000001
 43
0.00000001
 40
0.0
 40
0.0
 40
0.0
 40
0.0
 40
0.0000063599033138
 40
0.1816519517379233
 40
0.3633057036328856
 40
0.5264020135315399
 40
0.690027357903522
 40
0.853132639045914
 40
0.9871180157685521
 40
1.0
 40
1.0
 40
1.0
 40
1.0
 10
4.544758766023069
 20
3.339567412276059
 30
0.0
 10
4.544759553424607
 20
3.33956741227604
 30
0.0
 10
4.567249364838535
 20
3.339567411744389
 30
0.0
 10
4.612272943085837
 20
3.339658825626738
 30
0.0
 10
4.676469858488532
 20
3.340043519700646
 30
0.0
 10
4.736538764511613
 20
3.34065520938385
 30
0.0
 10
4.792090441305516
 20
3.341447932295956
 30
0.0
 10
4.841028097178626
 20
3.342395065762253
 30
0.0
 10
4.872630876524845
 20
3.343103457275427
 30
0.0
 10
4.886164914989232
 20
3.343501003636129
 30
0.0
 10
4.887352008356699
 20
3.343535873098728
 30
0.0
  0
SPLINE
  5
1E6
330
1F
100
AcDbEntity
  8
0
  6
Continuous
 62
     7
370
    25
100
AcDbSpline
210
0.0
220
0.0
230
1.0
 70
     8
 71
     3
 72
    10
 73
     6
 74
     0
 42
0.000000001
 43
0.00000001
 40
0.0
 40
0.0
 40
0.0
 40
0.0
 40
0.0422705190009666
 40
0.5124705323626639
 40
1.0
 40
1.0
 40
1.0
 40
1.0
 10
5.067384105277219
 20
3.353122042358482
 30
0.0
 10
5.067913285367718
 20
3.353181700932283
 30
0.0
 10
5.074328848959161
 20
3.353904977149325
 30
0.0
 10
5.081010675351262
 20
3.355387708670803
 30
0.0
 10
5.082921293271432
 20
3.35683410634806
 30
0.0
 10
5.083893887888134
 20
3.35757039097078
 30
0.0
  0
LINE
  5
1E7
330
1F
100
AcDbEntity
  8
0
  6
Continuous
 62
     7
370
    25
100
AcDbLine
 10
5.2819054971
 20
5.5029212944
 30
0.0
 11
5.2819054971
 21
5.5022505221
 31
0.0
  0
LINE
  5
1E8
330
1F
100
AcDbEntity
  8
0
  6
Continuous
 62
     7
370
    25
100
AcDbLine
 10
3.8076120349
 20
5.5029212944
 30
0.0
 11
3.8076120349
 21
5.5022505221
 31
0.0
  0
SPLINE
  5
1E9
330
1F
100
AcDbEntity
  8
0
  6
Continuous
 62
     7
370
    25
100
AcDbSpline
210
0.0
220
0.0
230
1.0
 70
     8
 71
     3
 72
    11
 73
     7
 74
     0
 42
0.000000001
 43
0.00000001
 40
0.0
 40
0.0
 40
0.0
 40
0.0
 40
0.202862836325617
 40
0.4685757436086394
 40
0.7342873013334232
 40
1.0
 40
1.0
 40
1.0
 40
1.0
 10
4.013829806026387
 20
5.06375019436943
 30
0.0
 10
4.014222518433612
 20
5.066783321498465
 30
0.0
 10
4.015129611677364
 20
5.073789285851962
 30
0.0
 10
4.022004257092796
 20
5.08299777393837
 30
0.0
 10
4.0323678687765
 20
5.090047258495081
 30
0.0
 10
4.040628465057579
 20
5.090959026479803
 30
0.0
 10
4.044758772065665
 20
5.091414911450924
 30
0.0
  0
SPLINE
  5
1EA
330
1F
100
AcDbEntity
  8
0
  6
Continuous
 62
     7
370
    25
100
AcDbSpline
210
0.0
220
0.0
230
1.0
 70
     8
 71
     3
 72
    11
 73
     7
 74
     0
 42
0.000000001
 43
0.00000001
 40
0.0
 40
0.0
 40
0.0
 40
0.0
 40
0.2045062543475658
 40
0.4696713545524682
 40
0.7348351079814491
 40
1.0
 40
1.0
 40
1.0
 40
1.0
 10
5.075706389137485
 20
5.063659665415228
 30
0.0
 10
5.075310851458456
 20
5.066724073342073
 30
0.0
 10
5.074402455194101
 20
5.073761826913445
 30
0.0
 10
5.067514693835757
 20
5.082998231742284
 30
0.0
 10
5.057149308548008
 20
5.09004714404377
 30
0.0
 10
5.048888948747846
 20
5.09095898832931
 30
0.0
 10
5.044758759980471
 20
5.091414911450924
 30
0.0
  0
LWPOLYLINE
  5
1EB
330
1F
100
AcDbEntity
  8
0
  6
Continuous
 62
     7
370
    25
100
AcDbPolyline
 90
       45
 70
   128
 43
0.0
 10
5.0039396982
 20
5.0568512941
 10
5.0034313941
 20
5.0643940169
 10
5.0005934635
 20
5.0729728912
 10
4.9953634273
 20
5.0814760496
 10
4.987768675
 20
5.0898589061
 10
4.9778490629
 20
5.0980774612
 10
4.9656566571
 20
5.1060885953
 10
4.9512554401
 20
5.1138502523
 10
4.9347209811
 20
5.1213217326
 10
4.9161401058
 20
5.1284637668
 10
4.8956102363
 20
5.1352389185
 10
4.8732391714
 20
5.1416116216
 10
4.8491442614
 20
5.1475484363
 10
4.8234520049
 20
5.1530181965
 10
4.7962972052
 20
5.157992229
 10
4.7678223658
 20
5.1624443909
 10
4.7381769383
 20
5.1663513624
 10
4.7075164608
 20
5.1696925738
 10
4.6760018707
 20
5.172450572
 10
4.6437985327
 20
5.1746108004
 10
4.6110754462
 20
5.1761620024
 10
4.5780043397
 20
5.177095965
 10
4.544758766
 20
5.1774078481
 10
4.5115131924
 20
5.177095965
 10
4.4784420859
 20
5.1761620024
 10
4.4457189993
 20
5.1746108004
 10
4.4135156613
 20
5.172450572
 10
4.3820010712
 20
5.1696925738
 10
4.3513405937
 20
5.1663513624
 10
4.3216951662
 20
5.1624443909
 10
4.2932203268
 20
5.157992229
 10
4.2660655272
 20
5.1530181965
 10
4.2403732706
 20
5.1475484363
 10
4.2162783607
 20
5.1416116216
 10
4.1939072958
 20
5.1352389185
 10
4.1733774263
 20
5.1284637668
 10
4.1547965509
 20
5.1213217326
 10
4.1382620919
 20
5.1138502523
 10
4.1238608749
 20
5.1060885953
 10
4.1116684691
 20
5.0980774612
 10
4.101748857
 20
5.0898589061
 10
4.0941541048
 20
5.0814760496
 10
4.0889240685
 20
5.0729728912
 10
4.086086138
 20
5.0643940169
 10
4.0855650007
 20
5.0571024578
  0
LINE
  5
1EC
330
1F
100
AcDbEntity
  8
0
  6
Continuous
 62
     7
370
    25
100
AcDbLine
 10
4.544758766
 20
5.2206167422
 30
0.0
 11
4.544758766
 21
5.2216873965
 31
0.0
  0
ENDSEC
  0
SECTION
  2
OBJECTS
  0
DICTIONARY
  5
C
330
0
100
AcDbDictionary
281
     1
  3
ACAD_GROUP
350
D
  3
ACAD_LAYOUT
350
1A
  3
ACAD_MLINESTYLE
350
17
  3
ACAD_PLOTSETTINGS
350
19
  3
ACAD_PLOTSTYLENAME
350
E
  3
ACAD_SCALELIST
350
47
  0
DICTIONARY
  5
D
102
{ACAD_REACTORS
330
C
102
}
330
C
100
AcDbDictionary
281
     1
  0
DICTIONARY
  5
1A
102
{ACAD_REACTORS
330
C
102
}
330
C
100
AcDbDictionary
281
     1
  3
Layout1
350
1E
  3
Layout2
350
26
  3
Model
350
22
  0
DICTIONARY
  5
17
102
{ACAD_REACTORS
330
C
102
}
330
C
100
AcDbDictionary
281
     1
  3
Standard
350
18
  0
DICTIONARY
  5
19
102
{ACAD_REACTORS
330
C
102
}
330
C
100
AcDbDictionary
281
     1
  0
ACDBDICTIONARYWDFLT
  5
E
102
{ACAD_REACTORS
330
C
102
}
330
C
100
AcDbDictionary
281
     1
  3
Normal
350
F
100
AcDbDictionaryWithDefault
340
F
  0
DICTIONARY
  5
47
102
{ACAD_REACTORS
330
C
102
}
330
C
100
AcDbDictionary
281
     1
  3
A0
350
48
  3
A1
350
49
  3
A2
350
4A
  3
A3
350
4B
  3
A4
350
4C
  3
A5
350
4D
  3
A6
350
4E
  3
A7
350
4F
  3
A8
350
50
  3
A9
350
51
  3
B0
350
52
  3
B1
350
53
  3
B2
350
54
  3
B3
350
55
  3
B4
350
56
  3
B5
350
57
  3
B6
350
58
  3
B7
350
59
  3
B8
350
5A
  3
B9
350
5B
  3
C0
350
5C
  3
C1
350
5D
  3
C2
350
5E
  3
C3
350
5F
  3
C4
350
60
  3
C5
350
61
  3
C6
350
62
  3
C7
350
63
  3
C8
350
64
  3
C9
350
65
  3
D0
350
66
  3
D1
350
67
  3
D2
350
68
  0
LAYOUT
  5
1E
102
{ACAD_REACTORS
330
1A
102
}
330
1A
100
AcDbPlotSettings
  1

  2
none_device
  4

  6

 40
0.0
 41
0.0
 42
0.0
 43
0.0
 44
0.0
 45
0.0
 46
0.0
 47
0.0
 48
0.0
 49
0.0
140
0.0
141
0.0
142
1.0
143
1.0
 70
   688
 72
     0
 73
     0
 74
     5
  7

 75
    16
147
1.0
148
0.0
149
0.0
100
AcDbLayout
  1
Layout1
 70
     1
 71
     1
 10
0.0
 20
0.0
 11
12.0
 21
9.0
 12
0.0
 22
0.0
 32
0.0
 14
1.0000000000E+20
 24
1.0000000000E+20
 34
1.0000000000E+20
 15
-1.0000000000E+20
 25
-1.0000000000E+20
 35
-1.0000000000E+20
146
0.0
 13
0.0
 23
0.0
 33
0.0
 16
1.0
 26
0.0
 36
0.0
 17
0.0
 27
1.0
 37
0.0
 76
     0
330
1B
  0
LAYOUT
  5
26
102
{ACAD_REACTORS
330
1A
102
}
330
1A
100
AcDbPlotSettings
  1

  2
none_device
  4

  6

 40
0.0
 41
0.0
 42
0.0
 43
0.0
 44
0.0
 45
0.0
 46
0.0
 47
0.0
 48
0.0
 49
0.0
140
0.0
141
0.0
142
1.0
143
1.0
 70
   688
 72
     0
 73
     0
 74
     5
  7

 75
    16
147
1.0
148
0.0
149
0.0
100
AcDbLayout
  1
Layout2
 70
     1
 71
     2
 10
0.0
 20
0.0
 11
0.0
 21
0.0
 12
0.0
 22
0.0
 32
0.0
 14
0.0
 24
0.0
 34
0.0
 15
0.0
 25
0.0
 35
0.0
146
0.0
 13
0.0
 23
0.0
 33
0.0
 16
1.0
 26
0.0
 36
0.0
 17
0.0
 27
1.0
 37
0.0
 76
     0
330
23
  0
LAYOUT
  5
22
102
{ACAD_REACTORS
330
1A
102
}
330
1A
100
AcDbPlotSettings
  1

  2
none_device
  4
Letter_(8.50_x_11.00_Inches)
  6

 40
6.35
 41
6.35
 42
6.35000508
 43
6.35000508
 44
215.9
 45
279.4
 46
0.0
 47
0.0
 48
0.0
 49
0.0
140
0.0
141
0.0
142
1.0
143
1.0
 70
  1712
 72
     0
 73
     0
 74
     0
  7

 75
     0
147
1.0
148
0.0
149
0.0
100
AcDbLayout
  1
Model
 70
     1
 71
     0
 10
0.0
 20
0.0
 11
11.0
 21
8.5
 12
0.0
 22
0.0
 32
0.0
 14
0.0
 24
0.0
 34
0.0
 15
11.0
 25
8.5
 35
0.0
146
0.0
 13
0.0
 23
0.0
 33
0.0
 16
1.0
 26
0.0
 36
0.0
 17
0.0
 27
1.0
 37
0.0
 76
     0
330
1F
331
29
  0
MLINESTYLE
  5
18
102
{ACAD_REACTORS
330
17
102
}
330
17
100
AcDbMlineStyle
  2
Standard
 70
     0
  3

 62
   256
 51
90.0
 52
90.0
 71
     2
 49
0.5
 62
   256
  6
BYLAYER
 49
-0.5
 62
   256
  6
BYLAYER
  0
ACDBPLACEHOLDER
  5
F
102
{ACAD_REACTORS
330
E
102
}
330
E
  0
SCALE
  5
48
102
{ACAD_REACTORS
330
47
102
}
330
47
100
AcDbScale
 70
     0
300
1:1
140
1.0
141
1.0
290
     1
  0
SCALE
  5
49
102
{ACAD_REACTORS
330
47
102
}
330
47
100
AcDbScale
 70
     0
300
1:2
140
1.0
141
2.0
290
     0
  0
SCALE
  5
4A
102
{ACAD_REACTORS
330
47
102
}
330
47
100
AcDbScale
 70
     0
300
1:4
140
1.0
141
4.0
290
     0
  0
SCALE
  5
4B
102
{ACAD_REACTORS
330
47
102
}
330
47
100
AcDbScale
 70
     0
300
1:5
140
1.0
141
5.0
290
     0
  0
SCALE
  5
4C
102
{ACAD_REACTORS
330
47
102
}
330
47
100
AcDbScale
 70
     0
300
1:8
140
1.0
141
8.0
290
     0
  0
SCALE
  5
4D
102
{ACAD_REACTORS
330
47
102
}
330
47
100
AcDbScale
 70
     0
300
1:10
140
1.0
141
10.0
290
     0
  0
SCALE
  5
4E
102
{ACAD_REACTORS
330
47
102
}
330
47
100
AcDbScale
 70
     0
300
1:16
140
1.0
141
16.0
290
     0
  0
SCALE
  5
4F
102
{ACAD_REACTORS
330
47
102
}
330
47
100
AcDbScale
 70
     0
300
1:20
140
1.0
141
20.0
290
     0
  0
SCALE
  5
50
102
{ACAD_REACTORS
330
47
102
}
330
47
100
AcDbScale
 70
     0
300
1:30
140
1.0
141
30.0
290
     0
  0
SCALE
  5
51
102
{ACAD_REACTORS
330
47
102
}
330
47
100
AcDbScale
 70
     0
300
1:40
140
1.0
141
40.0
290
     0
  0
SCALE
  5
52
102
{ACAD_REACTORS
330
47
102
}
330
47
100
AcDbScale
 70
     0
300
1:50
140
1.0
141
50.0
290
     0
  0
SCALE
  5
53
102
{ACAD_REACTORS
330
47
102
}
330
47
100
AcDbScale
 70
     0
300
1:100
140
1.0
141
100.0
290
     0
  0
SCALE
  5
54
102
{ACAD_REACTORS
330
47
102
}
330
47
100
AcDbScale
 70
     0
300
2:1
140
2.0
141
1.0
290
     0
  0
SCALE
  5
55
102
{ACAD_REACTORS
330
47
102
}
330
47
100
AcDbScale
 70
     0
300
4:1
140
4.0
141
1.0
290
     0
  0
SCALE
  5
56
102
{ACAD_REACTORS
330
47
102
}
330
47
100
AcDbScale
 70
     0
300
8:1
140
8.0
141
1.0
290
     0
  0
SCALE
  5
57
102
{ACAD_REACTORS
330
47
102
}
330
47
100
AcDbScale
 70
     0
300
10:1
140
10.0
141
1.0
290
     0
  0
SCALE
  5
58
102
{ACAD_REACTORS
330
47
102
}
330
47
100
AcDbScale
 70
     0
300
100:1
140
100.0
141
1.0
290
     0
  0
SCALE
  5
59
102
{ACAD_REACTORS
330
47
102
}
330
47
100
AcDbScale
 70
     0
300
1/128" = 1'-0"
140
0.0078125
141
12.0
290
     0
  0
SCALE
  5
5A
102
{ACAD_REACTORS
330
47
102
}
330
47
100
AcDbScale
 70
     0
300
1/64" = 1'-0"
140
0.015625
141
12.0
290
     0
  0
SCALE
  5
5B
102
{ACAD_REACTORS
330
47
102
}
330
47
100
AcDbScale
 70
     0
300
1/32" = 1'-0"
140
0.03125
141
12.0
290
     0
  0
SCALE
  5
5C
102
{ACAD_REACTORS
330
47
102
}
330
47
100
AcDbScale
 70
     0
300
1/16" = 1'-0"
140
0.0625
141
12.0
290
     0
  0
SCALE
  5
5D
102
{ACAD_REACTORS
330
47
102
}
330
47
100
AcDbScale
 70
     0
300
3/32" = 1'-0"
140
0.09375
141
12.0
290
     0
  0
SCALE
  5
5E
102
{ACAD_REACTORS
330
47
102
}
330
47
100
AcDbScale
 70
     0
300
1/8" = 1'-0"
140
0.125
141
12.0
290
     0
  0
SCALE
  5
5F
102
{ACAD_REACTORS
330
47
102
}
330
47
100
AcDbScale
 70
     0
300
3/16" = 1'-0"
140
0.1875
141
12.0
290
     0
  0
SCALE
  5
60
102
{ACAD_REACTORS
330
47
102
}
330
47
100
AcDbScale
 70
     0
300
1/4" = 1'-0"
140
0.25
141
12.0
290
     0
  0
SCALE
  5
61
102
{ACAD_REACTORS
330
47
102
}
330
47
100
AcDbScale
 70
     0
300
3/8" = 1'-0"
140
0.375
141
12.0
290
     0
  0
SCALE
  5
62
102
{ACAD_REACTORS
330
47
102
}
330
47
100
AcDbScale
 70
     0
300
1/2" = 1'-0"
140
0.5
141
12.0
290
     0
  0
SCALE
  5
63
102
{ACAD_REACTORS
330
47
102
}
330
47
100
AcDbScale
 70
     0
300
3/4" = 1'-0"
140
0.75
141
12.0
290
     0
  0
SCALE
  5
64
102
{ACAD_REACTORS
330
47
102
}
330
47
100
AcDbScale
 70
     0
300
1" = 1'-0"
140
1.0
141
12.0
290
     0
  0
SCALE
  5
65
102
{ACAD_REACTORS
330
47
102
}
330
47
100
AcDbScale
 70
     0
300
1-1/2" = 1'-0"
140
1.5
141
12.0
290
     0
  0
SCALE
  5
66
102
{ACAD_REACTORS
330
47
102
}
330
47
100
AcDbScale
 70
     0
300
3" = 1'-0"
140
3.0
141
12.0
290
     0
  0
SCALE
  5
67
102
{ACAD_REACTORS
330
47
102
}
330
47
100
AcDbScale
 70
     0
300
6" = 1'-0"
140
6.0
141
12.0
290
     0
  0
SCALE
  5
68
102
{ACAD_REACTORS
330
47
102
}
330
47
100
AcDbScale
 70
     0
300
1'-0" = 1'-0"
140
12.0
141
12.0
290
     0
  0
ENDSEC
  0
EOF
