  0
SECTION
  2
HEADER
  9
$ACADVER
  1
AC1015
  9
$ACADMAINTVER
 70
     6
  9
$DWGCODEPAGE
  3
ANSI_1252
  9
$INSBASE
 10
0.0
 20
0.0
 30
0.0
  9
$EXTMIN
 10
0.0
 20
0.0
 30
0.0
  9
$EXTMAX
 10
11.0
 20
8.5
 30
0.0
  9
$LIMMIN
 10
0.0
 20
0.0
  9
$LIMMAX
 10
11.0
 20
8.5
  9
$ORTHOMODE
 70
     0
  9
$REGENMODE
 70
     1
  9
$FILLMODE
 70
     1
  9
$QTEXTMODE
 70
     0
  9
$MIRRTEXT
 70
     1
  9
$LTSCALE
 40
1.0
  9
$ATTMODE
 70
     1
  9
$TEXTSIZE
 40
0.1377952756
  9
$TRACEWID
 40
0.05
  9
$TEXTSTYLE
  7
Standard
  9
$CLAYER
  8
0
  9
$CELTYPE
  6
ByLayer
  9
$CECOLOR
 62
   256
  9
$CELTSCALE
 40
1.0
  9
$DISPSILH
 70
     0
  9
$DIMSCALE
 40
1.0
  9
$DIMASZ
 40
0.13
  9
$DIMEXO
 40
0.0393700787
  9
$DIMDLI
 40
0.38
  9
$DIMRND
 40
0.0
  9
$DIMDLE
 40
0.0
  9
$DIMEXE
 40
0.0393700787
  9
$DIMTP
 40
0.0
  9
$DIMTM
 40
0.0
  9
$DIMTXT
 40
0.1377952756
  9
$DIMCEN
 40
0.09
  9
$DIMTSZ
 40
0.0
  9
$DIMTOL
 70
     0
  9
$DIMLIM
 70
     0
  9
$DIMTIH
 70
     1
  9
$DIMTOH
 70
     1
  9
$DIMSE1
 70
     0
  9
$DIMSE2
 70
     0
  9
$DIMTAD
 70
     1
  9
$DIMZIN
 70
     0
  9
$DIMBLK
  1

  9
$DIMASO
 70
     1
  9
$DIMSHO
 70
     1
  9
$DIMPOST
  1

  9
$DIMAPOST
  1

  9
$DIMALT
 70
     0
  9
$DIMALTD
 70
     2
  9
$DIMALTF
 40
25.4
  9
$DIMLFAC
 40
2.0
  9
$DIMTOFL
 70
     0
  9
$DIMTVP
 40
0.0
  9
$DIMTIX
 70
     0
  9
$DIMSOXD
 70
     0
  9
$DIMSAH
 70
     0
  9
$DIMBLK1
  1

  9
$DIMBLK2
  1

  9
$DIMSTYLE
  2
Standard
  9
$DIMCLRD
 70
     0
  9
$DIMCLRE
 70
     0
  9
$DIMCLRT
 70
     0
  9
$DIMTFAC
 40
1.0
  9
$DIMGAP
 40
0.06
  9
$DIMJUST
 70
     0
  9
$DIMSD1
 70
     0
  9
$DIMSD2
 70
     0
  9
$DIMTOLJ
 70
     1
  9
$DIMTZIN
 70
     0
  9
$DIMALTZ
 70
     0
  9
$DIMALTTZ
 70
     0
  9
$DIMUPT
 70
     0
  9
$DIMDEC
 70
     2
  9
$DIMTDEC
 70
     2
  9
$DIMALTU
 70
     2
  9
$DIMALTTD
 70
     2
  9
$DIMTXSTY
  7
Standard
  9
$DIMAUNIT
 70
     0
  9
$DIMADEC
 70
     2
  9
$DIMALTRND
 40
0.0
  9
$DIMAZIN
 70
     0
  9
$DIMDSEP
 70
    46
  9
$DIMATFIT
 70
     3
  9
$DIMFRAC
 70
     0
  9
$DIMLDRBLK
  1

  9
$DIMLUNIT
 70
     2
  9
$DIMLWD
 70
    -2
  9
$DIMLWE
 70
    -2
  9
$DIMTMOVE
 70
     0
  9
$LUNITS
 70
     2
  9
$LUPREC
 70
     2
  9
$SKETCHINC
 40
0.1
  9
$FILLETRAD
 40
0.5
  9
$AUNITS
 70
     0
  9
$AUPREC
 70
     2
  9
$MENU
  1
.
  9
$ELEVATION
 40
0.0
  9
$PELEVATION
 40
0.0
  9
$THICKNESS
 40
0.0
  9
$LIMCHECK
 70
     0
  9
$CHAMFERA
 40
0.0
  9
$CHAMFERB
 40
0.0
  9
$CHAMFERC
 40
0.0
  9
$CHAMFERD
 40
0.0
  9
$SKPOLY
 70
     0
  9
$TDCREATE
 40
2459276.607510255
  9
$TDUCREATE
 40
2459276.815843588
  9
$TDUPDATE
 40
2459276.607510683
  9
$TDUUPDATE
 40
2459276.815844016
  9
$TDINDWG
 40
0.0000000116
  9
$TDUSRTIMER
 40
0.0000000116
  9
$USRTIMER
 70
     1
  9
$ANGBASE
 50
0.0
  9
$ANGDIR
 70
     0
  9
$PDMODE
 70
     0
  9
$PDSIZE
 40
-1.0
  9
$PLINEWID
 40
0.0
  9
$SPLFRAME
 70
     0
  9
$SPLINETYPE
 70
     6
  9
$SPLINESEGS
 70
     8
  9
$HANDSEED
  5
170
  9
$SURFTAB1
 70
     6
  9
$SURFTAB2
 70
     6
  9
$SURFTYPE
 70
     6
  9
$SURFU
 70
     6
  9
$SURFV
 70
     6
  9
$UCSBASE
  2

  9
$UCSNAME
  2

  9
$UCSORG
 10
0.0
 20
0.0
 30
0.0
  9
$UCSXDIR
 10
1.0
 20
0.0
 30
0.0
  9
$UCSYDIR
 10
0.0
 20
1.0
 30
0.0
  9
$UCSORTHOREF
  2

  9
$UCSORTHOVIEW
 70
     0
  9
$UCSORGTOP
 10
0.0
 20
0.0
 30
0.0
  9
$UCSORGBOTTOM
 10
0.0
 20
0.0
 30
0.0
  9
$UCSORGLEFT
 10
0.0
 20
0.0
 30
0.0
  9
$UCSORGRIGHT
 10
0.0
 20
0.0
 30
0.0
  9
$UCSORGFRONT
 10
0.0
 20
0.0
 30
0.0
  9
$UCSORGBACK
 10
0.0
 20
0.0
 30
0.0
  9
$PUCSBASE
  2

  9
$PUCSNAME
  2

  9
$PUCSORG
 10
0.0
 20
0.0
 30
0.0
  9
$PUCSXDIR
 10
1.0
 20
0.0
 30
0.0
  9
$PUCSYDIR
 10
0.0
 20
1.0
 30
0.0
  9
$PUCSORTHOREF
  2

  9
$PUCSORTHOVIEW
 70
     0
  9
$PUCSORGTOP
 10
0.0
 20
0.0
 30
0.0
  9
$PUCSORGBOTTOM
 10
0.0
 20
0.0
 30
0.0
  9
$PUCSORGLEFT
 10
0.0
 20
0.0
 30
0.0
  9
$PUCSORGRIGHT
 10
0.0
 20
0.0
 30
0.0
  9
$PUCSORGFRONT
 10
0.0
 20
0.0
 30
0.0
  9
$PUCSORGBACK
 10
0.0
 20
0.0
 30
0.0
  9
$USERI1
 70
     0
  9
$USERI2
 70
     0
  9
$USERI3
 70
     0
  9
$USERI4
 70
     0
  9
$USERI5
 70
     0
  9
$USERR1
 40
0.0
  9
$USERR2
 40
0.0
  9
$USERR3
 40
0.0
  9
$USERR4
 40
0.0
  9
$USERR5
 40
0.0
  9
$WORLDVIEW
 70
     1
  9
$SHADEDGE
 70
     3
  9
$SHADEDIF
 70
    70
  9
$TILEMODE
 70
     1
  9
$MAXACTVP
 70
    64
  9
$PINSBASE
 10
0.0
 20
0.0
 30
0.0
  9
$PLIMCHECK
 70
     0
  9
$PEXTMIN
 10
1.0000000000E+20
 20
1.0000000000E+20
 30
1.0000000000E+20
  9
$PEXTMAX
 10
-1.0000000000E+20
 20
-1.0000000000E+20
 30
-1.0000000000E+20
  9
$PLIMMIN
 10
0.0
 20
0.0
  9
$PLIMMAX
 10
12.0
 20
9.0
  9
$UNITMODE
 70
     0
  9
$VISRETAIN
 70
     1
  9
$PLINEGEN
 70
     0
  9
$PSLTSCALE
 70
     1
  9
$TREEDEPTH
 70
  3020
  9
$CMLSTYLE
  2
Standard
  9
$CMLJUST
 70
     0
  9
$CMLSCALE
 40
1.0
  9
$PROXYGRAPHICS
 70
     1
  9
$MEASUREMENT
 70
     0
  9
$CELWEIGHT
370
    -1
  9
$ENDCAPS
280
     0
  9
$JOINSTYLE
280
     0
  9
$LWDISPLAY
290
     1
  9
$INSUNITS
 70
     1
  9
$HYPERLINKBASE
  1

  9
$STYLESHEET
  1

  9
$XEDIT
290
     1
  9
$CEPSNTYPE
380
     0
  9
$PSTYLEMODE
290
     1
  9
$FINGERPRINTGUID
  2
{1B105657-D5F7-4E1B-9065-4A2817EB09FB}
  9
$VERSIONGUID
  2
{FAEB1C32-E019-11D5-929B-00C0DF256EC4}
  9
$EXTNAMES
290
     1
  9
$PSVPSCALE
 40
0.0
  9
$OLESTARTUP
290
     0
  0
ENDSEC
  0
SECTION
  2
CLASSES
  0
CLASS
  1
ACDBDICTIONARYWDFLT
  2
AcDbDictionaryWithDefault
  3
ObjectDBX Classes
 90
        0
280
     0
281
     0
  0
CLASS
  1
VISUALSTYLE
  2
AcDbVisualStyle
  3
ObjectDBX Classes
 90
     4095
280
     0
281
     0
  0
CLASS
  1
MATERIAL
  2
AcDbMaterial
  3
ObjectDBX Classes
 90
     1153
280
     0
281
     0
  0
CLASS
  1
SCALE
  2
AcDbScale
  3
ObjectDBX Classes
 90
     1153
280
     0
281
     0
  0
CLASS
  1
TABLESTYLE
  2
AcDbTableStyle
  3
ObjectDBX Classes
 90
     4095
280
     0
281
     0
  0
CLASS
  1
MLEADERSTYLE
  2
AcDbMLeaderStyle
  3
ACDB_MLEADERSTYLE_CLASS
 90
     4095
280
     0
281
     0
  0
CLASS
  1
SUN
  2
AcDbSun
  3
SCENEOE
 90
     1153
280
     0
281
     0
  0
CLASS
  1
ACDBPLACEHOLDER
  2
AcDbPlaceHolder
  3
ObjectDBX Classes
 90
        0
280
     0
281
     0
  0
CLASS
  1
LAYOUT
  2
AcDbLayout
  3
ObjectDBX Classes
 90
        0
280
     0
281
     0
  0
ENDSEC
  0
SECTION
  2
TABLES
  0
TABLE
  2
VPORT
  5
8
330
0
100
AcDbSymbolTable
 70
     1
  0
VPORT
  5
29
330
8
100
AcDbSymbolTableRecord
100
AcDbViewportTableRecord
  2
*Active
 70
     0
 10
0.0
 20
0.0
 11
1.0
 21
1.0
 12
5.5
 22
4.25
 13
0.0
 23
0.0
 14
0.5
 24
0.5
 15
0.5
 25
0.5
 16
0.0
 26
0.0
 36
1.0
 17
0.0
 27
0.0
 37
0.0
 40
8.5
 41
1.2941176471
 42
50.0
 43
0.0
 44
0.0
 50
0.0
 51
0.0
 71
     0
 72
  2000
 73
     1
 74
     3
 75
     0
 76
     0
 77
     0
 78
     0
281
     0
 65
     1
110
0.0
120
0.0
130
0.0
111
1.0
121
0.0
131
0.0
112
0.0
122
1.0
132
0.0
 79
     0
146
0.0
  0
ENDTAB
  0
TABLE
  2
LTYPE
  5
5
330
0
100
AcDbSymbolTable
 70
     6
  0
LTYPE
  5
14
330
5
100
AcDbSymbolTableRecord
100
AcDbLinetypeTableRecord
  2
ByBlock
 70
     0
  3

 72
    65
 73
     0
 40
0.0
  0
LTYPE
  5
15
330
5
100
AcDbSymbolTableRecord
100
AcDbLinetypeTableRecord
  2
ByLayer
 70
     0
  3

 72
    65
 73
     0
 40
0.0
  0
LTYPE
  5
16
330
5
100
AcDbSymbolTableRecord
100
AcDbLinetypeTableRecord
  2
Continuous
 70
     0
  3
Solid line
 72
    65
 73
     0
 40
0.0
  0
LTYPE
  5
6E
330
5
100
AcDbSymbolTableRecord
100
AcDbLinetypeTableRecord
  2
HIDDEN
 70
     0
  3
Hidden __ __ __ __ __ __ __ __ __ __ __ __ __ __
 72
    65
 73
     2
 40
0.075
 49
0.05
 74
     0
 49
-0.025
 74
     0
  0
LTYPE
  5
6F
330
5
100
AcDbSymbolTableRecord
100
AcDbLinetypeTableRecord
  2
PHANTOM
 70
     0
  3
Phantom ______  __  __  ______  __  __  ______
 72
    65
 73
     6
 40
0.5
 49
0.25
 74
     0
 49
-0.05
 74
     0
 49
0.05
 74
     0
 49
-0.05
 74
     0
 49
0.05
 74
     0
 49
-0.05
 74
     0
  0
LTYPE
  5
70
330
5
100
AcDbSymbolTableRecord
100
AcDbLinetypeTableRecord
  2
CENTER
 70
     0
  3
Center ____ _ ____ _ ____ _ ____ _ ____ _ ____
 72
    65
 73
     4
 40
0.4
 49
0.25
 74
     0
 49
-0.05
 74
     0
 49
0.05
 74
     0
 49
-0.05
 74
     0
  0
LTYPE
  5
71
330
5
100
AcDbSymbolTableRecord
100
AcDbLinetypeTableRecord
  2
CENTERX2
 70
     0
  3
Center (2x) ________  __  ________  __  _____
 72
    65
 73
     4
 40
0.8
 49
0.5
 74
     0
 49
-0.1
 74
     0
 49
0.1
 74
     0
 49
-0.1
 74
     0
  0
LTYPE
  5
72
330
5
100
AcDbSymbolTableRecord
100
AcDbLinetypeTableRecord
  2
DOT2
 70
     0
  3
Dot (.5x) ........................................
 72
    65
 73
     2
 40
0.025
 49
0.0
 74
     0
 49
-0.025
 74
     0
  0
ENDTAB
  0
TABLE
  2
LAYER
  5
2
330
0
100
AcDbSymbolTable
 70
     2
  0
LAYER
  5
10
330
2
100
AcDbSymbolTableRecord
100
AcDbLayerTableRecord
  2
0
 70
     0
 62
     7
  6
Continuous
370
    -3
390
F
  0
LAYER
  5
73
330
2
100
AcDbSymbolTableRecord
100
AcDbLayerTableRecord
  2
FORMAT
 70
     0
 62
     7
  6
Continuous
370
    -3
390
F
  0
ENDTAB
  0
TABLE
  2
STYLE
  5
3
330
0
100
AcDbSymbolTable
 70
     2
  0
STYLE
  5
11
330
3
100
AcDbSymbolTableRecord
100
AcDbTextStyleTableRecord
  2
Standard
 70
     0
 40
0.0
 41
1.0
 50
0.0
 71
     0
 42
0.1377952756
  3
txt
  4

  0
STYLE
  5
77
330
3
100
AcDbSymbolTableRecord
100
AcDbTextStyleTableRecord
  2
SLDTEXTSTYLE0
 70
     0
 40
0.0
 41
0.605
 50
0.0
 71
     0
 42
0.1377952756
  3
TXT
  4

  0
ENDTAB
  0
TABLE
  2
VIEW
  5
6
330
0
100
AcDbSymbolTable
 70
     0
  0
ENDTAB
  0
TABLE
  2
UCS
  5
7
330
0
100
AcDbSymbolTable
 70
     0
  0
ENDTAB
  0
TABLE
  2
APPID
  5
9
330
0
100
AcDbSymbolTable
 70
     1
  0
APPID
  5
12
330
9
100
AcDbSymbolTableRecord
100
AcDbRegAppTableRecord
  2
ACAD
 70
     0
  0
ENDTAB
  0
TABLE
  2
DIMSTYLE
  5
A
330
0
100
AcDbSymbolTable
 70
     1
100
AcDbDimStyleTable
  0
DIMSTYLE
105
27
330
A
100
AcDbSymbolTableRecord
100
AcDbDimStyleTableRecord
  2
Standard
 70
     0
178
     0
340
11
  0
ENDTAB
  0
TABLE
  2
BLOCK_RECORD
  5
1
330
0
100
AcDbSymbolTable
 70
     2
  0
BLOCK_RECORD
  5
1F
330
1
100
AcDbSymbolTableRecord
100
AcDbBlockTableRecord
  2
*Model_Space
340
22
  0
BLOCK_RECORD
  5
1B
330
1
100
AcDbSymbolTableRecord
100
AcDbBlockTableRecord
  2
*Paper_Space
340
1E
  0
BLOCK_RECORD
  5
23
330
1
100
AcDbSymbolTableRecord
100
AcDbBlockTableRecord
  2
*Paper_Space0
340
26
  0
BLOCK_RECORD
  5
74
330
1
100
AcDbSymbolTableRecord
100
AcDbBlockTableRecord
  2
SW_NOTE_0
340
0
102
{BLKREFS
331
7B
102
}
  0
ENDTAB
  0
ENDSEC
  0
SECTION
  2
BLOCKS
  0
BLOCK
  5
20
330
1F
100
AcDbEntity
  8
0
100
AcDbBlockBegin
  2
*Model_Space
 70
     0
 10
0.0
 20
0.0
 30
0.0
  3
*Model_Space
  1

  0
ENDBLK
  5
21
330
1F
100
AcDbEntity
  8
0
100
AcDbBlockEnd
  0
BLOCK
  5
1C
330
1B
100
AcDbEntity
 67
     1
  8
0
100
AcDbBlockBegin
  2
*Paper_Space
 70
     0
 10
0.0
 20
0.0
 30
0.0
  3
*Paper_Space
  1

  0
ENDBLK
  5
1D
330
1B
100
AcDbEntity
 67
     1
  8
0
100
AcDbBlockEnd
  0
BLOCK
  5
24
330
23
100
AcDbEntity
  8
0
100
AcDbBlockBegin
  2
*Paper_Space0
 70
     0
 10
0.0
 20
0.0
 30
0.0
  3
*Paper_Space0
  1

  0
ENDBLK
  5
25
330
23
100
AcDbEntity
  8
0
100
AcDbBlockEnd
  0
BLOCK
  5
75
330
74
100
AcDbEntity
  8
0
100
AcDbBlockBegin
  2
SW_NOTE_0
 70
     0
 10
0.0
 20
0.0
 30
0.0
  3
SW_NOTE_0
  1

  0
MTEXT
  5
78
330
74
100
AcDbEntity
  8
0
  6
Continuous
 62
     0
370
     0
100
AcDbMText
 10
0.0
 20
0.1611334675
 30
0.0
 40
0.125
 41
0.0
 71
     1
 72
     1
  1
TBW02019U
  7
SLDTEXTSTYLE0
 73
     1
 44
1.0
  0
MTEXT
  5
79
330
74
100
AcDbEntity
  8
0
  6
Continuous
 62
     0
370
     0
100
AcDbMText
 10
0.0
 20
-0.0439810737
 30
0.0
 40
0.1041666667
 41
0.0
 71
     1
 72
     1
  1
Wall Mount, Adjustable
  7
SLDTEXTSTYLE0
 73
     1
 44
1.0
  0
MTEXT
  5
7A
330
74
100
AcDbEntity
  8
0
  6
Continuous
 62
     0
370
     0
100
AcDbMText
 10
0.0
 20
-0.2213178443
 30
0.0
 40
0.0833333333
 41
0.0
 71
     1
 72
     1
  1
AD-01021, v01
  7
SLDTEXTSTYLE0
 73
     1
 44
1.0
  0
ENDBLK
  5
76
330
74
100
AcDbEntity
  8
0
100
AcDbBlockEnd
  0
ENDSEC
  0
SECTION
  2
ENTITIES
  0
INSERT
  5
7B
330
1F
100
AcDbEntity
  8
0
  6
Continuous
 62
     7
370
     0
100
AcDbBlockReference
  2
SW_NOTE_0
 10
2.9604623995
 20
3.2899415921
 30
0.0
  0
LINE
  5
7C
330
1F
100
AcDbEntity
  8
0
  6
Continuous
 62
     7
370
    25
100
AcDbLine
 10
9.1137757436
 20
5.5076661183
 30
0.0
 11
9.1137757436
 21
3.6375873781
 31
0.0
  0
LINE
  5
7D
330
1F
100
AcDbEntity
  8
0
  6
Continuous
 62
     7
370
    25
100
AcDbLine
 10
9.1137757436
 20
3.6375873781
 30
0.0
 11
9.0937471529
 21
3.6375873781
 31
0.0
  0
LINE
  5
7E
330
1F
100
AcDbEntity
  8
0
  6
Continuous
 62
     7
370
    25
100
AcDbLine
 10
9.0937471529
 20
3.6375873781
 30
0.0
 11
9.0937471529
 21
5.5076661183
 31
0.0
  0
LINE
  5
7F
330
1F
100
AcDbEntity
  8
0
  6
Continuous
 62
     7
370
    25
100
AcDbLine
 10
9.1137757436
 20
5.5076661183
 30
0.0
 11
9.0937471529
 21
5.5076661183
 31
0.0
  0
LINE
  5
80
330
1F
100
AcDbEntity
  8
0
  6
Continuous
 62
     7
370
    25
100
AcDbLine
 10
9.1137757436
 20
3.6375873781
 30
0.0
 11
9.1137757436
 21
3.57853226
 31
0.0
  0
ARC
  5
81
330
1F
100
AcDbEntity
  8
0
  6
Continuous
 62
     7
370
    25
100
AcDbCircle
 10
9.0940907042
 20
3.57853226
 30
0.0
 40
0.0196850393700796
100
AcDbArc
 50
270.0
 51
0.0
  0
ELLIPSE
  5
82
330
1F
100
AcDbEntity
  8
0
  6
Continuous
 62
     7
370
    25
100
AcDbEllipse
 10
9.0940907042
 20
3.6375873781
 30
0.0
 11
0.0
 21
0.07874015748031482
 31
0.0
210
0.0
220
0.0
230
1.0
 40
0.0043631016
 41
1.570796326794897
 42
3.141592653589765
  0
ARC
  5
83
330
1F
100
AcDbEntity
  8
0
  6
Continuous
 62
     7
370
    25
100
AcDbCircle
 10
9.3759865511
 20
5.5125858792
 30
0.0
 40
0.2822822735408433
100
AcDbArc
 50
177.0016736235
 51
180.9986309243
  0
ARC
  5
84
330
1F
100
AcDbEntity
  8
0
  6
Continuous
 62
     7
370
    25
100
AcDbCircle
 10
9.0940907042
 20
5.5076661183
 30
0.0
 40
0.0196850393700796
100
AcDbArc
 50
0.0
 51
90.0
  0
LINE
  5
85
330
1F
100
AcDbEntity
  8
0
  6
Continuous
 62
     7
370
    25
100
AcDbLine
 10
8.7394164442
 20
4.0312881655
 30
0.0
 11
8.7394164442
 21
3.6375873781
 31
0.0
  0
ARC
  5
86
330
1F
100
AcDbEntity
  8
0
  6
Continuous
 62
     7
370
    25
100
AcDbCircle
 10
8.6409912474
 20
4.0312881655
 30
0.0
 40
0.0984251968503944
100
AcDbArc
 50
0.0
 51
90.0
  0
LINE
  5
87
330
1F
100
AcDbEntity
  8
0
  6
Continuous
 62
     7
370
    25
100
AcDbLine
 10
7.0661880978
 20
4.1297133624
 30
0.0
 11
8.6409912474
 21
4.1297133624
 31
0.0
  0
ARC
  5
88
330
1F
100
AcDbEntity
  8
0
  6
Continuous
 62
     7
370
    25
100
AcDbCircle
 10
7.0661880978
 20
4.8186897403
 30
0.0
 40
0.6889763779527565
100
AcDbArc
 50
90.0
 51
270.0
  0
LINE
  5
89
330
1F
100
AcDbEntity
  8
0
  6
Continuous
 62
     7
370
    25
100
AcDbLine
 10
9.0937471529
 20
5.5076661183
 30
0.0
 11
7.0661880978
 21
5.5076661183
 31
0.0
  0
LINE
  5
8A
330
1F
100
AcDbEntity
  8
0
  6
Continuous
 62
     7
370
    25
100
AcDbLine
 10
8.7394164442
 20
3.6375873781
 30
0.0
 11
9.0937471529
 21
3.6375873781
 31
0.0
  0
ELLIPSE
  5
8B
330
1F
100
AcDbEntity
  8
0
  6
Continuous
 62
     7
370
    25
100
AcDbEllipse
 10
8.7397599955
 20
3.6375873781
 30
0.0
 11
0.0
 21
0.07874015748031482
 31
0.0
210
0.0
220
0.0
230
1.0
 40
0.0043631016
 41
1.570796326794897
 42
3.141592653589765
  0
LINE
  5
8C
330
1F
100
AcDbEntity
  8
0
  6
Continuous
 62
     7
370
    25
100
AcDbLine
 10
9.0940907042
 20
3.5588472206
 30
0.0
 11
8.7397599955
 21
3.5588472206
 31
0.0
  0
ARC
  5
8D
330
1F
100
AcDbEntity
  8
0
  6
Continuous
 62
     7
370
    25
100
AcDbCircle
 10
7.348427496
 20
5.5125858792
 30
0.0
 40
0.2822822735364264
100
AcDbArc
 50
177.0016736235
 51
180.9986309244
  0
LINE
  5
8E
330
1F
100
AcDbEntity
  8
0
  6
Continuous
 62
     7
370
    25
100
AcDbLine
 10
7.0665316491
 20
5.5273511577
 30
0.0
 11
9.0940907042
 21
5.5273511577
 31
0.0
  0
LINE
  5
8F
330
1F
100
AcDbEntity
  8
0
  6
Continuous
 62
     7
370
    25
100
AcDbLine
 10
8.7394164442
 20
4.0312881655
 30
0.0
 11
8.7200749562
 21
4.0312881655
 31
0.0
  0
ARC
  5
90
330
1F
100
AcDbEntity
  8
0
  6
Continuous
 62
     7
370
    25
100
AcDbCircle
 10
8.6413347987
 20
4.0312881655
 30
0.0
 40
0.0787401574803148
100
AcDbArc
 50
0.0
 51
90.0
  0
ARC
  5
91
330
1F
100
AcDbEntity
  8
0
  6
Continuous
 62
     7
370
    25
100
AcDbCircle
 10
8.9232306456
 20
4.1247936015
 30
0.0
 40
0.2822822735375994
100
AcDbArc
 50
179.0013690757
 51
182.9983263765
  0
ARC
  5
92
330
1F
100
AcDbEntity
  8
0
  6
Continuous
 62
     7
370
    25
100
AcDbCircle
 10
8.7397599955
 20
3.57853226
 30
0.0
 40
0.0196850393700796
100
AcDbArc
 50
180.0
 51
270.0
  0
LINE
  5
93
330
1F
100
AcDbEntity
  8
0
  6
Continuous
 62
     7
370
    25
100
AcDbLine
 10
8.7200749562
 20
3.57853226
 30
0.0
 11
8.7200749562
 21
3.6375873781
 31
0.0
  0
LINE
  5
94
330
1F
100
AcDbEntity
  8
0
  6
Continuous
 62
     7
370
    25
100
AcDbLine
 10
8.7394164442
 20
3.6375873781
 30
0.0
 11
8.7200749562
 21
3.6375873781
 31
0.0
  0
LINE
  5
95
330
1F
100
AcDbEntity
  8
0
  6
Continuous
 62
     7
370
    25
100
AcDbLine
 10
8.7200749562
 20
3.6375873781
 30
0.0
 11
8.7200749562
 21
4.0312881655
 31
0.0
  0
LINE
  5
96
330
1F
100
AcDbEntity
  8
0
  6
Continuous
 62
     7
370
    25
100
AcDbLine
 10
8.6413347987
 20
4.110028323
 30
0.0
 11
7.0665316491
 21
4.110028323
 31
0.0
  0
ARC
  5
97
330
1F
100
AcDbEntity
  8
0
  6
Continuous
 62
     7
370
    25
100
AcDbCircle
 10
7.348427496
 20
4.1247936015
 30
0.0
 40
0.2822822735363909
100
AcDbArc
 50
179.0013690756
 51
182.9983263765
  0
ARC
  5
98
330
1F
100
AcDbEntity
  8
0
  6
Continuous
 62
     7
370
    25
100
AcDbCircle
 10
7.0665316491
 20
4.8186897403
 30
0.0
 40
0.7086614173228352
100
AcDbArc
 50
90.0
 51
270.0
  0
POINT
  5
99
330
1F
100
AcDbEntity
  8
0
  6
Continuous
 62
     7
370
     0
100
AcDbPoint
 10
6.3578702318
 20
4.8186897403
 30
0.0
  0
LINE
  5
9A
330
1F
100
AcDbEntity
  8
0
  6
Continuous
 62
     7
370
    25
100
AcDbLine
 10
4.2632244546
 20
5.515540134
 30
0.0
 11
4.1037249139
 21
5.515540134
 31
0.0
  0
LINE
  5
9B
330
1F
100
AcDbEntity
  8
0
  6
Continuous
 62
     7
370
    25
100
AcDbLine
 10
5.2966382998
 20
5.515540134
 30
0.0
 11
5.1366635243
 21
5.515540134
 31
0.0
  0
LINE
  5
9C
330
1F
100
AcDbEntity
  8
0
  6
Continuous
 62
     7
370
    25
100
AcDbLine
 10
5.1303252705
 20
4.1218393466
 30
0.0
 11
5.2966382998
 21
4.1218393466
 31
0.0
  0
LINE
  5
9D
330
1F
100
AcDbEntity
  8
0
  6
Continuous
 62
     7
370
    25
100
AcDbLine
 10
4.1037249139
 20
4.1218393466
 30
0.0
 11
4.2701350223
 21
4.1218393466
 31
0.0
  0
ARC
  5
9E
330
1F
100
AcDbEntity
  8
0
  6
Continuous
 62
     7
370
    25
100
AcDbCircle
 10
4.1037249139
 20
5.4958550947
 30
0.0
 40
0.0196850393700787
100
AcDbArc
 50
90.0
 51
180.0
  0
ARC
  5
9F
330
1F
100
AcDbEntity
  8
0
  6
Continuous
 62
     7
370
    25
100
AcDbCircle
 10
4.1037249139
 20
4.141524386
 30
0.0
 40
0.0196850393700787
100
AcDbArc
 50
180.0
 51
270.0
  0
ARC
  5
A0
330
1F
100
AcDbEntity
  8
0
  6
Continuous
 62
     7
370
    25
100
AcDbCircle
 10
5.2966382998
 20
5.4958550947
 30
0.0
 40
0.0196850393700787
100
AcDbArc
 50
0.0
 51
90.0
  0
ARC
  5
A1
330
1F
100
AcDbEntity
  8
0
  6
Continuous
 62
     7
370
    25
100
AcDbCircle
 10
5.2966382998
 20
4.141524386
 30
0.0
 40
0.0196850393700787
100
AcDbArc
 50
270.0
 51
360.0
  0
SPLINE
  5
A2
330
1F
100
AcDbEntity
  8
0
  6
Continuous
 62
     7
370
    25
100
AcDbSpline
210
0.0
220
0.0
230
1.0
 70
     8
 71
     3
 72
    12
 73
     8
 74
     0
 42
0.000000001
 43
0.00000001
 40
0.0
 40
0.0
 40
0.0
 40
0.0
 40
0.1543066030087831
 40
0.3611952262911969
 40
0.5769765536359714
 40
0.8008003168466644
 40
1.0
 40
1.0
 40
1.0
 40
1.0
 10
5.069023769900662
 20
5.166035259935744
 30
0.0
 10
5.066928260995738
 20
5.163504778048088
 30
0.0
 10
5.062023170751049
 20
5.157581519028606
 30
0.0
 10
5.056334897223833
 20
5.146800866789957
 30
0.0
 10
5.051744073818982
 20
5.134085234410971
 30
0.0
 10
5.049023076844941
 20
5.120993643190278
 30
0.0
 10
5.048831721844509
 20
5.112153508385065
 30
0.0
 10
5.048741613705626
 20
5.107990731906912
 30
0.0
  0
SPLINE
  5
A3
330
1F
100
AcDbEntity
  8
0
  6
Continuous
 62
     7
370
    25
100
AcDbSpline
210
0.0
220
0.0
230
1.0
 70
     8
 71
     3
 72
    13
 73
     9
 74
     0
 42
0.000000001
 43
0.00000001
 40
0.0
 40
0.0
 40
0.0
 40
0.0
 40
0.0132226671678619
 40
0.2717652345814847
 40
0.5006945689043588
 40
0.721460937996535
 40
0.9350410023428388
 40
1.0
 40
1.0
 40
1.0
 40
1.0
 10
4.33991299940446
 20
5.123747248762283
 30
0.0
 10
4.33992322750905
 20
5.124007855255869
 30
0.0
 10
4.340133445554165
 20
5.129364095715072
 30
0.0
 10
4.338958881230014
 20
5.139196437041406
 30
0.0
 10
4.335721341251656
 20
5.15276826853518
 30
0.0
 10
4.330453884670719
 20
5.164788069126636
 30
0.0
 10
4.325489843860528
 20
5.173473350039417
 30
0.0
 10
4.321661615865426
 20
5.177592926514818
 30
0.0
 10
4.320768822403797
 20
5.178553666300071
 30
0.0
  0
SPLINE
  5
A4
330
1F
100
AcDbEntity
  8
0
  6
Continuous
 62
     7
370
    25
100
AcDbSpline
210
0.0
220
0.0
230
1.0
 70
     8
 71
     3
 72
    20
 73
    16
 74
     0
 42
0.000000001
 43
0.00000001
 40
0.0
 40
0.0
 40
0.0
 40
0.0
 40
0.011245513311742
 40
0.0840276366673553
 40
0.158452091727488
 40
0.2348994225057625
 40
0.3134055706440633
 40
0.393797677443783
 40
0.4757563419271654
 40
0.5588506963866189
 40
0.6426752380132553
 40
0.7268038742946565
 40
0.8201395036860306
 40
0.9153020664811142
 40
1.0
 40
1.0
 40
1.0
 40
1.0
 10
5.216103955938451
 20
5.416205550707605
 30
0.0
 10
5.216043993468565
 20
5.4155908940791
 30
0.0
 10
5.215595947701902
 20
5.410998116282006
 30
0.0
 10
5.213255457679989
 20
5.400858417113126
 30
0.0
 10
5.208907394817492
 20
5.385807016677544
 30
0.0
 10
5.202681935912985
 20
5.369054532732462
 30
0.0
 10
5.194723967630222
 20
5.350870494009981
 30
0.0
 10
5.184971134977106
 20
5.331317367941319
 30
0.0
 10
5.173462882498477
 20
5.310561967205574
 30
0.0
 10
5.160278311758088
 20
5.288785551292157
 30
0.0
 10
5.145441509922156
 20
5.266154160637739
 30
0.0
 10
5.128767638180793
 20
5.242051972097845
 30
0.0
 10
5.110077103862766
 20
5.216535693191831
 30
0.0
 10
5.090160579811026
 20
5.190728025029404
 30
0.0
 10
5.075979563290574
 20
5.173725119262137
 30
0.0
 10
5.069301594425287
 20
5.165718297242753
 30
0.0
  0
SPLINE
  5
A5
330
1F
100
AcDbEntity
  8
0
  6
Continuous
 62
     7
370
    25
100
AcDbSpline
210
0.0
220
0.0
230
1.0
 70
     8
 71
     3
 72
    20
 73
    16
 74
     0
 42
0.000000001
 43
0.00000001
 40
0.0
 40
0.0
 40
0.0
 40
0.0
 40
0.0098832744574108
 40
0.1114238131207019
 40
0.2110587113668574
 40
0.3088573311745704
 40
0.4049827886419103
 40
0.4879303194350875
 40
0.5753498688373985
 40
0.6611947310766048
 40
0.744523909393196
 40
0.825277830286298
 40
0.9035339378895404
 40
0.979482944009497
 40
0.9999999999999999
 40
0.9999999999999999
 40
0.9999999999999999
 40
0.9999999999999999
 10
4.320338610952727
 20
5.178185993448755
 30
0.0
 10
4.319573663975922
 20
5.179090701225636
 30
0.0
 10
4.310949669027887
 20
5.18929035627866
 30
0.0
 10
4.295959974385103
 20
5.208665898733763
 30
0.0
 10
4.275640377957219
 20
5.235907116897282
 30
0.0
 10
4.257312809331521
 20
5.262301007959261
 30
0.0
 10
4.241414669951997
 20
5.286688282628981
 30
0.0
 10
4.227454389364108
 20
5.3094945718096
 30
0.0
 10
4.215550317172041
 20
5.330709258834385
 30
0.0
 10
4.205260639774847
 20
5.351102790418147
 30
0.0
 10
4.196947286817792
 20
5.369959166348401
 30
0.0
 10
4.190570286451398
 20
5.387147437056353
 30
0.0
 10
4.186229435468848
 20
5.402399152261628
 30
0.0
 10
4.183946125735591
 20
5.41299559673239
 30
0.0
 10
4.183577934596033
 20
5.417913170180777
 30
0.0
 10
4.183499625208666
 20
5.418959073035839
 30
0.0
  0
LINE
  5
A6
330
1F
100
AcDbEntity
  8
0
  6
Continuous
 62
     7
370
    25
100
AcDbLine
 10
4.0840398746
 20
5.1139653309
 30
0.0
 11
4.0761658588
 21
5.1139653309
 31
0.0
  0
LINE
  5
A7
330
1F
100
AcDbEntity
  8
0
  6
Continuous
 62
     7
370
    25
100
AcDbLine
 10
5.3241973549
 20
5.1139653309
 30
0.0
 11
5.3163233391
 21
5.1139653309
 31
0.0
  0
SPLINE
  5
A8
330
1F
100
AcDbEntity
  8
0
  6
Continuous
 62
     7
370
    25
100
AcDbSpline
210
0.0
220
0.0
230
1.0
 70
     8
 71
     3
 72
    13
 73
     9
 74
     0
 42
0.000000001
 43
0.00000001
 40
0.0
 40
0.0
 40
0.0
 40
0.0
 40
0.1544051377349088
 40
0.329621802581197
 40
0.5057837859594829
 40
0.6822269806950514
 40
0.8580110008568574
 40
0.9999999999999999
 40
0.9999999999999999
 40
0.9999999999999999
 40
0.9999999999999999
 10
4.921748316016234
 20
4.252197581882916
 30
0.0
 10
4.929462979627074
 20
4.249120223125963
 30
0.0
 10
4.94593212931352
 20
4.242550723201698
 30
0.0
 10
4.969530606080773
 20
4.231764733148611
 30
0.0
 10
4.992791397915289
 20
4.220244007745744
 30
0.0
 10
5.014401235528757
 20
4.208580060051636
 30
0.0
 10
5.033189706221488
 20
4.197739863157932
 30
0.0
 10
5.043845518178188
 20
4.191051634768423
 30
0.0
 10
5.048606803696067
 20
4.188063165649352
 30
0.0
  0
SPLINE
  5
A9
330
1F
100
AcDbEntity
  8
0
  6
Continuous
 62
     7
370
    25
100
AcDbSpline
210
0.0
220
0.0
230
1.0
 70
     8
 71
     3
 72
    14
 73
    10
 74
     0
 42
0.000000001
 43
0.00000001
 40
0.0
 40
0.0
 40
0.0
 40
0.0
 40
0.1396401897817928
 40
0.3118409089141213
 40
0.4833461863950529
 40
0.6562054512550187
 40
0.8265504421777027
 40
0.943936632505904
 40
1.0
 40
1.0
 40
1.0
 40
1.0
 10
5.057636973221354
 20
4.152974978380926
 30
0.0
 10
5.06211654775379
 20
4.150547970598122
 30
0.0
 10
5.072120219303697
 20
4.145128038742445
 30
0.0
 10
5.08558466223003
 20
4.138113883383891
 30
0.0
 10
5.098460900856121
 20
4.1317915720458
 30
0.0
 10
5.109528377009166
 20
4.126937157043891
 30
0.0
 10
5.118055713275697
 20
4.124054513960849
 30
0.0
 10
5.123853524606271
 20
4.122470585545861
 30
0.0
 10
5.127628506369748
 20
4.122303896623919
 30
0.0
 10
5.128848677770279
 20
4.122250018468187
 30
0.0
  0
SPLINE
  5
AA
330
1F
100
AcDbEntity
  8
0
  6
Continuous
 62
     7
370
    25
100
AcDbSpline
210
0.0
220
0.0
230
1.0
 70
     8
 71
     3
 72
    15
 73
    11
 74
     0
 42
0.000000001
 43
0.00000001
 40
0.0
 40
0.0
 40
0.0
 40
0.0
 40
0.0046502333974235
 40
0.0901408518473854
 40
0.212867397939931
 40
0.4171763228507288
 40
0.5985720763164089
 40
0.7885233874767563
 40
0.9829290534102412
 40
1.0
 40
1.0
 40
1.0
 40
1.0
 10
4.270926350169217
 20
4.122139551301395
 30
0.0
 10
4.271027612356711
 20
4.122134539571993
 30
0.0
 10
4.27299049444466
 20
4.122037391425024
 30
0.0
 10
4.276403865684034
 20
4.122691395898596
 30
0.0
 10
4.282958323201338
 20
4.12410582913348
 30
0.0
 10
4.291116817392452
 20
4.127102573041775
 30
0.0
 10
4.302120317597747
 20
4.131886050159864
 30
0.0
 10
4.314601348461013
 20
4.138043119638266
 30
0.0
 10
4.324164573283792
 20
4.142972265602005
 30
0.0
 10
4.330020676359313
 20
4.146129091832202
 30
0.0
 10
4.330493396352477
 20
4.146383919121734
 30
0.0
  0
SPLINE
  5
AB
330
1F
100
AcDbEntity
  8
0
  6
Continuous
 62
     7
370
    25
100
AcDbSpline
210
0.0
220
0.0
230
1.0
 70
     8
 71
     3
 72
    14
 73
    10
 74
     0
 42
0.000000001
 43
0.00000001
 40
0.0
 40
0.0
 40
0.0
 40
0.0
 40
0.138758953109879
 40
0.2888075637120447
 40
0.4394253066476042
 40
0.5902859683509355
 40
0.7459439122066597
 40
0.9020786344502902
 40
1.0
 40
1.0
 40
1.0
 40
1.0
 10
4.339945386373237
 20
4.180435297466215
 30
0.0
 10
4.344815517841046
 20
4.183623709817994
 30
0.0
 10
4.35495202271264
 20
4.190259949014012
 30
0.0
 10
4.372559232276408
 20
4.200896216207618
 30
0.0
 10
4.392212658664075
 20
4.21204062821431
 30
0.0
 10
4.413692201817654
 20
4.223372988044009
 30
0.0
 10
4.436988292002745
 20
4.234642283763558
 30
0.0
 10
4.45872471626457
 20
4.244388247419486
 30
0.0
 10
4.473143288445392
 20
4.24998848379578
 30
0.0
 10
4.478700668665983
 20
4.252146994533039
 30
0.0
  0
LINE
  5
AC
330
1F
100
AcDbEntity
  8
0
  6
Continuous
 62
     7
370
    25
100
AcDbLine
 10
5.3163233391
 20
4.5508279226
 30
0.0
 11
5.3241973549
 21
4.5508279226
 31
0.0
  0
SPLINE
  5
AD
330
1F
100
AcDbEntity
  8
0
  6
Continuous
 62
     7
370
    25
100
AcDbSpline
210
0.0
220
0.0
230
1.0
 70
     8
 71
     3
 72
    32
 73
    28
 74
     0
 42
0.000000001
 43
0.00000001
 40
0.0
 40
0.0
 40
0.0
 40
0.0
 40
0.0372339604715388
 40
0.0789969259682544
 40
0.1222206780428164
 40
0.1653335959006428
 40
0.2082555505671035
 40
0.2507734014015051
 40
0.2926957703563928
 40
0.3338726909270743
 40
0.3742079861655836
 40
0.4136640548502609
 40
0.4522604048829095
 40
0.4900680992766945
 40
0.5272071454449186
 40
0.5638185328734651
 40
0.601310524599169
 40
0.639499026907201
 40
0.6784825076397674
 40
0.7183197781804876
 40
0.7590285499663021
 40
0.8005815584795422
 40
0.8429056298278772
 40
0.8858854846757269
 40
0.9293737368858629
 40
0.9732071867942066
 40
0.9999999999999999
 40
0.9999999999999999
 40
0.9999999999999999
 40
0.9999999999999999
 10
5.074954300980306
 20
5.511534234024597
 30
0.0
 10
5.0673248154024
 20
5.510706323317361
 30
0.0
 10
5.05113782106334
 20
5.508949797822366
 30
0.0
 10
5.024449669171015
 20
5.505316656406702
 30
0.0
 10
4.995217725399788
 20
5.501241771346073
 30
0.0
 10
4.964377400521868
 20
5.496855459356938
 30
0.0
 10
4.932502700764085
 20
5.492425813344057
 30
0.0
 10
4.899821170896926
 20
5.488118057063317
 30
0.0
 10
4.866611421005361
 20
5.484107272445049
 30
0.0
 10
4.833137391222211
 20
5.480548182971505
 30
0.0
 10
4.799638097977875
 20
5.477575981198395
 30
0.0
 10
4.766316879362535
 20
5.475302548066403
 30
0.0
 10
4.733337706435574
 20
5.473821051992906
 30
0.0
 10
4.700823136402222
 20
5.473196947526069
 30
0.0
 10
4.668865017691521
 20
5.473514684928269
 30
0.0
 10
4.6371656517278
 20
5.474734953756245
 30
0.0
 10
4.605485628459422
 20
5.47672438383687
 30
0.0
 10
4.573613891313058
 20
5.47943087311004
 30
0.0
 10
4.541716172283307
 20
5.482749973554948
 30
0.0
 10
4.509899283914507
 20
5.486570677111064
 30
0.0
 10
4.478300994419364
 20
5.490760808184707
 30
0.0
 10
4.44708638774634
 20
5.495168382737391
 30
0.0
 10
4.416452754647603
 20
5.499616034692878
 30
0.0
 10
4.386587677915114
 20
5.503924247228843
 30
0.0
 10
4.357785812477714
 20
5.507838255103971
 30
0.0
 10
4.33359574468288
 20
5.51087292122873
 30
0.0
 10
4.319662839143859
 20
5.512171479277412
 30
0.0
 10
4.314377245385093
 20
5.512664100884461
 30
0.0
  0
SPLINE
  5
AE
330
1F
100
AcDbEntity
  8
0
  6
Continuous
 62
     7
370
    25
100
AcDbSpline
210
0.0
220
0.0
230
1.0
 70
     8
 71
     3
 72
    23
 73
    19
 74
     0
 42
0.000000001
 43
0.00000001
 40
0.0
 40
0.0
 40
0.0
 40
0.0
 40
0.0343603762076199
 40
0.0997280856667064
 40
0.1647454178456552
 40
0.2294444859424477
 40
0.293876400671845
 40
0.3580969264944401
 40
0.4221657483688598
 40
0.4861454572119858
 40
0.5501003433926653
 40
0.614088962322264
 40
0.6781596542764499
 40
0.7423742750097585
 40
0.8067914818428109
 40
0.8714655822288472
 40
0.9364455943165911
 40
1.0
 40
1.0
 40
1.0
 40
1.0
 10
4.478577533882034
 20
4.25222790558234
 30
0.0
 10
4.483072771910091
 20
4.253937461628069
 30
0.0
 10
4.496119820069443
 20
4.258899303452798
 30
0.0
 10
4.518632885906908
 20
4.266248455514302
 30
0.0
 10
4.546313354995839
 20
4.273820647844452
 30
0.0
 10
4.574806328807477
 20
4.280108548421061
 30
0.0
 10
4.603935271036555
 20
4.285099072902073
 30
0.0
 10
4.633553737876937
 20
4.28876382531582
 30
0.0
 10
4.663506876721683
 20
4.291087275468922
 30
0.0
 10
4.693641667059633
 20
4.292058824375633
 30
0.0
 10
4.723803650276669
 20
4.291674764703324
 30
0.0
 10
4.753836126084849
 20
4.289937756795311
 30
0.0
 10
4.783583714796881
 20
4.28685808559003
 30
0.0
 10
4.812890236566572
 20
4.282450520928127
 30
0.0
 10
4.841613587825234
 20
4.276744747667034
 30
0.0
 10
4.869573805752185
 20
4.269744675626888
 30
0.0
 10
4.896493213133216
 20
4.26165695739065
 30
0.0
 10
4.913417427773838
 20
4.255347596634937
 30
0.0
 10
4.921785679809322
 20
4.252227905582339
 30
0.0
  0
LINE
  5
AF
330
1F
100
AcDbEntity
  8
0
  6
Continuous
 62
     7
370
    25
100
AcDbLine
 10
5.3635674336
 20
5.5273511577
 30
0.0
 11
5.3635674336
 21
4.110028323
 31
0.0
  0
LINE
  5
B0
330
1F
100
AcDbEntity
  8
0
  6
Continuous
 62
     7
370
    25
100
AcDbLine
 10
5.5196349535
 20
5.5273511577
 30
0.0
 11
5.3635674336
 21
5.5273511577
 31
0.0
  0
ELLIPSE
  5
B1
330
1F
100
AcDbEntity
  8
0
  6
Continuous
 62
     7
370
    25
100
AcDbEllipse
 10
5.5196349535
 20
4.8186897403
 30
0.0
 11
0.0
 21
0.7086614173228343
 31
0.0
210
0.0
220
0.0
230
1.0
 40
0.016970202
 41
0.0
 42
3.141592653589786
  0
LINE
  5
B2
330
1F
100
AcDbEntity
  8
0
  6
Continuous
 62
     7
370
    25
100
AcDbLine
 10
5.5196349535
 20
4.110028323
 30
0.0
 11
5.3635674336
 21
4.110028323
 31
0.0
  0
ELLIPSE
  5
B3
330
1F
100
AcDbEntity
  8
0
  6
Continuous
 62
     7
370
    25
100
AcDbEllipse
 10
3.861046219
 20
4.8186897403
 30
0.0
 11
0.0
 21
0.6889763779527556
 31
0.0
210
0.0
220
0.0
230
1.0
 40
0.0174550649
 41
3.269943107563864
 42
6.185847556678826
  0
ARC
  5
B4
330
1F
100
AcDbEntity
  8
0
  6
Continuous
 62
     7
370
    25
100
AcDbCircle
 10
3.8807297594
 20
5.5076676172
 30
0.0
 40
0.0196835404779056
100
AcDbArc
 50
90.004363877
 51
180.0043632123
  0
ELLIPSE
  5
B5
330
1F
100
AcDbEntity
  8
0
  6
Continuous
 62
     7
370
    25
100
AcDbEllipse
 10
3.8807282602
 20
4.8186897403
 30
0.0
 11
0.0
 21
0.7086614173228343
 31
0.0
210
0.0
220
0.0
230
1.0
 40
0.016970202
 41
3.141592653590649
 42
6.283185307179586
  0
ARC
  5
B6
330
1F
100
AcDbEntity
  8
0
  6
Continuous
 62
     7
370
    25
100
AcDbCircle
 10
3.8807297594
 20
4.1297118634
 30
0.0
 40
0.0196835404779061
100
AcDbArc
 50
179.9956367877
 51
269.995636123
  0
LINE
  5
B7
330
1F
100
AcDbEntity
  8
0
  6
Continuous
 62
     7
370
    25
100
AcDbLine
 10
5.3241973549
 20
4.1493984018
 30
0.0
 11
5.3241973549
 21
5.4879810789
 31
0.0
  0
ARC
  5
B8
330
1F
100
AcDbEntity
  8
0
  6
Continuous
 62
     7
370
    25
100
AcDbCircle
 10
5.3635674336
 20
5.4879810789
 30
0.0
 40
0.0393700787401574
100
AcDbArc
 50
90.0
 51
180.0
  0
ARC
  5
B9
330
1F
100
AcDbEntity
  8
0
  6
Continuous
 62
     7
370
    25
100
AcDbCircle
 10
5.3635674336
 20
4.1493984018
 30
0.0
 40
0.0393700787401574
100
AcDbArc
 50
180.0
 51
270.0
  0
LINE
  5
BA
330
1F
100
AcDbEntity
  8
0
  6
Continuous
 62
     7
370
    25
100
AcDbLine
 10
4.0367957801
 20
4.110028323
 30
0.0
 11
4.0367957801
 21
5.5273511577
 31
0.0
  0
ARC
  5
BB
330
1F
100
AcDbEntity
  8
0
  6
Continuous
 62
     7
370
    25
100
AcDbCircle
 10
4.0367957801
 20
5.4879810789
 30
0.0
 40
0.0393700787401574
100
AcDbArc
 50
0.0
 51
90.0
  0
LINE
  5
BC
330
1F
100
AcDbEntity
  8
0
  6
Continuous
 62
     7
370
    25
100
AcDbLine
 10
4.0761658588
 20
5.4879810789
 30
0.0
 11
4.0761658588
 21
4.1493984018
 31
0.0
  0
ARC
  5
BD
330
1F
100
AcDbEntity
  8
0
  6
Continuous
 62
     7
370
    25
100
AcDbCircle
 10
4.0367957801
 20
4.1493984018
 30
0.0
 40
0.0393700787401574
100
AcDbArc
 50
270.0
 51
0.0
  0
LINE
  5
BE
330
1F
100
AcDbEntity
  8
0
  6
Continuous
 62
     7
370
    25
100
AcDbLine
 10
4.0367957801
 20
4.110028323
 30
0.0
 11
3.8807282602
 21
4.110028323
 31
0.0
  0
LINE
  5
BF
330
1F
100
AcDbEntity
  8
0
  6
Continuous
 62
     7
370
    25
100
AcDbLine
 10
4.0367957801
 20
5.5273511577
 30
0.0
 11
3.8807282602
 21
5.5273511577
 31
0.0
  0
ELLIPSE
  5
C0
330
1F
100
AcDbEntity
  8
0
  6
Continuous
 62
     7
370
    25
100
AcDbEllipse
 10
5.5393169947
 20
4.8186897403
 30
0.0
 11
0.0
 21
0.6889763779527556
 31
0.0
210
0.0
220
0.0
230
1.0
 40
0.0174550649
 41
0.1283504539732185
 42
3.044254903088252
  0
ARC
  5
C1
330
1F
100
AcDbEntity
  8
0
  6
Continuous
 62
     7
370
    25
100
AcDbCircle
 10
5.5196334543
 20
4.1297118634
 30
0.0
 40
0.0196835404779047
100
AcDbArc
 50
270.004363877
 51
0.0043632123
  0
ARC
  5
C2
330
1F
100
AcDbEntity
  8
0
  6
Continuous
 62
     7
370
    25
100
AcDbCircle
 10
5.5196334543
 20
5.5076676172
 30
0.0
 40
0.0196835404779065
100
AcDbArc
 50
359.9956367877
 51
89.995636123
  0
LINE
  5
C3
330
1F
100
AcDbEntity
  8
0
  6
Continuous
 62
     7
370
    25
100
AcDbLine
 10
5.5685233042
 20
4.0312881655
 30
0.0
 11
5.5685233042
 21
3.6375873781
 31
0.0
  0
ELLIPSE
  5
C4
330
1F
100
AcDbEntity
  8
0
  6
Continuous
 62
     7
370
    25
100
AcDbEllipse
 10
5.566805286
 20
4.0312881655
 30
0.0
 11
0.0
 21
0.09842519685039353
 31
0.0
210
0.0
220
0.0
230
1.0
 40
0.0174550649
 41
4.71238898038469
 42
6.055114950320852
  0
LINE
  5
C5
330
1F
100
AcDbEntity
  8
0
  6
Continuous
 62
     7
370
    25
100
AcDbLine
 10
5.5393169947
 20
4.1297133624
 30
0.0
 11
5.566805286
 21
4.1297133624
 31
0.0
  0
LINE
  5
C6
330
1F
100
AcDbEntity
  8
0
  6
Continuous
 62
     7
370
    25
100
AcDbLine
 10
5.5747081697
 20
5.5076661183
 30
0.0
 11
5.5393169947
 21
5.5076661183
 31
0.0
  0
LINE
  5
C7
330
1F
100
AcDbEntity
  8
0
  6
Continuous
 62
     7
370
    25
100
AcDbLine
 10
5.5747081697
 20
3.6375873781
 30
0.0
 11
5.5747081697
 21
5.5076661183
 31
0.0
  0
LINE
  5
C8
330
1F
100
AcDbEntity
  8
0
  6
Continuous
 62
     7
370
    25
100
AcDbLine
 10
5.5685233042
 20
3.6375873781
 30
0.0
 11
5.5747081697
 21
3.6375873781
 31
0.0
  0
LINE
  5
C9
330
1F
100
AcDbEntity
  8
0
  6
Continuous
 62
     7
370
    25
100
AcDbLine
 10
3.8335579277
 20
4.1297133624
 30
0.0
 11
3.861046219
 21
4.1297133624
 31
0.0
  0
ELLIPSE
  5
CA
330
1F
100
AcDbEntity
  8
0
  6
Continuous
 62
     7
370
    25
100
AcDbEllipse
 10
3.8335579277
 20
4.0312881655
 30
0.0
 11
0.0
 21
0.09842519685039353
 31
0.0
210
0.0
220
0.0
230
1.0
 40
0.0174550649
 41
0.1880702669955458
 42
1.570796326794897
  0
LINE
  5
CB
330
1F
100
AcDbEntity
  8
0
  6
Continuous
 62
     7
370
    25
100
AcDbLine
 10
3.8318399095
 20
3.6375873781
 30
0.0
 11
3.8318399095
 21
4.0312881655
 31
0.0
  0
LINE
  5
CC
330
1F
100
AcDbEntity
  8
0
  6
Continuous
 62
     7
370
    25
100
AcDbLine
 10
3.825655044
 20
3.6375873781
 30
0.0
 11
3.8318399095
 21
3.6375873781
 31
0.0
  0
LINE
  5
CD
330
1F
100
AcDbEntity
  8
0
  6
Continuous
 62
     7
370
    25
100
AcDbLine
 10
3.825655044
 20
5.5076661183
 30
0.0
 11
3.825655044
 21
3.6375873781
 31
0.0
  0
LINE
  5
CE
330
1F
100
AcDbEntity
  8
0
  6
Continuous
 62
     7
370
    25
100
AcDbLine
 10
3.861046219
 20
5.5076661183
 30
0.0
 11
3.825655044
 21
5.5076661183
 31
0.0
  0
ARC
  5
CF
330
1F
100
AcDbEntity
  8
0
  6
Continuous
 62
     7
370
    25
100
AcDbCircle
 10
5.5471217455
 20
4.1297118634
 30
0.0
 40
0.019683540477907
100
AcDbArc
 50
270.004363877
 51
0.0043632123
  0
LINE
  5
D0
330
1F
100
AcDbEntity
  8
0
  6
Continuous
 62
     7
370
    25
100
AcDbLine
 10
5.5471232447
 20
4.110028323
 30
0.0
 11
5.5196349535
 21
4.110028323
 31
0.0
  0
LINE
  5
D1
330
1F
100
AcDbEntity
  8
0
  6
Continuous
 62
     7
370
    25
100
AcDbLine
 10
5.5196349535
 20
5.5273511577
 30
0.0
 11
5.5550261284
 21
5.5273511577
 31
0.0
  0
ARC
  5
D2
330
1F
100
AcDbEntity
  8
0
  6
Continuous
 62
     7
370
    25
100
AcDbCircle
 10
5.5550246293
 20
5.5076676172
 30
0.0
 40
0.0196835404779092
100
AcDbArc
 50
359.9956367877
 51
89.995636123
  0
LINE
  5
D3
330
1F
100
AcDbEntity
  8
0
  6
Continuous
 62
     7
370
    25
100
AcDbLine
 10
3.8807282602
 20
4.110028323
 30
0.0
 11
3.853239969
 21
4.110028323
 31
0.0
  0
ARC
  5
D4
330
1F
100
AcDbEntity
  8
0
  6
Continuous
 62
     7
370
    25
100
AcDbCircle
 10
3.8532414682
 20
4.1297118634
 30
0.0
 40
0.0196835404779079
100
AcDbArc
 50
179.9956367877
 51
269.995636123
  0
ARC
  5
D5
330
1F
100
AcDbEntity
  8
0
  6
Continuous
 62
     7
370
    25
100
AcDbCircle
 10
3.8453385844
 20
5.5076676172
 30
0.0
 40
0.019683540477907
100
AcDbArc
 50
90.004363877
 51
180.0043632123
  0
LINE
  5
D6
330
1F
100
AcDbEntity
  8
0
  6
Continuous
 62
     7
370
    25
100
AcDbLine
 10
3.8453370853
 20
5.5273511577
 30
0.0
 11
3.8807282602
 21
5.5273511577
 31
0.0
  0
LINE
  5
D7
330
1F
100
AcDbEntity
  8
0
  6
Continuous
 62
     7
370
    25
100
AcDbLine
 10
4.0840398746
 20
5.1454613939
 30
0.0
 11
4.0761658588
 21
5.1454613939
 31
0.0
  0
LINE
  5
D8
330
1F
100
AcDbEntity
  8
0
  6
Continuous
 62
     7
370
    25
100
AcDbLine
 10
5.3163233391
 20
5.1454613939
 30
0.0
 11
5.3241973549
 21
5.1454613939
 31
0.0
  0
SPLINE
  5
D9
330
1F
100
AcDbEntity
  8
0
  6
Continuous
 62
     7
370
    25
100
AcDbSpline
210
0.0
220
0.0
230
1.0
 70
     8
 71
     3
 72
    10
 73
     6
 74
     0
 42
0.000000001
 43
0.00000001
 40
0.0
 40
0.0
 40
0.0
 40
0.0
 40
0.009018886036656
 40
0.5077949497551505
 40
1.0
 40
1.0
 40
1.0
 40
1.0
 10
4.076165858814173
 20
5.36987084269642
 30
0.0
 10
4.076166007639533
 20
5.369922729920225
 30
0.0
 10
4.076174387029862
 20
5.372844162799893
 30
0.0
 10
4.077247081565911
 20
5.378751349800258
 30
0.0
 10
4.081785641682536
 20
5.383269542534086
 30
0.0
 10
4.084039874562221
 20
5.385513659248558
 30
0.0
  0
SPLINE
  5
DA
330
1F
100
AcDbEntity
  8
0
  6
Continuous
 62
     7
370
    25
100
AcDbSpline
210
0.0
220
0.0
230
1.0
 70
     8
 71
     3
 72
    10
 73
     6
 74
     0
 42
0.000000001
 43
0.00000001
 40
0.0
 40
0.0
 40
0.0
 40
0.0
 40
0.478812378767068
 40
0.9909827814412134
 40
1.0
 40
1.0
 40
1.0
 40
1.0
 10
5.316323339129133
 20
5.385517076712109
 30
0.0
 10
5.318525572578721
 20
5.383339618018785
 30
0.0
 10
5.323083465244058
 20
5.378833000880067
 30
0.0
 10
5.324188616979294
 20
5.372921771169527
 30
0.0
 10
5.324197206271326
 20
5.369922729979946
 30
0.0
 10
5.324197354877166
 20
5.36987084269642
 30
0.0
  0
LINE
  5
DB
330
1F
100
AcDbEntity
  8
0
  6
Continuous
 62
     7
370
    25
100
AcDbLine
 10
4.0367957801
 20
5.5273511577
 30
0.0
 11
4.2139611344
 21
5.5273511577
 31
0.0
  0
LINE
  5
DC
330
1F
100
AcDbEntity
  8
0
  6
Continuous
 62
     7
370
    25
100
AcDbLine
 10
5.1864020793
 20
5.5273511577
 30
0.0
 11
5.3635674336
 21
5.5273511577
 31
0.0
  0
LINE
  5
DD
330
1F
100
AcDbEntity
  8
0
  6
Continuous
 62
     7
370
    25
100
AcDbLine
 10
4.2139611344
 20
5.5273511577
 30
0.0
 11
5.1864020793
 21
5.5273511577
 31
0.0
  0
SPLINE
  5
DE
330
1F
100
AcDbEntity
  8
0
  6
Continuous
 62
     7
370
    25
100
AcDbSpline
210
0.0
220
0.0
230
1.0
 70
     8
 71
     3
 72
    10
 73
     6
 74
     0
 42
0.000000001
 43
0.00000001
 40
0.0
 40
0.0
 40
0.0
 40
0.0
 40
0.0146596861198429
 40
0.5620206479514006
 40
1.0
 40
1.0
 40
1.0
 40
1.0
 10
4.076165858814173
 20
5.155028858979263
 30
0.0
 10
4.076166251762151
 20
5.155069047891818
 30
0.0
 10
4.076181316537451
 20
5.156609803845921
 30
0.0
 10
4.077075156975728
 20
5.159397776440054
 30
0.0
 10
4.081896714056009
 20
5.161775205125367
 30
0.0
 10
4.084039874562221
 20
5.162831961517516
 30
0.0
  0
SPLINE
  5
DF
330
1F
100
AcDbEntity
  8
0
  6
Continuous
 62
     7
370
    25
100
AcDbSpline
210
0.0
220
0.0
230
1.0
 70
     8
 71
     3
 72
    10
 73
     6
 74
     0
 42
0.000000001
 43
0.00000001
 40
0.0
 40
0.0
 40
0.0
 40
0.0
 40
0.0146596861198683
 40
0.5620206479521221
 40
1.0
 40
1.0
 40
1.0
 40
1.0
 10
5.324197354877166
 20
5.155028858979263
 30
0.0
 10
5.324196961929188
 20
5.155069047891804
 30
0.0
 10
5.324181897153883
 20
5.156609803845379
 30
0.0
 10
5.323288056715614
 20
5.159397776440227
 30
0.0
 10
5.31846649963534
 20
5.161775205125414
 30
0.0
 10
5.316323339129135
 20
5.162831961517506
 30
0.0
  0
LINE
  5
E0
330
1F
100
AcDbEntity
  8
0
  6
Continuous
 62
     7
370
    25
100
AcDbLine
 10
4.2138441655
 20
4.1215595521
 30
0.0
 11
5.1865190482
 21
4.1215595521
 31
0.0
  0
LINE
  5
E1
330
1F
100
AcDbEntity
  8
0
  6
Continuous
 62
     7
370
    25
100
AcDbLine
 10
4.2138441655
 20
4.110028323
 30
0.0
 11
4.2138441655
 21
4.1215595521
 31
0.0
  0
SPLINE
  5
E2
330
1F
100
AcDbEntity
  8
0
  6
Continuous
 62
     7
370
    25
100
AcDbSpline
210
0.0
220
0.0
230
1.0
 70
    24
 71
     3
 72
    26
 73
    22
 74
     0
 42
0.000000001
 43
0.00000001
 40
0.0
 40
0.0
 40
0.0
 40
0.0
 40
0.0624999999999998
 40
0.0624999999999998
 40
0.1249999999999996
 40
0.1249999999999996
 40
0.1874999999999994
 40
0.1874999999999994
 40
0.2499999999999992
 40
0.2499999999999992
 40
0.3749999999999988
 40
0.3749999999999988
 40
0.4374999999999987
 40
0.4374999999999987
 40
0.4999999999999984
 40
0.4999999999999984
 40
0.6249999999999991
 40
0.6249999999999991
 40
0.7499999999999999
 40
0.7499999999999999
 40
1.0
 40
1.0
 40
1.0
 40
1.0
 10
4.213844165503271
 20
4.11002832301138
 30
0.0
 10
4.207028185610564
 20
4.11002832301138
 30
0.0
 10
4.200273571390436
 20
4.110028323011377
 30
0.0
 10
4.186882432236189
 20
4.110028323011377
 30
0.0
 10
4.180240476418954
 20
4.110028323011365
 30
0.0
 10
4.167436586440424
 20
4.110028323011365
 30
0.0
 10
4.161224052834015
 20
4.11002832301138
 30
0.0
 10
4.149145543230643
 20
4.11002832301138
 30
0.0
 10
4.143242359504844
 20
4.110028323011379
 30
0.0
 10
4.126346161650323
 20
4.110028323011379
 30
0.0
 10
4.116159159907001
 20
4.110028323011372
 30
0.0
 10
4.102168672438714
 20
4.110028323011372
 30
0.0
 10
4.097705469946922
 20
4.110028323011376
 30
0.0
 10
4.089346163450537
 20
4.110028323011376
 30
0.0
 10
4.085432020287115
 20
4.11002832301138
 30
0.0
 10
4.074403332312891
 20
4.11002832301138
 30
0.0
 10
4.067995163034539
 20
4.110028323011384
 30
0.0
 10
4.056871492673611
 20
4.110028323011384
 30
0.0
 10
4.052131778049507
 20
4.11002832301138
 30
0.0
 10
4.040768248594324
 20
4.11002832301138
 30
0.0
 10
4.036795780074016
 20
4.11002832301138
 30
0.0
 10
4.036795780074016
 20
4.11002832301138
 30
0.0
  0
LINE
  5
E3
330
1F
100
AcDbEntity
  8
0
  6
Continuous
 62
     7
370
    25
100
AcDbLine
 10
5.1865190482
 20
4.110028323
 30
0.0
 11
5.1865190482
 21
4.1215595521
 31
0.0
  0
SPLINE
  5
E4
330
1F
100
AcDbEntity
  8
0
  6
Continuous
 62
     7
370
    25
100
AcDbSpline
210
0.0
220
0.0
230
1.0
 70
    24
 71
     3
 72
    24
 73
    20
 74
     0
 42
0.000000001
 43
0.00000001
 40
0.0
 40
0.0
 40
0.0
 40
0.0
 40
0.1250000000000007
 40
0.1250000000000007
 40
0.2500000000000014
 40
0.2500000000000014
 40
0.5000000000000029
 40
0.5000000000000029
 40
0.6250000000000036
 40
0.6250000000000036
 40
0.6875000000000031
 40
0.6875000000000031
 40
0.7500000000000026
 40
0.7500000000000026
 40
0.812500000000002
 40
0.812500000000002
 40
0.8750000000000014
 40
0.8750000000000014
 40
1.0
 40
1.0
 40
1.0
 40
1.0
 10
5.363567433617323
 20
4.11002832301138
 30
0.0
 10
5.363567433617323
 20
4.11002832301138
 30
0.0
 10
5.36254817205359
 20
4.11002832301138
 30
0.0
 10
5.358639198312041
 20
4.11002832301138
 30
0.0
 10
5.355721746864436
 20
4.11002832301138
 30
0.0
 10
5.344295714965358
 20
4.11002832301138
 30
0.0
 10
5.333331981815276
 20
4.11002832301138
 30
0.0
 10
5.310905633802762
 20
4.11002832301138
 30
0.0
 10
5.30259648972187
 20
4.11002832301138
 30
0.0
 10
5.288689657279678
 20
4.11002832301138
 30
0.0
 10
5.283811501819403
 20
4.110028323011379
 30
0.0
 10
5.273502638434404
 20
4.110028323011379
 30
0.0
 10
5.268063598188465
 20
4.11002832301138
 30
0.0
 10
5.256836672970213
 20
4.11002832301138
 30
0.0
 10
5.251019178356057
 20
4.110028323011372
 30
0.0
 10
5.238931895503303
 20
4.110028323011372
 30
0.0
 10
5.232607422580505
 20
4.11002832301138
 30
0.0
 10
5.213344652870012
 20
4.11002832301138
 30
0.0
 10
5.200136363868848
 20
4.11002832301138
 30
0.0
 10
5.186519048188067
 20
4.11002832301138
 30
0.0
  0
LINE
  5
E5
330
1F
100
AcDbEntity
  8
0
  6
Continuous
 62
     7
370
    25
100
AcDbLine
 10
5.1865190482
 20
4.110028323
 30
0.0
 11
4.2138441655
 21
4.110028323
 31
0.0
  0
LINE
  5
E6
330
1F
100
AcDbEntity
  8
0
  6
Continuous
 62
     7
370
    25
100
AcDbLine
 10
5.5685233042
 20
4.0312881655
 30
0.0
 11
5.5488412629
 21
4.0312881655
 31
0.0
  0
ELLIPSE
  5
E7
330
1F
100
AcDbEntity
  8
0
  6
Continuous
 62
     7
370
    25
100
AcDbEllipse
 10
5.5471232447
 20
4.0312881655
 30
0.0
 11
0.0
 21
0.07874015748031482
 31
0.0
210
0.0
220
0.0
230
1.0
 40
0.0218188312
 41
4.71238898038469
 42
6.283185307179586
  0
ELLIPSE
  5
E8
330
1F
100
AcDbEntity
  8
0
  6
Continuous
 62
     7
370
    25
100
AcDbEllipse
 10
3.853239969
 20
4.0312881655
 30
0.0
 11
0.0
 21
0.07874015748031482
 31
0.0
210
0.0
220
0.0
230
1.0
 40
0.0218188312
 41
0.0
 42
1.570796326794897
  0
LINE
  5
E9
330
1F
100
AcDbEntity
  8
0
  6
Continuous
 62
     7
370
    25
100
AcDbLine
 10
3.8318399095
 20
4.0312881655
 30
0.0
 11
3.8515219508
 21
4.0312881655
 31
0.0
  0
LINE
  5
EA
330
1F
100
AcDbEntity
  8
0
  6
Continuous
 62
     7
370
    25
100
AcDbLine
 10
5.5488412629
 20
4.0312881655
 30
0.0
 11
3.8515219508
 21
4.0312881655
 31
0.0
  0
ELLIPSE
  5
EB
330
1F
100
AcDbEntity
  8
0
  6
Continuous
 62
     7
370
    25
100
AcDbEllipse
 10
3.9105860646
 20
3.6375873781
 30
0.0
 11
0.07874615510409688
 21
-8.881784197001252E-16
 31
0.0
210
0.0
220
0.0
230
1.0
 40
0.999923836
 41
3.141592653589818
 42
4.712388980384715
  0
LINE
  5
EC
330
1F
100
AcDbEntity
  8
0
  6
Continuous
 62
     7
370
    25
100
AcDbLine
 10
3.8318399095
 20
3.6375873781
 30
0.0
 11
3.8515219508
 21
3.6375873781
 31
0.0
  0
ELLIPSE
  5
ED
330
1F
100
AcDbEntity
  8
0
  6
Continuous
 62
     7
370
    25
100
AcDbEllipse
 10
3.9105860646
 20
3.6375873781
 30
0.0
 11
0.05906411386086096
 21
0.0
 31
0.0
210
0.0
220
0.0
230
1.0
 40
0.9998476952
 41
3.14159265358979
 42
4.712388980384704
  0
LINE
  5
EE
330
1F
100
AcDbEntity
  8
0
  6
Continuous
 62
     7
370
    25
100
AcDbLine
 10
3.9105860646
 20
3.5588472206
 30
0.0
 11
3.9105860646
 21
3.57853226
 31
0.0
  0
ELLIPSE
  5
EF
330
1F
100
AcDbEntity
  8
0
  6
Continuous
 62
     7
370
    25
100
AcDbEllipse
 10
5.4897771491
 20
3.6375873781
 30
0.0
 11
0.07874615510409733
 21
1.332267629550188E-15
 31
0.0
210
0.0
220
0.0
230
1.0
 40
0.999923836
 41
4.712388980384687
 42
6.283185307179586
  0
LINE
  5
F0
330
1F
100
AcDbEntity
  8
0
  6
Continuous
 62
     7
370
    25
100
AcDbLine
 10
5.4897771491
 20
3.5588472206
 30
0.0
 11
5.4897771491
 21
3.57853226
 31
0.0
  0
ELLIPSE
  5
F1
330
1F
100
AcDbEntity
  8
0
  6
Continuous
 62
     7
370
    25
100
AcDbEllipse
 10
5.4897771491
 20
3.6375873781
 30
0.0
 11
-0.05906411386086052
 21
-4.440892098500625E-16
 31
0.0
210
0.0
220
0.0
230
1.0
 40
0.9998476952
 41
1.570796326794889
 42
3.141592653589786
  0
LINE
  5
F2
330
1F
100
AcDbEntity
  8
0
  6
Continuous
 62
     7
370
    25
100
AcDbLine
 10
5.5685233042
 20
3.6375873781
 30
0.0
 11
5.5488412629
 21
3.6375873781
 31
0.0
  0
LINE
  5
F3
330
1F
100
AcDbEntity
  8
0
  6
Continuous
 62
     7
370
    25
100
AcDbLine
 10
5.5488412629
 20
3.6375873781
 30
0.0
 11
5.5488412629
 21
4.0312881655
 31
0.0
  0
LINE
  5
F4
330
1F
100
AcDbEntity
  8
0
  6
Continuous
 62
     7
370
    25
100
AcDbLine
 10
3.9105860646
 20
3.57853226
 30
0.0
 11
5.4897771491
 21
3.57853226
 31
0.0
  0
LINE
  5
F5
330
1F
100
AcDbEntity
  8
0
  6
Continuous
 62
     7
370
    25
100
AcDbLine
 10
3.8515219508
 20
4.0312881655
 30
0.0
 11
3.8515219508
 21
3.6375873781
 31
0.0
  0
LINE
  5
F6
330
1F
100
AcDbEntity
  8
0
  6
Continuous
 62
     7
370
    25
100
AcDbLine
 10
5.4897771491
 20
3.5588472206
 30
0.0
 11
3.9105860646
 21
3.5588472206
 31
0.0
  0
LINE
  5
F7
330
1F
100
AcDbEntity
  8
0
  6
Continuous
 62
     7
370
    25
100
AcDbLine
 10
3.9105860646
 20
3.5588472206
 30
0.0
 11
3.9044011991
 21
3.5588472206
 31
0.0
  0
ELLIPSE
  5
F8
330
1F
100
AcDbEntity
  8
0
  6
Continuous
 62
     7
370
    25
100
AcDbEllipse
 10
3.9044011991
 20
3.6375873781
 30
0.0
 11
0.07874615510409642
 21
0.0
 31
0.0
210
0.0
220
0.0
230
1.0
 40
0.999923836
 41
3.141592653589793
 42
4.712388980384704
  0
ELLIPSE
  5
F9
330
1F
100
AcDbEntity
  8
0
  6
Continuous
 62
     7
370
    25
100
AcDbEllipse
 10
5.4959620146
 20
3.6375873781
 30
0.0
 11
0.07874615510409733
 21
4.440892098500626E-16
 31
0.0
210
0.0
220
0.0
230
1.0
 40
0.999923836
 41
4.712388980384699
 42
6.283185307179586
  0
LINE
  5
FA
330
1F
100
AcDbEntity
  8
0
  6
Continuous
 62
     7
370
    25
100
AcDbLine
 10
5.4959620146
 20
3.5588472206
 30
0.0
 11
5.4897771491
 21
3.5588472206
 31
0.0
  0
SPLINE
  5
FB
330
1F
100
AcDbEntity
  8
0
  6
Continuous
 62
     7
370
    25
100
AcDbSpline
210
0.0
220
0.0
230
1.0
 70
     8
 71
     3
 72
     8
 73
     4
 74
     0
 42
0.000000001
 43
0.00000001
 40
0.0
 40
0.0
 40
0.0
 40
0.0
 40
1.0
 40
1.0
 40
1.0
 40
1.0
 10
5.050232876818929
 20
4.160707167982845
 30
0.0
 10
5.049115059810312
 20
4.165388927127505
 30
0.0
 10
5.048606803696067
 20
4.170273264544117
 30
0.0
 10
5.048606803696067
 20
4.175235260003248
 30
0.0
  0
LINE
  5
FC
330
1F
100
AcDbEntity
  8
0
  6
Continuous
 62
     7
370
    25
100
AcDbLine
 10
5.0486068037
 20
4.17523526
 30
0.0
 11
5.0486068037
 21
5.1079999469
 31
0.0
  0
LWPOLYLINE
  5
FD
330
1F
100
AcDbEntity
  8
0
  6
Continuous
 62
     7
370
    25
100
AcDbPolyline
 90
        9
 70
   128
 43
0.0
 10
5.0682918431
 20
5.1164101274
 10
5.0644514824
 20
5.1162485281
 10
5.0607587046
 20
5.1157699405
 10
5.0573554212
 20
5.1149927564
 10
5.0543724182
 20
5.1139468425
 10
5.051924331
 20
5.1126723928
 10
5.0501052381
 20
5.1112183836
 10
5.0489850462
 20
5.1096406917
 10
5.0486068037
 20
5.1079999469
  0
LINE
  5
FE
330
1F
100
AcDbEntity
  8
0
  6
Continuous
 62
     7
370
    25
100
AcDbLine
 10
5.0682918431
 20
5.1164101274
 30
0.0
 11
5.0682918431
 21
4.150610028
 31
0.0
  0
SPLINE
  5
FF
330
1F
100
AcDbEntity
  8
0
  6
Continuous
 62
     7
370
    25
100
AcDbSpline
210
0.0
220
0.0
230
1.0
 70
     8
 71
     3
 72
    10
 73
     6
 74
     0
 42
0.000000001
 43
0.00000001
 40
0.0
 40
0.0
 40
0.0
 40
0.0
 40
0.5
 40
0.5
 40
1.0
 40
1.0
 40
1.0
 40
1.0
 10
5.050232876818929
 20
4.160707167982845
 30
0.0
 10
5.051785623847662
 20
4.15738352875202
 30
0.0
 10
5.054362090648553
 20
4.154682574961752
 30
0.0
 10
5.060724639271734
 20
4.151152203492988
 30
0.0
 10
5.064538713280784
 20
4.15034598273084
 30
0.0
 10
5.068291843067247
 20
4.150610027997902
 30
0.0
  0
SPLINE
  5
100
330
1F
100
AcDbEntity
  8
0
  6
Continuous
 62
     7
370
    25
100
AcDbSpline
210
0.0
220
0.0
230
1.0
 70
     8
 71
     3
 72
    10
 73
     6
 74
     0
 42
0.000000001
 43
0.00000001
 40
0.0
 40
0.0
 40
0.0
 40
0.0
 40
0.5
 40
0.5
 40
1.0
 40
1.0
 40
1.0
 40
1.0
 10
5.083861850346763
 20
5.163134270970942
 30
0.0
 10
5.078400230307411
 20
5.156517896969695
 30
0.0
 10
5.074535565751775
 20
5.149014442875718
 30
0.0
 10
5.069475745335239
 20
5.13316470979286
 30
0.0
 10
5.068291843066206
 20
5.124857844426738
 30
0.0
 10
5.068291843066151
 20
5.116410127359471
 30
0.0
  0
SPLINE
  5
101
330
1F
100
AcDbEntity
  8
0
  6
Continuous
 62
     7
370
    25
100
AcDbSpline
210
0.0
220
0.0
230
1.0
 70
     8
 71
     3
 72
    18
 73
    14
 74
     0
 42
0.000000001
 43
0.00000001
 40
0.0
 40
0.0
 40
0.0
 40
0.0
 40
0.1249999999999996
 40
0.1249999999999996
 40
0.2499999999999991
 40
0.2499999999999991
 40
0.3749999999999987
 40
0.3749999999999987
 40
0.4999999999999982
 40
0.4999999999999982
 40
0.7499999999999991
 40
0.7499999999999991
 40
1.0
 40
1.0
 40
1.0
 40
1.0
 10
5.236925435568619
 20
5.455483259955835
 30
0.0
 10
5.237682208218098
 20
5.447314202390993
 30
0.0
 10
5.237303667425428
 20
5.438384411276034
 30
0.0
 10
5.234396232522084
 20
5.419022028309125
 30
0.0
 10
5.231859645375016
 20
5.408614474636635
 30
0.0
 10
5.224904995121571
 20
5.386817707190387
 30
0.0
 10
5.220480101742871
 20
5.375376486186992
 30
0.0
 10
5.209878585656546
 20
5.351474284622931
 30
0.0
 10
5.203666123490578
 20
5.338948979574933
 30
0.0
 10
5.182749864415251
 20
5.300350655070247
 30
0.0
 10
5.166092569790518
 20
5.273742809016936
 30
0.0
 10
5.128317289990957
 20
5.219269517069375
 30
0.0
 10
5.107190142053747
 20
5.191394878928205
 30
0.0
 10
5.083861850346755
 20
5.163134270970946
 30
0.0
  0
SPLINE
  5
102
330
1F
100
AcDbEntity
  8
0
  6
Continuous
 62
     7
370
    25
100
AcDbSpline
210
0.0
220
0.0
230
1.0
 70
     8
 71
     3
 72
    10
 73
     6
 74
     0
 42
0.000000001
 43
0.00000001
 40
0.0
 40
0.0
 40
0.0
 40
0.0
 40
0.5
 40
0.5
 40
1.0
 40
1.0
 40
1.0
 40
1.0
 10
5.181116084420924
 20
5.511640662063865
 30
0.0
 10
5.197962637456918
 20
5.508050112292648
 30
0.0
 10
5.211180701765796
 20
5.501880219481794
 30
0.0
 10
5.23010881643725
 20
5.483142467657958
 30
0.0
 10
5.235498420820238
 20
5.470887312458836
 30
0.0
 10
5.236925435568619
 20
5.455483259955835
 30
0.0
  0
SPLINE
  5
103
330
1F
100
AcDbEntity
  8
0
  6
Continuous
 62
     7
370
    25
100
AcDbSpline
210
0.0
220
0.0
230
1.0
 70
     8
 71
     3
 72
    11
 73
     7
 74
     0
 42
0.000000001
 43
0.00000001
 40
0.0
 40
0.0
 40
0.0
 40
0.0
 40
0.2620338365664966
 40
0.5240861500619676
 40
0.7916226376925402
 40
0.9999999999999999
 40
0.9999999999999999
 40
0.9999999999999999
 40
0.9999999999999999
 10
4.230344530570826
 20
5.51356300414415
 30
0.0
 10
4.236475639396896
 20
5.514223943832074
 30
0.0
 10
4.248738289375117
 20
5.515545869813107
 30
0.0
 10
4.269835708336151
 20
5.51564500846756
 30
0.0
 10
4.290919932603861
 20
5.51474574713089
 30
0.0
 10
4.305876271050742
 20
5.513323489895066
 30
0.0
 10
4.312424856169129
 20
5.512700759097545
 30
0.0
  0
SPLINE
  5
104
330
1F
100
AcDbEntity
  8
0
  6
Continuous
 62
     7
370
    25
100
AcDbSpline
210
0.0
220
0.0
230
1.0
 70
     8
 71
     3
 72
    11
 73
     7
 74
     0
 42
0.000000001
 43
0.00000001
 40
0.0
 40
0.0
 40
0.0
 40
0.0
 40
0.1500274649053658
 40
0.4671900363769675
 40
0.8420444224923943
 40
1.0
 40
1.0
 40
1.0
 40
1.0
 10
5.076829335586084
 20
5.511475119385297
 30
0.0
 10
5.082023465393579
 20
5.512078887382017
 30
0.0
 10
5.098198141778608
 20
5.513959039076441
 30
0.0
 10
5.12415260197082
 20
5.515501235505835
 30
0.0
 10
5.148844203551039
 20
5.516042736207742
 30
0.0
 10
5.161389886655752
 20
5.514206645581101
 30
0.0
 10
5.165109150099246
 20
5.513662322510797
 30
0.0
  0
SPLINE
  5
105
330
1F
100
AcDbEntity
  8
0
  6
Continuous
 62
     7
370
    25
100
AcDbSpline
210
0.0
220
0.0
230
1.0
 70
     8
 71
     3
 72
    10
 73
     6
 74
     0
 42
0.000000001
 43
0.00000001
 40
0.0
 40
0.0
 40
0.0
 40
0.0
 40
0.5
 40
0.5
 40
1.0
 40
1.0
 40
1.0
 40
1.0
 10
4.163437778122728
 20
5.455483259955835
 30
0.0
 10
4.164864786750924
 20
5.470887246393886
 30
0.0
 10
4.170256394289821
 20
5.483146229779137
 30
0.0
 10
4.189187772578777
 20
5.501883641373366
 30
0.0
 10
4.20240075392301
 20
5.508050150163879
 30
0.0
 10
4.219247129270424
 20
5.511640662063865
 30
0.0
  0
SPLINE
  5
106
330
1F
100
AcDbEntity
  8
0
  6
Continuous
 62
     7
370
    25
100
AcDbSpline
210
0.0
220
0.0
230
1.0
 70
     8
 71
     3
 72
    18
 73
    14
 74
     0
 42
0.000000001
 43
0.00000001
 40
0.0
 40
0.0
 40
0.0
 40
0.0
 40
0.2500000000000003
 40
0.2500000000000003
 40
0.3749999999999992
 40
0.3749999999999992
 40
0.4999999999999981
 40
0.4999999999999981
 40
0.749999999999999
 40
0.749999999999999
 40
0.8749999999999996
 40
0.8749999999999996
 40
1.0
 40
1.0
 40
1.0
 40
1.0
 10
4.305812996049863
 20
5.17624863948529
 30
0.0
 10
4.283981071899738
 20
5.203382007956093
 30
0.0
 10
4.264171001699496
 20
5.230126127828825
 30
0.0
 10
4.237621246678537
 20
5.269331799415475
 30
0.0
 10
4.229304001863293
 20
5.282249507353273
 30
0.0
 10
4.213826901689945
 20
5.30773009697989
 30
0.0
 10
4.206633505362872
 20
5.320361242504606
 30
0.0
 10
4.187380236070471
 20
5.35691428132001
 30
0.0
 10
4.177522337385883
 20
5.37961761269772
 30
0.0
 10
4.16794179011058
 20
5.410816258770814
 30
0.0
 10
4.165634390910219
 20
5.420746382152169
 30
0.0
 10
4.163031342385415
 20
5.43913327528491
 30
0.0
 10
4.162712328318744
 20
5.447652319959217
 30
0.0
 10
4.163437778122728
 20
5.455483259955835
 30
0.0
  0
SPLINE
  5
107
330
1F
100
AcDbEntity
  8
0
  6
Continuous
 62
     7
370
    25
100
AcDbSpline
210
0.0
220
0.0
230
1.0
 70
     8
 71
     3
 72
    10
 73
     6
 74
     0
 42
0.000000001
 43
0.00000001
 40
0.0
 40
0.0
 40
0.0
 40
0.0
 40
0.5
 40
0.5
 40
1.0
 40
1.0
 40
1.0
 40
1.0
 10
4.320260347003159
 20
5.132549848128971
 30
0.0
 10
4.320260347003159
 20
5.140448670240636
 30
0.0
 10
4.319160799350763
 20
5.148106691691835
 30
0.0
 10
4.314460586934578
 20
5.162917614709018
 30
0.0
 10
4.310855784631354
 20
5.169981310973106
 30
0.0
 10
4.305812996049863
 20
5.17624863948529
 30
0.0
  0
LINE
  5
108
330
1F
100
AcDbEntity
  8
0
  6
Continuous
 62
     7
370
    25
100
AcDbLine
 10
4.320260347
 20
4.1441050765
 30
0.0
 11
4.320260347
 21
5.1325498481
 31
0.0
  0
SPLINE
  5
109
330
1F
100
AcDbEntity
  8
0
  6
Continuous
 62
     7
370
    25
100
AcDbSpline
210
0.0
220
0.0
230
1.0
 70
     8
 71
     3
 72
    10
 73
     6
 74
     0
 42
0.000000001
 43
0.00000001
 40
0.0
 40
0.0
 40
0.0
 40
0.0
 40
0.4999999999999999
 40
0.4999999999999999
 40
1.0
 40
1.0
 40
1.0
 40
1.0
 10
4.338579392859547
 20
4.155155950650173
 30
0.0
 10
4.337112120088148
 20
4.151626468016416
 30
0.0
 10
4.334543060970409
 20
4.148705773783373
 30
0.0
 10
4.32805714547121
 20
4.14481733516002
 30
0.0
 10
4.324129676363546
 20
4.143886350977207
 30
0.0
 10
4.320260347003167
 20
4.144105076454986
 30
0.0
  0
LWPOLYLINE
  5
10A
330
1F
100
AcDbEntity
  8
0
  6
Continuous
 62
     7
370
    25
100
AcDbPolyline
 90
        9
 70
   128
 43
0.0
 10
4.320260347
 20
5.1325498481
 10
4.3241007077
 20
5.1323794884
 10
4.3277934854
 20
5.1318749561
 10
4.3311967689
 20
5.1310556401
 10
4.3341797718
 20
5.1299530262
 10
4.3366278591
 20
5.1286094873
 10
4.338446952
 20
5.1270766548
 10
4.3395671439
 20
5.1254134346
 10
4.3399453864
 20
5.1236837434
  0
LINE
  5
10B
330
1F
100
AcDbEntity
  8
0
  6
Continuous
 62
     7
370
    25
100
AcDbLine
 10
4.3399453864
 20
5.1236837434
 30
0.0
 11
4.3399453864
 21
4.1676179597
 31
0.0
  0
SPLINE
  5
10C
330
1F
100
AcDbEntity
  8
0
  6
Continuous
 62
     7
370
    25
100
AcDbSpline
210
0.0
220
0.0
230
1.0
 70
     8
 71
     3
 72
     8
 73
     4
 74
     0
 42
0.000000001
 43
0.00000001
 40
0.0
 40
0.0
 40
0.0
 40
0.0
 40
1.0
 40
1.0
 40
1.0
 40
1.0
 10
4.338579392859547
 20
4.155155950650173
 30
0.0
 10
4.33951356571496
 20
4.159182503488069
 30
0.0
 10
4.339945386373236
 20
4.163368582108709
 30
0.0
 10
4.339945386373237
 20
4.167617959666827
 30
0.0
  0
LINE
  5
10D
330
1F
100
AcDbEntity
  8
0
  6
Continuous
 62
     7
370
    25
100
AcDbLine
 10
4.0840398746
 20
4.141524386
 30
0.0
 11
4.0840398746
 21
5.4958550947
 31
0.0
  0
LINE
  5
10E
330
1F
100
AcDbEntity
  8
0
  6
Continuous
 62
     7
370
    25
100
AcDbLine
 10
5.3163233391
 20
5.4958550947
 30
0.0
 11
5.3163233391
 21
4.141524386
 31
0.0
  0
LINE
  5
10F
330
1F
100
AcDbEntity
  8
0
  6
Continuous
 62
     7
370
    25
100
AcDbLine
 10
5.2163788887
 20
5.4161256152
 30
0.0
 11
5.216911626
 21
5.419905956
 31
0.0
  0
ARC
  5
110
330
1F
100
AcDbEntity
  8
0
  6
Continuous
 62
     7
370
    25
100
AcDbCircle
 10
5.2365929267
 20
5.4360136113
 30
0.0
 40
0.0194724877932377
100
AcDbArc
 50
89.021579584
 51
170.8757477957
  0
ARC
  5
111
330
1F
100
AcDbEntity
  8
0
  6
Continuous
 62
     7
370
    25
100
AcDbCircle
 10
4.163770287
 20
5.4360136113
 30
0.0
 40
0.019472487793236
100
AcDbArc
 50
9.1242522043
 51
90.978420416
  0
SPLINE
  5
112
330
1F
100
AcDbEntity
  8
0
  6
Continuous
 62
     7
370
    25
100
AcDbSpline
210
0.0
220
0.0
230
1.0
 70
     8
 71
     3
 72
     9
 73
     5
 74
     0
 42
0.000000001
 43
0.00000001
 40
0.0
 40
0.0
 40
0.0
 40
0.0
 40
0.1582989979500875
 40
0.9999999999999999
 40
0.9999999999999999
 40
0.9999999999999999
 40
0.9999999999999999
 10
4.183257986070307
 20
5.420053618984085
 30
0.0
 10
4.183257894841375
 20
5.420000873960768
 30
0.0
 10
4.18325731853367
 20
5.419667675241886
 30
0.0
 10
4.183355308241211
 20
5.419267486142051
 30
0.0
 10
4.183437786276238
 20
5.41893064657571
 30
0.0
  0
ARC
  5
113
330
1F
100
AcDbEntity
  8
0
  6
Continuous
 62
     7
370
    25
100
AcDbCircle
 10
4.8044410148
 20
3.8298450756
 30
0.0
 40
0.6969978652253628
100
AcDbArc
 50
69.4936817742
 51
84.808855874
  0
SPLINE
  5
114
330
1F
100
AcDbEntity
  8
0
  6
Continuous
 62
     7
370
    25
100
AcDbSpline
210
0.0
220
0.0
230
1.0
 70
    24
 71
     3
 72
     8
 73
     4
 74
     0
 42
0.000000001
 43
0.00000001
 40
0.0
 40
0.0
 40
0.0
 40
0.0
 40
1.0
 40
1.0
 40
1.0
 40
1.0
 10
4.867504441491346
 20
4.523984131097492
 30
0.0
 10
4.867504441491346
 20
4.748772964649959
 30
0.0
 10
4.867504441491346
 20
4.973500114637287
 30
0.0
 10
4.867504441491346
 20
5.198191005768409
 30
0.0
  0
SPLINE
  5
115
330
1F
100
AcDbEntity
  8
0
  6
Continuous
 62
     7
370
    25
100
AcDbSpline
210
0.0
220
0.0
230
1.0
 70
     8
 71
     3
 72
    22
 73
    18
 74
     0
 42
0.000000001
 43
0.00000001
 40
0.0
 40
0.0
 40
0.0
 40
0.0
 40
0.125
 40
0.125
 40
0.25
 40
0.25
 40
0.375
 40
0.375
 40
0.5
 40
0.5
 40
0.625
 40
0.625
 40
0.75
 40
0.75
 40
0.875
 40
0.875
 40
1.0
 40
1.0
 40
1.0
 40
1.0
 10
4.700181606845674
 20
5.371921809204729
 30
0.0
 10
4.711436673719828
 20
5.371921809204729
 30
0.0
 10
4.722476994194703
 20
5.370707414613428
 30
0.0
 10
4.744152836706773
 20
5.36598507133444
 30
0.0
 10
4.754900456239812
 20
5.362412267810043
 30
0.0
 10
4.775173816435935
 20
5.353256499640957
 30
0.0
 10
4.784759509021725
 20
5.347689276852298
 30
0.0
 10
4.802873687057186
 20
5.334639991333109
 30
0.0
 10
4.81129756517088
 20
5.327208247383788
 30
0.0
 10
4.826484462556933
 20
5.31104990596053
 30
0.0
 10
4.833367249558982
 20
5.302204232826094
 30
0.0
 10
4.84541616273416
 20
5.283336947167273
 30
0.0
 10
4.85049669120116
 20
5.273476260651701
 30
0.0
 10
4.85881156881963
 20
5.252923132711145
 30
0.0
 10
4.862062896386197
 20
5.242111653154931
 30
0.0
 10
4.866394225772992
 20
5.220297565406423
 30
0.0
 10
4.867504441491346
 20
5.209293316437612
 30
0.0
 10
4.867504441491347
 20
5.198191005768416
 30
0.0
  0
SPLINE
  5
116
330
1F
100
AcDbEntity
  8
0
  6
Continuous
 62
     7
370
    25
100
AcDbSpline
210
0.0
220
0.0
230
1.0
 70
     8
 71
     3
 72
    22
 73
    18
 74
     0
 42
0.000000001
 43
0.00000001
 40
0.0
 40
0.0
 40
0.0
 40
0.0
 40
0.1249999999999998
 40
0.1249999999999998
 40
0.2499999999999996
 40
0.2499999999999996
 40
0.3749999999999993
 40
0.3749999999999993
 40
0.4999999999999991
 40
0.4999999999999991
 40
0.625
 40
0.625
 40
0.75
 40
0.75
 40
0.875
 40
0.875
 40
1.0
 40
1.0
 40
1.0
 40
1.0
 10
4.532858772200008
 20
5.19819100576842
 30
0.0
 10
4.532858772200008
 20
5.209298320927289
 30
0.0
 10
4.533969642419233
 20
5.220266684099514
 30
0.0
 10
4.538259060384394
 20
5.241937724993687
 30
0.0
 10
4.541490299545447
 20
5.252752701725276
 30
0.0
 10
4.549842938841287
 20
5.273436569988187
 30
0.0
 10
4.554931497461392
 20
5.283302512364133
 30
0.0
 10
4.566916910046784
 20
5.302090443239054
 30
0.0
 10
4.573852231437104
 20
5.31101776147832
 30
0.0
 10
4.589033313668822
 20
5.327177757432429
 30
0.0
 10
4.597334592716797
 20
5.334513490728584
 30
0.0
 10
4.615462380614142
 20
5.347602114715739
 30
0.0
 10
4.625146653373886
 20
5.353228199500976
 30
0.0
 10
4.645286592847468
 20
5.362341608194318
 30
0.0
 10
4.655864041718344
 20
5.365893537089348
 30
0.0
 10
4.677807371044555
 20
5.37070600890201
 30
0.0
 10
4.688921562640548
 20
5.371921809204729
 30
0.0
 10
4.700181606845674
 20
5.371921809204729
 30
0.0
  0
SPLINE
  5
117
330
1F
100
AcDbEntity
  8
0
  6
Continuous
 62
     7
370
    25
100
AcDbSpline
210
0.0
220
0.0
230
1.0
 70
    24
 71
     3
 72
     8
 73
     4
 74
     0
 42
0.000000001
 43
0.00000001
 40
0.0
 40
0.0
 40
0.0
 40
0.0
 40
1.0
 40
1.0
 40
1.0
 40
1.0
 10
4.532858772200008
 20
4.523984131097492
 30
0.0
 10
4.532858772200008
 20
4.74877296464994
 30
0.0
 10
4.532858772200008
 20
4.97350011463725
 30
0.0
 10
4.532858772200008
 20
5.198191005768355
 30
0.0
  0
ARC
  5
118
330
1F
100
AcDbEntity
  8
0
  6
Continuous
 62
     7
370
    25
100
AcDbCircle
 10
4.5894014306
 20
3.8664428122
 30
0.0
 40
0.6599679221470717
100
AcDbArc
 50
94.9148329891
 51
112.2087435918
  0
SPLINE
  5
119
330
1F
100
AcDbEntity
  8
0
  6
Continuous
 62
     7
370
    25
100
AcDbSpline
210
0.0
220
0.0
230
1.0
 70
     8
 71
     3
 72
    10
 73
     6
 74
     0
 42
0.000000001
 43
0.00000001
 40
0.0
 40
0.0
 40
0.0
 40
0.0
 40
0.5
 40
0.5
 40
1.0
 40
1.0
 40
1.0
 40
1.0
 10
4.236776719093952
 20
5.491633375561767
 30
0.0
 10
4.220588886773642
 20
5.488474146189392
 30
0.0
 10
4.207843730108108
 20
5.482838323220687
 30
0.0
 10
4.189558976594164
 20
5.465321948074863
 30
0.0
 10
4.184354144808128
 20
5.453747227151034
 30
0.0
 10
4.182996384956088
 20
5.43910148065032
 30
0.0
  0
SPLINE
  5
11A
330
1F
100
AcDbEntity
  8
0
  6
Continuous
 62
     7
370
    25
100
AcDbSpline
210
0.0
220
0.0
230
1.0
 70
     8
 71
     3
 72
    38
 73
    34
 74
     0
 42
0.000000001
 43
0.00000001
 40
0.0
 40
0.0
 40
0.0
 40
0.0
 40
0.0625
 40
0.0625
 40
0.1250000000000001
 40
0.1250000000000001
 40
0.1875000000000001
 40
0.1875000000000001
 40
0.2500000000000002
 40
0.2500000000000002
 40
0.3749999999999998
 40
0.3749999999999998
 40
0.4374999999999998
 40
0.4374999999999998
 40
0.4999999999999998
 40
0.4999999999999998
 40
0.5624999999999998
 40
0.5624999999999998
 40
0.6249999999999999
 40
0.6249999999999999
 40
0.6874999999999999
 40
0.6874999999999999
 40
0.7499999999999999
 40
0.7499999999999999
 40
0.8125
 40
0.8125
 40
0.84375
 40
0.84375
 40
0.875
 40
0.875
 40
0.9375000000000001
 40
0.9375000000000001
 40
1.0
 40
1.0
 40
1.0
 40
1.0
 10
5.163586494597395
 20
5.491633375561765
 30
0.0
 10
5.152494510602861
 20
5.493798095392071
 30
0.0
 10
5.140001380125939
 20
5.4947520981778
 30
0.0
 10
5.112358314219025
 20
5.494782428142638
 30
0.0
 10
5.097133250234268
 20
5.493840881237589
 30
0.0
 10
5.064843677929652
 20
5.490634522060908
 30
0.0
 10
5.0477021128485
 20
5.488373427940435
 30
0.0
 10
5.011410166853799
 20
5.483048250768563
 30
0.0
 10
4.992184943761818
 20
5.479969330225873
 30
0.0
 10
4.931717507456581
 20
5.470335289323265
 30
0.0
 10
4.888729285337996
 20
5.463557721534118
 30
0.0
 10
4.819378837645336
 20
5.455918947049171
 30
0.0
 10
4.795854440894852
 20
5.453848870972752
 30
0.0
 10
4.748427797858332
 20
5.451037351708462
 30
0.0
 10
4.724452838533088
 20
5.450288542463138
 30
0.0
 10
4.675948907180985
 20
5.450287756727979
 30
0.0
 10
4.651392372427097
 20
5.451054302695712
 30
0.0
 10
4.603413693930632
 20
5.453929559771944
 30
0.0
 10
4.580092761571905
 20
5.456009912610421
 30
0.0
 10
4.534632821436972
 20
5.461031858488496
 30
0.0
 10
4.512494077423804
 20
5.463973229595305
 30
0.0
 10
4.469311611508227
 20
5.470247600431585
 30
0.0
 10
4.448193047265078
 20
5.473593839630764
 30
0.0
 10
4.408156037043125
 20
5.479972965361264
 30
0.0
 10
4.389083750756946
 20
5.483028154562449
 30
0.0
 10
4.361814932865449
 20
5.487030726270229
 30
0.0
 10
4.352949758670245
 20
5.488268170300042
 30
0.0
 10
4.335668917252289
 20
5.490482203143229
 30
0.0
 10
4.327235502233102
 20
5.491459905173087
 30
0.0
 10
4.302927827251483
 20
5.493865202504648
 30
0.0
 10
4.287944285905325
 20
5.494782022814318
 30
0.0
 10
4.260437365124753
 20
5.494752519690429
 30
0.0
 10
4.247862633904721
 20
5.493796910925662
 30
0.0
 10
4.236776719093952
 20
5.491633375561765
 30
0.0
  0
SPLINE
  5
11B
330
1F
100
AcDbEntity
  8
0
  6
Continuous
 62
     7
370
    25
100
AcDbSpline
210
0.0
220
0.0
230
1.0
 70
     8
 71
     3
 72
    10
 73
     6
 74
     0
 42
0.000000001
 43
0.00000001
 40
0.0
 40
0.0
 40
0.0
 40
0.0
 40
0.5
 40
0.5
 40
1.0
 40
1.0
 40
1.0
 40
1.0
 10
5.217366828735259
 20
5.43910148065032
 30
0.0
 10
5.216009062092513
 20
5.453747300400339
 30
0.0
 10
5.210807270504097
 20
5.465317235643774
 30
0.0
 10
5.192523902403765
 20
5.482835895852419
 30
0.0
 10
5.179774529725866
 20
5.488474106609201
 30
0.0
 10
5.163586494597395
 20
5.491633375561767
 30
0.0
  0
LINE
  5
11C
330
1F
100
AcDbEntity
  8
0
  6
Continuous
 62
     7
370
    25
100
AcDbLine
 10
4.0761658588
 20
4.5362393606
 30
0.0
 11
4.0840398746
 21
4.5362393606
 31
0.0
  0
ARC
  5
11D
330
1F
100
AcDbEntity
  8
0
  6
Continuous
 62
     7
370
    25
100
AcDbCircle
 10
4.21697197
 20
5.4919642494
 30
0.0
 40
0.0198075128365675
100
AcDbArc
 50
359.042860309
 51
83.4042508076
  0
ARC
  5
11E
330
1F
100
AcDbEntity
  8
0
  6
Continuous
 62
     7
370
    25
100
AcDbCircle
 10
5.1833912437
 20
5.4919642494
 30
0.0
 40
0.0198075128365674
100
AcDbArc
 50
96.5957491924
 51
180.9571396911
  0
ELLIPSE
  5
11F
330
1F
100
AcDbEntity
  8
0
  6
Continuous
 62
     7
370
    25
100
AcDbEllipse
 10
4.7001816068
 20
4.0399502001
 30
0.0
 11
0.4133858267716536
 21
0.0
 31
0.0
210
0.0
220
0.0
230
1.0
 40
0.6443669255
 41
1.014287512253055
 42
2.127305141336738
  0
LINE
  5
120
330
1F
100
AcDbEntity
  8
0
  6
Continuous
 62
     7
370
    25
100
AcDbLine
 10
4.5328587722
 20
4.5239841311
 30
0.0
 11
4.5328587722
 21
4.5144950031
 31
0.0
  0
SPLINE
  5
121
330
1F
100
AcDbEntity
  8
0
  6
Continuous
 62
     7
370
    25
100
AcDbSpline
210
0.0
220
0.0
230
1.0
 70
     8
 71
     3
 72
    38
 73
    34
 74
     0
 42
0.000000001
 43
0.00000001
 40
0.0
 40
0.0
 40
0.0
 40
0.0
 40
0.0625
 40
0.0625
 40
0.125
 40
0.125
 40
0.1875
 40
0.1875
 40
0.25
 40
0.25
 40
0.3125
 40
0.3125
 40
0.375
 40
0.375
 40
0.4375
 40
0.4375
 40
0.5
 40
0.5
 40
0.5625
 40
0.5625
 40
0.625
 40
0.625
 40
0.6875
 40
0.6875
 40
0.75
 40
0.75
 40
0.8125
 40
0.8125
 40
0.875
 40
0.875
 40
0.9375
 40
0.9375
 40
1.0
 40
1.0
 40
1.0
 40
1.0
 10
4.867504441491346
 20
4.514495003103062
 30
0.0
 10
4.867504441491346
 20
4.503716609534076
 30
0.0
 10
4.866395501939586
 20
4.493276153019052
 30
0.0
 10
4.862076063143966
 20
4.473013943176717
 30
0.0
 10
4.858807374228126
 20
4.463090197722458
 30
0.0
 10
4.850382759174157
 20
4.444530641148155
 30
0.0
 10
4.845245652374174
 20
4.43584782136003
 30
0.0
 10
4.833128511874108
 20
4.419561329590697
 30
0.0
 10
4.826170953562141
 20
4.41202630870478
 30
0.0
 10
4.81092700936003
 20
4.398526478576022
 30
0.0
 10
4.802551807646326
 20
4.392462756294073
 30
0.0
 10
4.784379899606677
 20
4.381815142552663
 30
0.0
 10
4.774818119211943
 20
4.37736082881651
 30
0.0
 10
4.754732734112489
 20
4.370101017215871
 30
0.0
 10
4.744086352269679
 20
4.367278611489358
 30
0.0
 10
4.722380462868893
 20
4.363524183715214
 30
0.0
 10
4.711367568289856
 20
4.362574738817188
 30
0.0
 10
4.689010190305201
 20
4.362573906423378
 30
0.0
 10
4.678040395385935
 20
4.363522406042904
 30
0.0
 10
4.65649571826456
 20
4.367232667708977
 30
0.0
 10
4.645807214168475
 20
4.370044820691296
 30
0.0
 10
4.62559506885095
 20
4.377335167679032
 30
0.0
 10
4.616029117710803
 20
4.381795439220798
 30
0.0
 10
4.597933140477922
 20
4.392384358455116
 30
0.0
 10
4.589470164257287
 20
4.398500027192794
 30
0.0
 10
4.574219162249507
 20
4.41199887591741
 30
0.0
 10
4.567318871359229
 20
4.419458572632409
 30
0.0
 10
4.555137447136048
 20
4.43581080713273
 30
0.0
 10
4.550007247873992
 20
4.444490329553335
 30
0.0
 10
4.54161799902981
 20
4.462934742209951
 30
0.0
 10
4.538338554981769
 20
4.472815614055982
 30
0.0
 10
4.533968103556162
 20
4.493232014614897
 30
0.0
 10
4.532858772200008
 20
4.503715874014426
 30
0.0
 10
4.532858772200008
 20
4.514495003103062
 30
0.0
  0
LINE
  5
122
330
1F
100
AcDbEntity
  8
0
  6
Continuous
 62
     7
370
    25
100
AcDbLine
 10
4.8675044415
 20
4.5239841311
 30
0.0
 11
4.8675044415
 21
4.5144950031
 31
0.0
  0
SPLINE
  5
123
330
1F
100
AcDbEntity
  8
0
  6
Continuous
 62
     7
370
    25
100
AcDbSpline
210
0.0
220
0.0
230
1.0
 70
     8
 71
     3
 72
    38
 73
    34
 74
     0
 42
0.000000001
 43
0.00000001
 40
0.0
 40
0.0
 40
0.0
 40
0.0
 40
0.0624999999999998
 40
0.0624999999999998
 40
0.1249999999999997
 40
0.1249999999999997
 40
0.1874999999999995
 40
0.1874999999999995
 40
0.2499999999999993
 40
0.2499999999999993
 40
0.3124999999999992
 40
0.3124999999999992
 40
0.3749999999999994
 40
0.3749999999999994
 40
0.4374999999999997
 40
0.4374999999999997
 40
0.5
 40
0.5
 40
0.5625000000000002
 40
0.5625000000000002
 40
0.6250000000000006
 40
0.6250000000000006
 40
0.6875000000000008
 40
0.6875000000000008
 40
0.7500000000000011
 40
0.7500000000000011
 40
0.8125000000000008
 40
0.8125000000000008
 40
0.8750000000000006
 40
0.8750000000000006
 40
0.9375000000000002
 40
0.9375000000000002
 40
1.0
 40
1.0
 40
1.0
 40
1.0
 10
4.542701291885054
 20
5.208310573078319
 30
0.0
 10
4.542701291885054
 20
5.218683722754981
 30
0.0
 10
4.543728341750258
 20
5.228908071255405
 30
0.0
 10
4.547727023836371
 20
5.249073154836808
 30
0.0
 10
4.550745380377704
 20
5.259115989323658
 30
0.0
 10
4.558608708539825
 20
5.278342637018706
 30
0.0
 10
4.563412348712154
 20
5.287493163656731
 30
0.0
 10
4.574743805384244
 20
5.304873169973398
 30
0.0
 10
4.581334865168731
 20
5.313141885838375
 30
0.0
 10
4.595752069855945
 20
5.328042962061473
 30
0.0
 10
4.603623090963469
 20
5.334767535003389
 30
0.0
 10
4.620743369666229
 20
5.346703484044103
 30
0.0
 10
4.629921885845358
 20
5.351836632477517
 30
0.0
 10
4.648892827750998
 20
5.360086736866222
 30
0.0
 10
4.658799649140827
 20
5.363272900199484
 30
0.0
 10
4.679331390282046
 20
5.367587800517965
 30
0.0
 10
4.68964446939621
 20
5.368656735029093
 30
0.0
 10
4.710362304707992
 20
5.368681206051654
 30
0.0
 10
4.720887187035886
 20
5.367601914788931
 30
0.0
 10
4.741257199863455
 20
5.363353210608084
 30
0.0
 10
4.751133030482229
 20
5.360213077315622
 30
0.0
 10
4.77027497970587
 20
5.351928813996177
 30
0.0
 10
4.7794736083345
 20
5.346786466868275
 30
0.0
 10
4.79649820222658
 20
5.334954739821907
 30
0.0
 10
4.804466635749984
 20
5.328182761919241
 30
0.0
 10
4.819029838006899
 20
5.313149811147281
 30
0.0
 10
4.825489223922372
 20
5.305045582075842
 30
0.0
 10
4.836825892160285
 20
5.287711500146539
 30
0.0
 10
4.841737915594536
 20
5.278372970692544
 30
0.0
 10
4.849588387619088
 20
5.25919815674606
 30
0.0
 10
4.852567006259127
 20
5.249343213028586
 30
0.0
 10
4.856612371601729
 20
5.22909859587554
 30
0.0
 10
4.857661921806315
 20
5.21868397194253
 30
0.0
 10
4.857661921806314
 20
5.208310573078319
 30
0.0
  0
ARC
  5
124
330
1F
100
AcDbEntity
  8
0
  6
Continuous
 62
     7
370
    25
100
AcDbCircle
 10
4.8487394478
 20
5.2278992377
 30
0.0
 40
0.0215250162468696
100
AcDbArc
 50
262.2879266009
 51
294.4888707239
  0
SPLINE
  5
125
330
1F
100
AcDbEntity
  8
0
  6
Continuous
 62
     7
370
    25
100
AcDbSpline
210
0.0
220
0.0
230
1.0
 70
     8
 71
     3
 72
    38
 73
    34
 74
     0
 42
0.000000001
 43
0.00000001
 40
0.0
 40
0.0
 40
0.0
 40
0.0
 40
0.0624999999999998
 40
0.0624999999999998
 40
0.1249999999999995
 40
0.1249999999999995
 40
0.1874999999999993
 40
0.1874999999999993
 40
0.249999999999999
 40
0.249999999999999
 40
0.3124999999999988
 40
0.3124999999999988
 40
0.3749999999999985
 40
0.3749999999999985
 40
0.4374999999999982
 40
0.4374999999999982
 40
0.499999999999998
 40
0.499999999999998
 40
0.5624999999999978
 40
0.5624999999999978
 40
0.6249999999999976
 40
0.6249999999999976
 40
0.6874999999999979
 40
0.6874999999999979
 40
0.7499999999999983
 40
0.7499999999999983
 40
0.8124999999999988
 40
0.8124999999999988
 40
0.8749999999999991
 40
0.8749999999999991
 40
0.9374999999999996
 40
0.9374999999999996
 40
1.0
 40
1.0
 40
1.0
 40
1.0
 10
4.845850898184266
 20
5.206568916440242
 30
0.0
 10
4.845850898184267
 20
5.216266054470776
 30
0.0
 10
4.844894202995287
 20
5.226001862296378
 30
0.0
 10
4.841202751405032
 20
5.244950410370377
 30
0.0
 10
4.838483444949408
 20
5.25418385035014
 30
0.0
 10
4.831311204580236
 20
5.272167962449899
 30
0.0
 10
4.826819060481943
 20
5.280943523211849
 30
0.0
 10
4.816426981479044
 20
5.297271578883257
 30
0.0
 10
4.810497729639248
 20
5.304921848038233
 30
0.0
 10
4.797104127372497
 20
5.319142947433972
 30
0.0
 10
4.789747116445687
 20
5.32558093097424
 30
0.0
 10
4.774005518558488
 20
5.336843053661679
 30
0.0
 10
4.765483754597817
 20
5.341752835852375
 30
0.0
 10
4.747692025795472
 20
5.349685383500046
 30
0.0
 10
4.738500030130615
 20
5.352698853294649
 30
0.0
 10
4.719510932315229
 20
5.356781180027082
 30
0.0
 10
4.709679695608381
 20
5.357821042391732
 30
0.0
 10
4.69034207667969
 20
5.357796879957404
 30
0.0
 10
4.68071837432232
 20
5.356768289761185
 30
0.0
 10
4.661563794325531
 20
5.35261822869586
 30
0.0
 10
4.652350453582445
 20
5.349561345701953
 30
0.0
 10
4.634727936185993
 20
5.341665800061555
 30
0.0
 10
4.626212992029199
 20
5.336757795135503
 30
0.0
 10
4.610390394803422
 20
5.325400755158932
 30
0.0
 10
4.603132895849005
 20
5.319017622632827
 30
0.0
 10
4.589862861250913
 20
5.30491031662886
 30
0.0
 10
4.583813796622741
 20
5.297104332947973
 30
0.0
 10
4.573431813918475
 20
5.280741316344583
 30
0.0
 10
4.569037172611482
 20
5.272140729521357
 30
0.0
 10
4.561850645436111
 20
5.254100794648608
 30
0.0
 10
4.559098152902823
 20
5.244700511656819
 30
0.0
 10
4.555449185164031
 20
5.225828568870342
 30
0.0
 10
4.554512315507098
 20
5.216265416607091
 30
0.0
 10
4.554512315507098
 20
5.206568916440245
 30
0.0
  0
ARC
  5
126
330
1F
100
AcDbEntity
  8
0
  6
Continuous
 62
     7
370
    25
100
AcDbCircle
 10
4.5516237659
 20
5.2278992377
 30
0.0
 40
0.0215250162468405
100
AcDbArc
 50
245.511129276
 51
277.7120733991
  0
ELLIPSE
  5
127
330
1F
100
AcDbEntity
  8
0
  6
Continuous
 62
     7
370
    25
100
AcDbEllipse
 10
4.7001816068
 20
5.2177198588
 30
0.0
 11
0.1574803149606305
 21
2.664535259100376E-15
 31
0.0
210
0.0
220
0.0
230
1.0
 40
0.9906014285
 41
2.456274117128014
 42
3.141592653589776
  0
ELLIPSE
  5
128
330
1F
100
AcDbEntity
  8
0
  6
Continuous
 62
     7
370
    25
100
AcDbEllipse
 10
4.7001816068
 20
5.2177198588
 30
0.0
 11
0.1574803149606305
 21
2.664535259100376E-15
 31
0.0
210
0.0
220
0.0
230
1.0
 40
0.9906014285
 41
0.0
 42
0.5702832540397282
  0
LINE
  5
129
330
1F
100
AcDbEntity
  8
0
  6
Continuous
 62
     7
370
    25
100
AcDbLine
 10
4.8576619218
 20
5.2083105731
 30
0.0
 11
4.8576619218
 21
5.2177198588
 31
0.0
  0
LINE
  5
12A
330
1F
100
AcDbEntity
  8
0
  6
Continuous
 62
     7
370
    25
100
AcDbLine
 10
4.5427012919
 20
5.2083105731
 30
0.0
 11
4.5427012919
 21
5.2177198588
 31
0.0
  0
LINE
  5
12B
330
1F
100
AcDbEntity
  8
0
  6
Continuous
 62
     7
370
    25
100
AcDbLine
 10
4.8458508982
 20
5.1900105562
 30
0.0
 11
4.8458508982
 21
5.2065689164
 31
0.0
  0
LINE
  5
12C
330
1F
100
AcDbEntity
  8
0
  6
Continuous
 62
     7
370
    25
100
AcDbLine
 10
4.8458508982
 20
5.1900105562
 30
0.0
 11
4.5545123155
 21
5.1900105562
 31
0.0
  0
LINE
  5
12D
330
1F
100
AcDbEntity
  8
0
  6
Continuous
 62
     7
370
    25
100
AcDbLine
 10
4.5545123155
 20
5.2065689164
 30
0.0
 11
4.5545123155
 21
5.1900105562
 31
0.0
  0
LINE
  5
12E
330
1F
100
AcDbEntity
  8
0
  6
Continuous
 62
     7
370
    25
100
AcDbLine
 10
4.8576619218
 20
5.2083105731
 30
0.0
 11
4.8576619218
 21
5.1920005882
 31
0.0
  0
ARC
  5
12F
330
1F
100
AcDbEntity
  8
0
  6
Continuous
 62
     7
370
    25
100
AcDbCircle
 10
4.8487198293
 20
5.2090279587
 30
0.0
 40
0.0192325860108735
100
AcDbArc
 50
261.4211512988
 51
297.7066552994
  0
LINE
  5
130
330
1F
100
AcDbEntity
  8
0
  6
Continuous
 62
     7
370
    25
100
AcDbLine
 10
4.5427012919
 20
5.1920005882
 30
0.0
 11
4.5427012919
 21
5.2083105731
 31
0.0
  0
ARC
  5
131
330
1F
100
AcDbEntity
  8
0
  6
Continuous
 62
     7
370
    25
100
AcDbCircle
 10
4.5516433844
 20
5.2090279587
 30
0.0
 40
0.0192325860108626
100
AcDbArc
 50
242.2933447005
 51
278.5788487012
  0
LINE
  5
132
330
1F
100
AcDbEntity
  8
0
  6
Continuous
 62
     7
370
    25
100
AcDbLine
 10
4.5427012919
 20
4.8839948965
 30
0.0
 11
4.5427012919
 21
5.1920005882
 31
0.0
  0
LINE
  5
133
330
1F
100
AcDbEntity
  8
0
  6
Continuous
 62
     7
370
    25
100
AcDbLine
 10
4.5545123155
 20
5.1900105562
 30
0.0
 11
4.5545123155
 21
4.8820048644
 31
0.0
  0
ARC
  5
134
330
1F
100
AcDbEntity
  8
0
  6
Continuous
 62
     7
370
    25
100
AcDbCircle
 10
4.5516433844
 20
4.901022267
 30
0.0
 40
0.0192325860108505
100
AcDbArc
 50
242.2933447005
 51
278.5788487012
  0
LINE
  5
135
330
1F
100
AcDbEntity
  8
0
  6
Continuous
 62
     7
370
    25
100
AcDbLine
 10
4.8458508982
 20
4.8820048644
 30
0.0
 11
4.8458508982
 21
5.1900105562
 31
0.0
  0
LINE
  5
136
330
1F
100
AcDbEntity
  8
0
  6
Continuous
 62
     7
370
    25
100
AcDbLine
 10
4.5545123155
 20
4.8820048644
 30
0.0
 11
4.8458508982
 21
4.8820048644
 31
0.0
  0
LINE
  5
137
330
1F
100
AcDbEntity
  8
0
  6
Continuous
 62
     7
370
    25
100
AcDbLine
 10
4.8576619218
 20
5.1920005882
 30
0.0
 11
4.8576619218
 21
4.8839948965
 31
0.0
  0
ARC
  5
138
330
1F
100
AcDbEntity
  8
0
  6
Continuous
 62
     7
370
    25
100
AcDbCircle
 10
4.8487198293
 20
4.901022267
 30
0.0
 40
0.0192325860108777
100
AcDbArc
 50
261.4211512988
 51
297.7066552994
  0
LINE
  5
139
330
1F
100
AcDbEntity
  8
0
  6
Continuous
 62
     7
370
    25
100
AcDbLine
 10
4.5328587722
 20
4.5315795285
 30
0.0
 11
4.5427012919
 21
4.5315795285
 31
0.0
  0
LINE
  5
13A
330
1F
100
AcDbEntity
  8
0
  6
Continuous
 62
     7
370
    25
100
AcDbLine
 10
4.8675044415
 20
4.5315795285
 30
0.0
 11
4.8576619218
 21
4.5315795285
 31
0.0
  0
ARC
  5
13B
330
1F
100
AcDbEntity
  8
0
  6
Continuous
 62
     7
370
    25
100
AcDbCircle
 10
4.8485954256
 20
4.8190458703
 30
0.0
 40
0.0137482348889509
100
AcDbArc
 50
258.4848158988
 51
311.2591748472
  0
LINE
  5
13C
330
1F
100
AcDbEntity
  8
0
  6
Continuous
 62
     7
370
    25
100
AcDbLine
 10
4.8458508982
 20
4.8055743621
 30
0.0
 11
4.8458508982
 21
4.8820048644
 31
0.0
  0
LINE
  5
13D
330
1F
100
AcDbEntity
  8
0
  6
Continuous
 62
     7
370
    25
100
AcDbLine
 10
4.8576619218
 20
4.8839948965
 30
0.0
 11
4.8576619218
 21
4.8087108517
 31
0.0
  0
LINE
  5
13E
330
1F
100
AcDbEntity
  8
0
  6
Continuous
 62
     7
370
    25
100
AcDbLine
 10
4.5545123155
 20
4.8820048644
 30
0.0
 11
4.5545123155
 21
4.8055743621
 31
0.0
  0
ARC
  5
13F
330
1F
100
AcDbEntity
  8
0
  6
Continuous
 62
     7
370
    25
100
AcDbCircle
 10
4.5517677881
 20
4.8190458703
 30
0.0
 40
0.0137482348889598
100
AcDbArc
 50
228.7408251528
 51
281.5151841012
  0
LINE
  5
140
330
1F
100
AcDbEntity
  8
0
  6
Continuous
 62
     7
370
    25
100
AcDbLine
 10
4.5427012919
 20
4.8087108517
 30
0.0
 11
4.5427012919
 21
4.8839948965
 31
0.0
  0
LINE
  5
141
330
1F
100
AcDbEntity
  8
0
  6
Continuous
 62
     7
370
    25
100
AcDbLine
 10
4.8458508982
 20
4.8055743621
 30
0.0
 11
4.5545123155
 21
4.8055743621
 31
0.0
  0
LINE
  5
142
330
1F
100
AcDbEntity
  8
0
  6
Continuous
 62
     7
370
    25
100
AcDbLine
 10
4.5545123155
 20
4.8055743621
 30
0.0
 11
4.5545123155
 21
4.5273975424
 31
0.0
  0
ARC
  5
143
330
1F
100
AcDbEntity
  8
0
  6
Continuous
 62
     7
370
    25
100
AcDbCircle
 10
4.5517677881
 20
4.5408690505
 30
0.0
 40
0.0137482348889347
100
AcDbArc
 50
228.7408251527
 51
281.5151841012
  0
LINE
  5
144
330
1F
100
AcDbEntity
  8
0
  6
Continuous
 62
     7
370
    25
100
AcDbLine
 10
4.5427012919
 20
4.530534032
 30
0.0
 11
4.5427012919
 21
4.8087108517
 31
0.0
  0
LINE
  5
145
330
1F
100
AcDbEntity
  8
0
  6
Continuous
 62
     7
370
    25
100
AcDbLine
 10
4.8458508982
 20
4.5273975424
 30
0.0
 11
4.8458508982
 21
4.8055743621
 31
0.0
  0
ARC
  5
146
330
1F
100
AcDbEntity
  8
0
  6
Continuous
 62
     7
370
    25
100
AcDbCircle
 10
4.8485954256
 20
4.5408690505
 30
0.0
 40
0.0137482348889493
100
AcDbArc
 50
258.4848158988
 51
311.2591748472
  0
LINE
  5
147
330
1F
100
AcDbEntity
  8
0
  6
Continuous
 62
     7
370
    25
100
AcDbLine
 10
4.8576619218
 20
4.8087108517
 30
0.0
 11
4.8576619218
 21
4.530534032
 31
0.0
  0
ARC
  5
148
330
1F
100
AcDbEntity
  8
0
  6
Continuous
 62
     7
370
    25
100
AcDbCircle
 10
4.7001816068
 20
4.5315878548
 30
0.0
 40
0.1457295479899343
100
AcDbArc
 50
181.6477119194
 51
358.3522880807
  0
ARC
  5
149
330
1F
100
AcDbEntity
  8
0
  6
Continuous
 62
     7
370
    25
100
AcDbCircle
 10
4.7001816068
 20
4.5351689634
 30
0.0
 40
0.157548507418858
100
AcDbArc
 50
181.6858321152
 51
358.3141678848
  0
ELLIPSE
  5
14A
330
1F
100
AcDbEntity
  8
0
  6
Continuous
 62
     7
370
    25
100
AcDbEllipse
 10
3.861046219
 20
4.8186897403
 30
0.0
 11
0.0
 21
0.6889763779527556
 31
0.0
210
0.0
220
0.0
230
1.0
 40
0.0174550649
 41
3.141592653589786
 42
3.269943107563864
  0
ELLIPSE
  5
14B
330
1F
100
AcDbEntity
  8
0
  6
Continuous
 62
     7
370
    25
100
AcDbEllipse
 10
3.861046219
 20
4.8186897403
 30
0.0
 11
0.0
 21
0.6889763779527556
 31
0.0
210
0.0
220
0.0
230
1.0
 40
0.0174550649
 41
6.185847556678826
 42
6.283185307179586
  0
ELLIPSE
  5
14C
330
1F
100
AcDbEntity
  8
0
  6
Continuous
 62
     7
370
    25
100
AcDbEllipse
 10
5.5393169947
 20
4.8186897403
 30
0.0
 11
0.0
 21
0.6889763779527556
 31
0.0
210
0.0
220
0.0
230
1.0
 40
0.0174550649
 41
0.0
 42
0.1283504539732185
  0
ELLIPSE
  5
14D
330
1F
100
AcDbEntity
  8
0
  6
Continuous
 62
     7
370
    25
100
AcDbEllipse
 10
5.5393169947
 20
4.8186897403
 30
0.0
 11
0.0
 21
0.6889763779527556
 31
0.0
210
0.0
220
0.0
230
1.0
 40
0.0174550649
 41
3.044254903088252
 42
3.141592653589786
  0
ELLIPSE
  5
14E
330
1F
100
AcDbEntity
  8
0
  6
Continuous
 62
     7
370
    25
100
AcDbEllipse
 10
5.566805286
 20
4.0312881655
 30
0.0
 11
0.0
 21
0.09842519685039353
 31
0.0
210
0.0
220
0.0
230
1.0
 40
0.0174550649
 41
6.055114950320852
 42
6.283185307179586
  0
ELLIPSE
  5
14F
330
1F
100
AcDbEntity
  8
0
  6
Continuous
 62
     7
370
    25
100
AcDbEllipse
 10
3.8335579277
 20
4.0312881655
 30
0.0
 11
0.0
 21
0.09842519685039353
 31
0.0
210
0.0
220
0.0
230
1.0
 40
0.0174550649
 41
0.0
 42
0.1880702669955458
  0
ELLIPSE
  5
150
330
1F
100
AcDbEntity
  8
0
  6
Continuous
 62
     7
370
    25
100
AcDbEllipse
 10
4.2139611344
 20
5.4879810789
 30
0.0
 11
0.1377952755905518
 21
0.0
 31
0.0
210
0.0
220
0.0
230
1.0
 40
0.049613765
 41
2.801900077421992
 42
3.141592653589791
  0
ELLIPSE
  5
151
330
1F
100
AcDbEntity
  8
0
  6
Continuous
 62
     7
370
    25
100
AcDbEllipse
 10
5.1864020793
 20
5.4879810789
 30
0.0
 11
0.1377952755905518
 21
0.0
 31
0.0
210
0.0
220
0.0
230
1.0
 40
0.049613765
 41
0.0
 42
0.3396925761672697
  0
LINE
  5
152
330
1F
100
AcDbEntity
  8
0
  6
Continuous
 62
     7
370
    25
100
AcDbLine
 10
4.2139611344
 20
5.515540134
 30
0.0
 11
4.2139611344
 21
5.5273511577
 31
0.0
  0
LINE
  5
153
330
1F
100
AcDbEntity
  8
0
  6
Continuous
 62
     7
370
    25
100
AcDbLine
 10
5.1864020793
 20
5.515540134
 30
0.0
 11
5.1864020793
 21
5.5273511577
 31
0.0
  0
LINE
  5
154
330
1F
100
AcDbEntity
  8
0
  6
Continuous
 62
     7
370
    25
100
AcDbLine
 10
4.9495181711
 20
5.4948176213
 30
0.0
 11
4.4497245975
 21
5.4948176213
 31
0.0
  0
LINE
  5
155
330
1F
100
AcDbEntity
  8
0
  6
Continuous
 62
     7
370
    25
100
AcDbLine
 10
4.0840398746
 20
5.3698708427
 30
0.0
 11
4.0761658588
 21
5.3698708427
 31
0.0
  0
LINE
  5
156
330
1F
100
AcDbEntity
  8
0
  6
Continuous
 62
     7
370
    25
100
AcDbLine
 10
5.3241973549
 20
5.3698708427
 30
0.0
 11
5.3163233391
 21
5.3698708427
 31
0.0
  0
SPLINE
  5
157
330
1F
100
AcDbEntity
  8
0
  6
Continuous
 62
     7
370
    25
100
AcDbSpline
210
0.0
220
0.0
230
1.0
 70
     8
 71
     3
 72
    10
 73
     6
 74
     0
 42
0.000000001
 43
0.00000001
 40
0.0
 40
0.0
 40
0.0
 40
0.0
 40
0.4688367305921164
 40
0.9847036215583894
 40
1.0
 40
1.0
 40
1.0
 40
1.0
 10
4.084039874562221
 20
4.45021551800788
 30
0.0
 10
4.081753851594532
 20
4.448583681024612
 30
0.0
 10
4.076952489098026
 20
4.445156313494797
 30
0.0
 10
4.076181022315134
 20
4.441620513451264
 30
0.0
 10
4.076166283267561
 20
4.439771079834055
 30
0.0
 10
4.076165858814173
 20
4.439717820058501
 30
0.0
  0
SPLINE
  5
158
330
1F
100
AcDbEntity
  8
0
  6
Continuous
 62
     7
370
    25
100
AcDbSpline
210
0.0
220
0.0
230
1.0
 70
     8
 71
     3
 72
    10
 73
     6
 74
     0
 42
0.000000001
 43
0.00000001
 40
0.0
 40
0.0
 40
0.0
 40
0.0
 40
0.0137420439829973
 40
0.5147711168816034
 40
0.9999999999999999
 40
0.9999999999999999
 40
0.9999999999999999
 40
0.9999999999999999
 10
4.076165858814173
 20
4.439717820058501
 30
0.0
 10
4.076166202164085
 20
4.439817645847616
 30
0.0
 10
4.076179063905638
 20
4.443557077406683
 30
0.0
 10
4.076973359913294
 20
4.450910411346661
 30
0.0
 10
4.081709662072754
 20
4.457831109876643
 30
0.0
 10
4.084039874562221
 20
4.461236023162884
 30
0.0
  0
SPLINE
  5
159
330
1F
100
AcDbEntity
  8
0
  6
Continuous
 62
     7
370
    25
100
AcDbSpline
210
0.0
220
0.0
230
1.0
 70
     8
 71
     3
 72
    10
 73
     6
 74
     0
 42
0.000000001
 43
0.00000001
 40
0.0
 40
0.0
 40
0.0
 40
0.0
 40
0.4852288831179016
 40
0.986257956017209
 40
1.0
 40
1.0
 40
1.0
 40
1.0
 10
5.316323339129133
 20
4.461236023162855
 30
0.0
 10
5.318653551618594
 20
4.457831109876567
 30
0.0
 10
5.323389853778047
 20
4.450910411346478
 30
0.0
 10
5.324184149785697
 20
4.44355707740711
 30
0.0
 10
5.324197011527252
 20
4.439817645847649
 30
0.0
 10
5.324197354877166
 20
4.439717820058525
 30
0.0
  0
SPLINE
  5
15A
330
1F
100
AcDbEntity
  8
0
  6
Continuous
 62
     7
370
    25
100
AcDbSpline
210
0.0
220
0.0
230
1.0
 70
     8
 71
     3
 72
    10
 73
     6
 74
     0
 42
0.000000001
 43
0.00000001
 40
0.0
 40
0.0
 40
0.0
 40
0.0
 40
0.0152963784413498
 40
0.5311632694085519
 40
1.0
 40
1.0
 40
1.0
 40
1.0
 10
5.324197354877166
 20
4.439717820058524
 30
0.0
 10
5.324196930423779
 20
4.439771079833737
 30
0.0
 10
5.324182191376258
 20
4.44162051343913
 30
0.0
 10
5.323410724593296
 20
4.445156313499375
 30
0.0
 10
5.31860936209681
 20
4.448583681026081
 30
0.0
 10
5.316323339129135
 20
4.450215518007866
 30
0.0
  0
SPLINE
  5
15B
330
1F
100
AcDbEntity
  8
0
  6
Continuous
 62
     7
370
    25
100
AcDbSpline
210
0.0
220
0.0
230
1.0
 70
     8
 71
     3
 72
     9
 73
     5
 74
     0
 42
0.000000001
 43
0.00000001
 40
0.0
 40
0.0
 40
0.0
 40
0.0
 40
0.0001463466087028
 40
1.0
 40
1.0
 40
1.0
 40
1.0
 10
5.186519048188067
 20
4.121559552098524
 30
0.0
 10
5.186519835583508
 20
4.121559554362786
 30
0.0
 10
5.191900181930158
 20
4.121575026275833
 30
0.0
 10
5.197223039994614
 20
4.121707196125935
 30
0.0
 10
5.202545119076842
 20
4.121839346633427
 30
0.0
  0
LWPOLYLINE
  5
15C
330
1F
100
AcDbEntity
  8
0
  6
Continuous
 62
     7
370
    25
100
AcDbPolyline
 90
        6
 70
   128
 43
0.0
 10
5.3161839881
 20
4.1407049831
 10
5.3174093208
 20
4.1412511244
 10
5.3224414097
 20
4.1452576613
 10
5.3241973549
 20
4.14939808
 10
5.3241973549
 20
4.1493984018
 10
5.3241973549
 20
4.1493984018
  0
SPLINE
  5
15D
330
1F
100
AcDbEntity
  8
0
  6
Continuous
 62
     7
370
    25
100
AcDbSpline
210
0.0
220
0.0
230
1.0
 70
     8
 71
     3
 72
    10
 73
     6
 74
     0
 42
0.000000001
 43
0.00000001
 40
0.0
 40
0.0
 40
0.0
 40
0.0
 40
0.0000375805552027
 40
0.6466569525124116
 40
1.0
 40
1.0
 40
1.0
 40
1.0
 10
4.076165858814173
 20
4.149398401751537
 30
0.0
 10
4.076165858816973
 20
4.149398294512673
 30
0.0
 10
4.076165906986672
 20
4.147553011579029
 30
0.0
 10
4.077241539174253
 20
4.144695977580503
 30
0.0
 10
4.082341484511887
 20
4.141975097439988
 30
0.0
 10
4.084143582463349
 20
4.141013657227833
 30
0.0
  0
LWPOLYLINE
  5
15E
330
1F
100
AcDbEntity
  8
0
  6
Continuous
 62
     7
370
    25
100
AcDbPolyline
 90
        4
 70
   128
 43
0.0
 10
4.1989762927
 20
4.1218393466
 10
4.2138418033
 20
4.1215595589
 10
4.2138441655
 20
4.1215595521
 10
4.2138441655
 20
4.1215595521
  0
SPLINE
  5
15F
330
1F
100
AcDbEntity
  8
0
  6
Continuous
 62
     7
370
    25
100
AcDbSpline
210
0.0
220
0.0
230
1.0
 70
     8
 71
     3
 72
    12
 73
     8
 74
     0
 42
0.000000001
 43
0.00000001
 40
0.0
 40
0.0
 40
0.0
 40
0.0
 40
0.066635730099398
 40
0.3820711665006927
 40
0.542966343493991
 40
0.7038482046111129
 40
1.0
 40
1.0
 40
1.0
 40
1.0
 10
5.068291843065851
 20
4.150610027998066
 30
0.0
 10
5.070400563071267
 20
4.149440316717396
 30
0.0
 10
5.082491390486091
 20
4.142733510131676
 30
0.0
 10
5.097422074086658
 20
4.134774613385623
 30
0.0
 10
5.111429241968106
 20
4.128038144844217
 30
0.0
 10
5.122805946828817
 20
4.123149270437813
 30
0.0
 10
5.127368679648674
 20
4.122372773185013
 30
0.0
 10
5.130325270475725
 20
4.121869613182993
 30
0.0
  0
SPLINE
  5
160
330
1F
100
AcDbEntity
  8
0
  6
Continuous
 62
     7
370
    25
100
AcDbSpline
210
0.0
220
0.0
230
1.0
 70
     8
 71
     3
 72
     8
 73
     4
 74
     0
 42
0.000000001
 43
0.00000001
 40
0.0
 40
0.0
 40
0.0
 40
0.0
 40
1.0
 40
1.0
 40
1.0
 40
1.0
 10
4.219247129270424
 20
5.511640662063865
 30
0.0
 10
4.222796920608617
 20
5.512397238346857
 30
0.0
 10
4.226496483770751
 20
5.513035633343812
 30
0.0
 10
4.230344530570826
 20
5.51356300414415
 30
0.0
  0
LINE
  5
161
330
1F
100
AcDbEntity
  8
0
  6
Continuous
 62
     7
370
    25
100
AcDbLine
 10
5.1651091501
 20
5.5136623225
 30
0.0
 11
5.1811160844
 21
5.5116406621
 31
0.0
  0
SPLINE
  5
162
330
1F
100
AcDbEntity
  8
0
  6
Continuous
 62
     7
370
    25
100
AcDbSpline
210
0.0
220
0.0
230
1.0
 70
     8
 71
     3
 72
    10
 73
     6
 74
     0
 42
0.000000001
 43
0.00000001
 40
0.0
 40
0.0
 40
0.0
 40
0.0
 40
0.3395545671299805
 40
0.6669797804082298
 40
1.0
 40
1.0
 40
1.0
 40
1.0
 10
4.270135022310702
 20
4.121939071817605
 30
0.0
 10
4.273100515596417
 20
4.12244886145254
 30
0.0
 10
4.278925570689112
 20
4.123450230338954
 30
0.0
 10
4.296298771577449
 20
4.131331642554163
 30
0.0
 10
4.312228172875887
 20
4.139823285985378
 30
0.0
 10
4.320260347003155
 20
4.144105076454985
 30
0.0
  0
LINE
  5
163
330
1F
100
AcDbEntity
  8
0
  6
Continuous
 62
     7
370
    25
100
AcDbLine
 10
4.1037249139
 20
5.515540134
 30
0.0
 11
4.1037249139
 21
4.1218393466
 31
0.0
  0
LINE
  5
164
330
1F
100
AcDbEntity
  8
0
  6
Continuous
 62
     7
370
    25
100
AcDbLine
 10
5.2966382998
 20
4.1218393466
 30
0.0
 11
5.2966382998
 21
5.515540134
 31
0.0
  0
LWPOLYLINE
  5
165
330
1F
100
AcDbEntity
  8
0
  6
Continuous
 62
     7
370
    25
100
AcDbPolyline
 90
        7
 70
   128
 43
0.0
 10
5.0838618503
 20
5.163134271
 10
5.0799724673
 20
5.1653329118
 10
5.0763213621
 20
5.1668007562
 10
5.0731322148
 20
5.1674478785
 10
5.0706004042
 20
5.1672346337
 10
5.0688810382
 20
5.166174086
 10
5.0688653381
 20
5.1661558622
  0
LWPOLYLINE
  5
166
330
1F
100
AcDbEntity
  8
0
  6
Continuous
 62
     7
370
    25
100
AcDbPolyline
 90
        7
 70
   128
 43
0.0
 10
4.305812996
 20
5.1762486395
 10
4.3096973327
 20
5.1783176881
 10
4.3133505969
 20
5.1796627897
 10
4.3165554625
 20
5.1802039263
 10
4.3191212776
 20
5.1799089068
 10
4.3208954064
 20
5.1787952814
 10
4.3209694328
 20
5.178709269
  0
SPLINE
  5
167
330
1F
100
AcDbEntity
  8
0
  6
Continuous
 62
     7
370
    25
100
AcDbSpline
210
0.0
220
0.0
230
1.0
 70
     8
 71
     3
 72
     9
 73
     5
 74
     0
 42
0.000000001
 43
0.00000001
 40
0.0
 40
0.0
 40
0.0
 40
0.0
 40
0.1785683581733403
 40
1.0
 40
1.0
 40
1.0
 40
1.0
 10
5.216911626035353
 20
5.419905956016223
 30
0.0
 10
5.217103123792743
 20
5.42116154552483
 30
0.0
 10
5.218175529673319
 20
5.428192967672912
 30
0.0
 10
5.217731537749883
 20
5.434181945094248
 30
0.0
 10
5.217366828735259
 20
5.43910148065032
 30
0.0
  0
LINE
  5
168
330
1F
100
AcDbEntity
  8
0
  6
Continuous
 62
     7
370
    25
100
AcDbLine
 10
4.182996385
 20
5.4391014807
 30
0.0
 11
4.1832579861
 21
5.420053619
 31
0.0
  0
LINE
  5
169
330
1F
100
AcDbEntity
  8
0
  6
Continuous
 62
     7
370
    25
100
AcDbLine
 10
5.3163233391
 20
4.5527860492
 30
0.0
 11
5.3241973549
 21
4.5527860492
 31
0.0
  0
SPLINE
  5
16A
330
1F
100
AcDbEntity
  8
0
  6
Continuous
 62
     7
370
    25
100
AcDbSpline
210
0.0
220
0.0
230
1.0
 70
     8
 71
     3
 72
    13
 73
     9
 74
     0
 42
0.000000001
 43
0.00000001
 40
0.0
 40
0.0
 40
0.0
 40
0.0
 40
0.1627242245960512
 40
0.3328899189926846
 40
0.4973787196702709
 40
0.6618763275242717
 40
0.8309382267251029
 40
1.0
 40
1.0
 40
1.0
 40
1.0
 10
4.339945386373237
 20
4.190028860782912
 30
0.0
 10
4.34573178385594
 20
4.193962937788579
 30
0.0
 10
4.357569194014496
 20
4.202010999341667
 30
0.0
 10
4.378310144840917
 20
4.214861689072039
 30
0.0
 10
4.401091901804501
 20
4.227972311238273
 30
0.0
 10
4.425872266527782
 20
4.241034746596951
 30
0.0
 10
4.452627952792695
 20
4.253965040402542
 30
0.0
 10
4.472089894088019
 20
4.262073662362519
 30
0.0
 10
4.481820861111619
 20
4.266127971832577
 30
0.0
  0
SPLINE
  5
16B
330
1F
100
AcDbEntity
  8
0
  6
Continuous
 62
     7
370
    25
100
AcDbSpline
210
0.0
220
0.0
230
1.0
 70
     8
 71
     3
 72
    13
 73
     9
 74
     0
 42
0.000000001
 43
0.00000001
 40
0.0
 40
0.0
 40
0.0
 40
0.0
 40
0.183783311024246
 40
0.3687609594574573
 40
0.5575167991634128
 40
0.7476210254836491
 40
0.9311521062624163
 40
1.0
 40
1.0
 40
1.0
 40
1.0
 10
4.918542352579736
 20
4.266127971832577
 30
0.0
 10
4.927986700556962
 20
4.262197964509554
 30
0.0
 10
4.946936771714798
 20
4.254312410249835
 30
0.0
 10
4.973487079913871
 20
4.241539053157587
 30
0.0
 10
4.998629502336843
 20
4.228342688832648
 30
0.0
 10
5.021480720457875
 20
4.21517983909169
 30
0.0
 10
5.03821362047555
 20
4.204912587081147
 30
0.0
 10
5.046379254120743
 20
4.199423218434553
 30
0.0
 10
5.048606803696067
 20
4.19792574238691
 30
0.0
  0
LWPOLYLINE
  5
16C
330
1F
100
AcDbEntity
  8
0
  6
Continuous
 62
     7
370
    25
100
AcDbPolyline
 90
        6
 70
   128
 43
0.0
 10
4.9217594807
 20
4.2522382348
 10
4.9201638535
 20
4.2533710793
 10
4.9189059093
 20
4.255496034
 10
4.9181958368
 20
4.2584438203
 10
4.9180724049
 20
4.2620534937
 10
4.9185423526
 20
4.2661279718
  0
LWPOLYLINE
  5
16D
330
1F
100
AcDbEntity
  8
0
  6
Continuous
 62
     7
370
    25
100
AcDbPolyline
 90
        6
 70
   128
 43
0.0
 10
4.4786660639
 20
4.2522636841
 10
4.4801993602
 20
4.2533710793
 10
4.4814573044
 20
4.255496034
 10
4.4821673769
 20
4.2584438203
 10
4.4822908088
 20
4.2620534937
 10
4.4818208611
 20
4.2661279718
  0
LINE
  5
16E
330
1F
100
AcDbEntity
  8
0
  6
Continuous
 62
     7
370
    25
100
AcDbLine
 10
4.8661809262
 20
5.2177198588
 30
0.0
 11
4.8576619218
 21
5.2177198588
 31
0.0
  0
LINE
  5
16F
330
1F
100
AcDbEntity
  8
0
  6
Continuous
 62
     7
370
    25
100
AcDbLine
 10
4.5344689868
 20
5.2177198588
 30
0.0
 11
4.5427012919
 21
5.2177198588
 31
0.0
  0
ENDSEC
  0
SECTION
  2
OBJECTS
  0
DICTIONARY
  5
C
330
0
100
AcDbDictionary
281
     1
  3
ACAD_GROUP
350
D
  3
ACAD_LAYOUT
350
1A
  3
ACAD_MLINESTYLE
350
17
  3
ACAD_PLOTSETTINGS
350
19
  3
ACAD_PLOTSTYLENAME
350
E
  3
ACAD_SCALELIST
350
47
  0
DICTIONARY
  5
D
102
{ACAD_REACTORS
330
C
102
}
330
C
100
AcDbDictionary
281
     1
  0
DICTIONARY
  5
1A
102
{ACAD_REACTORS
330
C
102
}
330
C
100
AcDbDictionary
281
     1
  3
Layout1
350
1E
  3
Layout2
350
26
  3
Model
350
22
  0
DICTIONARY
  5
17
102
{ACAD_REACTORS
330
C
102
}
330
C
100
AcDbDictionary
281
     1
  3
Standard
350
18
  0
DICTIONARY
  5
19
102
{ACAD_REACTORS
330
C
102
}
330
C
100
AcDbDictionary
281
     1
  0
ACDBDICTIONARYWDFLT
  5
E
102
{ACAD_REACTORS
330
C
102
}
330
C
100
AcDbDictionary
281
     1
  3
Normal
350
F
100
AcDbDictionaryWithDefault
340
F
  0
DICTIONARY
  5
47
102
{ACAD_REACTORS
330
C
102
}
330
C
100
AcDbDictionary
281
     1
  3
A0
350
48
  3
A1
350
49
  3
A2
350
4A
  3
A3
350
4B
  3
A4
350
4C
  3
A5
350
4D
  3
A6
350
4E
  3
A7
350
4F
  3
A8
350
50
  3
A9
350
51
  3
B0
350
52
  3
B1
350
53
  3
B2
350
54
  3
B3
350
55
  3
B4
350
56
  3
B5
350
57
  3
B6
350
58
  3
B7
350
59
  3
B8
350
5A
  3
B9
350
5B
  3
C0
350
5C
  3
C1
350
5D
  3
C2
350
5E
  3
C3
350
5F
  3
C4
350
60
  3
C5
350
61
  3
C6
350
62
  3
C7
350
63
  3
C8
350
64
  3
C9
350
65
  3
D0
350
66
  3
D1
350
67
  3
D2
350
68
  0
LAYOUT
  5
1E
102
{ACAD_REACTORS
330
1A
102
}
330
1A
100
AcDbPlotSettings
  1

  2
none_device
  4

  6

 40
0.0
 41
0.0
 42
0.0
 43
0.0
 44
0.0
 45
0.0
 46
0.0
 47
0.0
 48
0.0
 49
0.0
140
0.0
141
0.0
142
1.0
143
1.0
 70
   688
 72
     0
 73
     0
 74
     5
  7

 75
    16
147
1.0
148
0.0
149
0.0
100
AcDbLayout
  1
Layout1
 70
     1
 71
     1
 10
0.0
 20
0.0
 11
12.0
 21
9.0
 12
0.0
 22
0.0
 32
0.0
 14
1.0000000000E+20
 24
1.0000000000E+20
 34
1.0000000000E+20
 15
-1.0000000000E+20
 25
-1.0000000000E+20
 35
-1.0000000000E+20
146
0.0
 13
0.0
 23
0.0
 33
0.0
 16
1.0
 26
0.0
 36
0.0
 17
0.0
 27
1.0
 37
0.0
 76
     0
330
1B
  0
LAYOUT
  5
26
102
{ACAD_REACTORS
330
1A
102
}
330
1A
100
AcDbPlotSettings
  1

  2
none_device
  4

  6

 40
0.0
 41
0.0
 42
0.0
 43
0.0
 44
0.0
 45
0.0
 46
0.0
 47
0.0
 48
0.0
 49
0.0
140
0.0
141
0.0
142
1.0
143
1.0
 70
   688
 72
     0
 73
     0
 74
     5
  7

 75
    16
147
1.0
148
0.0
149
0.0
100
AcDbLayout
  1
Layout2
 70
     1
 71
     2
 10
0.0
 20
0.0
 11
0.0
 21
0.0
 12
0.0
 22
0.0
 32
0.0
 14
0.0
 24
0.0
 34
0.0
 15
0.0
 25
0.0
 35
0.0
146
0.0
 13
0.0
 23
0.0
 33
0.0
 16
1.0
 26
0.0
 36
0.0
 17
0.0
 27
1.0
 37
0.0
 76
     0
330
23
  0
LAYOUT
  5
22
102
{ACAD_REACTORS
330
1A
102
}
330
1A
100
AcDbPlotSettings
  1

  2
none_device
  4
Letter_(8.50_x_11.00_Inches)
  6

 40
6.35
 41
6.35
 42
6.35000508
 43
6.35000508
 44
215.9
 45
279.4
 46
0.0
 47
0.0
 48
0.0
 49
0.0
140
0.0
141
0.0
142
1.0
143
1.0
 70
  1712
 72
     0
 73
     0
 74
     0
  7

 75
     0
147
1.0
148
0.0
149
0.0
100
AcDbLayout
  1
Model
 70
     1
 71
     0
 10
0.0
 20
0.0
 11
11.0
 21
8.5
 12
0.0
 22
0.0
 32
0.0
 14
0.0
 24
0.0
 34
0.0
 15
11.0
 25
8.5
 35
0.0
146
0.0
 13
0.0
 23
0.0
 33
0.0
 16
1.0
 26
0.0
 36
0.0
 17
0.0
 27
1.0
 37
0.0
 76
     0
330
1F
331
29
  0
MLINESTYLE
  5
18
102
{ACAD_REACTORS
330
17
102
}
330
17
100
AcDbMlineStyle
  2
Standard
 70
     0
  3

 62
   256
 51
90.0
 52
90.0
 71
     2
 49
0.5
 62
   256
  6
BYLAYER
 49
-0.5
 62
   256
  6
BYLAYER
  0
ACDBPLACEHOLDER
  5
F
102
{ACAD_REACTORS
330
E
102
}
330
E
  0
SCALE
  5
48
102
{ACAD_REACTORS
330
47
102
}
330
47
100
AcDbScale
 70
     0
300
1:1
140
1.0
141
1.0
290
     1
  0
SCALE
  5
49
102
{ACAD_REACTORS
330
47
102
}
330
47
100
AcDbScale
 70
     0
300
1:2
140
1.0
141
2.0
290
     0
  0
SCALE
  5
4A
102
{ACAD_REACTORS
330
47
102
}
330
47
100
AcDbScale
 70
     0
300
1:4
140
1.0
141
4.0
290
     0
  0
SCALE
  5
4B
102
{ACAD_REACTORS
330
47
102
}
330
47
100
AcDbScale
 70
     0
300
1:5
140
1.0
141
5.0
290
     0
  0
SCALE
  5
4C
102
{ACAD_REACTORS
330
47
102
}
330
47
100
AcDbScale
 70
     0
300
1:8
140
1.0
141
8.0
290
     0
  0
SCALE
  5
4D
102
{ACAD_REACTORS
330
47
102
}
330
47
100
AcDbScale
 70
     0
300
1:10
140
1.0
141
10.0
290
     0
  0
SCALE
  5
4E
102
{ACAD_REACTORS
330
47
102
}
330
47
100
AcDbScale
 70
     0
300
1:16
140
1.0
141
16.0
290
     0
  0
SCALE
  5
4F
102
{ACAD_REACTORS
330
47
102
}
330
47
100
AcDbScale
 70
     0
300
1:20
140
1.0
141
20.0
290
     0
  0
SCALE
  5
50
102
{ACAD_REACTORS
330
47
102
}
330
47
100
AcDbScale
 70
     0
300
1:30
140
1.0
141
30.0
290
     0
  0
SCALE
  5
51
102
{ACAD_REACTORS
330
47
102
}
330
47
100
AcDbScale
 70
     0
300
1:40
140
1.0
141
40.0
290
     0
  0
SCALE
  5
52
102
{ACAD_REACTORS
330
47
102
}
330
47
100
AcDbScale
 70
     0
300
1:50
140
1.0
141
50.0
290
     0
  0
SCALE
  5
53
102
{ACAD_REACTORS
330
47
102
}
330
47
100
AcDbScale
 70
     0
300
1:100
140
1.0
141
100.0
290
     0
  0
SCALE
  5
54
102
{ACAD_REACTORS
330
47
102
}
330
47
100
AcDbScale
 70
     0
300
2:1
140
2.0
141
1.0
290
     0
  0
SCALE
  5
55
102
{ACAD_REACTORS
330
47
102
}
330
47
100
AcDbScale
 70
     0
300
4:1
140
4.0
141
1.0
290
     0
  0
SCALE
  5
56
102
{ACAD_REACTORS
330
47
102
}
330
47
100
AcDbScale
 70
     0
300
8:1
140
8.0
141
1.0
290
     0
  0
SCALE
  5
57
102
{ACAD_REACTORS
330
47
102
}
330
47
100
AcDbScale
 70
     0
300
10:1
140
10.0
141
1.0
290
     0
  0
SCALE
  5
58
102
{ACAD_REACTORS
330
47
102
}
330
47
100
AcDbScale
 70
     0
300
100:1
140
100.0
141
1.0
290
     0
  0
SCALE
  5
59
102
{ACAD_REACTORS
330
47
102
}
330
47
100
AcDbScale
 70
     0
300
1/128" = 1'-0"
140
0.0078125
141
12.0
290
     0
  0
SCALE
  5
5A
102
{ACAD_REACTORS
330
47
102
}
330
47
100
AcDbScale
 70
     0
300
1/64" = 1'-0"
140
0.015625
141
12.0
290
     0
  0
SCALE
  5
5B
102
{ACAD_REACTORS
330
47
102
}
330
47
100
AcDbScale
 70
     0
300
1/32" = 1'-0"
140
0.03125
141
12.0
290
     0
  0
SCALE
  5
5C
102
{ACAD_REACTORS
330
47
102
}
330
47
100
AcDbScale
 70
     0
300
1/16" = 1'-0"
140
0.0625
141
12.0
290
     0
  0
SCALE
  5
5D
102
{ACAD_REACTORS
330
47
102
}
330
47
100
AcDbScale
 70
     0
300
3/32" = 1'-0"
140
0.09375
141
12.0
290
     0
  0
SCALE
  5
5E
102
{ACAD_REACTORS
330
47
102
}
330
47
100
AcDbScale
 70
     0
300
1/8" = 1'-0"
140
0.125
141
12.0
290
     0
  0
SCALE
  5
5F
102
{ACAD_REACTORS
330
47
102
}
330
47
100
AcDbScale
 70
     0
300
3/16" = 1'-0"
140
0.1875
141
12.0
290
     0
  0
SCALE
  5
60
102
{ACAD_REACTORS
330
47
102
}
330
47
100
AcDbScale
 70
     0
300
1/4" = 1'-0"
140
0.25
141
12.0
290
     0
  0
SCALE
  5
61
102
{ACAD_REACTORS
330
47
102
}
330
47
100
AcDbScale
 70
     0
300
3/8" = 1'-0"
140
0.375
141
12.0
290
     0
  0
SCALE
  5
62
102
{ACAD_REACTORS
330
47
102
}
330
47
100
AcDbScale
 70
     0
300
1/2" = 1'-0"
140
0.5
141
12.0
290
     0
  0
SCALE
  5
63
102
{ACAD_REACTORS
330
47
102
}
330
47
100
AcDbScale
 70
     0
300
3/4" = 1'-0"
140
0.75
141
12.0
290
     0
  0
SCALE
  5
64
102
{ACAD_REACTORS
330
47
102
}
330
47
100
AcDbScale
 70
     0
300
1" = 1'-0"
140
1.0
141
12.0
290
     0
  0
SCALE
  5
65
102
{ACAD_REACTORS
330
47
102
}
330
47
100
AcDbScale
 70
     0
300
1-1/2" = 1'-0"
140
1.5
141
12.0
290
     0
  0
SCALE
  5
66
102
{ACAD_REACTORS
330
47
102
}
330
47
100
AcDbScale
 70
     0
300
3" = 1'-0"
140
3.0
141
12.0
290
     0
  0
SCALE
  5
67
102
{ACAD_REACTORS
330
47
102
}
330
47
100
AcDbScale
 70
     0
300
6" = 1'-0"
140
6.0
141
12.0
290
     0
  0
SCALE
  5
68
102
{ACAD_REACTORS
330
47
102
}
330
47
100
AcDbScale
 70
     0
300
1'-0" = 1'-0"
140
12.0
141
12.0
290
     0
  0
ENDSEC
  0
EOF
