  0
SECTION
  2
HEADER
  9
$ACADVER
  1
AC1015
  9
$ACADMAINTVER
 70
     6
  9
$DWGCODEPAGE
  3
ANSI_1252
  9
$INSBASE
 10
0.0
 20
0.0
 30
0.0
  9
$EXTMIN
 10
0.0
 20
0.0
 30
0.0
  9
$EXTMAX
 10
11.0
 20
8.5
 30
0.0
  9
$LIMMIN
 10
0.0
 20
0.0
  9
$LIMMAX
 10
11.0
 20
8.5
  9
$ORTHOMODE
 70
     0
  9
$REGENMODE
 70
     1
  9
$FILLMODE
 70
     1
  9
$QTEXTMODE
 70
     0
  9
$MIRRTEXT
 70
     1
  9
$LTSCALE
 40
1.0
  9
$ATTMODE
 70
     1
  9
$TEXTSIZE
 40
0.1377952756
  9
$TRACEWID
 40
0.05
  9
$TEXTSTYLE
  7
Standard
  9
$CLAYER
  8
0
  9
$CELTYPE
  6
ByLayer
  9
$CECOLOR
 62
   256
  9
$CELTSCALE
 40
1.0
  9
$DISPSILH
 70
     0
  9
$DIMSCALE
 40
1.0
  9
$DIMASZ
 40
0.13
  9
$DIMEXO
 40
0.0393700787
  9
$DIMDLI
 40
0.38
  9
$DIMRND
 40
0.0
  9
$DIMDLE
 40
0.0
  9
$DIMEXE
 40
0.0393700787
  9
$DIMTP
 40
0.0
  9
$DIMTM
 40
0.0
  9
$DIMTXT
 40
0.1377952756
  9
$DIMCEN
 40
0.09
  9
$DIMTSZ
 40
0.0
  9
$DIMTOL
 70
     0
  9
$DIMLIM
 70
     0
  9
$DIMTIH
 70
     1
  9
$DIMTOH
 70
     1
  9
$DIMSE1
 70
     0
  9
$DIMSE2
 70
     0
  9
$DIMTAD
 70
     1
  9
$DIMZIN
 70
     0
  9
$DIMBLK
  1

  9
$DIMASO
 70
     1
  9
$DIMSHO
 70
     1
  9
$DIMPOST
  1

  9
$DIMAPOST
  1

  9
$DIMALT
 70
     0
  9
$DIMALTD
 70
     2
  9
$DIMALTF
 40
25.4
  9
$DIMLFAC
 40
2.0
  9
$DIMTOFL
 70
     0
  9
$DIMTVP
 40
0.0
  9
$DIMTIX
 70
     0
  9
$DIMSOXD
 70
     0
  9
$DIMSAH
 70
     0
  9
$DIMBLK1
  1

  9
$DIMBLK2
  1

  9
$DIMSTYLE
  2
Standard
  9
$DIMCLRD
 70
     0
  9
$DIMCLRE
 70
     0
  9
$DIMCLRT
 70
     0
  9
$DIMTFAC
 40
1.0
  9
$DIMGAP
 40
0.06
  9
$DIMJUST
 70
     0
  9
$DIMSD1
 70
     0
  9
$DIMSD2
 70
     0
  9
$DIMTOLJ
 70
     1
  9
$DIMTZIN
 70
     0
  9
$DIMALTZ
 70
     0
  9
$DIMALTTZ
 70
     0
  9
$DIMUPT
 70
     0
  9
$DIMDEC
 70
     2
  9
$DIMTDEC
 70
     2
  9
$DIMALTU
 70
     2
  9
$DIMALTTD
 70
     2
  9
$DIMTXSTY
  7
Standard
  9
$DIMAUNIT
 70
     0
  9
$DIMADEC
 70
     2
  9
$DIMALTRND
 40
0.0
  9
$DIMAZIN
 70
     0
  9
$DIMDSEP
 70
    46
  9
$DIMATFIT
 70
     3
  9
$DIMFRAC
 70
     0
  9
$DIMLDRBLK
  1

  9
$DIMLUNIT
 70
     2
  9
$DIMLWD
 70
    -2
  9
$DIMLWE
 70
    -2
  9
$DIMTMOVE
 70
     0
  9
$LUNITS
 70
     2
  9
$LUPREC
 70
     2
  9
$SKETCHINC
 40
0.1
  9
$FILLETRAD
 40
0.5
  9
$AUNITS
 70
     0
  9
$AUPREC
 70
     2
  9
$MENU
  1
.
  9
$ELEVATION
 40
0.0
  9
$PELEVATION
 40
0.0
  9
$THICKNESS
 40
0.0
  9
$LIMCHECK
 70
     0
  9
$CHAMFERA
 40
0.0
  9
$CHAMFERB
 40
0.0
  9
$CHAMFERC
 40
0.0
  9
$CHAMFERD
 40
0.0
  9
$SKPOLY
 70
     0
  9
$TDCREATE
 40
2459375.796364016
  9
$TDUCREATE
 40
2459375.963030683
  9
$TDUPDATE
 40
2459375.796364537
  9
$TDUUPDATE
 40
2459375.963031203
  9
$TDINDWG
 40
0.0000000116
  9
$TDUSRTIMER
 40
0.0000000116
  9
$USRTIMER
 70
     1
  9
$ANGBASE
 50
0.0
  9
$ANGDIR
 70
     0
  9
$PDMODE
 70
     0
  9
$PDSIZE
 40
-1.0
  9
$PLINEWID
 40
0.0
  9
$SPLFRAME
 70
     0
  9
$SPLINETYPE
 70
     6
  9
$SPLINESEGS
 70
     8
  9
$HANDSEED
  5
1AE
  9
$SURFTAB1
 70
     6
  9
$SURFTAB2
 70
     6
  9
$SURFTYPE
 70
     6
  9
$SURFU
 70
     6
  9
$SURFV
 70
     6
  9
$UCSBASE
  2

  9
$UCSNAME
  2

  9
$UCSORG
 10
0.0
 20
0.0
 30
0.0
  9
$UCSXDIR
 10
1.0
 20
0.0
 30
0.0
  9
$UCSYDIR
 10
0.0
 20
1.0
 30
0.0
  9
$UCSORTHOREF
  2

  9
$UCSORTHOVIEW
 70
     0
  9
$UCSORGTOP
 10
0.0
 20
0.0
 30
0.0
  9
$UCSORGBOTTOM
 10
0.0
 20
0.0
 30
0.0
  9
$UCSORGLEFT
 10
0.0
 20
0.0
 30
0.0
  9
$UCSORGRIGHT
 10
0.0
 20
0.0
 30
0.0
  9
$UCSORGFRONT
 10
0.0
 20
0.0
 30
0.0
  9
$UCSORGBACK
 10
0.0
 20
0.0
 30
0.0
  9
$PUCSBASE
  2

  9
$PUCSNAME
  2

  9
$PUCSORG
 10
0.0
 20
0.0
 30
0.0
  9
$PUCSXDIR
 10
1.0
 20
0.0
 30
0.0
  9
$PUCSYDIR
 10
0.0
 20
1.0
 30
0.0
  9
$PUCSORTHOREF
  2

  9
$PUCSORTHOVIEW
 70
     0
  9
$PUCSORGTOP
 10
0.0
 20
0.0
 30
0.0
  9
$PUCSORGBOTTOM
 10
0.0
 20
0.0
 30
0.0
  9
$PUCSORGLEFT
 10
0.0
 20
0.0
 30
0.0
  9
$PUCSORGRIGHT
 10
0.0
 20
0.0
 30
0.0
  9
$PUCSORGFRONT
 10
0.0
 20
0.0
 30
0.0
  9
$PUCSORGBACK
 10
0.0
 20
0.0
 30
0.0
  9
$USERI1
 70
     0
  9
$USERI2
 70
     0
  9
$USERI3
 70
     0
  9
$USERI4
 70
     0
  9
$USERI5
 70
     0
  9
$USERR1
 40
0.0
  9
$USERR2
 40
0.0
  9
$USERR3
 40
0.0
  9
$USERR4
 40
0.0
  9
$USERR5
 40
0.0
  9
$WORLDVIEW
 70
     1
  9
$SHADEDGE
 70
     3
  9
$SHADEDIF
 70
    70
  9
$TILEMODE
 70
     1
  9
$MAXACTVP
 70
    64
  9
$PINSBASE
 10
0.0
 20
0.0
 30
0.0
  9
$PLIMCHECK
 70
     0
  9
$PEXTMIN
 10
1.0000000000E+20
 20
1.0000000000E+20
 30
1.0000000000E+20
  9
$PEXTMAX
 10
-1.0000000000E+20
 20
-1.0000000000E+20
 30
-1.0000000000E+20
  9
$PLIMMIN
 10
0.0
 20
0.0
  9
$PLIMMAX
 10
12.0
 20
9.0
  9
$UNITMODE
 70
     0
  9
$VISRETAIN
 70
     1
  9
$PLINEGEN
 70
     0
  9
$PSLTSCALE
 70
     1
  9
$TREEDEPTH
 70
  3020
  9
$CMLSTYLE
  2
Standard
  9
$CMLJUST
 70
     0
  9
$CMLSCALE
 40
1.0
  9
$PROXYGRAPHICS
 70
     1
  9
$MEASUREMENT
 70
     0
  9
$CELWEIGHT
370
    -1
  9
$ENDCAPS
280
     0
  9
$JOINSTYLE
280
     0
  9
$LWDISPLAY
290
     1
  9
$INSUNITS
 70
     1
  9
$HYPERLINKBASE
  1

  9
$STYLESHEET
  1

  9
$XEDIT
290
     1
  9
$CEPSNTYPE
380
     0
  9
$PSTYLEMODE
290
     1
  9
$FINGERPRINTGUID
  2
{AE8DCF68-FE96-4E53-83E4-29B62A7A9E62}
  9
$VERSIONGUID
  2
{FAEB1C32-E019-11D5-929B-00C0DF256EC4}
  9
$EXTNAMES
290
     1
  9
$PSVPSCALE
 40
0.0
  9
$OLESTARTUP
290
     0
  0
ENDSEC
  0
SECTION
  2
CLASSES
  0
CLASS
  1
ACDBDICTIONARYWDFLT
  2
AcDbDictionaryWithDefault
  3
ObjectDBX Classes
 90
        0
280
     0
281
     0
  0
CLASS
  1
VISUALSTYLE
  2
AcDbVisualStyle
  3
ObjectDBX Classes
 90
     4095
280
     0
281
     0
  0
CLASS
  1
MATERIAL
  2
AcDbMaterial
  3
ObjectDBX Classes
 90
     1153
280
     0
281
     0
  0
CLASS
  1
SCALE
  2
AcDbScale
  3
ObjectDBX Classes
 90
     1153
280
     0
281
     0
  0
CLASS
  1
TABLESTYLE
  2
AcDbTableStyle
  3
ObjectDBX Classes
 90
     4095
280
     0
281
     0
  0
CLASS
  1
MLEADERSTYLE
  2
AcDbMLeaderStyle
  3
ACDB_MLEADERSTYLE_CLASS
 90
     4095
280
     0
281
     0
  0
CLASS
  1
SUN
  2
AcDbSun
  3
SCENEOE
 90
     1153
280
     0
281
     0
  0
CLASS
  1
ACDBPLACEHOLDER
  2
AcDbPlaceHolder
  3
ObjectDBX Classes
 90
        0
280
     0
281
     0
  0
CLASS
  1
LAYOUT
  2
AcDbLayout
  3
ObjectDBX Classes
 90
        0
280
     0
281
     0
  0
ENDSEC
  0
SECTION
  2
TABLES
  0
TABLE
  2
VPORT
  5
8
330
0
100
AcDbSymbolTable
 70
     1
  0
VPORT
  5
29
330
8
100
AcDbSymbolTableRecord
100
AcDbViewportTableRecord
  2
*Active
 70
     0
 10
0.0
 20
0.0
 11
1.0
 21
1.0
 12
5.5
 22
4.25
 13
0.0
 23
0.0
 14
0.5
 24
0.5
 15
0.5
 25
0.5
 16
0.0
 26
0.0
 36
1.0
 17
0.0
 27
0.0
 37
0.0
 40
8.5
 41
1.2941176471
 42
50.0
 43
0.0
 44
0.0
 50
0.0
 51
0.0
 71
     0
 72
  2000
 73
     1
 74
     3
 75
     0
 76
     0
 77
     0
 78
     0
281
     0
 65
     1
110
0.0
120
0.0
130
0.0
111
1.0
121
0.0
131
0.0
112
0.0
122
1.0
132
0.0
 79
     0
146
0.0
  0
ENDTAB
  0
TABLE
  2
LTYPE
  5
5
330
0
100
AcDbSymbolTable
 70
     6
  0
LTYPE
  5
14
330
5
100
AcDbSymbolTableRecord
100
AcDbLinetypeTableRecord
  2
ByBlock
 70
     0
  3

 72
    65
 73
     0
 40
0.0
  0
LTYPE
  5
15
330
5
100
AcDbSymbolTableRecord
100
AcDbLinetypeTableRecord
  2
ByLayer
 70
     0
  3

 72
    65
 73
     0
 40
0.0
  0
LTYPE
  5
16
330
5
100
AcDbSymbolTableRecord
100
AcDbLinetypeTableRecord
  2
Continuous
 70
     0
  3
Solid line
 72
    65
 73
     0
 40
0.0
  0
LTYPE
  5
6E
330
5
100
AcDbSymbolTableRecord
100
AcDbLinetypeTableRecord
  2
HIDDEN
 70
     0
  3
Hidden __ __ __ __ __ __ __ __ __ __ __ __ __ __
 72
    65
 73
     2
 40
0.075
 49
0.05
 74
     0
 49
-0.025
 74
     0
  0
LTYPE
  5
6F
330
5
100
AcDbSymbolTableRecord
100
AcDbLinetypeTableRecord
  2
PHANTOM
 70
     0
  3
Phantom ______  __  __  ______  __  __  ______
 72
    65
 73
     6
 40
0.5
 49
0.25
 74
     0
 49
-0.05
 74
     0
 49
0.05
 74
     0
 49
-0.05
 74
     0
 49
0.05
 74
     0
 49
-0.05
 74
     0
  0
LTYPE
  5
70
330
5
100
AcDbSymbolTableRecord
100
AcDbLinetypeTableRecord
  2
CENTER
 70
     0
  3
Center ____ _ ____ _ ____ _ ____ _ ____ _ ____
 72
    65
 73
     4
 40
0.4
 49
0.25
 74
     0
 49
-0.05
 74
     0
 49
0.05
 74
     0
 49
-0.05
 74
     0
  0
LTYPE
  5
71
330
5
100
AcDbSymbolTableRecord
100
AcDbLinetypeTableRecord
  2
CENTERX2
 70
     0
  3
Center (2x) ________  __  ________  __  _____
 72
    65
 73
     4
 40
0.8
 49
0.5
 74
     0
 49
-0.1
 74
     0
 49
0.1
 74
     0
 49
-0.1
 74
     0
  0
LTYPE
  5
72
330
5
100
AcDbSymbolTableRecord
100
AcDbLinetypeTableRecord
  2
DOT2
 70
     0
  3
Dot (.5x) ........................................
 72
    65
 73
     2
 40
0.025
 49
0.0
 74
     0
 49
-0.025
 74
     0
  0
ENDTAB
  0
TABLE
  2
LAYER
  5
2
330
0
100
AcDbSymbolTable
 70
     2
  0
LAYER
  5
10
330
2
100
AcDbSymbolTableRecord
100
AcDbLayerTableRecord
  2
0
 70
     0
 62
     7
  6
Continuous
370
    -3
390
F
  0
LAYER
  5
73
330
2
100
AcDbSymbolTableRecord
100
AcDbLayerTableRecord
  2
FORMAT
 70
     0
 62
     7
  6
Continuous
370
    -3
390
F
  0
ENDTAB
  0
TABLE
  2
STYLE
  5
3
330
0
100
AcDbSymbolTable
 70
     1
  0
STYLE
  5
11
330
3
100
AcDbSymbolTableRecord
100
AcDbTextStyleTableRecord
  2
Standard
 70
     0
 40
0.0
 41
1.0
 50
0.0
 71
     0
 42
0.1377952756
  3
txt
  4

  0
ENDTAB
  0
TABLE
  2
VIEW
  5
6
330
0
100
AcDbSymbolTable
 70
     0
  0
ENDTAB
  0
TABLE
  2
UCS
  5
7
330
0
100
AcDbSymbolTable
 70
     0
  0
ENDTAB
  0
TABLE
  2
APPID
  5
9
330
0
100
AcDbSymbolTable
 70
     1
  0
APPID
  5
12
330
9
100
AcDbSymbolTableRecord
100
AcDbRegAppTableRecord
  2
ACAD
 70
     0
  0
ENDTAB
  0
TABLE
  2
DIMSTYLE
  5
A
330
0
100
AcDbSymbolTable
 70
     1
100
AcDbDimStyleTable
  0
DIMSTYLE
105
27
330
A
100
AcDbSymbolTableRecord
100
AcDbDimStyleTableRecord
  2
Standard
 70
     0
178
     0
340
11
  0
ENDTAB
  0
TABLE
  2
BLOCK_RECORD
  5
1
330
0
100
AcDbSymbolTable
 70
     4
  0
BLOCK_RECORD
  5
1F
330
1
100
AcDbSymbolTableRecord
100
AcDbBlockTableRecord
  2
*Model_Space
340
22
  0
BLOCK_RECORD
  5
1B
330
1
100
AcDbSymbolTableRecord
100
AcDbBlockTableRecord
  2
*Paper_Space
340
1E
  0
BLOCK_RECORD
  5
23
330
1
100
AcDbSymbolTableRecord
100
AcDbBlockTableRecord
  2
*Paper_Space0
340
26
  0
BLOCK_RECORD
  5
138
330
1
100
AcDbSymbolTableRecord
100
AcDbBlockTableRecord
  2
SW_CENTERMARKSYMBOL_0
340
0
102
{BLKREFS
331
143
102
}
  0
BLOCK_RECORD
  5
144
330
1
100
AcDbSymbolTableRecord
100
AcDbBlockTableRecord
  2
SW_CENTERMARKSYMBOL_1
340
0
102
{BLKREFS
331
14F
102
}
  0
BLOCK_RECORD
  5
150
330
1
100
AcDbSymbolTableRecord
100
AcDbBlockTableRecord
  2
SW_CENTERMARKSYMBOL_2
340
0
102
{BLKREFS
331
15B
102
}
  0
ENDTAB
  0
ENDSEC
  0
SECTION
  2
BLOCKS
  0
BLOCK
  5
20
330
1F
100
AcDbEntity
  8
0
100
AcDbBlockBegin
  2
*Model_Space
 70
     0
 10
0.0
 20
0.0
 30
0.0
  3
*Model_Space
  1

  0
ENDBLK
  5
21
330
1F
100
AcDbEntity
  8
0
100
AcDbBlockEnd
  0
BLOCK
  5
1C
330
1B
100
AcDbEntity
 67
     1
  8
0
100
AcDbBlockBegin
  2
*Paper_Space
 70
     0
 10
0.0
 20
0.0
 30
0.0
  3
*Paper_Space
  1

  0
ENDBLK
  5
1D
330
1B
100
AcDbEntity
 67
     1
  8
0
100
AcDbBlockEnd
  0
BLOCK
  5
24
330
23
100
AcDbEntity
  8
0
100
AcDbBlockBegin
  2
*Paper_Space0
 70
     0
 10
0.0
 20
0.0
 30
0.0
  3
*Paper_Space0
  1

  0
ENDBLK
  5
25
330
23
100
AcDbEntity
  8
0
100
AcDbBlockEnd
  0
BLOCK
  5
139
330
138
100
AcDbEntity
  8
0
100
AcDbBlockBegin
  2
SW_CENTERMARKSYMBOL_0
 70
     0
 10
0.0
 20
0.0
 30
0.0
  3
SW_CENTERMARKSYMBOL_0
  1

  0
LINE
  5
13B
330
138
100
AcDbEntity
  8
0
  6
Continuous
 62
     0
370
     0
100
AcDbLine
 10
0.0
 20
0.0
 30
0.0
 11
0.0
 21
0.0196850394
 31
0.0
  0
LINE
  5
13C
330
138
100
AcDbEntity
  8
0
  6
Continuous
 62
     0
370
     0
100
AcDbLine
 10
0.0
 20
0.0
 30
0.0
 11
-0.0196850394
 21
0.0
 31
0.0
  0
LINE
  5
13D
330
138
100
AcDbEntity
  8
0
  6
Continuous
 62
     0
370
     0
100
AcDbLine
 10
0.0
 20
0.0
 30
0.0
 11
0.0
 21
-0.0196850394
 31
0.0
  0
LINE
  5
13E
330
138
100
AcDbEntity
  8
0
  6
Continuous
 62
     0
370
     0
100
AcDbLine
 10
0.0
 20
0.0
 30
0.0
 11
0.0196850394
 21
0.0
 31
0.0
  0
LINE
  5
13F
330
138
100
AcDbEntity
  8
0
  6
Continuous
 62
     0
370
     0
100
AcDbLine
 10
0.0
 20
0.0393700787
 30
0.0
 11
0.0
 21
0.2362204724
 31
0.0
  0
LINE
  5
140
330
138
100
AcDbEntity
  8
0
  6
Continuous
 62
     0
370
     0
100
AcDbLine
 10
-0.0393700787
 20
0.0
 30
0.0
 11
-0.2362204724
 21
0.0
 31
0.0
  0
LINE
  5
141
330
138
100
AcDbEntity
  8
0
  6
Continuous
 62
     0
370
     0
100
AcDbLine
 10
0.0
 20
-0.0393700787
 30
0.0
 11
0.0
 21
-0.2362204724
 31
0.0
  0
LINE
  5
142
330
138
100
AcDbEntity
  8
0
  6
Continuous
 62
     0
370
     0
100
AcDbLine
 10
0.0393700787
 20
0.0
 30
0.0
 11
0.2362204724
 21
0.0
 31
0.0
  0
ENDBLK
  5
13A
330
138
100
AcDbEntity
  8
0
100
AcDbBlockEnd
  0
BLOCK
  5
145
330
144
100
AcDbEntity
  8
0
100
AcDbBlockBegin
  2
SW_CENTERMARKSYMBOL_1
 70
     0
 10
0.0
 20
0.0
 30
0.0
  3
SW_CENTERMARKSYMBOL_1
  1

  0
LINE
  5
147
330
144
100
AcDbEntity
  8
0
  6
Continuous
 62
     0
370
     0
100
AcDbLine
 10
0.0
 20
0.0
 30
0.0
 11
0.0
 21
0.0196850394
 31
0.0
  0
LINE
  5
148
330
144
100
AcDbEntity
  8
0
  6
Continuous
 62
     0
370
     0
100
AcDbLine
 10
0.0
 20
0.0
 30
0.0
 11
-0.0196850394
 21
0.0
 31
0.0
  0
LINE
  5
149
330
144
100
AcDbEntity
  8
0
  6
Continuous
 62
     0
370
     0
100
AcDbLine
 10
0.0
 20
0.0
 30
0.0
 11
0.0
 21
-0.0196850394
 31
0.0
  0
LINE
  5
14A
330
144
100
AcDbEntity
  8
0
  6
Continuous
 62
     0
370
     0
100
AcDbLine
 10
0.0
 20
0.0
 30
0.0
 11
0.0196850394
 21
0.0
 31
0.0
  0
LINE
  5
14B
330
144
100
AcDbEntity
  8
0
  6
Continuous
 62
     0
370
     0
100
AcDbLine
 10
0.0
 20
0.0393700787
 30
0.0
 11
0.0
 21
0.2362204724
 31
0.0
  0
LINE
  5
14C
330
144
100
AcDbEntity
  8
0
  6
Continuous
 62
     0
370
     0
100
AcDbLine
 10
-0.0393700787
 20
0.0
 30
0.0
 11
-0.2362204724
 21
0.0
 31
0.0
  0
LINE
  5
14D
330
144
100
AcDbEntity
  8
0
  6
Continuous
 62
     0
370
     0
100
AcDbLine
 10
0.0
 20
-0.0393700787
 30
0.0
 11
0.0
 21
-0.2362204724
 31
0.0
  0
LINE
  5
14E
330
144
100
AcDbEntity
  8
0
  6
Continuous
 62
     0
370
     0
100
AcDbLine
 10
0.0393700787
 20
0.0
 30
0.0
 11
0.2362204724
 21
0.0
 31
0.0
  0
ENDBLK
  5
146
330
144
100
AcDbEntity
  8
0
100
AcDbBlockEnd
  0
BLOCK
  5
151
330
150
100
AcDbEntity
  8
0
100
AcDbBlockBegin
  2
SW_CENTERMARKSYMBOL_2
 70
     0
 10
0.0
 20
0.0
 30
0.0
  3
SW_CENTERMARKSYMBOL_2
  1

  0
LINE
  5
153
330
150
100
AcDbEntity
  8
0
  6
Continuous
 62
     0
370
     0
100
AcDbLine
 10
0.0
 20
0.0
 30
0.0
 11
0.0
 21
0.0196850394
 31
0.0
  0
LINE
  5
154
330
150
100
AcDbEntity
  8
0
  6
Continuous
 62
     0
370
     0
100
AcDbLine
 10
0.0
 20
0.0
 30
0.0
 11
-0.0196850394
 21
0.0
 31
0.0
  0
LINE
  5
155
330
150
100
AcDbEntity
  8
0
  6
Continuous
 62
     0
370
     0
100
AcDbLine
 10
0.0
 20
0.0
 30
0.0
 11
0.0
 21
-0.0196850394
 31
0.0
  0
LINE
  5
156
330
150
100
AcDbEntity
  8
0
  6
Continuous
 62
     0
370
     0
100
AcDbLine
 10
0.0
 20
0.0
 30
0.0
 11
0.0196850394
 21
0.0
 31
0.0
  0
LINE
  5
157
330
150
100
AcDbEntity
  8
0
  6
Continuous
 62
     0
370
     0
100
AcDbLine
 10
0.0
 20
0.0393700787
 30
0.0
 11
0.0
 21
0.2362204724
 31
0.0
  0
LINE
  5
158
330
150
100
AcDbEntity
  8
0
  6
Continuous
 62
     0
370
     0
100
AcDbLine
 10
-0.0393700787
 20
0.0
 30
0.0
 11
-0.2362204724
 21
0.0
 31
0.0
  0
LINE
  5
159
330
150
100
AcDbEntity
  8
0
  6
Continuous
 62
     0
370
     0
100
AcDbLine
 10
0.0
 20
-0.0393700787
 30
0.0
 11
0.0
 21
-0.2362204724
 31
0.0
  0
LINE
  5
15A
330
150
100
AcDbEntity
  8
0
  6
Continuous
 62
     0
370
     0
100
AcDbLine
 10
0.0393700787
 20
0.0
 30
0.0
 11
0.2362204724
 21
0.0
 31
0.0
  0
ENDBLK
  5
152
330
150
100
AcDbEntity
  8
0
100
AcDbBlockEnd
  0
ENDSEC
  0
SECTION
  2
ENTITIES
  0
SPLINE
  5
74
330
1F
100
AcDbEntity
  8
0
  6
Continuous
 62
     7
370
    25
100
AcDbSpline
210
0.0
220
0.0
230
1.0
 70
     8
 71
     3
 72
    19
 73
    15
 74
     0
 42
0.000000001
 43
0.00000001
 40
0.0
 40
0.0
 40
0.0
 40
0.0
 40
0.0462971526953581
 40
0.1339619036949009
 40
0.2224634227280618
 40
0.3137693038707887
 40
0.4078902936863203
 40
0.5035494251021568
 40
0.599487015339017
 40
0.695153466370424
 40
0.790503254835573
 40
0.8856067051986722
 40
0.9755726418081679
 40
1.0
 40
1.0
 40
1.0
 40
1.0
 10
3.197675513278191
 20
2.533687940035299
 30
0.0
 10
3.197652548940419
 20
2.532307712225282
 30
0.0
 10
3.197586101087235
 20
2.528313990490835
 30
0.0
 10
3.199772090762946
 20
2.521839505746962
 30
0.0
 10
3.203918662406464
 20
2.514547893772183
 30
0.0
 10
3.210062126111762
 20
2.507714600535712
 30
0.0
 10
3.218036591353127
 20
2.501414509413019
 30
0.0
 10
3.227749196973885
 20
2.495794465144831
 30
0.0
 10
3.238944887172065
 20
2.491000344154837
 30
0.0
 10
3.251339594852179
 20
2.487137261223463
 30
0.0
 10
3.264649700110989
 20
2.484268269549868
 30
0.0
 10
3.278349806871679
 20
2.482480126639574
 30
0.0
 10
3.2888534164993
 20
2.481882458034504
 30
0.0
 10
3.294601059932602
 20
2.481847677485931
 30
0.0
 10
3.295828402366859
 20
2.481840250504134
 30
0.0
  0
SPLINE
  5
75
330
1F
100
AcDbEntity
  8
0
  6
Continuous
 62
     7
370
    25
100
AcDbSpline
210
0.0
220
0.0
230
1.0
 70
     8
 71
     3
 72
    18
 73
    14
 74
     0
 42
0.000000001
 43
0.00000001
 40
0.0
 40
0.0
 40
0.0
 40
0.0
 40
0.0507215703245127
 40
0.1469727143781152
 40
0.2433825710712214
 40
0.3399970594116479
 40
0.4369358606369111
 40
0.5343225491079674
 40
0.6322442030750423
 40
0.7306163355893107
 40
0.8285123288616827
 40
0.9242265877688604
 40
1.0
 40
1.0
 40
1.0
 40
1.0
 10
3.295828402366859
 20
2.481840250504134
 30
0.0
 10
3.29834074485105
 20
2.4818702257445
 30
0.0
 10
3.305620602158041
 20
2.481957083119235
 30
0.0
 10
3.317584391881754
 20
2.482922654328776
 30
0.0
 10
3.331332608693807
 20
2.485070886318506
 30
0.0
 10
3.344355391954899
 20
2.488256954514199
 30
0.0
 10
3.356385892282439
 20
2.492416299415678
 30
0.0
 10
3.367183765575312
 20
2.497501706107489
 30
0.0
 10
3.376515460877745
 20
2.50345831692681
 30
0.0
 10
3.384170557592762
 20
2.510218993922192
 30
0.0
 10
3.389812688064614
 20
2.517680401819373
 30
0.0
 10
3.393323768844897
 20
2.525169828671368
 30
0.0
 10
3.393818077058812
 20
2.530197726178573
 30
0.0
 10
3.394036491711093
 20
2.532419349155552
 30
0.0
  0
LINE
  5
76
330
1F
100
AcDbEntity
  8
0
  6
Continuous
 62
     7
370
    25
100
AcDbLine
 10
3.3942535992
 20
2.5342024552
 30
0.0
 11
3.3942535992
 21
2.9719885255
 31
0.0
  0
LINE
  5
77
330
1F
100
AcDbEntity
  8
0
  6
Continuous
 62
     7
370
    25
100
AcDbLine
 10
3.1974032055
 20
2.9719885255
 30
0.0
 11
3.1974032055
 21
2.5342024552
 31
0.0
  0
ARC
  5
78
330
1F
100
AcDbEntity
  8
0
  6
Continuous
 62
     7
370
    25
100
AcDbCircle
 10
3.2958284024
 20
3.1460500088
 30
0.0
 40
0.098425196850394
100
AcDbArc
 50
0.0
 51
180.0
  0
LINE
  5
79
330
1F
100
AcDbEntity
  8
0
  6
Continuous
 62
     7
370
    25
100
AcDbLine
 10
3.1974032055
 20
3.1460500088
 30
0.0
 11
3.1974032055
 21
2.9719885255
 31
0.0
  0
LINE
  5
7A
330
1F
100
AcDbEntity
  8
0
  6
Continuous
 62
     7
370
    25
100
AcDbLine
 10
3.3942535992
 20
2.9719885255
 30
0.0
 11
3.3942535992
 21
3.1460500088
 31
0.0
  0
LINE
  5
7B
330
1F
100
AcDbEntity
  8
0
  6
Continuous
 62
     7
370
    25
100
AcDbLine
 10
3.3942535992
 20
1.6074873346
 30
0.0
 11
3.3942535992
 21
2.5342024552
 31
0.0
  0
LINE
  5
7C
330
1F
100
AcDbEntity
  8
0
  6
Continuous
 62
     7
370
    25
100
AcDbLine
 10
3.1974032055
 20
2.5342024552
 30
0.0
 11
3.1974032055
 21
1.6074873346
 31
0.0
  0
ARC
  5
7D
330
1F
100
AcDbEntity
  8
0
  6
Continuous
 62
     7
370
    25
100
AcDbCircle
 10
4.2934661976
 20
1.601188122
 30
0.0
 40
0.0062992125984256
100
AcDbArc
 50
0.0
 51
90.0
  0
ARC
  5
7E
330
1F
100
AcDbEntity
  8
0
  6
Continuous
 62
     7
370
    25
100
AcDbCircle
 10
3.8729937567
 20
1.601188122
 30
0.0
 40
0.0062992125984251
100
AcDbArc
 50
90.0
 51
180.0
  0
LINE
  5
7F
330
1F
100
AcDbEntity
  8
0
  6
Continuous
 62
     7
370
    25
100
AcDbLine
 10
4.2997654102
 20
1.5444952086
 30
0.0
 11
4.2997654102
 21
1.601188122
 31
0.0
  0
LINE
  5
80
330
1F
100
AcDbEntity
  8
0
  6
Continuous
 62
     7
370
    25
100
AcDbLine
 10
3.8666945441
 20
1.601188122
 30
0.0
 11
3.8666945441
 21
1.5444952086
 31
0.0
  0
LINE
  5
81
330
1F
100
AcDbEntity
  8
0
  6
Continuous
 62
     7
370
    25
100
AcDbLine
 10
4.1422850953
 20
1.6074873346
 30
0.0
 11
4.1422850953
 21
1.6153613503
 31
0.0
  0
LINE
  5
82
330
1F
100
AcDbEntity
  8
0
  6
Continuous
 62
     7
370
    25
100
AcDbLine
 10
4.0241748591
 20
1.6153613503
 30
0.0
 11
4.0241748591
 21
1.6074873346
 31
0.0
  0
LINE
  5
83
330
1F
100
AcDbEntity
  8
0
  6
Continuous
 62
     7
370
    25
100
AcDbLine
 10
3.370631552
 20
2.5355662748
 30
0.0
 11
3.370631552
 21
2.5477178311
 31
0.0
  0
LINE
  5
84
330
1F
100
AcDbEntity
  8
0
  6
Continuous
 62
     7
370
    25
100
AcDbLine
 10
3.2210252528
 20
2.5477178311
 30
0.0
 11
3.2210252528
 21
2.5355662748
 31
0.0
  0
LINE
  5
85
330
1F
100
AcDbEntity
  8
0
  6
Continuous
 62
     7
370
    25
100
AcDbLine
 10
3.5123638354
 20
1.5444952086
 30
0.0
 11
3.5123638354
 21
1.601188122
 31
0.0
  0
LINE
  5
86
330
1F
100
AcDbEntity
  8
0
  6
Continuous
 62
     7
370
    25
100
AcDbLine
 10
3.0792929693
 20
1.601188122
 30
0.0
 11
3.0792929693
 21
1.5444952086
 31
0.0
  0
ARC
  5
87
330
1F
100
AcDbEntity
  8
0
  6
Continuous
 62
     7
370
    25
100
AcDbCircle
 10
3.0855921819
 20
1.601188122
 30
0.0
 40
0.0062992125984254
100
AcDbArc
 50
90.0
 51
180.0
  0
ARC
  5
88
330
1F
100
AcDbEntity
  8
0
  6
Continuous
 62
     7
370
    25
100
AcDbCircle
 10
3.5060646228
 20
1.601188122
 30
0.0
 40
0.0062992125984254
100
AcDbArc
 50
0.0
 51
90.0
  0
LINE
  5
89
330
1F
100
AcDbEntity
  8
0
  6
Continuous
 62
     7
370
    25
100
AcDbLine
 10
2.3824425756
 20
1.9633928464
 30
0.0
 11
2.3824425756
 21
1.6153613503
 31
0.0
  0
LINE
  5
8A
330
1F
100
AcDbEntity
  8
0
  6
Continuous
 62
     7
370
    25
100
AcDbLine
 10
2.6344110795
 20
1.6153613503
 30
0.0
 11
2.6344110795
 21
2.0815030826
 31
0.0
  0
ARC
  5
8B
330
1F
100
AcDbEntity
  8
0
  6
Continuous
 62
     7
370
    25
100
AcDbCircle
 10
2.6281118669
 20
2.0815030826
 30
0.0
 40
0.0062992125984249
100
AcDbArc
 50
0.0
 51
90.0
  0
ARC
  5
8C
330
1F
100
AcDbEntity
  8
0
  6
Continuous
 62
     7
370
    25
100
AcDbCircle
 10
2.376143363
 20
1.9633928464
 30
0.0
 40
0.0062992125984251
100
AcDbArc
 50
0.0
 51
90.0
  0
LINE
  5
8D
330
1F
100
AcDbEntity
  8
0
  6
Continuous
 62
     7
370
    25
100
AcDbLine
 10
3.9572457252
 20
2.0815030826
 30
0.0
 11
3.9572457252
 21
1.6153613503
 31
0.0
  0
LINE
  5
8E
330
1F
100
AcDbEntity
  8
0
  6
Continuous
 62
     7
370
    25
100
AcDbLine
 10
4.2092142291
 20
1.6153613503
 30
0.0
 11
4.2092142291
 21
1.9633928464
 31
0.0
  0
ARC
  5
8F
330
1F
100
AcDbEntity
  8
0
  6
Continuous
 62
     7
370
    25
100
AcDbCircle
 10
3.9635449378
 20
2.0815030826
 30
0.0
 40
0.0062992125984249
100
AcDbArc
 50
90.0
 51
180.0
  0
ARC
  5
90
330
1F
100
AcDbEntity
  8
0
  6
Continuous
 62
     7
370
    25
100
AcDbCircle
 10
4.2155134417
 20
1.9633928464
 30
0.0
 40
0.0062992125984254
100
AcDbArc
 50
90.0
 51
180.0
  0
ARC
  5
91
330
1F
100
AcDbEntity
  8
0
  6
Continuous
 62
     7
370
    25
100
AcDbCircle
 10
2.2981906071
 20
1.601188122
 30
0.0
 40
0.0062992125984254
100
AcDbArc
 50
90.0
 51
180.0
  0
ARC
  5
92
330
1F
100
AcDbEntity
  8
0
  6
Continuous
 62
     7
370
    25
100
AcDbCircle
 10
2.718663048
 20
1.601188122
 30
0.0
 40
0.0062992125984254
100
AcDbArc
 50
0.0
 51
90.0
  0
LINE
  5
93
330
1F
100
AcDbEntity
  8
0
  6
Continuous
 62
     7
370
    25
100
AcDbLine
 10
2.7249622606
 20
1.5444952086
 30
0.0
 11
2.7249622606
 21
1.601188122
 31
0.0
  0
LINE
  5
94
330
1F
100
AcDbEntity
  8
0
  6
Continuous
 62
     7
370
    25
100
AcDbLine
 10
2.2918913945
 20
1.601188122
 30
0.0
 11
2.2918913945
 21
1.5444952086
 31
0.0
  0
LINE
  5
95
330
1F
100
AcDbEntity
  8
0
  6
Continuous
 62
     7
370
    25
100
AcDbLine
 10
2.5674819457
 20
1.6074873346
 30
0.0
 11
2.5674819457
 21
1.6153613503
 31
0.0
  0
LINE
  5
96
330
1F
100
AcDbEntity
  8
0
  6
Continuous
 62
     7
370
    25
100
AcDbLine
 10
2.4493717095
 20
1.6153613503
 30
0.0
 11
2.4493717095
 21
1.6074873346
 31
0.0
  0
LWPOLYLINE
  5
97
330
1F
100
AcDbEntity
  8
0
  6
Continuous
 62
     7
370
    25
100
AcDbPolyline
 90
       40
 70
   128
 43
0.0
 10
3.2958284024
 20
2.482684185
 10
3.3106064495
 20
2.4832806886
 10
3.325001753
 20
2.4850547504
 10
3.338641482
 20
2.4879604232
 10
3.3511723747
 20
2.4919224514
 10
3.3622698877
 20
2.4968382207
 10
3.371646601
 20
2.5025804151
 10
3.3790596629
 20
2.509000315
 10
3.3843170788
 20
2.5159316482
 10
3.3872826845
 20
2.5231948969
 10
3.3878796723
 20
2.5306019468
 10
3.3860925805
 20
2.5379609591
 10
3.381967694
 20
2.5450813392
 10
3.3756118451
 20
2.5517786732
 10
3.3671896469
 20
2.5578795035
 10
3.3569192299
 20
2.5632258218
 10
3.3450665926
 20
2.5676791613
 10
3.3319387121
 20
2.571124183
 10
3.3178755935
 20
2.5734716624
 10
3.3032414642
 20
2.5746608011
 10
3.2884153405
 20
2.5746608011
 10
3.2737812112
 20
2.5734716624
 10
3.2597180926
 20
2.571124183
 10
3.2465902121
 20
2.5676791613
 10
3.2347375748
 20
2.5632258218
 10
3.2244671579
 20
2.5578795035
 10
3.2160449597
 20
2.5517786732
 10
3.2096891107
 20
2.5450813392
 10
3.2055642242
 20
2.5379609591
 10
3.2037771325
 20
2.5306019468
 10
3.2043741203
 20
2.5231948969
 10
3.2073397259
 20
2.5159316482
 10
3.2125971419
 20
2.509000315
 10
3.2200102037
 20
2.5025804151
 10
3.2293869171
 20
2.4968382207
 10
3.24048443
 20
2.4919224514
 10
3.2530153227
 20
2.4879604232
 10
3.2666550518
 20
2.4850547504
 10
3.2810503552
 20
2.4832806886
 10
3.2958284024
 20
2.482684185
  0
LINE
  5
98
330
1F
100
AcDbEntity
  8
0
  6
Continuous
 62
     7
370
    25
100
AcDbLine
 10
3.3942535992
 20
2.5342024552
 30
0.0
 11
3.3942077566
 21
2.5327006202
 31
0.0
  0
LWPOLYLINE
  5
99
330
1F
100
AcDbEntity
  8
0
  6
Continuous
 62
     7
370
    25
100
AcDbPolyline
 90
       38
 70
   128
 43
0.0
 10
3.2958284024
 20
2.4866211928
 10
3.2815897506
 20
2.4872271368
 10
3.2677607189
 20
2.4890275367
 10
3.2547391433
 20
2.4919705983
 10
3.2428996309
 20
2.4959716552
 10
3.2325827829
 20
2.5009156041
 10
3.2240853963
 20
2.5066602167
 10
3.2176519253
 20
2.513040231
 10
3.2134674492
 20
2.5198721055
 10
3.2116523477
 20
2.5269592996
 10
3.2122588381
 20
2.5340979278
 10
3.2152694727
 20
2.5410826245
 10
3.2205976411
 20
2.547712453
 10
3.2280900615
 20
2.5537966849
 10
3.2375311906
 20
2.5591602881
 10
3.2486494243
 20
2.5636489615
 10
3.2611249114
 20
2.5671335741
 10
3.2745987547
 20
2.56951388
 10
3.2886833363
 20
2.570721402
 10
3.3029734684
 20
2.570721402
 10
3.3170580501
 20
2.56951388
 10
3.3305318934
 20
2.5671335741
 10
3.3430073804
 20
2.5636489615
 10
3.3541256142
 20
2.5591602881
 10
3.3635667433
 20
2.5537966849
 10
3.3710591636
 20
2.547712453
 10
3.376387332
 20
2.5410826245
 10
3.3793979666
 20
2.5340979278
 10
3.380004457
 20
2.5269592996
 10
3.3781893556
 20
2.5198721055
 10
3.3740048795
 20
2.513040231
 10
3.3675714085
 20
2.5066602167
 10
3.3590740218
 20
2.5009156041
 10
3.3487571738
 20
2.4959716552
 10
3.3369176614
 20
2.4919705983
 10
3.3238960859
 20
2.4890275367
 10
3.3100670542
 20
2.4872271368
 10
3.2958284024
 20
2.4866211928
  0
LWPOLYLINE
  5
9A
330
1F
100
AcDbEntity
  8
0
  6
Continuous
 62
     7
370
    25
100
AcDbPolyline
 90
       11
 70
   128
 43
0.0
 10
3.2958284024
 20
2.488772414
 10
3.3098009111
 20
2.4893670318
 10
3.3233714563
 20
2.4911337794
 10
3.3361496379
 20
2.4940218305
 10
3.347767851
 20
2.4979481013
 10
3.3578918607
 20
2.50279964
 10
3.3662304177
 20
2.5084368766
 10
3.3725436369
 20
2.5146976383
 10
3.3766498985
 20
2.5214018142
 10
3.3784310728
 20
2.5283565374
 10
3.3785055677
 20
2.5301109966
  0
LWPOLYLINE
  5
9B
330
1F
100
AcDbEntity
  8
0
  6
Continuous
 62
     7
370
    25
100
AcDbPolyline
 90
       11
 70
   128
 43
0.0
 10
3.213151237
 20
2.5301109966
 10
3.2132257319
 20
2.5283565374
 10
3.2150069062
 20
2.5214018142
 10
3.2191131678
 20
2.5146976383
 10
3.225426387
 20
2.5084368766
 10
3.2337649441
 20
2.50279964
 10
3.2438889538
 20
2.4979481013
 10
3.2555071669
 20
2.4940218305
 10
3.2682853485
 20
2.4911337794
 10
3.2818558936
 20
2.4893670318
 10
3.2958284024
 20
2.488772414
  0
LINE
  5
9C
330
1F
100
AcDbEntity
  8
0
  6
Continuous
 62
     7
370
    25
100
AcDbLine
 10
3.3717504119
 20
2.546476831
 30
0.0
 11
3.370631552
 21
2.545235831
 31
0.0
  0
LINE
  5
9D
330
1F
100
AcDbEntity
  8
0
  6
Continuous
 62
     7
370
    25
100
AcDbLine
 10
3.2210252528
 20
2.545235831
 30
0.0
 11
3.2199063929
 21
2.546476831
 31
0.0
  0
LINE
  5
9E
330
1F
100
AcDbEntity
  8
0
  6
Continuous
 62
     7
370
    25
100
AcDbLine
 10
4.2934661976
 20
1.6074873346
 30
0.0
 11
3.8729937568
 21
1.6074873346
 31
0.0
  0
LINE
  5
9F
330
1F
100
AcDbEntity
  8
0
  6
Continuous
 62
     7
370
    25
100
AcDbLine
 10
4.2997654102
 20
1.5444952086
 30
0.0
 11
3.8666945441
 21
1.5444952086
 31
0.0
  0
LWPOLYLINE
  5
A0
330
1F
100
AcDbEntity
  8
0
  6
Continuous
 62
     7
370
    25
100
AcDbPolyline
 90
       14
 70
   128
 43
0.0
 10
3.2958284024
 20
2.4981647
 10
3.3091850205
 20
2.4987657587
 10
3.3221123459
 20
2.5005496162
 10
3.3341948837
 20
2.503458938
 10
3.3450442913
 20
2.507400216
 10
3.3543118597
 20
2.5122467743
 10
3.3616997217
 20
2.5178428405
 10
3.3669704252
 20
2.5240085525
 10
3.3699545656
 20
2.5305457392
 10
3.3705562302
 20
2.5372442901
 10
3.3687560808
 20
2.5438889081
 10
3.3646119759
 20
2.5502660299
 10
3.3582571103
 20
2.5561706894
 10
3.350202838
 20
2.5612515426
  0
LWPOLYLINE
  5
A1
330
1F
100
AcDbEntity
  8
0
  6
Continuous
 62
     7
370
    25
100
AcDbPolyline
 90
       14
 70
   128
 43
0.0
 10
3.2414539668
 20
2.5612515426
 10
3.2333996944
 20
2.5561706894
 10
3.2270448288
 20
2.5502660299
 10
3.2229007239
 20
2.5438889081
 10
3.2211005746
 20
2.5372442901
 10
3.2217022391
 20
2.5305457392
 10
3.2246863795
 20
2.5240085525
 10
3.2299570831
 20
2.5178428405
 10
3.237344945
 20
2.5122467743
 10
3.2466125134
 20
2.507400216
 10
3.257461921
 20
2.503458938
 10
3.2695444588
 20
2.5005496162
 10
3.2824717843
 20
2.4987657587
 10
3.2958284024
 20
2.4981647
  0
LWPOLYLINE
  5
A2
330
1F
100
AcDbEntity
  8
0
  6
Continuous
 62
     7
370
    25
100
AcDbPolyline
 90
       33
 70
   128
 43
0.0
 10
3.2958284024
 20
2.5040702118
 10
3.3081175565
 20
2.5046753998
 10
3.3199344454
 20
2.5064677068
 10
3.3308249525
 20
2.5093782555
 10
3.3403705618
 20
2.513295195
 10
3.3482044409
 20
2.5180679997
 10
3.3540255383
 20
2.5235132533
 10
3.3576101523
 20
2.5294216977
 10
3.3588205284
 20
2.5355662748
 10
3.3576101523
 20
2.5417108518
 10
3.3540255383
 20
2.5476192963
 10
3.3482044409
 20
2.5530645498
 10
3.3403705618
 20
2.5578373545
 10
3.3308249525
 20
2.561754294
 10
3.3199344454
 20
2.5646648427
 10
3.3081175565
 20
2.5664571497
 10
3.2958284024
 20
2.5670623378
 10
3.2835392482
 20
2.5664571497
 10
3.2717223594
 20
2.5646648427
 10
3.2608318523
 20
2.561754294
 10
3.2512862429
 20
2.5578373545
 10
3.2434523638
 20
2.5530645498
 10
3.2376312665
 20
2.5476192963
 10
3.2340466524
 20
2.5417108518
 10
3.2328362764
 20
2.5355662748
 10
3.2340466524
 20
2.5294216977
 10
3.2376312665
 20
2.5235132533
 10
3.2434523638
 20
2.5180679997
 10
3.2512862429
 20
2.513295195
 10
3.2608318523
 20
2.5093782555
 10
3.2717223594
 20
2.5064677068
 10
3.2835392482
 20
2.5046753998
 10
3.2958284024
 20
2.5040702118
  0
LWPOLYLINE
  5
A3
330
1F
100
AcDbEntity
  8
0
  6
Continuous
 62
     7
370
    25
100
AcDbPolyline
 90
        9
 70
   128
 43
0.0
 10
3.2958284024
 20
2.5074797606
 10
3.3081175565
 20
2.5080849486
 10
3.3199344454
 20
2.5098772556
 10
3.3308249525
 20
2.5127878043
 10
3.3403705618
 20
2.5167047439
 10
3.3482044409
 20
2.5214775485
 10
3.3540255383
 20
2.5269228021
 10
3.3576101523
 20
2.5328312465
 10
3.358728187
 20
2.5372710492
  0
LWPOLYLINE
  5
A4
330
1F
100
AcDbEntity
  8
0
  6
Continuous
 62
     7
370
    25
100
AcDbPolyline
 90
        9
 70
   128
 43
0.0
 10
3.2329286177
 20
2.5372710492
 10
3.2340466524
 20
2.5328312465
 10
3.2376312665
 20
2.5269228021
 10
3.2434523638
 20
2.5214775485
 10
3.2512862429
 20
2.5167047439
 10
3.2608318523
 20
2.5127878043
 10
3.2717223594
 20
2.5098772556
 10
3.2835392482
 20
2.5080849486
 10
3.2958284024
 20
2.5074797606
  0
LINE
  5
A5
330
1F
100
AcDbEntity
  8
0
  6
Continuous
 62
     7
370
    25
100
AcDbLine
 10
3.2958284024
 20
1.5444952086
 30
0.0
 11
3.5123638354
 21
1.5444952086
 31
0.0
  0
LINE
  5
A6
330
1F
100
AcDbEntity
  8
0
  6
Continuous
 62
     7
370
    25
100
AcDbLine
 10
3.0792929693
 20
1.5444952086
 30
0.0
 11
3.2958284024
 21
1.5444952086
 31
0.0
  0
LINE
  5
A7
330
1F
100
AcDbEntity
  8
0
  6
Continuous
 62
     7
370
    25
100
AcDbLine
 10
3.2958284024
 20
1.6074873346
 30
0.0
 11
3.5060646228
 21
1.6074873346
 31
0.0
  0
LINE
  5
A8
330
1F
100
AcDbEntity
  8
0
  6
Continuous
 62
     7
370
    25
100
AcDbLine
 10
3.0855921819
 20
1.6074873346
 30
0.0
 11
3.2958284024
 21
1.6074873346
 31
0.0
  0
SPLINE
  5
A9
330
1F
100
AcDbEntity
  8
0
  6
Continuous
 62
     7
370
    25
100
AcDbSpline
210
0.0
220
0.0
230
1.0
 70
     8
 71
     3
 72
    18
 73
    14
 74
     0
 42
0.000000001
 43
0.00000001
 40
0.0
 40
0.0
 40
0.0
 40
0.0
 40
0.2500000000000041
 40
0.2500000000000041
 40
0.5000000000000082
 40
0.5000000000000082
 40
0.6250000000000061
 40
0.6250000000000061
 40
0.7500000000000041
 40
0.7500000000000041
 40
0.875000000000002
 40
0.875000000000002
 40
1.0
 40
1.0
 40
1.0
 40
1.0
 10
2.384896983574578
 20
1.975991271582657
 30
0.0
 10
2.384896983574578
 20
1.974359231558967
 30
0.0
 10
2.384834733838344
 20
1.972736048238509
 30
0.0
 10
2.384610683829768
 20
1.96974165438508
 30
0.0
 10
2.384446603643378
 20
1.968342010386089
 30
0.0
 10
2.384165315235838
 20
1.966586995056826
 30
0.0
 10
2.384063951977632
 20
1.966047546137611
 30
0.0
 10
2.383859696761411
 20
1.965114766977665
 30
0.0
 10
2.383756478588726
 20
1.964717382846612
 30
0.0
 10
2.383551528981764
 20
1.964064680375344
 30
0.0
 10
2.38345008374434
 20
1.963812306044624
 30
0.0
 10
2.383260920097549
 20
1.963478654160955
 30
0.0
 10
2.383171915446304
 20
1.963392846385806
 30
0.0
 10
2.383089243906335
 20
1.963392846385806
 30
0.0
  0
LINE
  5
AA
330
1F
100
AcDbEntity
  8
0
  6
Continuous
 62
     7
370
    25
100
AcDbLine
 10
2.3848969836
 20
1.9759912716
 30
0.0
 11
2.3848969836
 21
2.0815030826
 31
0.0
  0
LINE
  5
AB
330
1F
100
AcDbEntity
  8
0
  6
Continuous
 62
     7
370
    25
100
AcDbLine
 10
2.5084268276
 20
1.6153613503
 30
0.0
 11
2.3824425756
 21
1.6153613503
 31
0.0
  0
LINE
  5
AC
330
1F
100
AcDbEntity
  8
0
  6
Continuous
 62
     7
370
    25
100
AcDbLine
 10
2.6344110795
 20
1.6153613503
 30
0.0
 11
2.5084268276
 21
1.6153613503
 31
0.0
  0
LINE
  5
AD
330
1F
100
AcDbEntity
  8
0
  6
Continuous
 62
     7
370
    25
100
AcDbLine
 10
2.6281118669
 20
2.0878022952
 30
0.0
 11
2.3910734758
 21
2.0878022952
 31
0.0
  0
ARC
  5
AE
330
1F
100
AcDbEntity
  8
0
  6
Continuous
 62
     7
370
    25
100
AcDbCircle
 10
2.3911354456
 20
2.0815638451
 30
0.0
 40
0.006238757885945
100
AcDbArc
 50
90.5691301618
 51
180.5580420917
  0
SPLINE
  5
AF
330
1F
100
AcDbEntity
  8
0
  6
Continuous
 62
     7
370
    25
100
AcDbSpline
210
0.0
220
0.0
230
1.0
 70
     8
 71
     3
 72
    12
 73
     8
 74
     0
 42
0.000000001
 43
0.00000001
 40
0.0
 40
0.0
 40
0.0
 40
0.0
 40
0.2500000000000029
 40
0.2500000000000029
 40
0.5000000000000059
 40
0.5000000000000059
 40
1.0
 40
1.0
 40
1.0
 40
1.0
 10
2.376822364723466
 20
1.969692058984231
 30
0.0
 10
2.376991656175334
 20
1.969692058984231
 30
0.0
 10
2.377188877019311
 20
1.969855077120935
 30
0.0
 10
2.377607992301502
 20
1.970476456811825
 30
0.0
 10
2.377826888985825
 20
1.970933392647302
 30
0.0
 10
2.378420828276465
 20
1.972651053320239
 30
0.0
 10
2.378720491375121
 20
1.974291184132941
 30
0.0
 10
2.378720491375121
 20
1.975991271582657
 30
0.0
  0
LINE
  5
B0
330
1F
100
AcDbEntity
  8
0
  6
Continuous
 62
     7
370
    25
100
AcDbLine
 10
2.3848969836
 20
1.9759912716
 30
0.0
 11
2.3787204914
 21
1.9759912716
 31
0.0
  0
ARC
  5
B1
330
1F
100
AcDbEntity
  8
0
  6
Continuous
 62
     7
370
    25
100
AcDbCircle
 10
2.3768061563
 20
1.9634089716
 30
0.0
 40
0.0062831082882351
100
AcDbArc
 50
359.8529536942
 51
89.8521950199
  0
LINE
  5
B2
330
1F
100
AcDbEntity
  8
0
  6
Continuous
 62
     7
370
    25
100
AcDbLine
 10
2.3787204914
 20
2.0815030826
 30
0.0
 11
2.3848969836
 21
2.0815030826
 31
0.0
  0
LINE
  5
B3
330
1F
100
AcDbEntity
  8
0
  6
Continuous
 62
     7
370
    25
100
AcDbLine
 10
2.3787204914
 20
2.0815030826
 30
0.0
 11
2.3787204914
 21
1.9759912716
 31
0.0
  0
LINE
  5
B4
330
1F
100
AcDbEntity
  8
0
  6
Continuous
 62
     7
370
    25
100
AcDbLine
 10
2.3787204914
 20
2.0815030826
 30
0.0
 11
2.3787204914
 21
2.0878022952
 31
0.0
  0
LINE
  5
B5
330
1F
100
AcDbEntity
  8
0
  6
Continuous
 62
     7
370
    25
100
AcDbLine
 10
2.3910734758
 20
2.0878022952
 30
0.0
 11
2.3787204914
 21
2.0878022952
 31
0.0
  0
SPLINE
  5
B6
330
1F
100
AcDbEntity
  8
0
  6
Continuous
 62
     7
370
    25
100
AcDbSpline
210
0.0
220
0.0
230
1.0
 70
     8
 71
     3
 72
    22
 73
    18
 74
     0
 42
0.000000001
 43
0.00000001
 40
0.0
 40
0.0
 40
0.0
 40
0.0
 40
0.2499999999999898
 40
0.2499999999999898
 40
0.3749999999999848
 40
0.3749999999999848
 40
0.4999999999999797
 40
0.4999999999999797
 40
0.5624999999999822
 40
0.5624999999999822
 40
0.6249999999999848
 40
0.6249999999999848
 40
0.7499999999999898
 40
0.7499999999999898
 40
0.8749999999999949
 40
0.8749999999999949
 40
1.0
 40
1.0
 40
1.0
 40
1.0
 10
2.004489819689693
 20
1.975991271582657
 30
0.0
 10
1.999715771474171
 20
1.975991271582657
 30
0.0
 10
1.994939914593887
 20
1.975961659810537
 30
0.0
 10
1.987827931187188
 20
1.976765352037712
 30
0.0
 10
1.985439683189847
 20
1.977181302093354
 30
0.0
 10
1.980903677998365
 20
1.978671367266427
 30
0.0
 10
1.978706411621167
 20
1.97979750035319
 30
0.0
 10
1.976156210032733
 20
1.982318288511333
 30
0.0
 10
1.975423677509354
 20
1.983302391145062
 30
0.0
 10
1.974241454642319
 20
1.985380839890944
 30
0.0
 10
1.973769984273528
 20
1.986496921417193
 30
0.0
 10
1.972626769928563
 20
1.989921997104739
 30
0.0
 10
1.972207526872151
 20
1.99230421475845
 30
0.0
 10
1.971661051966894
 20
1.997076683246222
 30
0.0
 10
1.971541011837083
 20
1.999470315526256
 30
0.0
 10
1.971418306483017
 20
2.004263248225806
 30
0.0
 10
1.971418953547921
 20
2.006662708598737
 30
0.0
 10
1.971418953547921
 20
2.009062137724324
 30
0.0
  0
LINE
  5
B7
330
1F
100
AcDbEntity
  8
0
  6
Continuous
 62
     7
370
    25
100
AcDbLine
 10
2.0044898197
 20
1.969692059
 30
0.0
 11
2.0044898197
 21
1.9759912716
 31
0.0
  0
SPLINE
  5
B8
330
1F
100
AcDbEntity
  8
0
  6
Continuous
 62
     7
370
    25
100
AcDbSpline
210
0.0
220
0.0
230
1.0
 70
     8
 71
     3
 72
    26
 73
    22
 74
     0
 42
0.000000001
 43
0.00000001
 40
0.0
 40
0.0
 40
0.0
 40
0.0
 40
0.1249999999999988
 40
0.1249999999999988
 40
0.2499999999999977
 40
0.2499999999999977
 40
0.3749999999999965
 40
0.3749999999999965
 40
0.4374999999999942
 40
0.4374999999999942
 40
0.4999999999999918
 40
0.4999999999999918
 40
0.5624999999999895
 40
0.5624999999999895
 40
0.6249999999999871
 40
0.6249999999999871
 40
0.7499999999999913
 40
0.7499999999999913
 40
0.8749999999999956
 40
0.8749999999999956
 40
1.0
 40
1.0
 40
1.0
 40
1.0
 10
1.965119740949496
 20
2.009062137724324
 30
0.0
 10
1.965119740949495
 20
2.006249342009378
 30
0.0
 10
1.965119585280599
 20
2.003436538509885
 30
0.0
 10
1.965309149362198
 20
1.997820426626442
 30
0.0
 10
1.96549424748042
 20
1.995016887128151
 30
0.0
 10
1.966312776020525
 20
1.989432227921546
 30
0.0
 10
1.966942137716601
 20
1.986671052522442
 30
0.0
 10
1.968527451323201
 20
1.982742159324561
 30
0.0
 10
1.969156441414933
 20
1.981489686990042
 30
0.0
 10
1.970665638552588
 20
1.979127546149783
 30
0.0
 10
1.97156072631688
 20
1.978007200476657
 30
0.0
 10
1.973547014012458
 20
1.976036632362298
 30
0.0
 10
1.974641201524614
 20
1.975174519258652
 30
0.0
 10
1.977014597865181
 20
1.973675831704268
 30
0.0
 10
1.978292630196024
 20
1.973043453693817
 30
0.0
 10
1.982194505496295
 20
1.971490283742241
 30
0.0
 10
1.984962556750187
 20
1.97086543609156
 30
0.0
 10
1.99051189626723
 20
1.970061454543705
 30
0.0
 10
1.993300548900151
 20
1.969878825969072
 30
0.0
 10
1.998889224321208
 20
1.9696919428925
 30
0.0
 10
2.001689525705487
 20
1.969692058984231
 30
0.0
 10
2.004489819689693
 20
1.969692058984231
 30
0.0
  0
LINE
  5
B9
330
1F
100
AcDbEntity
  8
0
  6
Continuous
 62
     7
370
    25
100
AcDbLine
 10
1.9651197409
 20
2.0090621377
 30
0.0
 11
1.9714189535
 21
2.0090621377
 31
0.0
  0
LINE
  5
BA
330
1F
100
AcDbEntity
  8
0
  6
Continuous
 62
     7
370
    25
100
AcDbLine
 10
1.9714189535
 20
2.0090621377
 30
0.0
 11
1.9714189535
 21
2.0484322165
 31
0.0
  0
SPLINE
  5
BB
330
1F
100
AcDbEntity
  8
0
  6
Continuous
 62
     7
370
    25
100
AcDbSpline
210
0.0
220
0.0
230
1.0
 70
     8
 71
     3
 72
    22
 73
    18
 74
     0
 42
0.000000001
 43
0.00000001
 40
0.0
 40
0.0
 40
0.0
 40
0.0
 40
0.250000000000005
 40
0.250000000000005
 40
0.3750000000000068
 40
0.3750000000000068
 40
0.5000000000000087
 40
0.5000000000000087
 40
0.5625000000000075
 40
0.5625000000000075
 40
0.6250000000000064
 40
0.6250000000000064
 40
0.7500000000000043
 40
0.7500000000000043
 40
0.8750000000000021
 40
0.8750000000000021
 40
1.0
 40
1.0
 40
1.0
 40
1.0
 10
1.971418953547921
 20
2.048432216464612
 30
0.0
 10
1.971418953547921
 20
2.053206264680134
 30
0.0
 10
1.971389341775802
 20
2.057982121560419
 30
0.0
 10
1.972193034002987
 20
2.065094104967118
 30
0.0
 10
1.972608984058633
 20
2.067482352964458
 30
0.0
 10
1.974099049231726
 20
2.072018358155933
 30
0.0
 10
1.975225182318506
 20
2.074215624533121
 30
0.0
 10
1.977745970476674
 20
2.076765826121533
 30
0.0
 10
1.97873007311041
 20
2.077498358644903
 30
0.0
 10
1.980808521856302
 20
2.078680581511922
 30
0.0
 10
1.981924603382554
 20
2.079152051880706
 30
0.0
 10
1.985349679070106
 20
2.080295266225654
 30
0.0
 10
1.987731896723817
 20
2.08071450928206
 30
0.0
 10
1.99250436521159
 20
2.081260984187309
 30
0.0
 10
1.994897997491624
 20
2.081381024317119
 30
0.0
 10
1.999690930191175
 20
2.081503729671183
 30
0.0
 10
2.002090390564106
 20
2.081503082606279
 30
0.0
 10
2.004489819689694
 20
2.081503082606279
 30
0.0
  0
LINE
  5
BC
330
1F
100
AcDbEntity
  8
0
  6
Continuous
 62
     7
370
    25
100
AcDbLine
 10
2.0044898197
 20
2.0815030826
 30
0.0
 11
2.3787204914
 21
2.0815030826
 31
0.0
  0
LINE
  5
BD
330
1F
100
AcDbEntity
  8
0
  6
Continuous
 62
     7
370
    25
100
AcDbLine
 10
2.3787204914
 20
1.9759912716
 30
0.0
 11
2.0044898197
 21
1.9759912716
 31
0.0
  0
LINE
  5
BE
330
1F
100
AcDbEntity
  8
0
  6
Continuous
 62
     7
370
    25
100
AcDbLine
 10
1.9651197409
 20
2.0484322165
 30
0.0
 11
1.9714189535
 21
2.0484322165
 31
0.0
  0
SPLINE
  5
BF
330
1F
100
AcDbEntity
  8
0
  6
Continuous
 62
     7
370
    25
100
AcDbSpline
210
0.0
220
0.0
230
1.0
 70
     8
 71
     3
 72
    26
 73
    22
 74
     0
 42
0.000000001
 43
0.00000001
 40
0.0
 40
0.0
 40
0.0
 40
0.0
 40
0.1250000000000028
 40
0.1250000000000028
 40
0.2500000000000057
 40
0.2500000000000057
 40
0.3750000000000085
 40
0.3750000000000085
 40
0.437500000000009
 40
0.437500000000009
 40
0.5000000000000095
 40
0.5000000000000095
 40
0.5625000000000101
 40
0.5625000000000101
 40
0.6250000000000105
 40
0.6250000000000105
 40
0.7500000000000071
 40
0.7500000000000071
 40
0.8750000000000036
 40
0.8750000000000036
 40
1.0
 40
1.0
 40
1.0
 40
1.0
 10
2.004489819689694
 20
2.087802295204704
 30
0.0
 10
2.001677023974748
 20
2.087802295204704
 30
0.0
 10
1.998864220475254
 20
2.087802450873601
 30
0.0
 10
1.993248108591811
 20
2.087612886792004
 30
0.0
 10
1.990444569093519
 20
2.087427788673785
 30
0.0
 10
1.984859909886912
 20
2.08660926013369
 30
0.0
 10
1.982098734487806
 20
2.085979898437621
 30
0.0
 10
1.978169841289918
 20
2.084394584831039
 30
0.0
 10
1.976917368955395
 20
2.083765594739313
 30
0.0
 10
1.974555228115127
 20
2.082256397601671
 30
0.0
 10
1.973434882441996
 20
2.081361309837387
 30
0.0
 10
1.971464314327625
 20
2.079375022141822
 30
0.0
 10
1.970602201223972
 20
2.07828083462967
 30
0.0
 10
1.969103513669575
 20
2.075907438289114
 30
0.0
 10
1.968471135659118
 20
2.074629405958273
 30
0.0
 10
1.966917965707525
 20
2.070727530658008
 30
0.0
 10
1.966293118056837
 20
2.067959479404117
 30
0.0
 10
1.965489136508973
 20
2.062410139887075
 30
0.0
 10
1.965306507934339
 20
2.059621487254154
 30
0.0
 10
1.965119624857765
 20
2.054032811833097
 30
0.0
 10
1.965119740949496
 20
2.051232510448818
 30
0.0
 10
1.965119740949496
 20
2.048432216464612
 30
0.0
  0
LINE
  5
C0
330
1F
100
AcDbEntity
  8
0
  6
Continuous
 62
     7
370
    25
100
AcDbLine
 10
2.0044898197
 20
2.0878022952
 30
0.0
 11
2.0044898197
 21
2.0815030826
 31
0.0
  0
LINE
  5
C1
330
1F
100
AcDbEntity
  8
0
  6
Continuous
 62
     7
370
    25
100
AcDbLine
 10
1.9651197409
 20
2.0484322165
 30
0.0
 11
1.9651197409
 21
2.0090621377
 31
0.0
  0
LINE
  5
C2
330
1F
100
AcDbEntity
  8
0
  6
Continuous
 62
     7
370
    25
100
AcDbLine
 10
2.3787204914
 20
2.0878022952
 30
0.0
 11
2.0044898197
 21
2.0878022952
 31
0.0
  0
LINE
  5
C3
330
1F
100
AcDbEntity
  8
0
  6
Continuous
 62
     7
370
    25
100
AcDbLine
 10
2.0044898197
 20
1.969692059
 30
0.0
 11
2.3768223647
 21
1.969692059
 31
0.0
  0
SPLINE
  5
C4
330
1F
100
AcDbEntity
  8
0
  6
Continuous
 62
     7
370
    25
100
AcDbSpline
210
0.0
220
0.0
230
1.0
 70
     8
 71
     3
 72
    18
 73
    14
 74
     0
 42
0.000000001
 43
0.00000001
 40
0.0
 40
0.0
 40
0.0
 40
0.0
 40
0.2500000000000041
 40
0.2500000000000041
 40
0.5000000000000082
 40
0.5000000000000082
 40
0.6250000000000061
 40
0.6250000000000061
 40
0.7500000000000041
 40
0.7500000000000041
 40
0.875000000000002
 40
0.875000000000002
 40
1.0
 40
1.0
 40
1.0
 40
1.0
 10
4.206759821159141
 20
1.975991271582657
 30
0.0
 10
4.206759821159141
 20
1.974359231558967
 30
0.0
 10
4.206822070895375
 20
1.972736048238509
 30
0.0
 10
4.20704612090395
 20
1.96974165438508
 30
0.0
 10
4.20721020109034
 20
1.968342010386089
 30
0.0
 10
4.20749148949788
 20
1.966586995056826
 30
0.0
 10
4.207592852756086
 20
1.966047546137611
 30
0.0
 10
4.207797107972308
 20
1.965114766977665
 30
0.0
 10
4.207900326144993
 20
1.964717382846612
 30
0.0
 10
4.208105275751954
 20
1.964064680375344
 30
0.0
 10
4.208206720989378
 20
1.963812306044624
 30
0.0
 10
4.208395884636169
 20
1.963478654160955
 30
0.0
 10
4.208484889287414
 20
1.963392846385806
 30
0.0
 10
4.208567560827384
 20
1.963392846385806
 30
0.0
  0
LINE
  5
C5
330
1F
100
AcDbEntity
  8
0
  6
Continuous
 62
     7
370
    25
100
AcDbLine
 10
4.2067598212
 20
1.9759912716
 30
0.0
 11
4.2067598212
 21
2.0815030826
 31
0.0
  0
LINE
  5
C6
330
1F
100
AcDbEntity
  8
0
  6
Continuous
 62
     7
370
    25
100
AcDbLine
 10
4.0832299772
 20
1.6153613503
 30
0.0
 11
4.2092142291
 21
1.6153613503
 31
0.0
  0
LINE
  5
C7
330
1F
100
AcDbEntity
  8
0
  6
Continuous
 62
     7
370
    25
100
AcDbLine
 10
3.9572457252
 20
1.6153613503
 30
0.0
 11
4.0832299772
 21
1.6153613503
 31
0.0
  0
LINE
  5
C8
330
1F
100
AcDbEntity
  8
0
  6
Continuous
 62
     7
370
    25
100
AcDbLine
 10
3.9635449378
 20
2.0878022952
 30
0.0
 11
4.200583329
 21
2.0878022952
 31
0.0
  0
ARC
  5
C9
330
1F
100
AcDbEntity
  8
0
  6
Continuous
 62
     7
370
    25
100
AcDbCircle
 10
4.2005213592
 20
2.0815638451
 30
0.0
 40
0.0062387578859464
100
AcDbArc
 50
359.4419579083
 51
89.4308698382
  0
LINE
  5
CA
330
1F
100
AcDbEntity
  8
0
  6
Continuous
 62
     7
370
    25
100
AcDbLine
 10
4.2067598212
 20
1.9759912716
 30
0.0
 11
4.2129363134
 21
1.9759912716
 31
0.0
  0
SPLINE
  5
CB
330
1F
100
AcDbEntity
  8
0
  6
Continuous
 62
     7
370
    25
100
AcDbSpline
210
0.0
220
0.0
230
1.0
 70
     8
 71
     3
 72
    12
 73
     8
 74
     0
 42
0.000000001
 43
0.00000001
 40
0.0
 40
0.0
 40
0.0
 40
0.0
 40
0.2500000000000029
 40
0.2500000000000029
 40
0.5000000000000059
 40
0.5000000000000059
 40
1.0
 40
1.0
 40
1.0
 40
1.0
 10
4.214834440010253
 20
1.969692058984231
 30
0.0
 10
4.214665148558384
 20
1.969692058984231
 30
0.0
 10
4.214467927714407
 20
1.969855077120935
 30
0.0
 10
4.214048812432217
 20
1.970476456811825
 30
0.0
 10
4.213829915747894
 20
1.970933392647302
 30
0.0
 10
4.213235976457253
 20
1.972651053320239
 30
0.0
 10
4.212936313358597
 20
1.974291184132941
 30
0.0
 10
4.212936313358597
 20
1.975991271582657
 30
0.0
  0
ARC
  5
CC
330
1F
100
AcDbEntity
  8
0
  6
Continuous
 62
     7
370
    25
100
AcDbCircle
 10
4.2148506484
 20
1.9634089716
 30
0.0
 40
0.0062831082882342
100
AcDbArc
 50
90.1478049801
 51
180.1470463058
  0
LINE
  5
CD
330
1F
100
AcDbEntity
  8
0
  6
Continuous
 62
     7
370
    25
100
AcDbLine
 10
4.2129363134
 20
2.0815030826
 30
0.0
 11
4.2067598212
 21
2.0815030826
 31
0.0
  0
LINE
  5
CE
330
1F
100
AcDbEntity
  8
0
  6
Continuous
 62
     7
370
    25
100
AcDbLine
 10
4.2129363134
 20
2.0815030826
 30
0.0
 11
4.2129363134
 21
2.0878022952
 31
0.0
  0
LINE
  5
CF
330
1F
100
AcDbEntity
  8
0
  6
Continuous
 62
     7
370
    25
100
AcDbLine
 10
4.200583329
 20
2.0878022952
 30
0.0
 11
4.2129363134
 21
2.0878022952
 31
0.0
  0
LINE
  5
D0
330
1F
100
AcDbEntity
  8
0
  6
Continuous
 62
     7
370
    25
100
AcDbLine
 10
4.2129363134
 20
2.0815030826
 30
0.0
 11
4.2129363134
 21
1.9759912716
 31
0.0
  0
LINE
  5
D1
330
1F
100
AcDbEntity
  8
0
  6
Continuous
 62
     7
370
    25
100
AcDbLine
 10
4.587166985
 20
2.0815030826
 30
0.0
 11
4.2129363134
 21
2.0815030826
 31
0.0
  0
SPLINE
  5
D2
330
1F
100
AcDbEntity
  8
0
  6
Continuous
 62
     7
370
    25
100
AcDbSpline
210
0.0
220
0.0
230
1.0
 70
     8
 71
     3
 72
    22
 73
    18
 74
     0
 42
0.000000001
 43
0.00000001
 40
0.0
 40
0.0
 40
0.0
 40
0.0
 40
0.250000000000005
 40
0.250000000000005
 40
0.3750000000000068
 40
0.3750000000000068
 40
0.5000000000000087
 40
0.5000000000000087
 40
0.5625000000000075
 40
0.5625000000000075
 40
0.6250000000000064
 40
0.6250000000000064
 40
0.7500000000000043
 40
0.7500000000000043
 40
0.8750000000000021
 40
0.8750000000000021
 40
1.0
 40
1.0
 40
1.0
 40
1.0
 10
4.620237851185797
 20
2.048432216464612
 30
0.0
 10
4.620237851185797
 20
2.053206264680134
 30
0.0
 10
4.620267462957917
 20
2.057982121560419
 30
0.0
 10
4.619463770730731
 20
2.065094104967118
 30
0.0
 10
4.619047820675085
 20
2.067482352964458
 30
0.0
 10
4.617557755501992
 20
2.072018358155933
 30
0.0
 10
4.616431622415212
 20
2.074215624533121
 30
0.0
 10
4.613910834257045
 20
2.076765826121533
 30
0.0
 10
4.612926731623308
 20
2.077498358644903
 30
0.0
 10
4.610848282877416
 20
2.078680581511922
 30
0.0
 10
4.609732201351164
 20
2.079152051880706
 30
0.0
 10
4.606307125663613
 20
2.080295266225654
 30
0.0
 10
4.603924908009902
 20
2.08071450928206
 30
0.0
 10
4.599152439522128
 20
2.081260984187309
 30
0.0
 10
4.596758807242094
 20
2.081381024317119
 30
0.0
 10
4.591965874542543
 20
2.081503729671183
 30
0.0
 10
4.589566414169612
 20
2.081503082606279
 30
0.0
 10
4.587166985044025
 20
2.081503082606279
 30
0.0
  0
LINE
  5
D3
330
1F
100
AcDbEntity
  8
0
  6
Continuous
 62
     7
370
    25
100
AcDbLine
 10
4.6202378512
 20
2.0090621377
 30
0.0
 11
4.6202378512
 21
2.0484322165
 31
0.0
  0
SPLINE
  5
D4
330
1F
100
AcDbEntity
  8
0
  6
Continuous
 62
     7
370
    25
100
AcDbSpline
210
0.0
220
0.0
230
1.0
 70
     8
 71
     3
 72
    22
 73
    18
 74
     0
 42
0.000000001
 43
0.00000001
 40
0.0
 40
0.0
 40
0.0
 40
0.0
 40
0.2499999999999898
 40
0.2499999999999898
 40
0.3749999999999848
 40
0.3749999999999848
 40
0.4999999999999797
 40
0.4999999999999797
 40
0.5624999999999822
 40
0.5624999999999822
 40
0.6249999999999848
 40
0.6249999999999848
 40
0.7499999999999898
 40
0.7499999999999898
 40
0.8749999999999949
 40
0.8749999999999949
 40
1.0
 40
1.0
 40
1.0
 40
1.0
 10
4.587166985044025
 20
1.975991271582657
 30
0.0
 10
4.591941033259547
 20
1.975991271582657
 30
0.0
 10
4.596716890139832
 20
1.975961659810537
 30
0.0
 10
4.60382887354653
 20
1.976765352037712
 30
0.0
 10
4.606217121543872
 20
1.977181302093354
 30
0.0
 10
4.610753126735354
 20
1.978671367266427
 30
0.0
 10
4.612950393112552
 20
1.97979750035319
 30
0.0
 10
4.615500594700986
 20
1.982318288511333
 30
0.0
 10
4.616233127224365
 20
1.983302391145062
 30
0.0
 10
4.6174153500914
 20
1.985380839890944
 30
0.0
 10
4.61788682046019
 20
1.986496921417193
 30
0.0
 10
4.619030034805155
 20
1.989921997104739
 30
0.0
 10
4.619449277861567
 20
1.99230421475845
 30
0.0
 10
4.619995752766824
 20
1.997076683246222
 30
0.0
 10
4.620115792896636
 20
1.999470315526256
 30
0.0
 10
4.620238498250702
 20
2.004263248225806
 30
0.0
 10
4.620237851185797
 20
2.006662708598737
 30
0.0
 10
4.620237851185797
 20
2.009062137724324
 30
0.0
  0
LINE
  5
D5
330
1F
100
AcDbEntity
  8
0
  6
Continuous
 62
     7
370
    25
100
AcDbLine
 10
4.2129363134
 20
1.9759912716
 30
0.0
 11
4.587166985
 21
1.9759912716
 31
0.0
  0
SPLINE
  5
D6
330
1F
100
AcDbEntity
  8
0
  6
Continuous
 62
     7
370
    25
100
AcDbSpline
210
0.0
220
0.0
230
1.0
 70
     8
 71
     3
 72
    26
 73
    22
 74
     0
 42
0.000000001
 43
0.00000001
 40
0.0
 40
0.0
 40
0.0
 40
0.0
 40
0.1249999999999988
 40
0.1249999999999988
 40
0.2499999999999977
 40
0.2499999999999977
 40
0.3749999999999965
 40
0.3749999999999965
 40
0.4374999999999942
 40
0.4374999999999942
 40
0.4999999999999918
 40
0.4999999999999918
 40
0.5624999999999895
 40
0.5624999999999895
 40
0.6249999999999871
 40
0.6249999999999871
 40
0.7499999999999913
 40
0.7499999999999913
 40
0.8749999999999956
 40
0.8749999999999956
 40
1.0
 40
1.0
 40
1.0
 40
1.0
 10
4.626537063784222
 20
2.009062137724324
 30
0.0
 10
4.626537063784223
 20
2.006249342009378
 30
0.0
 10
4.62653721945312
 20
2.003436538509885
 30
0.0
 10
4.62634765537152
 20
1.997820426626442
 30
0.0
 10
4.626162557253299
 20
1.995016887128151
 30
0.0
 10
4.625344028713194
 20
1.989432227921546
 30
0.0
 10
4.624714667017117
 20
1.986671052522442
 30
0.0
 10
4.623129353410517
 20
1.982742159324561
 30
0.0
 10
4.622500363318784
 20
1.981489686990042
 30
0.0
 10
4.620991166181129
 20
1.979127546149783
 30
0.0
 10
4.620096078416839
 20
1.978007200476657
 30
0.0
 10
4.61810979072126
 20
1.976036632362298
 30
0.0
 10
4.617015603209103
 20
1.975174519258652
 30
0.0
 10
4.614642206868536
 20
1.973675831704268
 30
0.0
 10
4.613364174537693
 20
1.973043453693817
 30
0.0
 10
4.609462299237424
 20
1.971490283742241
 30
0.0
 10
4.606694247983532
 20
1.97086543609156
 30
0.0
 10
4.601144908466488
 20
1.970061454543705
 30
0.0
 10
4.598356255833568
 20
1.969878825969072
 30
0.0
 10
4.59276758041251
 20
1.9696919428925
 30
0.0
 10
4.589967279028231
 20
1.969692058984231
 30
0.0
 10
4.587166985044025
 20
1.969692058984231
 30
0.0
  0
LINE
  5
D7
330
1F
100
AcDbEntity
  8
0
  6
Continuous
 62
     7
370
    25
100
AcDbLine
 10
4.587166985
 20
1.969692059
 30
0.0
 11
4.587166985
 21
1.9759912716
 31
0.0
  0
LINE
  5
D8
330
1F
100
AcDbEntity
  8
0
  6
Continuous
 62
     7
370
    25
100
AcDbLine
 10
4.6265370638
 20
2.0090621377
 30
0.0
 11
4.6202378512
 21
2.0090621377
 31
0.0
  0
SPLINE
  5
D9
330
1F
100
AcDbEntity
  8
0
  6
Continuous
 62
     7
370
    25
100
AcDbSpline
210
0.0
220
0.0
230
1.0
 70
     8
 71
     3
 72
    26
 73
    22
 74
     0
 42
0.000000001
 43
0.00000001
 40
0.0
 40
0.0
 40
0.0
 40
0.0
 40
0.1250000000000028
 40
0.1250000000000028
 40
0.2500000000000057
 40
0.2500000000000057
 40
0.3750000000000085
 40
0.3750000000000085
 40
0.437500000000009
 40
0.437500000000009
 40
0.5000000000000095
 40
0.5000000000000095
 40
0.5625000000000101
 40
0.5625000000000101
 40
0.6250000000000105
 40
0.6250000000000105
 40
0.7500000000000071
 40
0.7500000000000071
 40
0.8750000000000036
 40
0.8750000000000036
 40
1.0
 40
1.0
 40
1.0
 40
1.0
 10
4.587166985044025
 20
2.087802295204704
 30
0.0
 10
4.58997978075897
 20
2.087802295204704
 30
0.0
 10
4.592792584258465
 20
2.087802450873601
 30
0.0
 10
4.598408696141908
 20
2.087612886792004
 30
0.0
 10
4.601212235640199
 20
2.087427788673785
 30
0.0
 10
4.606796894846807
 20
2.08660926013369
 30
0.0
 10
4.609558070245912
 20
2.085979898437621
 30
0.0
 10
4.6134869634438
 20
2.084394584831039
 30
0.0
 10
4.614739435778323
 20
2.083765594739313
 30
0.0
 10
4.617101576618591
 20
2.082256397601671
 30
0.0
 10
4.618221922291722
 20
2.081361309837387
 30
0.0
 10
4.620192490406093
 20
2.079375022141822
 30
0.0
 10
4.621054603509746
 20
2.07828083462967
 30
0.0
 10
4.622553291064142
 20
2.075907438289114
 30
0.0
 10
4.6231856690746
 20
2.074629405958273
 30
0.0
 10
4.624738839026193
 20
2.070727530658008
 30
0.0
 10
4.625363686676881
 20
2.067959479404117
 30
0.0
 10
4.626167668224745
 20
2.062410139887075
 30
0.0
 10
4.626350296799379
 20
2.059621487254154
 30
0.0
 10
4.626537179875953
 20
2.054032811833097
 30
0.0
 10
4.626537063784222
 20
2.051232510448818
 30
0.0
 10
4.626537063784222
 20
2.048432216464612
 30
0.0
  0
LINE
  5
DA
330
1F
100
AcDbEntity
  8
0
  6
Continuous
 62
     7
370
    25
100
AcDbLine
 10
4.6265370638
 20
2.0484322165
 30
0.0
 11
4.6202378512
 21
2.0484322165
 31
0.0
  0
LINE
  5
DB
330
1F
100
AcDbEntity
  8
0
  6
Continuous
 62
     7
370
    25
100
AcDbLine
 10
4.587166985
 20
2.0878022952
 30
0.0
 11
4.587166985
 21
2.0815030826
 31
0.0
  0
LINE
  5
DC
330
1F
100
AcDbEntity
  8
0
  6
Continuous
 62
     7
370
    25
100
AcDbLine
 10
4.6265370638
 20
2.0484322165
 30
0.0
 11
4.6265370638
 21
2.0090621377
 31
0.0
  0
LINE
  5
DD
330
1F
100
AcDbEntity
  8
0
  6
Continuous
 62
     7
370
    25
100
AcDbLine
 10
4.2129363134
 20
2.0878022952
 30
0.0
 11
4.587166985
 21
2.0878022952
 31
0.0
  0
LINE
  5
DE
330
1F
100
AcDbEntity
  8
0
  6
Continuous
 62
     7
370
    25
100
AcDbLine
 10
4.587166985
 20
1.969692059
 30
0.0
 11
4.21483444
 21
1.969692059
 31
0.0
  0
LINE
  5
DF
330
1F
100
AcDbEntity
  8
0
  6
Continuous
 62
     7
370
    25
100
AcDbLine
 10
2.5084268276
 20
1.6074873346
 30
0.0
 11
2.2981906071
 21
1.6074873346
 31
0.0
  0
LINE
  5
E0
330
1F
100
AcDbEntity
  8
0
  6
Continuous
 62
     7
370
    25
100
AcDbLine
 10
2.718663048
 20
1.6074873346
 30
0.0
 11
2.5084268276
 21
1.6074873346
 31
0.0
  0
LINE
  5
E1
330
1F
100
AcDbEntity
  8
0
  6
Continuous
 62
     7
370
    25
100
AcDbLine
 10
2.5084268276
 20
1.5444952086
 30
0.0
 11
2.2918913945
 21
1.5444952086
 31
0.0
  0
LINE
  5
E2
330
1F
100
AcDbEntity
  8
0
  6
Continuous
 62
     7
370
    25
100
AcDbLine
 10
2.7249622606
 20
1.5444952086
 30
0.0
 11
2.5084268276
 21
1.5444952086
 31
0.0
  0
LWPOLYLINE
  5
E3
330
1F
100
AcDbEntity
  8
0
  6
Continuous
 62
     7
370
    25
100
AcDbPolyline
 90
       23
 70
   128
 43
0.0
 10
3.1974068678
 20
2.5337779237
 10
3.1974032055
 20
2.5342024552
 10
3.198614983
 20
2.5419010017
 10
3.2022204775
 20
2.5494099845
 10
3.2081309098
 20
2.5565445074
 10
3.2162007454
 20
2.5631288948
 10
3.2262312782
 20
2.5690010173
 10
3.2379755232
 20
2.5740162837
 10
3.2511442981
 20
2.5780512015
 10
3.2654133439
 20
2.5810064176
 10
3.2804313094
 20
2.5828091649
 10
3.2958284024
 20
2.5834150537
 10
3.3112254954
 20
2.5828091649
 10
3.3262434609
 20
2.5810064176
 10
3.3405125067
 20
2.5780512015
 10
3.3536812815
 20
2.5740162837
 10
3.3654255265
 20
2.5690010173
 10
3.3754560593
 20
2.5631288948
 10
3.3835258949
 20
2.5565445074
 10
3.3894363272
 20
2.5494099845
 10
3.3930418217
 20
2.5419010017
 10
3.3942535992
 20
2.5342024552
 10
3.3942535992
 20
2.5342024552
  0
LWPOLYLINE
  5
E4
330
1F
100
AcDbEntity
  8
0
  6
Continuous
 62
     7
370
    25
100
AcDbPolyline
 90
       21
 70
   128
 43
0.0
 10
3.3942535992
 20
2.9719885255
 10
3.3930418217
 20
2.979687072
 10
3.3894363272
 20
2.9871960547
 10
3.3835258949
 20
2.9943305776
 10
3.3754560593
 20
3.0009149651
 10
3.3654255265
 20
3.0067870876
 10
3.3536812815
 20
3.011802354
 10
3.3405125067
 20
3.0158372718
 10
3.3262434609
 20
3.0187924879
 10
3.3112254954
 20
3.0205952352
 10
3.2958284024
 20
3.0212011239
 10
3.2804313094
 20
3.0205952352
 10
3.2654133439
 20
3.0187924879
 10
3.2511442981
 20
3.0158372718
 10
3.2379755232
 20
3.011802354
 10
3.2262312782
 20
3.0067870876
 10
3.2162007454
 20
3.0009149651
 10
3.2081309098
 20
2.9943305776
 10
3.2022204775
 20
2.9871960547
 10
3.198614983
 20
2.979687072
 10
3.1974032055
 20
2.9719885255
  0
LINE
  5
E5
330
1F
100
AcDbEntity
  8
0
  6
Continuous
 62
     7
370
    25
100
AcDbLine
 10
4.2997654102
 20
1.601188122
 30
0.0
 11
3.8666945441
 21
1.601188122
 31
0.0
  0
LINE
  5
E6
330
1F
100
AcDbEntity
  8
0
  6
Continuous
 62
     7
370
    25
100
AcDbLine
 10
3.2958284024
 20
1.601188122
 30
0.0
 11
3.0792929693
 21
1.601188122
 31
0.0
  0
LINE
  5
E7
330
1F
100
AcDbEntity
  8
0
  6
Continuous
 62
     7
370
    25
100
AcDbLine
 10
3.5123638354
 20
1.601188122
 30
0.0
 11
3.2958284024
 21
1.601188122
 31
0.0
  0
LINE
  5
E8
330
1F
100
AcDbEntity
  8
0
  6
Continuous
 62
     7
370
    25
100
AcDbLine
 10
2.3848969836
 20
2.0815030826
 30
0.0
 11
2.6344110795
 21
2.0815030826
 31
0.0
  0
LINE
  5
E9
330
1F
100
AcDbEntity
  8
0
  6
Continuous
 62
     7
370
    25
100
AcDbLine
 10
2.3824425756
 20
1.9633928464
 30
0.0
 11
2.3830892439
 21
1.9633928464
 31
0.0
  0
LINE
  5
EA
330
1F
100
AcDbEntity
  8
0
  6
Continuous
 62
     7
370
    25
100
AcDbLine
 10
4.2092142291
 20
1.9633928464
 30
0.0
 11
4.2085675608
 21
1.9633928464
 31
0.0
  0
LINE
  5
EB
330
1F
100
AcDbEntity
  8
0
  6
Continuous
 62
     7
370
    25
100
AcDbLine
 10
4.2067598212
 20
2.0815030826
 30
0.0
 11
3.9572457252
 21
2.0815030826
 31
0.0
  0
LINE
  5
EC
330
1F
100
AcDbEntity
  8
0
  6
Continuous
 62
     7
370
    25
100
AcDbLine
 10
2.5084268276
 20
1.601188122
 30
0.0
 11
2.7249622606
 21
1.601188122
 31
0.0
  0
LINE
  5
ED
330
1F
100
AcDbEntity
  8
0
  6
Continuous
 62
     7
370
    25
100
AcDbLine
 10
2.2918913945
 20
1.601188122
 30
0.0
 11
2.5084268276
 21
1.601188122
 31
0.0
  0
LINE
  5
EE
330
1F
100
AcDbEntity
  8
0
  6
Continuous
 62
     7
370
    25
100
AcDbLine
 10
3.1974032055
 20
7.1662696741
 30
0.0
 11
3.1974032055
 21
6.5166633749
 31
0.0
  0
LINE
  5
EF
330
1F
100
AcDbEntity
  8
0
  6
Continuous
 62
     7
370
    25
100
AcDbLine
 10
3.3942535992
 20
6.5166633749
 30
0.0
 11
3.3942535992
 21
7.1662696741
 31
0.0
  0
LINE
  5
F0
330
1F
100
AcDbEntity
  8
0
  6
Continuous
 62
     7
370
    25
100
AcDbLine
 10
3.3942535992
 20
6.2639074694
 30
0.0
 11
3.3942535992
 21
6.5166633749
 31
0.0
  0
LINE
  5
F1
330
1F
100
AcDbEntity
  8
0
  6
Continuous
 62
     7
370
    25
100
AcDbLine
 10
3.1974032055
 20
6.5166633749
 30
0.0
 11
3.1974032055
 21
6.2639074694
 31
0.0
  0
LINE
  5
F2
330
1F
100
AcDbEntity
  8
0
  6
Continuous
 62
     7
370
    25
100
AcDbLine
 10
3.3233874575
 20
7.2607578631
 30
0.0
 11
3.3194504496
 21
7.264694871
 31
0.0
  0
LINE
  5
F3
330
1F
100
AcDbEntity
  8
0
  6
Continuous
 62
     7
370
    25
100
AcDbLine
 10
3.2722063551
 20
7.264694871
 30
0.0
 11
3.2682693472
 21
7.2607578631
 31
0.0
  0
LINE
  5
F4
330
1F
100
AcDbEntity
  8
0
  6
Continuous
 62
     7
370
    25
100
AcDbLine
 10
3.3194504496
 20
7.264694871
 30
0.0
 11
3.3194504496
 21
7.4143011702
 31
0.0
  0
LINE
  5
F5
330
1F
100
AcDbEntity
  8
0
  6
Continuous
 62
     7
370
    25
100
AcDbLine
 10
3.2722063551
 20
7.4143011702
 30
0.0
 11
3.2722063551
 21
7.264694871
 31
0.0
  0
ARC
  5
F6
330
1F
100
AcDbEntity
  8
0
  6
Continuous
 62
     7
370
    25
100
AcDbCircle
 10
3.3115764339
 20
7.4143011702
 30
0.0
 40
0.0078740157480315
100
AcDbArc
 50
0.0
 51
90.0
  0
ARC
  5
F7
330
1F
100
AcDbEntity
  8
0
  6
Continuous
 62
     7
370
    25
100
AcDbCircle
 10
3.2800803709
 20
7.4143011702
 30
0.0
 40
0.0078740157480315
100
AcDbArc
 50
90.0
 51
180.0
  0
ARC
  5
F8
330
1F
100
AcDbEntity
  8
0
  6
Continuous
 62
     7
370
    25
100
AcDbCircle
 10
3.2958284024
 20
7.1662696741
 30
0.0
 40
0.098425196850394
100
AcDbArc
 50
0.0
 51
180.0
  0
LWPOLYLINE
  5
F9
330
1F
100
AcDbEntity
  8
0
  6
Continuous
 62
     7
370
    25
100
AcDbPolyline
 90
       21
 70
   128
 43
0.0
 10
3.1974032055
 20
6.2639074694
 10
3.198614983
 20
6.2505731957
 10
3.2022204775
 20
6.2375672561
 10
3.2081309098
 20
6.2252098999
 10
3.2162007454
 20
6.2138054064
 10
3.2262312782
 20
6.2036345919
 10
3.2379755232
 20
6.1949478956
 10
3.2511442981
 20
6.187959213
 10
3.2654133439
 20
6.1828406285
 10
3.2804313094
 20
6.1797181786
 10
3.2958284024
 20
6.1786687485
 10
3.3112254954
 20
6.1797181786
 10
3.3262434609
 20
6.1828406285
 10
3.3405125067
 20
6.187959213
 10
3.3536812815
 20
6.1949478956
 10
3.3654255265
 20
6.2036345919
 10
3.3754560593
 20
6.2138054064
 10
3.3835258949
 20
6.2252098999
 10
3.3894363272
 20
6.2375672561
 10
3.3930418217
 20
6.2505731957
 10
3.3942535992
 20
6.2639074694
  0
LINE
  5
FA
330
1F
100
AcDbEntity
  8
0
  6
Continuous
 62
     7
370
    25
100
AcDbLine
 10
3.3194504496
 20
7.264694871
 30
0.0
 11
3.2722063551
 21
7.264694871
 31
0.0
  0
LINE
  5
FB
330
1F
100
AcDbEntity
  8
0
  6
Continuous
 62
     7
370
    25
100
AcDbLine
 10
3.2800803728
 20
7.4221751859
 30
0.0
 11
3.3115764339
 21
7.4221751859
 31
0.0
  0
ARC
  5
FC
330
1F
100
AcDbEntity
  8
0
  6
Continuous
 62
     7
370
    25
100
AcDbCircle
 10
4.0832299772
 20
7.1662696741
 30
0.0
 40
0.2165354330708665
100
AcDbArc
 50
5.2159085705
 51
354.7840914295
  0
ARC
  5
FD
330
1F
100
AcDbEntity
  8
0
  6
Continuous
 62
     7
370
    25
100
AcDbCircle
 10
3.2958284024
 20
7.1662696741
 30
0.0
 40
0.2165354330708662
100
AcDbArc
 50
96.2629131261
 51
242.9643082106
  0
ARC
  5
FE
330
1F
100
AcDbEntity
  8
0
  6
Continuous
 62
     7
370
    25
100
AcDbCircle
 10
3.2958284024
 20
7.1662696741
 30
0.0
 40
0.2165354330708662
100
AcDbArc
 50
297.0356917894
 51
83.7370868739
  0
SPLINE
  5
FF
330
1F
100
AcDbEntity
  8
0
  6
Continuous
 62
     7
370
    25
100
AcDbSpline
210
0.0
220
0.0
230
1.0
 70
    24
 71
     3
 72
    30
 73
    26
 74
     0
 42
0.000000001
 43
0.00000001
 40
0.0
 40
0.0
 40
0.0
 40
0.0
 40
0.1250000000000022
 40
0.1250000000000022
 40
0.2500000000000044
 40
0.2500000000000044
 40
0.3125000000000024
 40
0.3125000000000024
 40
0.3750000000000004
 40
0.3750000000000004
 40
0.4374999999999984
 40
0.4374999999999984
 40
0.4999999999999964
 40
0.4999999999999964
 40
0.5624999999999944
 40
0.5624999999999944
 40
0.6249999999999925
 40
0.6249999999999925
 40
0.6874999999999905
 40
0.6874999999999905
 40
0.7499999999999885
 40
0.7499999999999885
 40
0.8749999999999942
 40
0.8749999999999942
 40
1.0
 40
1.0
 40
1.0
 40
1.0
 10
1.965119740949496
 20
7.179655500882986
 30
0.0
 10
1.965119740949496
 20
7.179655500882986
 30
0.0
 10
1.965119559084516
 20
7.179655500882986
 30
0.0
 10
1.965310598741762
 20
7.179655500882986
 30
0.0
 10
1.965498295561706
 20
7.179655500882986
 30
0.0
 10
1.966116163704581
 20
7.179655500882986
 30
0.0
 10
1.966378265277851
 20
7.179655500882986
 30
0.0
 10
1.967063272512319
 20
7.179655500882986
 30
0.0
 10
1.967489801110897
 20
7.179655500882986
 30
0.0
 10
1.968547290473714
 20
7.179655500882986
 30
0.0
 10
1.969178000912242
 20
7.179655500882986
 30
0.0
 10
1.970701396008595
 20
7.179655500882986
 30
0.0
 10
1.971597653141017
 20
7.179655500882986
 30
0.0
 10
1.973592352605204
 20
7.179655500882986
 30
0.0
 10
1.9747093712453
 20
7.179655500882986
 30
0.0
 10
1.977108595155175
 20
7.179655500882986
 30
0.0
 10
1.97836796062638
 20
7.179655500882986
 30
0.0
 10
1.980977220140635
 20
7.179655500882986
 30
0.0
 10
1.982336578430442
 20
7.179655500882986
 30
0.0
 10
1.985069109260909
 20
7.179655500882986
 30
0.0
 10
1.986442231882813
 20
7.179655500882986
 30
0.0
 10
1.990575467609896
 20
7.179655500882986
 30
0.0
 10
1.993349194998242
 20
7.179655500882986
 30
0.0
 10
1.998911658717263
 20
7.179655500882986
 30
0.0
 10
2.001700741904288
 20
7.179655500882986
 30
0.0
 10
2.004489819689694
 20
7.179655500882986
 30
0.0
  0
ARC
  5
100
330
1F
100
AcDbEntity
  8
0
  6
Continuous
 62
     7
370
    25
100
AcDbCircle
 10
1.9714189535
 20
7.1796555009
 30
0.0
 40
0.0062992125984254
100
AcDbArc
 50
90.0
 51
180.0
  0
SPLINE
  5
101
330
1F
100
AcDbEntity
  8
0
  6
Continuous
 62
     7
370
    25
100
AcDbSpline
210
0.0
220
0.0
230
1.0
 70
    24
 71
     3
 72
    26
 73
    22
 74
     0
 42
0.000000001
 43
0.00000001
 40
0.0
 40
0.0
 40
0.0
 40
0.0
 40
0.249999999999999
 40
0.249999999999999
 40
0.3124999999999991
 40
0.3124999999999991
 40
0.3749999999999992
 40
0.3749999999999992
 40
0.4374999999999992
 40
0.4374999999999992
 40
0.4999999999999993
 40
0.4999999999999993
 40
0.5624999999999994
 40
0.5624999999999994
 40
0.6249999999999994
 40
0.6249999999999994
 40
0.7499999999999997
 40
0.7499999999999997
 40
0.8749999999999998
 40
0.8749999999999998
 40
1.0
 40
1.0
 40
1.0
 40
1.0
 10
2.004489819689694
 20
7.185954713481411
 30
0.0
 10
1.999734951271575
 20
7.185954713481411
 30
0.0
 10
1.994977825360815
 20
7.185954713481411
 30
0.0
 10
1.98908724765039
 20
7.185954713481411
 30
0.0
 10
1.987912125110103
 20
7.185954713481411
 30
0.0
 10
1.985571121693342
 20
7.185954713481411
 30
0.0
 10
1.984396204846023
 20
7.185954713481411
 30
0.0
 10
1.982108248955811
 20
7.185954713481411
 30
0.0
 10
1.981000516970386
 20
7.185954713481411
 30
0.0
 10
1.978896558509093
 20
7.185954713481411
 30
0.0
 10
1.977902596090677
 20
7.185954713481411
 30
0.0
 10
1.97619199871968
 20
7.185954713481411
 30
0.0
 10
1.975453918730859
 20
7.185954713481411
 30
0.0
 10
1.974261304995157
 20
7.185954713481411
 30
0.0
 10
1.973791578182204
 20
7.185954713481411
 30
0.0
 10
1.972635490807151
 20
7.185954713481411
 30
0.0
 10
1.972215197315098
 20
7.185954713481411
 30
0.0
 10
1.971663000292121
 20
7.185954713481411
 30
0.0
 10
1.971542020552877
 20
7.185954713481411
 30
0.0
 10
1.971418287414289
 20
7.185954713481411
 30
0.0
 10
1.971418953547921
 20
7.185954713481411
 30
0.0
 10
1.971418953547921
 20
7.185954713481411
 30
0.0
  0
LINE
  5
102
330
1F
100
AcDbEntity
  8
0
  6
Continuous
 62
     7
370
    25
100
AcDbLine
 10
2.0044898197
 20
7.1859547135
 30
0.0
 11
2.0044898197
 21
7.1796555009
 31
0.0
  0
LINE
  5
103
330
1F
100
AcDbEntity
  8
0
  6
Continuous
 62
     7
370
    25
100
AcDbLine
 10
2.0044898197
 20
7.1796555009
 30
0.0
 11
2.0044898197
 21
7.1528838473
 31
0.0
  0
SPLINE
  5
104
330
1F
100
AcDbEntity
  8
0
  6
Continuous
 62
     7
370
    25
100
AcDbSpline
210
0.0
220
0.0
230
1.0
 70
    24
 71
     3
 72
    26
 73
    22
 74
     0
 42
0.000000001
 43
0.00000001
 40
0.0
 40
0.0
 40
0.0
 40
0.0
 40
0.1250000000000028
 40
0.1250000000000028
 40
0.2500000000000057
 40
0.2500000000000057
 40
0.3750000000000085
 40
0.3750000000000085
 40
0.437500000000009
 40
0.437500000000009
 40
0.5000000000000095
 40
0.5000000000000095
 40
0.5625000000000101
 40
0.5625000000000101
 40
0.6250000000000105
 40
0.6250000000000105
 40
0.7500000000000071
 40
0.7500000000000071
 40
0.8750000000000036
 40
0.8750000000000036
 40
1.0
 40
1.0
 40
1.0
 40
1.0
 10
2.004489819689694
 20
7.152883847339679
 30
0.0
 10
2.001677023974748
 20
7.152883847339679
 30
0.0
 10
1.998864220475254
 20
7.152883847339679
 30
0.0
 10
1.993248108591811
 20
7.152883847339679
 30
0.0
 10
1.990444569093519
 20
7.152883847339679
 30
0.0
 10
1.984859909886912
 20
7.152883847339679
 30
0.0
 10
1.982098734487806
 20
7.152883847339679
 30
0.0
 10
1.978169841289918
 20
7.152883847339679
 30
0.0
 10
1.976917368955395
 20
7.152883847339679
 30
0.0
 10
1.974555228115127
 20
7.152883847339679
 30
0.0
 10
1.973434882441996
 20
7.152883847339679
 30
0.0
 10
1.971464314327625
 20
7.152883847339679
 30
0.0
 10
1.970602201223972
 20
7.152883847339679
 30
0.0
 10
1.969103513669575
 20
7.152883847339679
 30
0.0
 10
1.968471135659118
 20
7.152883847339679
 30
0.0
 10
1.966917965707525
 20
7.152883847339679
 30
0.0
 10
1.966293118056837
 20
7.152883847339679
 30
0.0
 10
1.965489136508973
 20
7.152883847339679
 30
0.0
 10
1.965306507934339
 20
7.152883847339679
 30
0.0
 10
1.965119624857765
 20
7.152883847339679
 30
0.0
 10
1.965119740949496
 20
7.152883847339679
 30
0.0
 10
1.965119740949496
 20
7.152883847339679
 30
0.0
  0
LINE
  5
105
330
1F
100
AcDbEntity
  8
0
  6
Continuous
 62
     7
370
    25
100
AcDbLine
 10
1.9651197409
 20
7.1796555009
 30
0.0
 11
1.9651197409
 21
7.1528838473
 31
0.0
  0
SPLINE
  5
106
330
1F
100
AcDbEntity
  8
0
  6
Continuous
 62
     7
370
    25
100
AcDbSpline
210
0.0
220
0.0
230
1.0
 70
    24
 71
     3
 72
    22
 73
    18
 74
     0
 42
0.000000001
 43
0.00000001
 40
0.0
 40
0.0
 40
0.0
 40
0.0
 40
0.250000000000005
 40
0.250000000000005
 40
0.3750000000000068
 40
0.3750000000000068
 40
0.5000000000000087
 40
0.5000000000000087
 40
0.5625000000000075
 40
0.5625000000000075
 40
0.6250000000000064
 40
0.6250000000000064
 40
0.7500000000000043
 40
0.7500000000000043
 40
0.8750000000000021
 40
0.8750000000000021
 40
1.0
 40
1.0
 40
1.0
 40
1.0
 10
1.971418953547921
 20
7.146584634741254
 30
0.0
 10
1.971418953547921
 20
7.146584634741254
 30
0.0
 10
1.971389341775802
 20
7.146584634741254
 30
0.0
 10
1.972193034002987
 20
7.146584634741254
 30
0.0
 10
1.972608984058633
 20
7.146584634741254
 30
0.0
 10
1.974099049231726
 20
7.146584634741254
 30
0.0
 10
1.975225182318506
 20
7.146584634741254
 30
0.0
 10
1.977745970476674
 20
7.146584634741254
 30
0.0
 10
1.97873007311041
 20
7.146584634741254
 30
0.0
 10
1.980808521856302
 20
7.146584634741254
 30
0.0
 10
1.981924603382554
 20
7.146584634741254
 30
0.0
 10
1.985349679070106
 20
7.146584634741254
 30
0.0
 10
1.987731896723817
 20
7.146584634741254
 30
0.0
 10
1.99250436521159
 20
7.146584634741254
 30
0.0
 10
1.994897997491624
 20
7.146584634741254
 30
0.0
 10
1.999690930191175
 20
7.146584634741254
 30
0.0
 10
2.002090390564106
 20
7.146584634741254
 30
0.0
 10
2.004489819689694
 20
7.146584634741254
 30
0.0
  0
ARC
  5
107
330
1F
100
AcDbEntity
  8
0
  6
Continuous
 62
     7
370
    25
100
AcDbCircle
 10
1.9714189535
 20
7.1528838473
 30
0.0
 40
0.0062992125984254
100
AcDbArc
 50
180.0
 51
270.0
  0
LINE
  5
108
330
1F
100
AcDbEntity
  8
0
  6
Continuous
 62
     7
370
    25
100
AcDbLine
 10
2.0044898197
 20
7.1528838473
 30
0.0
 11
2.0044898197
 21
7.1465846347
 31
0.0
  0
LINE
  5
109
330
1F
100
AcDbEntity
  8
0
  6
Continuous
 62
     7
370
    25
100
AcDbLine
 10
2.0044898197
 20
7.1796555009
 30
0.0
 11
2.3787204914
 21
7.1796555009
 31
0.0
  0
ARC
  5
10A
330
1F
100
AcDbEntity
  8
0
  6
Continuous
 62
     7
370
    25
100
AcDbCircle
 10
2.3787204914
 20
7.1922539261
 30
0.0
 40
0.0125984251968507
100
AcDbArc
 50
270.0
 51
348.6718111479
  0
ARC
  5
10B
330
1F
100
AcDbEntity
  8
0
  6
Continuous
 62
     7
370
    25
100
AcDbCircle
 10
2.5084268276
 20
7.1662696741
 30
0.0
 40
0.1196850393700782
100
AcDbArc
 50
191.3281888521
 51
168.6718111479
  0
ARC
  5
10C
330
1F
100
AcDbEntity
  8
0
  6
Continuous
 62
     7
370
    25
100
AcDbCircle
 10
2.3787204914
 20
7.1402854221
 30
0.0
 40
0.0125984251968507
100
AcDbArc
 50
11.3281888521
 51
90.0
  0
LINE
  5
10D
330
1F
100
AcDbEntity
  8
0
  6
Continuous
 62
     7
370
    25
100
AcDbLine
 10
2.3787204914
 20
7.1528838473
 30
0.0
 11
2.0044898197
 21
7.1528838473
 31
0.0
  0
LINE
  5
10E
330
1F
100
AcDbEntity
  8
0
  6
Continuous
 62
     7
370
    25
100
AcDbLine
 10
2.3848969836
 20
7.1910165807
 30
0.0
 11
2.3910734758
 21
7.1897792354
 31
0.0
  0
ARC
  5
10F
330
1F
100
AcDbEntity
  8
0
  6
Continuous
 62
     7
370
    25
100
AcDbCircle
 10
2.5084268276
 20
7.1662696741
 30
0.0
 40
0.1259842519685031
100
AcDbArc
 50
191.3281888521
 51
168.6718111479
  0
LINE
  5
110
330
1F
100
AcDbEntity
  8
0
  6
Continuous
 62
     7
370
    25
100
AcDbLine
 10
2.3848969836
 20
7.1415227675
 30
0.0
 11
2.3910734758
 21
7.1427601128
 31
0.0
  0
LINE
  5
111
330
1F
100
AcDbEntity
  8
0
  6
Continuous
 62
     7
370
    25
100
AcDbLine
 10
2.3787204914
 20
7.1859547135
 30
0.0
 11
2.0044898197
 21
7.1859547135
 31
0.0
  0
LINE
  5
112
330
1F
100
AcDbEntity
  8
0
  6
Continuous
 62
     7
370
    25
100
AcDbLine
 10
2.3787204914
 20
7.1859547135
 30
0.0
 11
2.3787204914
 21
7.1796555009
 31
0.0
  0
LINE
  5
113
330
1F
100
AcDbEntity
  8
0
  6
Continuous
 62
     7
370
    25
100
AcDbLine
 10
2.3787204914
 20
7.1465846347
 30
0.0
 11
2.3787204914
 21
7.1528838473
 31
0.0
  0
LINE
  5
114
330
1F
100
AcDbEntity
  8
0
  6
Continuous
 62
     7
370
    25
100
AcDbLine
 10
2.0044898197
 20
7.1465846347
 30
0.0
 11
2.3787204914
 21
7.1465846347
 31
0.0
  0
ARC
  5
115
330
1F
100
AcDbEntity
  8
0
  6
Continuous
 62
     7
370
    25
100
AcDbCircle
 10
2.3787204914
 20
7.1922539261
 30
0.0
 40
0.0062992125984256
100
AcDbArc
 50
270.0
 51
348.6718111479
  0
ARC
  5
116
330
1F
100
AcDbEntity
  8
0
  6
Continuous
 62
     7
370
    25
100
AcDbCircle
 10
2.3787204914
 20
7.1402854221
 30
0.0
 40
0.0062992125984258
100
AcDbArc
 50
11.3281888521
 51
90.0
  0
SPLINE
  5
117
330
1F
100
AcDbEntity
  8
0
  6
Continuous
 62
     7
370
    25
100
AcDbSpline
210
0.0
220
0.0
230
1.0
 70
    24
 71
     3
 72
    26
 73
    22
 74
     0
 42
0.000000001
 43
0.00000001
 40
0.0
 40
0.0
 40
0.0
 40
0.0
 40
0.249999999999999
 40
0.249999999999999
 40
0.3124999999999991
 40
0.3124999999999991
 40
0.3749999999999992
 40
0.3749999999999992
 40
0.4374999999999992
 40
0.4374999999999992
 40
0.4999999999999993
 40
0.4999999999999993
 40
0.5624999999999994
 40
0.5624999999999994
 40
0.6249999999999994
 40
0.6249999999999994
 40
0.7499999999999997
 40
0.7499999999999997
 40
0.8749999999999998
 40
0.8749999999999998
 40
1.0
 40
1.0
 40
1.0
 40
1.0
 10
4.587166985044025
 20
7.185954713481411
 30
0.0
 10
4.591921853462143
 20
7.185954713481411
 30
0.0
 10
4.596678979372903
 20
7.185954713481411
 30
0.0
 10
4.602569557083328
 20
7.185954713481411
 30
0.0
 10
4.603744679623615
 20
7.185954713481411
 30
0.0
 10
4.606085683040376
 20
7.185954713481411
 30
0.0
 10
4.607260599887695
 20
7.185954713481411
 30
0.0
 10
4.609548555777907
 20
7.185954713481411
 30
0.0
 10
4.610656287763333
 20
7.185954713481411
 30
0.0
 10
4.612760246224625
 20
7.185954713481411
 30
0.0
 10
4.613754208643042
 20
7.185954713481411
 30
0.0
 10
4.615464806014039
 20
7.185954713481411
 30
0.0
 10
4.616202886002859
 20
7.185954713481411
 30
0.0
 10
4.617395499738562
 20
7.185954713481411
 30
0.0
 10
4.617865226551515
 20
7.185954713481411
 30
0.0
 10
4.619021313926567
 20
7.185954713481411
 30
0.0
 10
4.619441607418621
 20
7.185954713481411
 30
0.0
 10
4.619993804441598
 20
7.185954713481411
 30
0.0
 10
4.620114784180842
 20
7.185954713481411
 30
0.0
 10
4.62023851731943
 20
7.185954713481411
 30
0.0
 10
4.620237851185798
 20
7.185954713481411
 30
0.0
 10
4.620237851185797
 20
7.185954713481411
 30
0.0
  0
ARC
  5
118
330
1F
100
AcDbEntity
  8
0
  6
Continuous
 62
     7
370
    25
100
AcDbCircle
 10
4.6202378512
 20
7.1796555009
 30
0.0
 40
0.0062992125984254
100
AcDbArc
 50
0.0
 51
90.0
  0
SPLINE
  5
119
330
1F
100
AcDbEntity
  8
0
  6
Continuous
 62
     7
370
    25
100
AcDbSpline
210
0.0
220
0.0
230
1.0
 70
    24
 71
     3
 72
    30
 73
    26
 74
     0
 42
0.000000001
 43
0.00000001
 40
0.0
 40
0.0
 40
0.0
 40
0.0
 40
0.1250000000000022
 40
0.1250000000000022
 40
0.2500000000000044
 40
0.2500000000000044
 40
0.3125000000000024
 40
0.3125000000000024
 40
0.3750000000000004
 40
0.3750000000000004
 40
0.4374999999999984
 40
0.4374999999999984
 40
0.4999999999999964
 40
0.4999999999999964
 40
0.5624999999999944
 40
0.5624999999999944
 40
0.6249999999999925
 40
0.6249999999999925
 40
0.6874999999999905
 40
0.6874999999999905
 40
0.7499999999999885
 40
0.7499999999999885
 40
0.8749999999999942
 40
0.8749999999999942
 40
1.0
 40
1.0
 40
1.0
 40
1.0
 10
4.626537063784222
 20
7.179655500882986
 30
0.0
 10
4.626537063784223
 20
7.179655500882986
 30
0.0
 10
4.626537245649202
 20
7.179655500882986
 30
0.0
 10
4.626346205991957
 20
7.179655500882986
 30
0.0
 10
4.626158509172012
 20
7.179655500882986
 30
0.0
 10
4.625540641029137
 20
7.179655500882986
 30
0.0
 10
4.625278539455867
 20
7.179655500882986
 30
0.0
 10
4.624593532221399
 20
7.179655500882986
 30
0.0
 10
4.624167003622821
 20
7.179655500882986
 30
0.0
 10
4.623109514260005
 20
7.179655500882986
 30
0.0
 10
4.622478803821476
 20
7.179655500882986
 30
0.0
 10
4.620955408725123
 20
7.179655500882986
 30
0.0
 10
4.620059151592701
 20
7.179655500882986
 30
0.0
 10
4.618064452128515
 20
7.179655500882986
 30
0.0
 10
4.616947433488418
 20
7.179655500882986
 30
0.0
 10
4.614548209578543
 20
7.179655500882986
 30
0.0
 10
4.613288844107338
 20
7.179655500882986
 30
0.0
 10
4.610679584593083
 20
7.179655500882986
 30
0.0
 10
4.609320226303276
 20
7.179655500882986
 30
0.0
 10
4.606587695472809
 20
7.179655500882986
 30
0.0
 10
4.605214572850906
 20
7.179655500882986
 30
0.0
 10
4.601081337123823
 20
7.179655500882986
 30
0.0
 10
4.598307609735476
 20
7.179655500882986
 30
0.0
 10
4.592745146016456
 20
7.179655500882986
 30
0.0
 10
4.58995606282943
 20
7.179655500882986
 30
0.0
 10
4.587166985044025
 20
7.179655500882986
 30
0.0
  0
LINE
  5
11A
330
1F
100
AcDbEntity
  8
0
  6
Continuous
 62
     7
370
    25
100
AcDbLine
 10
4.587166985
 20
7.1859547135
 30
0.0
 11
4.587166985
 21
7.1796555009
 31
0.0
  0
SPLINE
  5
11B
330
1F
100
AcDbEntity
  8
0
  6
Continuous
 62
     7
370
    25
100
AcDbSpline
210
0.0
220
0.0
230
1.0
 70
    24
 71
     3
 72
    26
 73
    22
 74
     0
 42
0.000000001
 43
0.00000001
 40
0.0
 40
0.0
 40
0.0
 40
0.0
 40
0.1250000000000028
 40
0.1250000000000028
 40
0.2500000000000057
 40
0.2500000000000057
 40
0.3750000000000085
 40
0.3750000000000085
 40
0.437500000000009
 40
0.437500000000009
 40
0.5000000000000095
 40
0.5000000000000095
 40
0.5625000000000101
 40
0.5625000000000101
 40
0.6250000000000105
 40
0.6250000000000105
 40
0.7500000000000071
 40
0.7500000000000071
 40
0.8750000000000036
 40
0.8750000000000036
 40
1.0
 40
1.0
 40
1.0
 40
1.0
 10
4.587166985044025
 20
7.152883847339679
 30
0.0
 10
4.58997978075897
 20
7.152883847339679
 30
0.0
 10
4.592792584258465
 20
7.152883847339679
 30
0.0
 10
4.598408696141908
 20
7.152883847339679
 30
0.0
 10
4.601212235640199
 20
7.152883847339679
 30
0.0
 10
4.606796894846807
 20
7.152883847339679
 30
0.0
 10
4.609558070245912
 20
7.152883847339679
 30
0.0
 10
4.6134869634438
 20
7.152883847339679
 30
0.0
 10
4.614739435778323
 20
7.152883847339679
 30
0.0
 10
4.617101576618591
 20
7.152883847339679
 30
0.0
 10
4.618221922291722
 20
7.152883847339679
 30
0.0
 10
4.620192490406093
 20
7.152883847339679
 30
0.0
 10
4.621054603509746
 20
7.152883847339679
 30
0.0
 10
4.622553291064142
 20
7.152883847339679
 30
0.0
 10
4.6231856690746
 20
7.152883847339679
 30
0.0
 10
4.624738839026193
 20
7.152883847339679
 30
0.0
 10
4.625363686676881
 20
7.152883847339679
 30
0.0
 10
4.626167668224745
 20
7.152883847339679
 30
0.0
 10
4.626350296799379
 20
7.152883847339679
 30
0.0
 10
4.626537179875953
 20
7.152883847339679
 30
0.0
 10
4.626537063784222
 20
7.152883847339679
 30
0.0
 10
4.626537063784222
 20
7.152883847339679
 30
0.0
  0
LINE
  5
11C
330
1F
100
AcDbEntity
  8
0
  6
Continuous
 62
     7
370
    25
100
AcDbLine
 10
4.587166985
 20
7.1796555009
 30
0.0
 11
4.587166985
 21
7.1528838473
 31
0.0
  0
LINE
  5
11D
330
1F
100
AcDbEntity
  8
0
  6
Continuous
 62
     7
370
    25
100
AcDbLine
 10
4.6265370638
 20
7.1796555009
 30
0.0
 11
4.6265370638
 21
7.1528838473
 31
0.0
  0
ARC
  5
11E
330
1F
100
AcDbEntity
  8
0
  6
Continuous
 62
     7
370
    25
100
AcDbCircle
 10
4.6202378512
 20
7.1528838473
 30
0.0
 40
0.0062992125984254
100
AcDbArc
 50
270.0
 51
0.0
  0
SPLINE
  5
11F
330
1F
100
AcDbEntity
  8
0
  6
Continuous
 62
     7
370
    25
100
AcDbSpline
210
0.0
220
0.0
230
1.0
 70
    24
 71
     3
 72
    22
 73
    18
 74
     0
 42
0.000000001
 43
0.00000001
 40
0.0
 40
0.0
 40
0.0
 40
0.0
 40
0.250000000000005
 40
0.250000000000005
 40
0.3750000000000068
 40
0.3750000000000068
 40
0.5000000000000087
 40
0.5000000000000087
 40
0.5625000000000075
 40
0.5625000000000075
 40
0.6250000000000064
 40
0.6250000000000064
 40
0.7500000000000043
 40
0.7500000000000043
 40
0.8750000000000021
 40
0.8750000000000021
 40
1.0
 40
1.0
 40
1.0
 40
1.0
 10
4.620237851185797
 20
7.146584634741254
 30
0.0
 10
4.620237851185797
 20
7.146584634741254
 30
0.0
 10
4.620267462957917
 20
7.146584634741254
 30
0.0
 10
4.619463770730731
 20
7.146584634741254
 30
0.0
 10
4.619047820675085
 20
7.146584634741254
 30
0.0
 10
4.617557755501992
 20
7.146584634741254
 30
0.0
 10
4.616431622415212
 20
7.146584634741254
 30
0.0
 10
4.613910834257045
 20
7.146584634741254
 30
0.0
 10
4.612926731623308
 20
7.146584634741254
 30
0.0
 10
4.610848282877416
 20
7.146584634741254
 30
0.0
 10
4.609732201351164
 20
7.146584634741254
 30
0.0
 10
4.606307125663613
 20
7.146584634741254
 30
0.0
 10
4.603924908009902
 20
7.146584634741254
 30
0.0
 10
4.599152439522128
 20
7.146584634741254
 30
0.0
 10
4.596758807242094
 20
7.146584634741254
 30
0.0
 10
4.591965874542543
 20
7.146584634741254
 30
0.0
 10
4.589566414169612
 20
7.146584634741254
 30
0.0
 10
4.587166985044025
 20
7.146584634741254
 30
0.0
  0
LINE
  5
120
330
1F
100
AcDbEntity
  8
0
  6
Continuous
 62
     7
370
    25
100
AcDbLine
 10
4.587166985
 20
7.1528838473
 30
0.0
 11
4.587166985
 21
7.1465846347
 31
0.0
  0
ARC
  5
121
330
1F
100
AcDbEntity
  8
0
  6
Continuous
 62
     7
370
    25
100
AcDbCircle
 10
4.2129363134
 20
7.1402854221
 30
0.0
 40
0.0125984251968507
100
AcDbArc
 50
90.0
 51
168.6718111479
  0
ARC
  5
122
330
1F
100
AcDbEntity
  8
0
  6
Continuous
 62
     7
370
    25
100
AcDbCircle
 10
4.0832299772
 20
7.1662696741
 30
0.0
 40
0.1196850393700782
100
AcDbArc
 50
11.3281888521
 51
348.6718111479
  0
ARC
  5
123
330
1F
100
AcDbEntity
  8
0
  6
Continuous
 62
     7
370
    25
100
AcDbCircle
 10
4.2129363134
 20
7.1922539261
 30
0.0
 40
0.0125984251968507
100
AcDbArc
 50
191.3281888521
 51
270.0
  0
LINE
  5
124
330
1F
100
AcDbEntity
  8
0
  6
Continuous
 62
     7
370
    25
100
AcDbLine
 10
4.587166985
 20
7.1796555009
 30
0.0
 11
4.2129363134
 21
7.1796555009
 31
0.0
  0
LINE
  5
125
330
1F
100
AcDbEntity
  8
0
  6
Continuous
 62
     7
370
    25
100
AcDbLine
 10
4.2129363134
 20
7.1528838473
 30
0.0
 11
4.587166985
 21
7.1528838473
 31
0.0
  0
ARC
  5
126
330
1F
100
AcDbEntity
  8
0
  6
Continuous
 62
     7
370
    25
100
AcDbCircle
 10
4.0832299772
 20
7.1662696741
 30
0.0
 40
0.1259842519685031
100
AcDbArc
 50
11.3281888521
 51
348.6718111479
  0
LINE
  5
127
330
1F
100
AcDbEntity
  8
0
  6
Continuous
 62
     7
370
    25
100
AcDbLine
 10
4.2067598212
 20
7.1910165807
 30
0.0
 11
4.200583329
 21
7.1897792354
 31
0.0
  0
LINE
  5
128
330
1F
100
AcDbEntity
  8
0
  6
Continuous
 62
     7
370
    25
100
AcDbLine
 10
4.2067598212
 20
7.1415227675
 30
0.0
 11
4.200583329
 21
7.1427601128
 31
0.0
  0
LINE
  5
129
330
1F
100
AcDbEntity
  8
0
  6
Continuous
 62
     7
370
    25
100
AcDbLine
 10
4.2129363134
 20
7.1859547135
 30
0.0
 11
4.2129363134
 21
7.1796555009
 31
0.0
  0
LINE
  5
12A
330
1F
100
AcDbEntity
  8
0
  6
Continuous
 62
     7
370
    25
100
AcDbLine
 10
4.2129363134
 20
7.1859547135
 30
0.0
 11
4.587166985
 21
7.1859547135
 31
0.0
  0
LINE
  5
12B
330
1F
100
AcDbEntity
  8
0
  6
Continuous
 62
     7
370
    25
100
AcDbLine
 10
4.2129363134
 20
7.1465846347
 30
0.0
 11
4.2129363134
 21
7.1528838473
 31
0.0
  0
LINE
  5
12C
330
1F
100
AcDbEntity
  8
0
  6
Continuous
 62
     7
370
    25
100
AcDbLine
 10
4.587166985
 20
7.1465846347
 30
0.0
 11
4.2129363134
 21
7.1465846347
 31
0.0
  0
ARC
  5
12D
330
1F
100
AcDbEntity
  8
0
  6
Continuous
 62
     7
370
    25
100
AcDbCircle
 10
4.2129363134
 20
7.1922539261
 30
0.0
 40
0.0062992125984254
100
AcDbArc
 50
191.3281888521
 51
270.0
  0
ARC
  5
12E
330
1F
100
AcDbEntity
  8
0
  6
Continuous
 62
     7
370
    25
100
AcDbCircle
 10
4.2129363134
 20
7.1402854221
 30
0.0
 40
0.0062992125984254
100
AcDbArc
 50
90.0
 51
168.6718111479
  0
ARC
  5
12F
330
1F
100
AcDbEntity
  8
0
  6
Continuous
 62
     7
370
    25
100
AcDbCircle
 10
2.5084268276
 20
7.1662696741
 30
0.0
 40
0.2165354330708665
100
AcDbArc
 50
270.0
 51
174.7840914295
  0
ARC
  5
130
330
1F
100
AcDbEntity
  8
0
  6
Continuous
 62
     7
370
    25
100
AcDbCircle
 10
2.5084268276
 20
7.1662696741
 30
0.0
 40
0.2165354330708663
100
AcDbArc
 50
185.2159085705
 51
270.0
  0
LWPOLYLINE
  5
131
330
1F
100
AcDbEntity
  8
0
  6
Continuous
 62
     7
370
    25
100
AcDbPolyline
 90
       21
 70
   128
 43
0.0
 10
3.3942535992
 20
6.5166633749
 10
3.3930418217
 20
6.5033291012
 10
3.3894363272
 20
6.4903231616
 10
3.3835258949
 20
6.4779658054
 10
3.3754560593
 20
6.4665613119
 10
3.3654255265
 20
6.4563904974
 10
3.3536812815
 20
6.4477038012
 10
3.3405125067
 20
6.4407151185
 10
3.3262434609
 20
6.435596534
 10
3.3112254954
 20
6.4324740842
 10
3.2958284024
 20
6.4314246541
 10
3.2804313094
 20
6.4324740842
 10
3.2654133439
 20
6.435596534
 10
3.2511442981
 20
6.4407151185
 10
3.2379755232
 20
6.4477038012
 10
3.2262312782
 20
6.4563904974
 10
3.2162007454
 20
6.4665613119
 10
3.2081309098
 20
6.4779658054
 10
3.2022204775
 20
6.4903231616
 10
3.198614983
 20
6.5033291012
 10
3.1974032055
 20
6.5166633749
  0
LINE
  5
132
330
1F
100
AcDbEntity
  8
0
  6
Continuous
 62
     7
370
    25
100
AcDbLine
 10
3.3194504496
 20
7.4143011702
 30
0.0
 11
3.2722063551
 21
7.4143011702
 31
0.0
  0
ARC
  5
133
330
1F
100
AcDbEntity
  8
0
  6
Continuous
 62
     7
370
    25
100
AcDbCircle
 10
4.0832299772
 20
7.1662696741
 30
0.0
 40
0.2102362204724413
100
AcDbArc
 50
5.3726433964
 51
354.6273566036
  0
ARC
  5
134
330
1F
100
AcDbEntity
  8
0
  6
Continuous
 62
     7
370
    25
100
AcDbCircle
 10
3.2958284024
 20
7.1662696741
 30
0.0
 40
0.210236220472441
100
AcDbArc
 50
297.915235143
 51
83.5486487299
  0
ARC
  5
135
330
1F
100
AcDbEntity
  8
0
  6
Continuous
 62
     7
370
    25
100
AcDbCircle
 10
3.2958284024
 20
7.1662696741
 30
0.0
 40
0.210236220472441
100
AcDbArc
 50
96.4513512701
 51
242.084764857
  0
ARC
  5
136
330
1F
100
AcDbEntity
  8
0
  6
Continuous
 62
     7
370
    25
100
AcDbCircle
 10
2.5084268276
 20
7.1662696741
 30
0.0
 40
0.2102362204724412
100
AcDbArc
 50
185.3726433964
 51
270.0
  0
ARC
  5
137
330
1F
100
AcDbEntity
  8
0
  6
Continuous
 62
     7
370
    25
100
AcDbCircle
 10
2.5084268276
 20
7.1662696741
 30
0.0
 40
0.2102362204724413
100
AcDbArc
 50
270.0
 51
174.6273566036
  0
INSERT
  5
143
330
1F
100
AcDbEntity
  8
0
  6
Continuous
 62
     7
370
     0
100
AcDbBlockReference
  2
SW_CENTERMARKSYMBOL_0
 10
4.0832299772
 20
7.1662696741
 30
0.0
  0
INSERT
  5
14F
330
1F
100
AcDbEntity
  8
0
  6
Continuous
 62
     7
370
     0
100
AcDbBlockReference
  2
SW_CENTERMARKSYMBOL_1
 10
3.2958284024
 20
7.1662696741
 30
0.0
  0
INSERT
  5
15B
330
1F
100
AcDbEntity
  8
0
  6
Continuous
 62
     7
370
     0
100
AcDbBlockReference
  2
SW_CENTERMARKSYMBOL_2
 10
2.5084268276
 20
7.1662696741
 30
0.0
  0
LINE
  5
15C
330
1F
100
AcDbEntity
  8
0
  6
Continuous
 62
     7
370
    25
100
AcDbLine
 10
8.8007244568
 20
2.0878022952
 30
0.0
 11
8.8007244568
 21
2.7979270422
 31
0.0
  0
LINE
  5
15D
330
1F
100
AcDbEntity
  8
0
  6
Continuous
 62
     7
370
    25
100
AcDbLine
 10
8.8007244568
 20
1.6074873346
 30
0.0
 11
8.8007244568
 21
1.6153613503
 31
0.0
  0
LINE
  5
15E
330
1F
100
AcDbEntity
  8
0
  6
Continuous
 62
     7
370
    25
100
AcDbLine
 10
8.6038740631
 20
2.7979270422
 30
0.0
 11
8.6038740631
 21
2.0878022952
 31
0.0
  0
LINE
  5
15F
330
1F
100
AcDbEntity
  8
0
  6
Continuous
 62
     7
370
    25
100
AcDbLine
 10
8.6038740631
 20
1.6153613503
 30
0.0
 11
8.6038740631
 21
1.6074873346
 31
0.0
  0
ARC
  5
160
330
1F
100
AcDbEntity
  8
0
  6
Continuous
 62
     7
370
    25
100
AcDbCircle
 10
8.3541762934
 20
2.7979270422
 30
0.0
 40
0.2496977696939793
100
AcDbArc
 50
0.0
 51
150.0
  0
ARC
  5
161
330
1F
100
AcDbEntity
  8
0
  6
Continuous
 62
     7
370
    25
100
AcDbCircle
 10
8.3541762934
 20
2.7979270422
 30
0.0
 40
0.4465481633947661
100
AcDbArc
 50
0.0
 51
150.0
  0
LINE
  5
162
330
1F
100
AcDbEntity
  8
0
  6
Continuous
 62
     7
370
    25
100
AcDbLine
 10
7.885175776
 20
2.4849898568
 30
0.0
 11
8.1379316815
 21
2.9227759271
 31
0.0
  0
LINE
  5
163
330
1F
100
AcDbEntity
  8
0
  6
Continuous
 62
     7
370
    25
100
AcDbLine
 10
7.9674542399
 20
3.0212011239
 30
0.0
 11
7.7146983343
 21
2.5834150537
 31
0.0
  0
ARC
  5
164
330
1F
100
AcDbEntity
  8
0
  6
Continuous
 62
     7
370
    25
100
AcDbCircle
 10
7.8797204979
 20
2.4881394631
 30
0.0
 40
0.0062992125984259
100
AcDbArc
 50
240.0
 51
330.0
  0
ARC
  5
165
330
1F
100
AcDbEntity
  8
0
  6
Continuous
 62
     7
370
    25
100
AcDbCircle
 10
7.7201536125
 20
2.5802654474
 30
0.0
 40
0.0062992125984256
100
AcDbArc
 50
150.0
 51
240.0
  0
ARC
  5
166
330
1F
100
AcDbEntity
  8
0
  6
Continuous
 62
     7
370
    25
100
AcDbCircle
 10
8.950330756
 20
1.9224479645
 30
0.0
 40
0.0078740157480315
100
AcDbArc
 50
270.0
 51
0.0
  0
ARC
  5
167
330
1F
100
AcDbEntity
  8
0
  6
Continuous
 62
     7
370
    25
100
AcDbCircle
 10
8.950330756
 20
1.9539440275
 30
0.0
 40
0.0078740157480315
100
AcDbArc
 50
0.0
 51
90.0
  0
LINE
  5
168
330
1F
100
AcDbEntity
  8
0
  6
Continuous
 62
     7
370
    25
100
AcDbLine
 10
8.8282835119
 20
1.9145739487
 30
0.0
 11
8.950330756
 21
1.9145739487
 31
0.0
  0
LINE
  5
169
330
1F
100
AcDbEntity
  8
0
  6
Continuous
 62
     7
370
    25
100
AcDbLine
 10
8.950330756
 20
1.9618180432
 30
0.0
 11
8.8282835119
 21
1.9618180432
 31
0.0
  0
ARC
  5
16A
330
1F
100
AcDbEntity
  8
0
  6
Continuous
 62
     7
370
    25
100
AcDbCircle
 10
8.9125354804
 20
1.601188122
 30
0.0
 40
0.0062992125984249
100
AcDbArc
 50
0.0
 51
90.0
  0
ARC
  5
16B
330
1F
100
AcDbEntity
  8
0
  6
Continuous
 62
     7
370
    25
100
AcDbCircle
 10
8.4920630394
 20
1.601188122
 30
0.0
 40
0.0062992125984249
100
AcDbArc
 50
90.0
 51
180.0
  0
LINE
  5
16C
330
1F
100
AcDbEntity
  8
0
  6
Continuous
 62
     7
370
    25
100
AcDbLine
 10
8.918834693
 20
1.5444952086
 30
0.0
 11
8.918834693
 21
1.601188122
 31
0.0
  0
LINE
  5
16D
330
1F
100
AcDbEntity
  8
0
  6
Continuous
 62
     7
370
    25
100
AcDbLine
 10
8.4857638268
 20
1.601188122
 30
0.0
 11
8.4857638268
 21
1.5444952086
 31
0.0
  0
LINE
  5
16E
330
1F
100
AcDbEntity
  8
0
  6
Continuous
 62
     7
370
    25
100
AcDbLine
 10
8.761354378
 20
1.6074873346
 30
0.0
 11
8.761354378
 21
1.6153613503
 31
0.0
  0
LINE
  5
16F
330
1F
100
AcDbEntity
  8
0
  6
Continuous
 62
     7
370
    25
100
AcDbLine
 10
8.6432441418
 20
1.6153613503
 30
0.0
 11
8.6432441418
 21
1.6074873346
 31
0.0
  0
LINE
  5
170
330
1F
100
AcDbEntity
  8
0
  6
Continuous
 62
     7
370
    25
100
AcDbLine
 10
8.5763150079
 20
2.0815030826
 30
0.0
 11
8.5763150079
 21
1.6153613503
 31
0.0
  0
LINE
  5
171
330
1F
100
AcDbEntity
  8
0
  6
Continuous
 62
     7
370
    25
100
AcDbLine
 10
8.8282835119
 20
1.6153613503
 30
0.0
 11
8.8282835119
 21
2.0815030826
 31
0.0
  0
ARC
  5
172
330
1F
100
AcDbEntity
  8
0
  6
Continuous
 62
     7
370
    25
100
AcDbCircle
 10
8.8219842993
 20
2.0815030826
 30
0.0
 40
0.0062992125984263
100
AcDbArc
 50
0.0
 51
90.0
  0
ARC
  5
173
330
1F
100
AcDbEntity
  8
0
  6
Continuous
 62
     7
370
    25
100
AcDbCircle
 10
8.5826142205
 20
2.0815030826
 30
0.0
 40
0.0062992125984249
100
AcDbArc
 50
90.0
 51
180.0
  0
LINE
  5
174
330
1F
100
AcDbEntity
  8
0
  6
Continuous
 62
     7
370
    25
100
AcDbLine
 10
7.8765708916
 20
2.482684185
 30
0.0
 11
7.7170040079
 21
2.5748101682
 31
0.0
  0
LINE
  5
175
330
1F
100
AcDbEntity
  8
0
  6
Continuous
 62
     7
370
    25
100
AcDbLine
 10
8.9582047717
 20
1.938195996
 30
0.0
 11
8.9582047717
 21
1.9224479645
 31
0.0
  0
LINE
  5
176
330
1F
100
AcDbEntity
  8
0
  6
Continuous
 62
     7
370
    25
100
AcDbLine
 10
8.9582047717
 20
1.9539440275
 30
0.0
 11
8.9582047717
 21
1.938195996
 31
0.0
  0
LINE
  5
177
330
1F
100
AcDbEntity
  8
0
  6
Continuous
 62
     7
370
    25
100
AcDbLine
 10
8.7022992599
 20
1.6074873346
 30
0.0
 11
8.4920630394
 21
1.6074873346
 31
0.0
  0
LINE
  5
178
330
1F
100
AcDbEntity
  8
0
  6
Continuous
 62
     7
370
    25
100
AcDbLine
 10
8.9125354804
 20
1.6074873346
 30
0.0
 11
8.7022992599
 21
1.6074873346
 31
0.0
  0
LINE
  5
179
330
1F
100
AcDbEntity
  8
0
  6
Continuous
 62
     7
370
    25
100
AcDbLine
 10
8.7022992599
 20
1.5444952086
 30
0.0
 11
8.4857638268
 21
1.5444952086
 31
0.0
  0
LINE
  5
17A
330
1F
100
AcDbEntity
  8
0
  6
Continuous
 62
     7
370
    25
100
AcDbLine
 10
8.918834693
 20
1.5444952086
 30
0.0
 11
8.7022992599
 21
1.5444952086
 31
0.0
  0
SPLINE
  5
17B
330
1F
100
AcDbEntity
  8
0
  6
Continuous
 62
     7
370
    25
100
AcDbSpline
210
0.0
220
0.0
230
1.0
 70
    24
 71
     3
 72
    26
 73
    22
 74
     0
 42
0.000000001
 43
0.00000001
 40
0.0
 40
0.0
 40
0.0
 40
0.0
 40
0.249999999999999
 40
0.249999999999999
 40
0.3124999999999991
 40
0.3124999999999991
 40
0.3749999999999992
 40
0.3749999999999992
 40
0.4374999999999992
 40
0.4374999999999992
 40
0.4999999999999993
 40
0.4999999999999993
 40
0.5624999999999994
 40
0.5624999999999994
 40
0.6249999999999994
 40
0.6249999999999994
 40
0.7499999999999997
 40
0.7499999999999997
 40
0.8749999999999998
 40
0.8749999999999998
 40
1.0
 40
1.0
 40
1.0
 40
1.0
 10
8.72198429928023
 20
2.081503082606279
 30
0.0
 10
8.72198429928023
 20
2.081503082606279
 30
0.0
 10
8.72198429928023
 20
2.081531122423001
 30
0.0
 10
8.72198429928023
 20
2.080872724113255
 30
0.0
 10
8.72198429928023
 20
2.080703869038063
 30
0.0
 10
8.72198429928023
 20
2.080251370225805
 30
0.0
 10
8.72198429928023
 20
2.079965569079544
 30
0.0
 10
8.72198429928023
 20
2.07922306780813
 30
0.0
 10
8.72198429928023
 20
2.078769645939919
 30
0.0
 10
8.72198429928023
 20
2.077610014162242
 30
0.0
 10
8.72198429928023
 20
2.076894220739339
 30
0.0
 10
8.72198429928023
 20
2.07521915046065
 30
0.0
 10
8.72198429928023
 20
2.074236846614833
 30
0.0
 10
8.72198429928023
 20
2.072156354559029
 30
0.0
 10
8.72198429928023
 20
2.071052922598632
 30
0.0
 10
8.72198429928023
 20
2.067616288320302
 30
0.0
 10
8.72198429928023
 20
2.065240537105627
 30
0.0
 10
8.72198429928023
 20
2.06045098857266
 30
0.0
 10
8.72198429928023
 20
2.058050085590572
 30
0.0
 10
8.72198429928023
 20
2.053243608524353
 30
0.0
 10
8.72198429928023
 20
2.050837899335071
 30
0.0
 10
8.72198429928023
 20
2.048432216464612
 30
0.0
  0
LINE
  5
17C
330
1F
100
AcDbEntity
  8
0
  6
Continuous
 62
     7
370
    25
100
AcDbLine
 10
8.7219842993
 20
2.0484322165
 30
0.0
 11
8.7156850867
 21
2.0484322165
 31
0.0
  0
SPLINE
  5
17D
330
1F
100
AcDbEntity
  8
0
  6
Continuous
 62
     7
370
    25
100
AcDbSpline
210
0.0
220
0.0
230
1.0
 70
    24
 71
     3
 72
    30
 73
    26
 74
     0
 42
0.000000001
 43
0.00000001
 40
0.0
 40
0.0
 40
0.0
 40
0.0
 40
0.1250000000000022
 40
0.1250000000000022
 40
0.2500000000000044
 40
0.2500000000000044
 40
0.3125000000000024
 40
0.3125000000000024
 40
0.3750000000000004
 40
0.3750000000000004
 40
0.4374999999999984
 40
0.4374999999999984
 40
0.4999999999999964
 40
0.4999999999999964
 40
0.5624999999999944
 40
0.5624999999999944
 40
0.6249999999999925
 40
0.6249999999999925
 40
0.6874999999999905
 40
0.6874999999999905
 40
0.7499999999999885
 40
0.7499999999999885
 40
0.8749999999999942
 40
0.8749999999999942
 40
1.0
 40
1.0
 40
1.0
 40
1.0
 10
8.715685086681805
 20
2.048432216464612
 30
0.0
 10
8.715685086681805
 20
2.051251737969022
 30
0.0
 10
8.715685086681805
 20
2.054071266876222
 30
0.0
 10
8.715685086681805
 20
2.059702533641321
 30
0.0
 10
8.715685086681805
 20
2.062522299591067
 30
0.0
 10
8.715685086681805
 20
2.066711860398945
 30
0.0
 10
8.715685086681805
 20
2.068096245129114
 30
0.0
 10
8.715685086681805
 20
2.070830257691598
 30
0.0
 10
8.715685086681805
 20
2.072187973076691
 30
0.0
 10
8.715685086681805
 20
2.074793689968486
 30
0.0
 10
8.715685086681805
 20
2.076045113902961
 30
0.0
 10
8.715685086681805
 20
2.078415814310283
 30
0.0
 10
8.715685086681805
 20
2.079529810626222
 30
0.0
 10
8.715685086681805
 20
2.081496425272338
 30
0.0
 10
8.715685086681805
 20
2.082370426139186
 30
0.0
 10
8.715685086681805
 20
2.083869803053031
 30
0.0
 10
8.715685086681805
 20
2.084485630034355
 30
0.0
 10
8.715685086681805
 20
2.085514479392894
 30
0.0
 10
8.715685086681805
 20
2.085929244241138
 30
0.0
 10
8.715685086681805
 20
2.086593785889704
 30
0.0
 10
8.715685086681805
 20
2.086845470598767
 30
0.0
 10
8.715685086681805
 20
2.087437549169333
 30
0.0
 10
8.715685086681805
 20
2.087617947533479
 30
0.0
 10
8.715685086681805
 20
2.087802358684701
 30
0.0
 10
8.715685086681805
 20
2.087802295204704
 30
0.0
 10
8.715685086681805
 20
2.087802295204704
 30
0.0
  0
ARC
  5
17E
330
1F
100
AcDbEntity
  8
0
  6
Continuous
 62
     7
370
    25
100
AcDbCircle
 10
8.7156850867
 20
2.0815030826
 30
0.0
 40
0.0062992125984249
100
AcDbArc
 50
0.0
 51
90.0
  0
SPLINE
  5
17F
330
1F
100
AcDbEntity
  8
0
  6
Continuous
 62
     7
370
    25
100
AcDbSpline
210
0.0
220
0.0
230
1.0
 70
    24
 71
     3
 72
    26
 73
    22
 74
     0
 42
0.000000001
 43
0.00000001
 40
0.0
 40
0.0
 40
0.0
 40
0.0
 40
0.1250000000000028
 40
0.1250000000000028
 40
0.2500000000000057
 40
0.2500000000000057
 40
0.3750000000000085
 40
0.3750000000000085
 40
0.437500000000009
 40
0.437500000000009
 40
0.5000000000000095
 40
0.5000000000000095
 40
0.5625000000000101
 40
0.5625000000000101
 40
0.6250000000000105
 40
0.6250000000000105
 40
0.7500000000000071
 40
0.7500000000000071
 40
0.8750000000000036
 40
0.8750000000000036
 40
1.0
 40
1.0
 40
1.0
 40
1.0
 10
8.688913433138497
 20
2.087802295204704
 30
0.0
 10
8.688913433138497
 20
2.087802295204704
 30
0.0
 10
8.688913433138497
 20
2.087802450873601
 30
0.0
 10
8.688913433138497
 20
2.087612886792004
 30
0.0
 10
8.688913433138497
 20
2.087427788673785
 30
0.0
 10
8.688913433138497
 20
2.08660926013369
 30
0.0
 10
8.688913433138497
 20
2.085979898437621
 30
0.0
 10
8.688913433138497
 20
2.084394584831039
 30
0.0
 10
8.688913433138497
 20
2.083765594739313
 30
0.0
 10
8.688913433138497
 20
2.082256397601671
 30
0.0
 10
8.688913433138497
 20
2.081361309837387
 30
0.0
 10
8.688913433138497
 20
2.079375022141822
 30
0.0
 10
8.688913433138497
 20
2.07828083462967
 30
0.0
 10
8.688913433138497
 20
2.075907438289114
 30
0.0
 10
8.688913433138497
 20
2.074629405958273
 30
0.0
 10
8.688913433138497
 20
2.070727530658008
 30
0.0
 10
8.688913433138497
 20
2.067959479404117
 30
0.0
 10
8.688913433138497
 20
2.062410139887075
 30
0.0
 10
8.688913433138497
 20
2.059621487254154
 30
0.0
 10
8.688913433138497
 20
2.054032811833097
 30
0.0
 10
8.688913433138497
 20
2.051232510448818
 30
0.0
 10
8.688913433138497
 20
2.048432216464612
 30
0.0
  0
LINE
  5
180
330
1F
100
AcDbEntity
  8
0
  6
Continuous
 62
     7
370
    25
100
AcDbLine
 10
8.7156850867
 20
2.0878022952
 30
0.0
 11
8.6889134331
 21
2.0878022952
 31
0.0
  0
LINE
  5
181
330
1F
100
AcDbEntity
  8
0
  6
Continuous
 62
     7
370
    25
100
AcDbLine
 10
8.7156850867
 20
2.0484322165
 30
0.0
 11
8.6889134331
 21
2.0484322165
 31
0.0
  0
SPLINE
  5
182
330
1F
100
AcDbEntity
  8
0
  6
Continuous
 62
     7
370
    25
100
AcDbSpline
210
0.0
220
0.0
230
1.0
 70
    24
 71
     3
 72
    26
 73
    22
 74
     0
 42
0.000000001
 43
0.00000001
 40
0.0
 40
0.0
 40
0.0
 40
0.0
 40
0.2500000000000062
 40
0.2500000000000062
 40
0.3125000000000057
 40
0.3125000000000057
 40
0.3750000000000052
 40
0.3750000000000052
 40
0.4375000000000047
 40
0.4375000000000047
 40
0.5000000000000042
 40
0.5000000000000042
 40
0.5625000000000037
 40
0.5625000000000037
 40
0.6250000000000031
 40
0.6250000000000031
 40
0.7500000000000021
 40
0.7500000000000021
 40
0.8750000000000011
 40
0.8750000000000011
 40
1.0
 40
1.0
 40
1.0
 40
1.0
 10
8.72198429928023
 20
2.009062137724324
 30
0.0
 10
8.72198429928023
 20
2.004307269306205
 30
0.0
 10
8.72198429928023
 20
1.999550143395444
 30
0.0
 10
8.72198429928023
 20
1.99365956568502
 30
0.0
 10
8.72198429928023
 20
1.992484443144732
 30
0.0
 10
8.72198429928023
 20
1.990143439727971
 30
0.0
 10
8.72198429928023
 20
1.988968522880653
 30
0.0
 10
8.72198429928023
 20
1.986680566990445
 30
0.0
 10
8.72198429928023
 20
1.985572835005024
 30
0.0
 10
8.72198429928023
 20
1.983468876543739
 30
0.0
 10
8.72198429928023
 20
1.982474914125332
 30
0.0
 10
8.72198429928023
 20
1.98076431675435
 30
0.0
 10
8.72198429928023
 20
1.980026236765539
 30
0.0
 10
8.72198429928023
 20
1.978833623029853
 30
0.0
 10
8.72198429928023
 20
1.978363896216907
 30
0.0
 10
8.72198429928023
 20
1.977207808841869
 30
0.0
 10
8.72198429928023
 20
1.976787515349822
 30
0.0
 10
8.72198429928023
 20
1.976235318326852
 30
0.0
 10
8.72198429928023
 20
1.97611433858761
 30
0.0
 10
8.72198429928023
 20
1.975990605449024
 30
0.0
 10
8.72198429928023
 20
1.975991271582657
 30
0.0
 10
8.72198429928023
 20
1.975991271582657
 30
0.0
  0
ARC
  5
183
330
1F
100
AcDbEntity
  8
0
  6
Continuous
 62
     7
370
    25
100
AcDbCircle
 10
8.7156850867
 20
1.9759912716
 30
0.0
 40
0.0062992125984254
100
AcDbArc
 50
270.0
 51
0.0
  0
SPLINE
  5
184
330
1F
100
AcDbEntity
  8
0
  6
Continuous
 62
     7
370
    25
100
AcDbSpline
210
0.0
220
0.0
230
1.0
 70
    24
 71
     3
 72
    30
 73
    26
 74
     0
 42
0.000000001
 43
0.00000001
 40
0.0
 40
0.0
 40
0.0
 40
0.0
 40
0.1249999999999997
 40
0.1249999999999997
 40
0.2499999999999993
 40
0.2499999999999993
 40
0.3124999999999992
 40
0.3124999999999992
 40
0.374999999999999
 40
0.374999999999999
 40
0.4374999999999988
 40
0.4374999999999988
 40
0.4999999999999987
 40
0.4999999999999987
 40
0.5624999999999984
 40
0.5624999999999984
 40
0.6249999999999983
 40
0.6249999999999983
 40
0.6874999999999982
 40
0.6874999999999982
 40
0.749999999999998
 40
0.749999999999998
 40
0.874999999999999
 40
0.874999999999999
 40
1.0
 40
1.0
 40
1.0
 40
1.0
 10
8.715685086681805
 20
1.969692058984231
 30
0.0
 10
8.715685086681805
 20
1.969692058984231
 30
0.0
 10
8.715685086681805
 20
1.969691877119252
 30
0.0
 10
8.715685086681805
 20
1.969882916776495
 30
0.0
 10
8.715685086681805
 20
1.970070613596437
 30
0.0
 10
8.715685086681805
 20
1.970688481739305
 30
0.0
 10
8.715685086681805
 20
1.970950583312572
 30
0.0
 10
8.715685086681805
 20
1.971635590547032
 30
0.0
 10
8.715685086681805
 20
1.972062119145606
 30
0.0
 10
8.715685086681805
 20
1.973119608508411
 30
0.0
 10
8.715685086681805
 20
1.973750318946934
 30
0.0
 10
8.715685086681805
 20
1.975273714043271
 30
0.0
 10
8.715685086681805
 20
1.976169971175687
 30
0.0
 10
8.715685086681805
 20
1.978164670639861
 30
0.0
 10
8.715685086681805
 20
1.979281689279949
 30
0.0
 10
8.715685086681805
 20
1.981680913189817
 30
0.0
 10
8.715685086681805
 20
1.982940278661019
 30
0.0
 10
8.715685086681805
 20
1.985549538175267
 30
0.0
 10
8.715685086681805
 20
1.986908896465072
 30
0.0
 10
8.715685086681805
 20
1.989641427295538
 30
0.0
 10
8.715685086681805
 20
1.991014549917442
 30
0.0
 10
8.715685086681805
 20
1.995147785644525
 30
0.0
 10
8.715685086681805
 20
1.997921513032871
 30
0.0
 10
8.715685086681805
 20
2.003483976751892
 30
0.0
 10
8.715685086681805
 20
2.006273059938917
 30
0.0
 10
8.715685086681805
 20
2.009062137724324
 30
0.0
  0
LINE
  5
185
330
1F
100
AcDbEntity
  8
0
  6
Continuous
 62
     7
370
    25
100
AcDbLine
 10
8.7219842993
 20
2.0090621377
 30
0.0
 11
8.7156850867
 21
2.0090621377
 31
0.0
  0
SPLINE
  5
186
330
1F
100
AcDbEntity
  8
0
  6
Continuous
 62
     7
370
    25
100
AcDbSpline
210
0.0
220
0.0
230
1.0
 70
    24
 71
     3
 72
    26
 73
    22
 74
     0
 42
0.000000001
 43
0.00000001
 40
0.0
 40
0.0
 40
0.0
 40
0.0
 40
0.1249999999999988
 40
0.1249999999999988
 40
0.2499999999999977
 40
0.2499999999999977
 40
0.3749999999999965
 40
0.3749999999999965
 40
0.4374999999999942
 40
0.4374999999999942
 40
0.4999999999999918
 40
0.4999999999999918
 40
0.5624999999999895
 40
0.5624999999999895
 40
0.6249999999999871
 40
0.6249999999999871
 40
0.7499999999999913
 40
0.7499999999999913
 40
0.8749999999999956
 40
0.8749999999999956
 40
1.0
 40
1.0
 40
1.0
 40
1.0
 10
8.688913433138497
 20
2.009062137724324
 30
0.0
 10
8.688913433138497
 20
2.006249342009378
 30
0.0
 10
8.688913433138497
 20
2.003436538509885
 30
0.0
 10
8.688913433138497
 20
1.997820426626442
 30
0.0
 10
8.688913433138497
 20
1.995016887128151
 30
0.0
 10
8.688913433138497
 20
1.989432227921546
 30
0.0
 10
8.688913433138497
 20
1.986671052522442
 30
0.0
 10
8.688913433138497
 20
1.982742159324561
 30
0.0
 10
8.688913433138497
 20
1.981489686990042
 30
0.0
 10
8.688913433138497
 20
1.979127546149783
 30
0.0
 10
8.688913433138497
 20
1.978007200476657
 30
0.0
 10
8.688913433138497
 20
1.976036632362298
 30
0.0
 10
8.688913433138497
 20
1.975174519258652
 30
0.0
 10
8.688913433138497
 20
1.973675831704268
 30
0.0
 10
8.688913433138497
 20
1.973043453693817
 30
0.0
 10
8.688913433138497
 20
1.971490283742241
 30
0.0
 10
8.688913433138497
 20
1.97086543609156
 30
0.0
 10
8.688913433138497
 20
1.970061454543705
 30
0.0
 10
8.688913433138497
 20
1.969878825969072
 30
0.0
 10
8.688913433138497
 20
1.9696919428925
 30
0.0
 10
8.688913433138497
 20
1.969692058984231
 30
0.0
 10
8.688913433138497
 20
1.969692058984231
 30
0.0
  0
LINE
  5
187
330
1F
100
AcDbEntity
  8
0
  6
Continuous
 62
     7
370
    25
100
AcDbLine
 10
8.7156850867
 20
2.0090621377
 30
0.0
 11
8.6889134331
 21
2.0090621377
 31
0.0
  0
LINE
  5
188
330
1F
100
AcDbEntity
  8
0
  6
Continuous
 62
     7
370
    25
100
AcDbLine
 10
8.7156850867
 20
1.969692059
 30
0.0
 11
8.6889134331
 21
1.969692059
 31
0.0
  0
ARC
  5
189
330
1F
100
AcDbEntity
  8
0
  6
Continuous
 62
     7
370
    25
100
AcDbCircle
 10
8.6889134331
 20
1.9759912716
 30
0.0
 40
0.0062992125984254
100
AcDbArc
 50
180.0
 51
270.0
  0
SPLINE
  5
18A
330
1F
100
AcDbEntity
  8
0
  6
Continuous
 62
     7
370
    25
100
AcDbSpline
210
0.0
220
0.0
230
1.0
 70
    24
 71
     3
 72
    22
 73
    18
 74
     0
 42
0.000000001
 43
0.00000001
 40
0.0
 40
0.0
 40
0.0
 40
0.0
 40
0.2499999999999898
 40
0.2499999999999898
 40
0.3749999999999848
 40
0.3749999999999848
 40
0.4999999999999797
 40
0.4999999999999797
 40
0.5624999999999822
 40
0.5624999999999822
 40
0.6249999999999848
 40
0.6249999999999848
 40
0.7499999999999898
 40
0.7499999999999898
 40
0.8749999999999949
 40
0.8749999999999949
 40
1.0
 40
1.0
 40
1.0
 40
1.0
 10
8.682614220540072
 20
1.975991271582657
 30
0.0
 10
8.682614220540072
 20
1.975991271582657
 30
0.0
 10
8.682614220540072
 20
1.975961659810537
 30
0.0
 10
8.682614220540072
 20
1.976765352037712
 30
0.0
 10
8.682614220540072
 20
1.977181302093354
 30
0.0
 10
8.682614220540072
 20
1.978671367266427
 30
0.0
 10
8.682614220540072
 20
1.97979750035319
 30
0.0
 10
8.682614220540072
 20
1.982318288511333
 30
0.0
 10
8.682614220540072
 20
1.983302391145062
 30
0.0
 10
8.682614220540072
 20
1.985380839890944
 30
0.0
 10
8.682614220540072
 20
1.986496921417193
 30
0.0
 10
8.682614220540072
 20
1.989921997104739
 30
0.0
 10
8.682614220540072
 20
1.99230421475845
 30
0.0
 10
8.682614220540072
 20
1.997076683246222
 30
0.0
 10
8.682614220540072
 20
1.999470315526256
 30
0.0
 10
8.682614220540072
 20
2.004263248225806
 30
0.0
 10
8.682614220540072
 20
2.006662708598737
 30
0.0
 10
8.682614220540072
 20
2.009062137724324
 30
0.0
  0
LINE
  5
18B
330
1F
100
AcDbEntity
  8
0
  6
Continuous
 62
     7
370
    25
100
AcDbLine
 10
8.6889134331
 20
2.0090621377
 30
0.0
 11
8.6826142205
 21
2.0090621377
 31
0.0
  0
LINE
  5
18C
330
1F
100
AcDbEntity
  8
0
  6
Continuous
 62
     7
370
    25
100
AcDbLine
 10
8.6889134331
 20
2.0484322165
 30
0.0
 11
8.6826142205
 21
2.0484322165
 31
0.0
  0
SPLINE
  5
18D
330
1F
100
AcDbEntity
  8
0
  6
Continuous
 62
     7
370
    25
100
AcDbSpline
210
0.0
220
0.0
230
1.0
 70
    24
 71
     3
 72
    22
 73
    18
 74
     0
 42
0.000000001
 43
0.00000001
 40
0.0
 40
0.0
 40
0.0
 40
0.0
 40
0.250000000000005
 40
0.250000000000005
 40
0.3750000000000068
 40
0.3750000000000068
 40
0.5000000000000087
 40
0.5000000000000087
 40
0.5625000000000075
 40
0.5625000000000075
 40
0.6250000000000064
 40
0.6250000000000064
 40
0.7500000000000043
 40
0.7500000000000043
 40
0.8750000000000021
 40
0.8750000000000021
 40
1.0
 40
1.0
 40
1.0
 40
1.0
 10
8.682614220540072
 20
2.048432216464612
 30
0.0
 10
8.682614220540072
 20
2.053206264680134
 30
0.0
 10
8.682614220540072
 20
2.057982121560419
 30
0.0
 10
8.682614220540072
 20
2.065094104967118
 30
0.0
 10
8.682614220540072
 20
2.067482352964458
 30
0.0
 10
8.682614220540072
 20
2.072018358155933
 30
0.0
 10
8.682614220540072
 20
2.074215624533121
 30
0.0
 10
8.682614220540072
 20
2.076765826121533
 30
0.0
 10
8.682614220540072
 20
2.077498358644903
 30
0.0
 10
8.682614220540072
 20
2.078680581511922
 30
0.0
 10
8.682614220540072
 20
2.079152051880706
 30
0.0
 10
8.682614220540072
 20
2.080295266225654
 30
0.0
 10
8.682614220540072
 20
2.08071450928206
 30
0.0
 10
8.682614220540072
 20
2.081260984187309
 30
0.0
 10
8.682614220540072
 20
2.081381024317119
 30
0.0
 10
8.682614220540072
 20
2.081503729671183
 30
0.0
 10
8.682614220540072
 20
2.081503082606279
 30
0.0
 10
8.682614220540072
 20
2.081503082606279
 30
0.0
  0
ARC
  5
18E
330
1F
100
AcDbEntity
  8
0
  6
Continuous
 62
     7
370
    25
100
AcDbCircle
 10
8.6889134331
 20
2.0815030826
 30
0.0
 40
0.0062992125984249
100
AcDbArc
 50
90.0
 51
180.0
  0
LINE
  5
18F
330
1F
100
AcDbEntity
  8
0
  6
Continuous
 62
     7
370
    25
100
AcDbLine
 10
8.7219842993
 20
2.0484322165
 30
0.0
 11
8.7219842993
 21
2.0090621377
 31
0.0
  0
LINE
  5
190
330
1F
100
AcDbEntity
  8
0
  6
Continuous
 62
     7
370
    25
100
AcDbLine
 10
8.7156850867
 20
2.0090621377
 30
0.0
 11
8.7156850867
 21
2.0484322165
 31
0.0
  0
LINE
  5
191
330
1F
100
AcDbEntity
  8
0
  6
Continuous
 62
     7
370
    25
100
AcDbLine
 10
8.6889134331
 20
2.0484322165
 30
0.0
 11
8.6889134331
 21
2.0090621377
 31
0.0
  0
LINE
  5
192
330
1F
100
AcDbEntity
  8
0
  6
Continuous
 62
     7
370
    25
100
AcDbLine
 10
8.6826142205
 20
2.0090621377
 30
0.0
 11
8.6826142205
 21
2.0484322165
 31
0.0
  0
LINE
  5
193
330
1F
100
AcDbEntity
  8
0
  6
Continuous
 62
     7
370
    25
100
AcDbLine
 10
8.7150476664
 20
1.9633928464
 30
0.0
 11
8.6895508535
 21
1.9633928464
 31
0.0
  0
ARC
  5
194
330
1F
100
AcDbEntity
  8
0
  6
Continuous
 62
     7
370
    25
100
AcDbCircle
 10
8.6735100277
 20
1.9649515243
 30
0.0
 40
0.0161163757891315
100
AcDbArc
 50
354.4500253055
 51
17.1062128328
  0
ARC
  5
195
330
1F
100
AcDbEntity
  8
0
  6
Continuous
 62
     7
370
    25
100
AcDbCircle
 10
8.7310884921
 20
1.9649515243
 30
0.0
 40
0.0161163757891331
100
AcDbArc
 50
162.8937871672
 51
185.5499746945
  0
SPLINE
  5
196
330
1F
100
AcDbEntity
  8
0
  6
Continuous
 62
     7
370
    25
100
AcDbSpline
210
0.0
220
0.0
230
1.0
 70
     8
 71
     3
 72
    18
 73
    14
 74
     0
 42
0.000000001
 43
0.00000001
 40
0.0
 40
0.0
 40
0.0
 40
0.0
 40
0.2500000000000041
 40
0.2500000000000041
 40
0.5000000000000082
 40
0.5000000000000082
 40
0.6250000000000061
 40
0.6250000000000061
 40
0.7500000000000041
 40
0.7500000000000041
 40
0.875000000000002
 40
0.875000000000002
 40
1.0
 40
1.0
 40
1.0
 40
1.0
 10
8.67755235327348
 20
1.975991271582657
 30
0.0
 10
8.67755235327348
 20
1.974359231558967
 30
0.0
 10
8.67785798374869
 20
1.972736048238509
 30
0.0
 10
8.679019565696604
 20
1.96974165438508
 30
0.0
 10
8.679890240589787
 20
1.968342010386089
 30
0.0
 10
8.681528718761767
 20
1.966586995056826
 30
0.0
 10
8.682141333401875
 20
1.966047546137611
 30
0.0
 10
8.683444638491675
 20
1.965114766977665
 30
0.0
 10
8.684136536921512
 20
1.964717382846612
 30
0.0
 10
8.685603744824464
 20
1.964064680375344
 30
0.0
 10
8.686378683609098
 20
1.963812306044624
 30
0.0
 10
8.68794144483882
 20
1.963478654160955
 30
0.0
 10
8.688738057673632
 20
1.963392846385806
 30
0.0
 10
8.689550853460958
 20
1.963392846385806
 30
0.0
  0
LINE
  5
197
330
1F
100
AcDbEntity
  8
0
  6
Continuous
 62
     7
370
    25
100
AcDbLine
 10
8.6775523533
 20
1.9759912716
 30
0.0
 11
8.6826142205
 21
1.9759912716
 31
0.0
  0
SPLINE
  5
198
330
1F
100
AcDbEntity
  8
0
  6
Continuous
 62
     7
370
    25
100
AcDbSpline
210
0.0
220
0.0
230
1.0
 70
     8
 71
     3
 72
    18
 73
    14
 74
     0
 42
0.000000001
 43
0.00000001
 40
0.0
 40
0.0
 40
0.0
 40
0.0
 40
0.2499999999999989
 40
0.2499999999999989
 40
0.4999999999999978
 40
0.4999999999999978
 40
0.6249999999999983
 40
0.6249999999999983
 40
0.7499999999999989
 40
0.7499999999999989
 40
0.8749999999999994
 40
0.8749999999999994
 40
1.0
 40
1.0
 40
1.0
 40
1.0
 10
8.715047666359345
 20
1.963392846385806
 30
0.0
 10
8.716672634382762
 20
1.963392846385806
 30
0.0
 10
8.718280768510041
 20
1.963745508693693
 30
0.0
 10
8.721194879606795
 20
1.965044968041384
 30
0.0
 10
8.722529335118256
 20
1.966006596356519
 30
0.0
 10
8.72416731889927
 20
1.967763325622822
 30
0.0
 10
8.724663759033012
 20
1.968412501362894
 30
0.0
 10
8.725513892317327
 20
1.969777161495063
 30
0.0
 10
8.725871986058674
 20
1.970495209930779
 30
0.0
 10
8.726455268242894
 20
1.972002532080825
 30
0.0
 10
8.726677579830323
 20
1.972789420967416
 30
0.0
 10
8.726971413457374
 20
1.974372135408131
 30
0.0
 10
8.727046166546822
 20
1.975175485331848
 30
0.0
 10
8.727046166546822
 20
1.975991271582657
 30
0.0
  0
LINE
  5
199
330
1F
100
AcDbEntity
  8
0
  6
Continuous
 62
     7
370
    25
100
AcDbLine
 10
8.7270461665
 20
1.9759912716
 30
0.0
 11
8.7219842993
 21
1.9759912716
 31
0.0
  0
LINE
  5
19A
330
1F
100
AcDbEntity
  8
0
  6
Continuous
 62
     7
370
    25
100
AcDbLine
 10
8.7270461665
 20
2.0815030826
 30
0.0
 11
8.7219842993
 21
2.0815030826
 31
0.0
  0
ARC
  5
19B
330
1F
100
AcDbEntity
  8
0
  6
Continuous
 62
     7
370
    25
100
AcDbCircle
 10
8.7181009779
 20
2.0830171233
 30
0.0
 40
0.0090724153036508
100
AcDbArc
 50
350.393304539
 51
31.8327765329
  0
LINE
  5
19C
330
1F
100
AcDbEntity
  8
0
  6
Continuous
 62
     7
370
    25
100
AcDbLine
 10
8.7156850867
 20
2.0878022952
 30
0.0
 11
8.7258088212
 21
2.0878022952
 31
0.0
  0
LINE
  5
19D
330
1F
100
AcDbEntity
  8
0
  6
Continuous
 62
     7
370
    25
100
AcDbLine
 10
8.7270461665
 20
2.0815030826
 30
0.0
 11
8.7270461665
 21
1.9759912716
 31
0.0
  0
LINE
  5
19E
330
1F
100
AcDbEntity
  8
0
  6
Continuous
 62
     7
370
    25
100
AcDbLine
 10
8.6826142205
 20
2.0815030826
 30
0.0
 11
8.6775523533
 21
2.0815030826
 31
0.0
  0
ARC
  5
19F
330
1F
100
AcDbEntity
  8
0
  6
Continuous
 62
     7
370
    25
100
AcDbCircle
 10
8.6864975419
 20
2.0830171233
 30
0.0
 40
0.0090724153036508
100
AcDbArc
 50
148.1672234671
 51
189.606695461
  0
LINE
  5
1A0
330
1F
100
AcDbEntity
  8
0
  6
Continuous
 62
     7
370
    25
100
AcDbLine
 10
8.6787896986
 20
2.0878022952
 30
0.0
 11
8.6889134331
 21
2.0878022952
 31
0.0
  0
LINE
  5
1A1
330
1F
100
AcDbEntity
  8
0
  6
Continuous
 62
     7
370
    25
100
AcDbLine
 10
8.6775523533
 20
1.9759912716
 30
0.0
 11
8.6775523533
 21
2.0815030826
 31
0.0
  0
LINE
  5
1A2
330
1F
100
AcDbEntity
  8
0
  6
Continuous
 62
     7
370
    25
100
AcDbLine
 10
8.5763150079
 20
1.6153613503
 30
0.0
 11
8.8282835119
 21
1.6153613503
 31
0.0
  0
LINE
  5
1A3
330
1F
100
AcDbEntity
  8
0
  6
Continuous
 62
     7
370
    25
100
AcDbLine
 10
8.7258088212
 20
2.0878022952
 30
0.0
 11
8.8219842993
 21
2.0878022952
 31
0.0
  0
LINE
  5
1A4
330
1F
100
AcDbEntity
  8
0
  6
Continuous
 62
     7
370
    25
100
AcDbLine
 10
8.5826142205
 20
2.0878022952
 30
0.0
 11
8.6787896986
 21
2.0878022952
 31
0.0
  0
LINE
  5
1A5
330
1F
100
AcDbEntity
  8
0
  6
Continuous
 62
     7
370
    25
100
AcDbLine
 10
8.6038740631
 20
2.7979270422
 30
0.0
 11
8.8007244568
 21
2.7979270422
 31
0.0
  0
LINE
  5
1A6
330
1F
100
AcDbEntity
  8
0
  6
Continuous
 62
     7
370
    25
100
AcDbLine
 10
8.1379316815
 20
2.9227759271
 30
0.0
 11
7.9674542399
 21
3.0212011239
 31
0.0
  0
LINE
  5
1A7
330
1F
100
AcDbEntity
  8
0
  6
Continuous
 62
     7
370
    25
100
AcDbLine
 10
7.7146983343
 20
2.5834150537
 30
0.0
 11
7.885175776
 21
2.4849898568
 31
0.0
  0
LINE
  5
1A8
330
1F
100
AcDbEntity
  8
0
  6
Continuous
 62
     7
370
    25
100
AcDbLine
 10
8.950330756
 20
1.938195996
 30
0.0
 11
8.950330756
 21
1.9618180432
 31
0.0
  0
LINE
  5
1A9
330
1F
100
AcDbEntity
  8
0
  6
Continuous
 62
     7
370
    25
100
AcDbLine
 10
8.950330756
 20
1.9145739487
 30
0.0
 11
8.950330756
 21
1.938195996
 31
0.0
  0
LINE
  5
1AA
330
1F
100
AcDbEntity
  8
0
  6
Continuous
 62
     7
370
    25
100
AcDbLine
 10
8.7022992599
 20
1.601188122
 30
0.0
 11
8.4857638268
 21
1.601188122
 31
0.0
  0
LINE
  5
1AB
330
1F
100
AcDbEntity
  8
0
  6
Continuous
 62
     7
370
    25
100
AcDbLine
 10
8.918834693
 20
1.601188122
 30
0.0
 11
8.7022992599
 21
1.601188122
 31
0.0
  0
LINE
  5
1AC
330
1F
100
AcDbEntity
  8
0
  6
Continuous
 62
     7
370
    25
100
AcDbLine
 10
8.6775523533
 20
2.0815030826
 30
0.0
 11
8.5763150079
 21
2.0815030826
 31
0.0
  0
LINE
  5
1AD
330
1F
100
AcDbEntity
  8
0
  6
Continuous
 62
     7
370
    25
100
AcDbLine
 10
8.8282835119
 20
2.0815030826
 30
0.0
 11
8.7270461665
 21
2.0815030826
 31
0.0
  0
ENDSEC
  0
SECTION
  2
OBJECTS
  0
DICTIONARY
  5
C
330
0
100
AcDbDictionary
281
     1
  3
ACAD_GROUP
350
D
  3
ACAD_LAYOUT
350
1A
  3
ACAD_MLINESTYLE
350
17
  3
ACAD_PLOTSETTINGS
350
19
  3
ACAD_PLOTSTYLENAME
350
E
  3
ACAD_SCALELIST
350
47
  0
DICTIONARY
  5
D
102
{ACAD_REACTORS
330
C
102
}
330
C
100
AcDbDictionary
281
     1
  0
DICTIONARY
  5
1A
102
{ACAD_REACTORS
330
C
102
}
330
C
100
AcDbDictionary
281
     1
  3
Layout1
350
1E
  3
Layout2
350
26
  3
Model
350
22
  0
DICTIONARY
  5
17
102
{ACAD_REACTORS
330
C
102
}
330
C
100
AcDbDictionary
281
     1
  3
Standard
350
18
  0
DICTIONARY
  5
19
102
{ACAD_REACTORS
330
C
102
}
330
C
100
AcDbDictionary
281
     1
  0
ACDBDICTIONARYWDFLT
  5
E
102
{ACAD_REACTORS
330
C
102
}
330
C
100
AcDbDictionary
281
     1
  3
Normal
350
F
100
AcDbDictionaryWithDefault
340
F
  0
DICTIONARY
  5
47
102
{ACAD_REACTORS
330
C
102
}
330
C
100
AcDbDictionary
281
     1
  3
A0
350
48
  3
A1
350
49
  3
A2
350
4A
  3
A3
350
4B
  3
A4
350
4C
  3
A5
350
4D
  3
A6
350
4E
  3
A7
350
4F
  3
A8
350
50
  3
A9
350
51
  3
B0
350
52
  3
B1
350
53
  3
B2
350
54
  3
B3
350
55
  3
B4
350
56
  3
B5
350
57
  3
B6
350
58
  3
B7
350
59
  3
B8
350
5A
  3
B9
350
5B
  3
C0
350
5C
  3
C1
350
5D
  3
C2
350
5E
  3
C3
350
5F
  3
C4
350
60
  3
C5
350
61
  3
C6
350
62
  3
C7
350
63
  3
C8
350
64
  3
C9
350
65
  3
D0
350
66
  3
D1
350
67
  3
D2
350
68
  0
LAYOUT
  5
1E
102
{ACAD_REACTORS
330
1A
102
}
330
1A
100
AcDbPlotSettings
  1

  2
none_device
  4

  6

 40
0.0
 41
0.0
 42
0.0
 43
0.0
 44
0.0
 45
0.0
 46
0.0
 47
0.0
 48
0.0
 49
0.0
140
0.0
141
0.0
142
1.0
143
1.0
 70
   688
 72
     0
 73
     0
 74
     5
  7

 75
    16
147
1.0
148
0.0
149
0.0
100
AcDbLayout
  1
Layout1
 70
     1
 71
     1
 10
0.0
 20
0.0
 11
12.0
 21
9.0
 12
0.0
 22
0.0
 32
0.0
 14
1.0000000000E+20
 24
1.0000000000E+20
 34
1.0000000000E+20
 15
-1.0000000000E+20
 25
-1.0000000000E+20
 35
-1.0000000000E+20
146
0.0
 13
0.0
 23
0.0
 33
0.0
 16
1.0
 26
0.0
 36
0.0
 17
0.0
 27
1.0
 37
0.0
 76
     0
330
1B
  0
LAYOUT
  5
26
102
{ACAD_REACTORS
330
1A
102
}
330
1A
100
AcDbPlotSettings
  1

  2
none_device
  4

  6

 40
0.0
 41
0.0
 42
0.0
 43
0.0
 44
0.0
 45
0.0
 46
0.0
 47
0.0
 48
0.0
 49
0.0
140
0.0
141
0.0
142
1.0
143
1.0
 70
   688
 72
     0
 73
     0
 74
     5
  7

 75
    16
147
1.0
148
0.0
149
0.0
100
AcDbLayout
  1
Layout2
 70
     1
 71
     2
 10
0.0
 20
0.0
 11
0.0
 21
0.0
 12
0.0
 22
0.0
 32
0.0
 14
0.0
 24
0.0
 34
0.0
 15
0.0
 25
0.0
 35
0.0
146
0.0
 13
0.0
 23
0.0
 33
0.0
 16
1.0
 26
0.0
 36
0.0
 17
0.0
 27
1.0
 37
0.0
 76
     0
330
23
  0
LAYOUT
  5
22
102
{ACAD_REACTORS
330
1A
102
}
330
1A
100
AcDbPlotSettings
  1

  2
none_device
  4
Letter_(8.50_x_11.00_Inches)
  6

 40
6.35
 41
6.35
 42
6.35000508
 43
6.35000508
 44
215.9
 45
279.4
 46
0.0
 47
0.0
 48
0.0
 49
0.0
140
0.0
141
0.0
142
1.0
143
1.0
 70
  1712
 72
     0
 73
     0
 74
     0
  7

 75
     0
147
1.0
148
0.0
149
0.0
100
AcDbLayout
  1
Model
 70
     1
 71
     0
 10
0.0
 20
0.0
 11
11.0
 21
8.5
 12
0.0
 22
0.0
 32
0.0
 14
0.0
 24
0.0
 34
0.0
 15
11.0
 25
8.5
 35
0.0
146
0.0
 13
0.0
 23
0.0
 33
0.0
 16
1.0
 26
0.0
 36
0.0
 17
0.0
 27
1.0
 37
0.0
 76
     0
330
1F
331
29
  0
MLINESTYLE
  5
18
102
{ACAD_REACTORS
330
17
102
}
330
17
100
AcDbMlineStyle
  2
Standard
 70
     0
  3

 62
   256
 51
90.0
 52
90.0
 71
     2
 49
0.5
 62
   256
  6
BYLAYER
 49
-0.5
 62
   256
  6
BYLAYER
  0
ACDBPLACEHOLDER
  5
F
102
{ACAD_REACTORS
330
E
102
}
330
E
  0
SCALE
  5
48
102
{ACAD_REACTORS
330
47
102
}
330
47
100
AcDbScale
 70
     0
300
1:1
140
1.0
141
1.0
290
     1
  0
SCALE
  5
49
102
{ACAD_REACTORS
330
47
102
}
330
47
100
AcDbScale
 70
     0
300
1:2
140
1.0
141
2.0
290
     0
  0
SCALE
  5
4A
102
{ACAD_REACTORS
330
47
102
}
330
47
100
AcDbScale
 70
     0
300
1:4
140
1.0
141
4.0
290
     0
  0
SCALE
  5
4B
102
{ACAD_REACTORS
330
47
102
}
330
47
100
AcDbScale
 70
     0
300
1:5
140
1.0
141
5.0
290
     0
  0
SCALE
  5
4C
102
{ACAD_REACTORS
330
47
102
}
330
47
100
AcDbScale
 70
     0
300
1:8
140
1.0
141
8.0
290
     0
  0
SCALE
  5
4D
102
{ACAD_REACTORS
330
47
102
}
330
47
100
AcDbScale
 70
     0
300
1:10
140
1.0
141
10.0
290
     0
  0
SCALE
  5
4E
102
{ACAD_REACTORS
330
47
102
}
330
47
100
AcDbScale
 70
     0
300
1:16
140
1.0
141
16.0
290
     0
  0
SCALE
  5
4F
102
{ACAD_REACTORS
330
47
102
}
330
47
100
AcDbScale
 70
     0
300
1:20
140
1.0
141
20.0
290
     0
  0
SCALE
  5
50
102
{ACAD_REACTORS
330
47
102
}
330
47
100
AcDbScale
 70
     0
300
1:30
140
1.0
141
30.0
290
     0
  0
SCALE
  5
51
102
{ACAD_REACTORS
330
47
102
}
330
47
100
AcDbScale
 70
     0
300
1:40
140
1.0
141
40.0
290
     0
  0
SCALE
  5
52
102
{ACAD_REACTORS
330
47
102
}
330
47
100
AcDbScale
 70
     0
300
1:50
140
1.0
141
50.0
290
     0
  0
SCALE
  5
53
102
{ACAD_REACTORS
330
47
102
}
330
47
100
AcDbScale
 70
     0
300
1:100
140
1.0
141
100.0
290
     0
  0
SCALE
  5
54
102
{ACAD_REACTORS
330
47
102
}
330
47
100
AcDbScale
 70
     0
300
2:1
140
2.0
141
1.0
290
     0
  0
SCALE
  5
55
102
{ACAD_REACTORS
330
47
102
}
330
47
100
AcDbScale
 70
     0
300
4:1
140
4.0
141
1.0
290
     0
  0
SCALE
  5
56
102
{ACAD_REACTORS
330
47
102
}
330
47
100
AcDbScale
 70
     0
300
8:1
140
8.0
141
1.0
290
     0
  0
SCALE
  5
57
102
{ACAD_REACTORS
330
47
102
}
330
47
100
AcDbScale
 70
     0
300
10:1
140
10.0
141
1.0
290
     0
  0
SCALE
  5
58
102
{ACAD_REACTORS
330
47
102
}
330
47
100
AcDbScale
 70
     0
300
100:1
140
100.0
141
1.0
290
     0
  0
SCALE
  5
59
102
{ACAD_REACTORS
330
47
102
}
330
47
100
AcDbScale
 70
     0
300
1/128" = 1'-0"
140
0.0078125
141
12.0
290
     0
  0
SCALE
  5
5A
102
{ACAD_REACTORS
330
47
102
}
330
47
100
AcDbScale
 70
     0
300
1/64" = 1'-0"
140
0.015625
141
12.0
290
     0
  0
SCALE
  5
5B
102
{ACAD_REACTORS
330
47
102
}
330
47
100
AcDbScale
 70
     0
300
1/32" = 1'-0"
140
0.03125
141
12.0
290
     0
  0
SCALE
  5
5C
102
{ACAD_REACTORS
330
47
102
}
330
47
100
AcDbScale
 70
     0
300
1/16" = 1'-0"
140
0.0625
141
12.0
290
     0
  0
SCALE
  5
5D
102
{ACAD_REACTORS
330
47
102
}
330
47
100
AcDbScale
 70
     0
300
3/32" = 1'-0"
140
0.09375
141
12.0
290
     0
  0
SCALE
  5
5E
102
{ACAD_REACTORS
330
47
102
}
330
47
100
AcDbScale
 70
     0
300
1/8" = 1'-0"
140
0.125
141
12.0
290
     0
  0
SCALE
  5
5F
102
{ACAD_REACTORS
330
47
102
}
330
47
100
AcDbScale
 70
     0
300
3/16" = 1'-0"
140
0.1875
141
12.0
290
     0
  0
SCALE
  5
60
102
{ACAD_REACTORS
330
47
102
}
330
47
100
AcDbScale
 70
     0
300
1/4" = 1'-0"
140
0.25
141
12.0
290
     0
  0
SCALE
  5
61
102
{ACAD_REACTORS
330
47
102
}
330
47
100
AcDbScale
 70
     0
300
3/8" = 1'-0"
140
0.375
141
12.0
290
     0
  0
SCALE
  5
62
102
{ACAD_REACTORS
330
47
102
}
330
47
100
AcDbScale
 70
     0
300
1/2" = 1'-0"
140
0.5
141
12.0
290
     0
  0
SCALE
  5
63
102
{ACAD_REACTORS
330
47
102
}
330
47
100
AcDbScale
 70
     0
300
3/4" = 1'-0"
140
0.75
141
12.0
290
     0
  0
SCALE
  5
64
102
{ACAD_REACTORS
330
47
102
}
330
47
100
AcDbScale
 70
     0
300
1" = 1'-0"
140
1.0
141
12.0
290
     0
  0
SCALE
  5
65
102
{ACAD_REACTORS
330
47
102
}
330
47
100
AcDbScale
 70
     0
300
1-1/2" = 1'-0"
140
1.5
141
12.0
290
     0
  0
SCALE
  5
66
102
{ACAD_REACTORS
330
47
102
}
330
47
100
AcDbScale
 70
     0
300
3" = 1'-0"
140
3.0
141
12.0
290
     0
  0
SCALE
  5
67
102
{ACAD_REACTORS
330
47
102
}
330
47
100
AcDbScale
 70
     0
300
6" = 1'-0"
140
6.0
141
12.0
290
     0
  0
SCALE
  5
68
102
{ACAD_REACTORS
330
47
102
}
330
47
100
AcDbScale
 70
     0
300
1'-0" = 1'-0"
140
12.0
141
12.0
290
     0
  0
ENDSEC
  0
EOF
