  0
SECTION
  2
HEADER
  9
$ACADVER
  1
AC1015
  9
$ACADMAINTVER
 70
     6
  9
$DWGCODEPAGE
  3
ANSI_1252
  9
$INSBASE
 10
0.0
 20
0.0
 30
0.0
  9
$EXTMIN
 10
0.0
 20
0.0
 30
0.0
  9
$EXTMAX
 10
11.0
 20
8.5
 30
0.0
  9
$LIMMIN
 10
0.0
 20
0.0
  9
$LIMMAX
 10
11.0
 20
8.5
  9
$ORTHOMODE
 70
     0
  9
$REGENMODE
 70
     1
  9
$FILLMODE
 70
     1
  9
$QTEXTMODE
 70
     0
  9
$MIRRTEXT
 70
     1
  9
$LTSCALE
 40
1.0
  9
$ATTMODE
 70
     1
  9
$TEXTSIZE
 40
0.1377952756
  9
$TRACEWID
 40
0.05
  9
$TEXTSTYLE
  7
Standard
  9
$CLAYER
  8
0
  9
$CELTYPE
  6
ByLayer
  9
$CECOLOR
 62
   256
  9
$CELTSCALE
 40
1.0
  9
$DISPSILH
 70
     0
  9
$DIMSCALE
 40
1.0
  9
$DIMASZ
 40
0.13
  9
$DIMEXO
 40
0.0393700787
  9
$DIMDLI
 40
0.38
  9
$DIMRND
 40
0.0
  9
$DIMDLE
 40
0.0
  9
$DIMEXE
 40
0.0393700787
  9
$DIMTP
 40
0.0
  9
$DIMTM
 40
0.0
  9
$DIMTXT
 40
0.1377952756
  9
$DIMCEN
 40
0.09
  9
$DIMTSZ
 40
0.0
  9
$DIMTOL
 70
     0
  9
$DIMLIM
 70
     0
  9
$DIMTIH
 70
     1
  9
$DIMTOH
 70
     1
  9
$DIMSE1
 70
     0
  9
$DIMSE2
 70
     0
  9
$DIMTAD
 70
     1
  9
$DIMZIN
 70
     0
  9
$DIMBLK
  1

  9
$DIMASO
 70
     1
  9
$DIMSHO
 70
     1
  9
$DIMPOST
  1

  9
$DIMAPOST
  1

  9
$DIMALT
 70
     0
  9
$DIMALTD
 70
     2
  9
$DIMALTF
 40
25.4
  9
$DIMLFAC
 40
2.0
  9
$DIMTOFL
 70
     0
  9
$DIMTVP
 40
0.0
  9
$DIMTIX
 70
     0
  9
$DIMSOXD
 70
     0
  9
$DIMSAH
 70
     0
  9
$DIMBLK1
  1

  9
$DIMBLK2
  1

  9
$DIMSTYLE
  2
Standard
  9
$DIMCLRD
 70
     0
  9
$DIMCLRE
 70
     0
  9
$DIMCLRT
 70
     0
  9
$DIMTFAC
 40
1.0
  9
$DIMGAP
 40
0.06
  9
$DIMJUST
 70
     0
  9
$DIMSD1
 70
     0
  9
$DIMSD2
 70
     0
  9
$DIMTOLJ
 70
     1
  9
$DIMTZIN
 70
     0
  9
$DIMALTZ
 70
     0
  9
$DIMALTTZ
 70
     0
  9
$DIMUPT
 70
     0
  9
$DIMDEC
 70
     2
  9
$DIMTDEC
 70
     2
  9
$DIMALTU
 70
     2
  9
$DIMALTTD
 70
     2
  9
$DIMTXSTY
  7
Standard
  9
$DIMAUNIT
 70
     0
  9
$DIMADEC
 70
     2
  9
$DIMALTRND
 40
0.0
  9
$DIMAZIN
 70
     0
  9
$DIMDSEP
 70
    46
  9
$DIMATFIT
 70
     3
  9
$DIMFRAC
 70
     0
  9
$DIMLDRBLK
  1

  9
$DIMLUNIT
 70
     2
  9
$DIMLWD
 70
    -2
  9
$DIMLWE
 70
    -2
  9
$DIMTMOVE
 70
     0
  9
$LUNITS
 70
     2
  9
$LUPREC
 70
     2
  9
$SKETCHINC
 40
0.1
  9
$FILLETRAD
 40
0.5
  9
$AUNITS
 70
     0
  9
$AUPREC
 70
     2
  9
$MENU
  1
.
  9
$ELEVATION
 40
0.0
  9
$PELEVATION
 40
0.0
  9
$THICKNESS
 40
0.0
  9
$LIMCHECK
 70
     0
  9
$CHAMFERA
 40
0.0
  9
$CHAMFERB
 40
0.0
  9
$CHAMFERC
 40
0.0
  9
$CHAMFERD
 40
0.0
  9
$SKPOLY
 70
     0
  9
$TDCREATE
 40
2459375.785355729
  9
$TDUCREATE
 40
2459375.952022396
  9
$TDUPDATE
 40
2459375.78535625
  9
$TDUUPDATE
 40
2459375.952022917
  9
$TDINDWG
 40
0.0000000116
  9
$TDUSRTIMER
 40
0.0000000116
  9
$USRTIMER
 70
     1
  9
$ANGBASE
 50
0.0
  9
$ANGDIR
 70
     0
  9
$PDMODE
 70
     0
  9
$PDSIZE
 40
-1.0
  9
$PLINEWID
 40
0.0
  9
$SPLFRAME
 70
     0
  9
$SPLINETYPE
 70
     6
  9
$SPLINESEGS
 70
     8
  9
$HANDSEED
  5
1AE
  9
$SURFTAB1
 70
     6
  9
$SURFTAB2
 70
     6
  9
$SURFTYPE
 70
     6
  9
$SURFU
 70
     6
  9
$SURFV
 70
     6
  9
$UCSBASE
  2

  9
$UCSNAME
  2

  9
$UCSORG
 10
0.0
 20
0.0
 30
0.0
  9
$UCSXDIR
 10
1.0
 20
0.0
 30
0.0
  9
$UCSYDIR
 10
0.0
 20
1.0
 30
0.0
  9
$UCSORTHOREF
  2

  9
$UCSORTHOVIEW
 70
     0
  9
$UCSORGTOP
 10
0.0
 20
0.0
 30
0.0
  9
$UCSORGBOTTOM
 10
0.0
 20
0.0
 30
0.0
  9
$UCSORGLEFT
 10
0.0
 20
0.0
 30
0.0
  9
$UCSORGRIGHT
 10
0.0
 20
0.0
 30
0.0
  9
$UCSORGFRONT
 10
0.0
 20
0.0
 30
0.0
  9
$UCSORGBACK
 10
0.0
 20
0.0
 30
0.0
  9
$PUCSBASE
  2

  9
$PUCSNAME
  2

  9
$PUCSORG
 10
0.0
 20
0.0
 30
0.0
  9
$PUCSXDIR
 10
1.0
 20
0.0
 30
0.0
  9
$PUCSYDIR
 10
0.0
 20
1.0
 30
0.0
  9
$PUCSORTHOREF
  2

  9
$PUCSORTHOVIEW
 70
     0
  9
$PUCSORGTOP
 10
0.0
 20
0.0
 30
0.0
  9
$PUCSORGBOTTOM
 10
0.0
 20
0.0
 30
0.0
  9
$PUCSORGLEFT
 10
0.0
 20
0.0
 30
0.0
  9
$PUCSORGRIGHT
 10
0.0
 20
0.0
 30
0.0
  9
$PUCSORGFRONT
 10
0.0
 20
0.0
 30
0.0
  9
$PUCSORGBACK
 10
0.0
 20
0.0
 30
0.0
  9
$USERI1
 70
     0
  9
$USERI2
 70
     0
  9
$USERI3
 70
     0
  9
$USERI4
 70
     0
  9
$USERI5
 70
     0
  9
$USERR1
 40
0.0
  9
$USERR2
 40
0.0
  9
$USERR3
 40
0.0
  9
$USERR4
 40
0.0
  9
$USERR5
 40
0.0
  9
$WORLDVIEW
 70
     1
  9
$SHADEDGE
 70
     3
  9
$SHADEDIF
 70
    70
  9
$TILEMODE
 70
     1
  9
$MAXACTVP
 70
    64
  9
$PINSBASE
 10
0.0
 20
0.0
 30
0.0
  9
$PLIMCHECK
 70
     0
  9
$PEXTMIN
 10
1.0000000000E+20
 20
1.0000000000E+20
 30
1.0000000000E+20
  9
$PEXTMAX
 10
-1.0000000000E+20
 20
-1.0000000000E+20
 30
-1.0000000000E+20
  9
$PLIMMIN
 10
0.0
 20
0.0
  9
$PLIMMAX
 10
12.0
 20
9.0
  9
$UNITMODE
 70
     0
  9
$VISRETAIN
 70
     1
  9
$PLINEGEN
 70
     0
  9
$PSLTSCALE
 70
     1
  9
$TREEDEPTH
 70
  3020
  9
$CMLSTYLE
  2
Standard
  9
$CMLJUST
 70
     0
  9
$CMLSCALE
 40
1.0
  9
$PROXYGRAPHICS
 70
     1
  9
$MEASUREMENT
 70
     0
  9
$CELWEIGHT
370
    -1
  9
$ENDCAPS
280
     0
  9
$JOINSTYLE
280
     0
  9
$LWDISPLAY
290
     1
  9
$INSUNITS
 70
     1
  9
$HYPERLINKBASE
  1

  9
$STYLESHEET
  1

  9
$XEDIT
290
     1
  9
$CEPSNTYPE
380
     0
  9
$PSTYLEMODE
290
     1
  9
$FINGERPRINTGUID
  2
{0CA3BC1D-315E-4738-BCE6-DE8A0058B5C9}
  9
$VERSIONGUID
  2
{FAEB1C32-E019-11D5-929B-00C0DF256EC4}
  9
$EXTNAMES
290
     1
  9
$PSVPSCALE
 40
0.0
  9
$OLESTARTUP
290
     0
  0
ENDSEC
  0
SECTION
  2
CLASSES
  0
CLASS
  1
ACDBDICTIONARYWDFLT
  2
AcDbDictionaryWithDefault
  3
ObjectDBX Classes
 90
        0
280
     0
281
     0
  0
CLASS
  1
VISUALSTYLE
  2
AcDbVisualStyle
  3
ObjectDBX Classes
 90
     4095
280
     0
281
     0
  0
CLASS
  1
MATERIAL
  2
AcDbMaterial
  3
ObjectDBX Classes
 90
     1153
280
     0
281
     0
  0
CLASS
  1
SCALE
  2
AcDbScale
  3
ObjectDBX Classes
 90
     1153
280
     0
281
     0
  0
CLASS
  1
TABLESTYLE
  2
AcDbTableStyle
  3
ObjectDBX Classes
 90
     4095
280
     0
281
     0
  0
CLASS
  1
MLEADERSTYLE
  2
AcDbMLeaderStyle
  3
ACDB_MLEADERSTYLE_CLASS
 90
     4095
280
     0
281
     0
  0
CLASS
  1
SUN
  2
AcDbSun
  3
SCENEOE
 90
     1153
280
     0
281
     0
  0
CLASS
  1
ACDBPLACEHOLDER
  2
AcDbPlaceHolder
  3
ObjectDBX Classes
 90
        0
280
     0
281
     0
  0
CLASS
  1
LAYOUT
  2
AcDbLayout
  3
ObjectDBX Classes
 90
        0
280
     0
281
     0
  0
ENDSEC
  0
SECTION
  2
TABLES
  0
TABLE
  2
VPORT
  5
8
330
0
100
AcDbSymbolTable
 70
     1
  0
VPORT
  5
29
330
8
100
AcDbSymbolTableRecord
100
AcDbViewportTableRecord
  2
*Active
 70
     0
 10
0.0
 20
0.0
 11
1.0
 21
1.0
 12
5.5
 22
4.25
 13
0.0
 23
0.0
 14
0.5
 24
0.5
 15
0.5
 25
0.5
 16
0.0
 26
0.0
 36
1.0
 17
0.0
 27
0.0
 37
0.0
 40
8.5
 41
1.2941176471
 42
50.0
 43
0.0
 44
0.0
 50
0.0
 51
0.0
 71
     0
 72
  2000
 73
     1
 74
     3
 75
     0
 76
     0
 77
     0
 78
     0
281
     0
 65
     1
110
0.0
120
0.0
130
0.0
111
1.0
121
0.0
131
0.0
112
0.0
122
1.0
132
0.0
 79
     0
146
0.0
  0
ENDTAB
  0
TABLE
  2
LTYPE
  5
5
330
0
100
AcDbSymbolTable
 70
     6
  0
LTYPE
  5
14
330
5
100
AcDbSymbolTableRecord
100
AcDbLinetypeTableRecord
  2
ByBlock
 70
     0
  3

 72
    65
 73
     0
 40
0.0
  0
LTYPE
  5
15
330
5
100
AcDbSymbolTableRecord
100
AcDbLinetypeTableRecord
  2
ByLayer
 70
     0
  3

 72
    65
 73
     0
 40
0.0
  0
LTYPE
  5
16
330
5
100
AcDbSymbolTableRecord
100
AcDbLinetypeTableRecord
  2
Continuous
 70
     0
  3
Solid line
 72
    65
 73
     0
 40
0.0
  0
LTYPE
  5
6E
330
5
100
AcDbSymbolTableRecord
100
AcDbLinetypeTableRecord
  2
HIDDEN
 70
     0
  3
Hidden __ __ __ __ __ __ __ __ __ __ __ __ __ __
 72
    65
 73
     2
 40
0.075
 49
0.05
 74
     0
 49
-0.025
 74
     0
  0
LTYPE
  5
6F
330
5
100
AcDbSymbolTableRecord
100
AcDbLinetypeTableRecord
  2
PHANTOM
 70
     0
  3
Phantom ______  __  __  ______  __  __  ______
 72
    65
 73
     6
 40
0.5
 49
0.25
 74
     0
 49
-0.05
 74
     0
 49
0.05
 74
     0
 49
-0.05
 74
     0
 49
0.05
 74
     0
 49
-0.05
 74
     0
  0
LTYPE
  5
70
330
5
100
AcDbSymbolTableRecord
100
AcDbLinetypeTableRecord
  2
CENTER
 70
     0
  3
Center ____ _ ____ _ ____ _ ____ _ ____ _ ____
 72
    65
 73
     4
 40
0.4
 49
0.25
 74
     0
 49
-0.05
 74
     0
 49
0.05
 74
     0
 49
-0.05
 74
     0
  0
LTYPE
  5
71
330
5
100
AcDbSymbolTableRecord
100
AcDbLinetypeTableRecord
  2
CENTERX2
 70
     0
  3
Center (2x) ________  __  ________  __  _____
 72
    65
 73
     4
 40
0.8
 49
0.5
 74
     0
 49
-0.1
 74
     0
 49
0.1
 74
     0
 49
-0.1
 74
     0
  0
LTYPE
  5
72
330
5
100
AcDbSymbolTableRecord
100
AcDbLinetypeTableRecord
  2
DOT2
 70
     0
  3
Dot (.5x) ........................................
 72
    65
 73
     2
 40
0.025
 49
0.0
 74
     0
 49
-0.025
 74
     0
  0
ENDTAB
  0
TABLE
  2
LAYER
  5
2
330
0
100
AcDbSymbolTable
 70
     2
  0
LAYER
  5
10
330
2
100
AcDbSymbolTableRecord
100
AcDbLayerTableRecord
  2
0
 70
     0
 62
     7
  6
Continuous
370
    -3
390
F
  0
LAYER
  5
73
330
2
100
AcDbSymbolTableRecord
100
AcDbLayerTableRecord
  2
FORMAT
 70
     0
 62
     7
  6
Continuous
370
    -3
390
F
  0
ENDTAB
  0
TABLE
  2
STYLE
  5
3
330
0
100
AcDbSymbolTable
 70
     1
  0
STYLE
  5
11
330
3
100
AcDbSymbolTableRecord
100
AcDbTextStyleTableRecord
  2
Standard
 70
     0
 40
0.0
 41
1.0
 50
0.0
 71
     0
 42
0.1377952756
  3
txt
  4

  0
ENDTAB
  0
TABLE
  2
VIEW
  5
6
330
0
100
AcDbSymbolTable
 70
     0
  0
ENDTAB
  0
TABLE
  2
UCS
  5
7
330
0
100
AcDbSymbolTable
 70
     0
  0
ENDTAB
  0
TABLE
  2
APPID
  5
9
330
0
100
AcDbSymbolTable
 70
     1
  0
APPID
  5
12
330
9
100
AcDbSymbolTableRecord
100
AcDbRegAppTableRecord
  2
ACAD
 70
     0
  0
ENDTAB
  0
TABLE
  2
DIMSTYLE
  5
A
330
0
100
AcDbSymbolTable
 70
     1
100
AcDbDimStyleTable
  0
DIMSTYLE
105
27
330
A
100
AcDbSymbolTableRecord
100
AcDbDimStyleTableRecord
  2
Standard
 70
     0
178
     0
340
11
  0
ENDTAB
  0
TABLE
  2
BLOCK_RECORD
  5
1
330
0
100
AcDbSymbolTable
 70
     4
  0
BLOCK_RECORD
  5
1F
330
1
100
AcDbSymbolTableRecord
100
AcDbBlockTableRecord
  2
*Model_Space
340
22
  0
BLOCK_RECORD
  5
1B
330
1
100
AcDbSymbolTableRecord
100
AcDbBlockTableRecord
  2
*Paper_Space
340
1E
  0
BLOCK_RECORD
  5
23
330
1
100
AcDbSymbolTableRecord
100
AcDbBlockTableRecord
  2
*Paper_Space0
340
26
  0
BLOCK_RECORD
  5
13D
330
1
100
AcDbSymbolTableRecord
100
AcDbBlockTableRecord
  2
SW_CENTERMARKSYMBOL_0
340
0
102
{BLKREFS
331
148
102
}
  0
BLOCK_RECORD
  5
149
330
1
100
AcDbSymbolTableRecord
100
AcDbBlockTableRecord
  2
SW_CENTERMARKSYMBOL_1
340
0
102
{BLKREFS
331
154
102
}
  0
BLOCK_RECORD
  5
155
330
1
100
AcDbSymbolTableRecord
100
AcDbBlockTableRecord
  2
SW_CENTERMARKSYMBOL_2
340
0
102
{BLKREFS
331
160
102
}
  0
ENDTAB
  0
ENDSEC
  0
SECTION
  2
BLOCKS
  0
BLOCK
  5
20
330
1F
100
AcDbEntity
  8
0
100
AcDbBlockBegin
  2
*Model_Space
 70
     0
 10
0.0
 20
0.0
 30
0.0
  3
*Model_Space
  1

  0
ENDBLK
  5
21
330
1F
100
AcDbEntity
  8
0
100
AcDbBlockEnd
  0
BLOCK
  5
1C
330
1B
100
AcDbEntity
 67
     1
  8
0
100
AcDbBlockBegin
  2
*Paper_Space
 70
     0
 10
0.0
 20
0.0
 30
0.0
  3
*Paper_Space
  1

  0
ENDBLK
  5
1D
330
1B
100
AcDbEntity
 67
     1
  8
0
100
AcDbBlockEnd
  0
BLOCK
  5
24
330
23
100
AcDbEntity
  8
0
100
AcDbBlockBegin
  2
*Paper_Space0
 70
     0
 10
0.0
 20
0.0
 30
0.0
  3
*Paper_Space0
  1

  0
ENDBLK
  5
25
330
23
100
AcDbEntity
  8
0
100
AcDbBlockEnd
  0
BLOCK
  5
13E
330
13D
100
AcDbEntity
  8
0
100
AcDbBlockBegin
  2
SW_CENTERMARKSYMBOL_0
 70
     0
 10
0.0
 20
0.0
 30
0.0
  3
SW_CENTERMARKSYMBOL_0
  1

  0
LINE
  5
140
330
13D
100
AcDbEntity
  8
0
  6
Continuous
 62
     0
370
     0
100
AcDbLine
 10
0.0
 20
0.0
 30
0.0
 11
0.0
 21
0.0196850394
 31
0.0
  0
LINE
  5
141
330
13D
100
AcDbEntity
  8
0
  6
Continuous
 62
     0
370
     0
100
AcDbLine
 10
0.0
 20
0.0
 30
0.0
 11
-0.0196850394
 21
0.0
 31
0.0
  0
LINE
  5
142
330
13D
100
AcDbEntity
  8
0
  6
Continuous
 62
     0
370
     0
100
AcDbLine
 10
0.0
 20
0.0
 30
0.0
 11
0.0
 21
-0.0196850394
 31
0.0
  0
LINE
  5
143
330
13D
100
AcDbEntity
  8
0
  6
Continuous
 62
     0
370
     0
100
AcDbLine
 10
0.0
 20
0.0
 30
0.0
 11
0.0196850394
 21
0.0
 31
0.0
  0
LINE
  5
144
330
13D
100
AcDbEntity
  8
0
  6
Continuous
 62
     0
370
     0
100
AcDbLine
 10
0.0
 20
0.0393700787
 30
0.0
 11
0.0
 21
0.2559055118
 31
0.0
  0
LINE
  5
145
330
13D
100
AcDbEntity
  8
0
  6
Continuous
 62
     0
370
     0
100
AcDbLine
 10
-0.0393700787
 20
0.0
 30
0.0
 11
-0.2559055118
 21
0.0
 31
0.0
  0
LINE
  5
146
330
13D
100
AcDbEntity
  8
0
  6
Continuous
 62
     0
370
     0
100
AcDbLine
 10
0.0
 20
-0.0393700787
 30
0.0
 11
0.0
 21
-0.2559055118
 31
0.0
  0
LINE
  5
147
330
13D
100
AcDbEntity
  8
0
  6
Continuous
 62
     0
370
     0
100
AcDbLine
 10
0.0393700787
 20
0.0
 30
0.0
 11
0.2559055118
 21
0.0
 31
0.0
  0
ENDBLK
  5
13F
330
13D
100
AcDbEntity
  8
0
100
AcDbBlockEnd
  0
BLOCK
  5
14A
330
149
100
AcDbEntity
  8
0
100
AcDbBlockBegin
  2
SW_CENTERMARKSYMBOL_1
 70
     0
 10
0.0
 20
0.0
 30
0.0
  3
SW_CENTERMARKSYMBOL_1
  1

  0
LINE
  5
14C
330
149
100
AcDbEntity
  8
0
  6
Continuous
 62
     0
370
     0
100
AcDbLine
 10
0.0
 20
0.0
 30
0.0
 11
0.0
 21
0.0196850394
 31
0.0
  0
LINE
  5
14D
330
149
100
AcDbEntity
  8
0
  6
Continuous
 62
     0
370
     0
100
AcDbLine
 10
0.0
 20
0.0
 30
0.0
 11
-0.0196850394
 21
0.0
 31
0.0
  0
LINE
  5
14E
330
149
100
AcDbEntity
  8
0
  6
Continuous
 62
     0
370
     0
100
AcDbLine
 10
0.0
 20
0.0
 30
0.0
 11
0.0
 21
-0.0196850394
 31
0.0
  0
LINE
  5
14F
330
149
100
AcDbEntity
  8
0
  6
Continuous
 62
     0
370
     0
100
AcDbLine
 10
0.0
 20
0.0
 30
0.0
 11
0.0196850394
 21
0.0
 31
0.0
  0
LINE
  5
150
330
149
100
AcDbEntity
  8
0
  6
Continuous
 62
     0
370
     0
100
AcDbLine
 10
0.0
 20
0.0393700787
 30
0.0
 11
0.0
 21
0.2559055118
 31
0.0
  0
LINE
  5
151
330
149
100
AcDbEntity
  8
0
  6
Continuous
 62
     0
370
     0
100
AcDbLine
 10
-0.0393700787
 20
0.0
 30
0.0
 11
-0.2559055118
 21
0.0
 31
0.0
  0
LINE
  5
152
330
149
100
AcDbEntity
  8
0
  6
Continuous
 62
     0
370
     0
100
AcDbLine
 10
0.0
 20
-0.0393700787
 30
0.0
 11
0.0
 21
-0.2559055118
 31
0.0
  0
LINE
  5
153
330
149
100
AcDbEntity
  8
0
  6
Continuous
 62
     0
370
     0
100
AcDbLine
 10
0.0393700787
 20
0.0
 30
0.0
 11
0.2559055118
 21
0.0
 31
0.0
  0
ENDBLK
  5
14B
330
149
100
AcDbEntity
  8
0
100
AcDbBlockEnd
  0
BLOCK
  5
156
330
155
100
AcDbEntity
  8
0
100
AcDbBlockBegin
  2
SW_CENTERMARKSYMBOL_2
 70
     0
 10
0.0
 20
0.0
 30
0.0
  3
SW_CENTERMARKSYMBOL_2
  1

  0
LINE
  5
158
330
155
100
AcDbEntity
  8
0
  6
Continuous
 62
     0
370
     0
100
AcDbLine
 10
0.0
 20
0.0
 30
0.0
 11
0.0
 21
0.0196850394
 31
0.0
  0
LINE
  5
159
330
155
100
AcDbEntity
  8
0
  6
Continuous
 62
     0
370
     0
100
AcDbLine
 10
0.0
 20
0.0
 30
0.0
 11
-0.0196850394
 21
0.0
 31
0.0
  0
LINE
  5
15A
330
155
100
AcDbEntity
  8
0
  6
Continuous
 62
     0
370
     0
100
AcDbLine
 10
0.0
 20
0.0
 30
0.0
 11
0.0
 21
-0.0196850394
 31
0.0
  0
LINE
  5
15B
330
155
100
AcDbEntity
  8
0
  6
Continuous
 62
     0
370
     0
100
AcDbLine
 10
0.0
 20
0.0
 30
0.0
 11
0.0196850394
 21
0.0
 31
0.0
  0
LINE
  5
15C
330
155
100
AcDbEntity
  8
0
  6
Continuous
 62
     0
370
     0
100
AcDbLine
 10
0.0
 20
0.0393700787
 30
0.0
 11
0.0
 21
0.2559055118
 31
0.0
  0
LINE
  5
15D
330
155
100
AcDbEntity
  8
0
  6
Continuous
 62
     0
370
     0
100
AcDbLine
 10
-0.0393700787
 20
0.0
 30
0.0
 11
-0.2559055118
 21
0.0
 31
0.0
  0
LINE
  5
15E
330
155
100
AcDbEntity
  8
0
  6
Continuous
 62
     0
370
     0
100
AcDbLine
 10
0.0
 20
-0.0393700787
 30
0.0
 11
0.0
 21
-0.2559055118
 31
0.0
  0
LINE
  5
15F
330
155
100
AcDbEntity
  8
0
  6
Continuous
 62
     0
370
     0
100
AcDbLine
 10
0.0393700787
 20
0.0
 30
0.0
 11
0.2559055118
 21
0.0
 31
0.0
  0
ENDBLK
  5
157
330
155
100
AcDbEntity
  8
0
100
AcDbBlockEnd
  0
ENDSEC
  0
SECTION
  2
ENTITIES
  0
SPLINE
  5
74
330
1F
100
AcDbEntity
  8
0
  6
Continuous
 62
     7
370
    25
100
AcDbSpline
210
0.0
220
0.0
230
1.0
 70
     8
 71
     3
 72
    18
 73
    14
 74
     0
 42
0.000000001
 43
0.00000001
 40
0.0
 40
0.0
 40
0.0
 40
0.0
 40
0.0764931833307826
 40
0.1673092949169513
 40
0.2589662473805173
 40
0.3523030790863072
 40
0.4471579608546997
 40
0.5428617178053984
 40
0.638808393633448
 40
0.7346619653995995
 40
0.8303706422324632
 40
0.9259612130973042
 40
1.0
 40
1.0
 40
1.0
 40
1.0
 10
3.068961529037465
 20
3.175832639674193
 30
0.0
 10
3.069088313447065
 20
3.172969408394271
 30
0.0
 10
3.069365621950292
 20
3.166706821510464
 30
0.0
 10
3.07277432330972
 20
3.157295296394364
 30
0.0
 10
3.078448798077954
 20
3.147844292054224
 30
0.0
 10
3.086440856201457
 20
3.139020105767448
 30
0.0
 10
3.096548980077767
 20
3.130981267250625
 30
0.0
 10
3.108594725402939
 20
3.123915408880704
 30
0.0
 10
3.122284022735287
 20
3.117995780274709
 30
0.0
 10
3.137291037420614
 20
3.113343544709371
 30
0.0
 10
3.153273060149813
 20
3.110080551222405
 30
0.0
 10
3.16864294231029
 20
3.108293437693329
 30
0.0
 10
3.178612879638622
 20
3.108096477882176
 30
0.0
 10
3.182964497041413
 20
3.108010510065766
 30
0.0
  0
SPLINE
  5
75
330
1F
100
AcDbEntity
  8
0
  6
Continuous
 62
     7
370
    25
100
AcDbSpline
210
0.0
220
0.0
230
1.0
 70
     8
 71
     3
 72
    19
 73
    15
 74
     0
 42
0.000000001
 43
0.00000001
 40
0.0
 40
0.0
 40
0.0
 40
0.0
 40
0.0492902914403187
 40
0.1427102596246629
 40
0.2362675391292494
 40
0.3299724072844923
 40
0.4238944654005956
 40
0.5180845267211284
 40
0.6125313248974725
 40
0.7069929034442666
 40
0.8008487101318701
 40
0.8932490262642334
 40
0.9837002569092939
 40
1.0
 40
1.0
 40
1.0
 40
1.0
 10
3.182964497041413
 20
3.108010510065766
 30
0.0
 10
3.185924643850239
 20
3.108051301686275
 30
0.0
 10
3.194495161639247
 20
3.108169405730365
 30
0.0
 10
3.208574538377854
 20
3.109481347632805
 30
0.0
 10
3.224735623957481
 20
3.11239681478391
 30
0.0
 10
3.240016517564758
 20
3.11671459148267
 30
0.0
 10
3.254089564875733
 20
3.122336960326739
 30
0.0
 10
3.266651792469863
 20
3.129180959098051
 30
0.0
 10
3.277422747561235
 20
3.137136338746826
 30
0.0
 10
3.286104788489825
 20
3.146062734883598
 30
0.0
 10
3.292524501228873
 20
3.155772084021484
 30
0.0
 10
3.296183944226116
 20
3.1659807863953
 30
0.0
 10
3.297577589554716
 20
3.173626688986724
 30
0.0
 10
3.296988057766904
 20
3.177681112917627
 30
0.0
 10
3.296898042506631
 20
3.178300180511503
 30
0.0
  0
LINE
  5
76
330
1F
100
AcDbEntity
  8
0
  6
Continuous
 62
     7
370
    25
100
AcDbLine
 10
3.2971377254
 20
3.1761837162
 30
0.0
 11
3.2971377254
 21
3.8652360154
 31
0.0
  0
LINE
  5
77
330
1F
100
AcDbEntity
  8
0
  6
Continuous
 62
     7
370
    25
100
AcDbLine
 10
3.0687912687
 20
3.8652360154
 30
0.0
 11
3.0687912687
 21
3.1761837162
 31
0.0
  0
ARC
  5
78
330
1F
100
AcDbEntity
  8
0
  6
Continuous
 62
     7
370
    25
100
AcDbCircle
 10
3.182964497
 20
4.1573529449
 30
0.0
 40
0.1141732283464569
100
AcDbArc
 50
0.0
 51
180.0
  0
LINE
  5
79
330
1F
100
AcDbEntity
  8
0
  6
Continuous
 62
     7
370
    25
100
AcDbLine
 10
3.0687912687
 20
4.1573529449
 30
0.0
 11
3.0687912687
 21
3.8652360154
 31
0.0
  0
LINE
  5
7A
330
1F
100
AcDbEntity
  8
0
  6
Continuous
 62
     7
370
    25
100
AcDbLine
 10
3.2971377254
 20
3.8652360154
 30
0.0
 11
3.2971377254
 21
4.1573529449
 31
0.0
  0
ARC
  5
7B
330
1F
100
AcDbEntity
  8
0
  6
Continuous
 62
     7
370
    25
100
AcDbCircle
 10
3.3538306388
 20
2.5820473254
 30
0.0
 40
0.0062992125984254
100
AcDbArc
 50
0.0
 51
90.0
  0
ARC
  5
7C
330
1F
100
AcDbEntity
  8
0
  6
Continuous
 62
     7
370
    25
100
AcDbCircle
 10
3.0120983553
 20
2.5820473254
 30
0.0
 40
0.0062992125984254
100
AcDbArc
 50
90.0
 51
180.0
  0
LINE
  5
7D
330
1F
100
AcDbEntity
  8
0
  6
Continuous
 62
     7
370
    25
100
AcDbLine
 10
3.3601298514
 20
1.9348032309
 30
0.0
 11
3.3601298514
 21
2.5820473254
 31
0.0
  0
LINE
  5
7E
330
1F
100
AcDbEntity
  8
0
  6
Continuous
 62
     7
370
    25
100
AcDbLine
 10
3.0057991427
 20
2.5820473254
 30
0.0
 11
3.0057991427
 21
1.9348032309
 31
0.0
  0
LINE
  5
7F
330
1F
100
AcDbEntity
  8
0
  6
Continuous
 62
     7
370
    25
100
AcDbLine
 10
3.2971377254
 20
2.588346538
 30
0.0
 11
3.2971377254
 21
3.1761837162
 31
0.0
  0
LINE
  5
80
330
1F
100
AcDbEntity
  8
0
  6
Continuous
 62
     7
370
    25
100
AcDbLine
 10
3.0687912687
 20
3.1761837162
 30
0.0
 11
3.0687912687
 21
2.588346538
 31
0.0
  0
ARC
  5
81
330
1F
100
AcDbEntity
  8
0
  6
Continuous
 62
     7
370
    25
100
AcDbCircle
 10
3.4128857569
 20
1.9285040183
 30
0.0
 40
0.0062992125984254
100
AcDbArc
 50
0.0
 51
90.0
  0
ARC
  5
82
330
1F
100
AcDbEntity
  8
0
  6
Continuous
 62
     7
370
    25
100
AcDbCircle
 10
2.9530432372
 20
1.9285040183
 30
0.0
 40
0.0062992125984258
100
AcDbArc
 50
90.0
 51
180.0
  0
LINE
  5
83
330
1F
100
AcDbEntity
  8
0
  6
Continuous
 62
     7
370
    25
100
AcDbLine
 10
3.4191849695
 20
1.8718111049
 30
0.0
 11
3.4191849695
 21
1.9285040183
 31
0.0
  0
LINE
  5
84
330
1F
100
AcDbEntity
  8
0
  6
Continuous
 62
     7
370
    25
100
AcDbLine
 10
2.9467440246
 20
1.9285040183
 30
0.0
 11
2.9467440246
 21
1.8718111049
 31
0.0
  0
ARC
  5
85
330
1F
100
AcDbEntity
  8
0
  6
Continuous
 62
     7
370
    25
100
AcDbCircle
 10
2.3695786703
 20
2.5899213411
 30
0.0
 40
0.0062992125984258
100
AcDbArc
 50
0.0
 51
90.0
  0
LINE
  5
86
330
1F
100
AcDbEntity
  8
0
  6
Continuous
 62
     7
370
    25
100
AcDbLine
 10
2.1002873317
 20
2.4560630734
 30
0.0
 11
2.1002873317
 21
1.9426772466
 31
0.0
  0
LINE
  5
87
330
1F
100
AcDbEntity
  8
0
  6
Continuous
 62
     7
370
    25
100
AcDbLine
 10
2.3758778829
 20
1.9426772466
 30
0.0
 11
2.3758778829
 21
2.5899213411
 31
0.0
  0
ARC
  5
88
330
1F
100
AcDbEntity
  8
0
  6
Continuous
 62
     7
370
    25
100
AcDbCircle
 10
2.0939881191
 20
2.4560630734
 30
0.0
 40
0.0062992125984254
100
AcDbArc
 50
0.0
 51
90.0
  0
ARC
  5
89
330
1F
100
AcDbEntity
  8
0
  6
Continuous
 62
     7
370
    25
100
AcDbCircle
 10
3.9963503238
 20
2.5899213411
 30
0.0
 40
0.0062992125984258
100
AcDbArc
 50
90.0
 51
180.0
  0
LINE
  5
8A
330
1F
100
AcDbEntity
  8
0
  6
Continuous
 62
     7
370
    25
100
AcDbLine
 10
3.9900511112
 20
2.5899213411
 30
0.0
 11
3.9900511112
 21
1.9426772466
 31
0.0
  0
LINE
  5
8B
330
1F
100
AcDbEntity
  8
0
  6
Continuous
 62
     7
370
    25
100
AcDbLine
 10
4.2656416624
 20
1.9426772466
 30
0.0
 11
4.2656416624
 21
2.4560630734
 31
0.0
  0
ARC
  5
8C
330
1F
100
AcDbEntity
  8
0
  6
Continuous
 62
     7
370
    25
100
AcDbCircle
 10
4.271940875
 20
2.4560630734
 30
0.0
 40
0.0062992125984254
100
AcDbArc
 50
90.0
 51
180.0
  0
LINE
  5
8D
330
1F
100
AcDbEntity
  8
0
  6
Continuous
 62
     7
370
    25
100
AcDbLine
 10
3.2577676466
 20
3.1774737194
 30
0.0
 11
3.2577676466
 21
3.2032737838
 31
0.0
  0
LINE
  5
8E
330
1F
100
AcDbEntity
  8
0
  6
Continuous
 62
     7
370
    25
100
AcDbLine
 10
3.1081613474
 20
3.2032737838
 30
0.0
 11
3.1081613474
 21
3.1774737194
 31
0.0
  0
LINE
  5
8F
330
1F
100
AcDbEntity
  8
0
  6
Continuous
 62
     7
370
    25
100
AcDbLine
 10
2.4743030797
 20
1.8718111049
 30
0.0
 11
2.4743030797
 21
1.9285040183
 31
0.0
  0
LINE
  5
90
330
1F
100
AcDbEntity
  8
0
  6
Continuous
 62
     7
370
    25
100
AcDbLine
 10
2.0018621348
 20
1.9285040183
 30
0.0
 11
2.0018621348
 21
1.8718111049
 31
0.0
  0
ARC
  5
91
330
1F
100
AcDbEntity
  8
0
  6
Continuous
 62
     7
370
    25
100
AcDbCircle
 10
2.0081613474
 20
1.9285040183
 30
0.0
 40
0.0062992125984251
100
AcDbArc
 50
90.0
 51
180.0
  0
ARC
  5
92
330
1F
100
AcDbEntity
  8
0
  6
Continuous
 62
     7
370
    25
100
AcDbCircle
 10
2.4680038671
 20
1.9285040183
 30
0.0
 40
0.0062992125984251
100
AcDbArc
 50
0.0
 51
90.0
  0
LINE
  5
93
330
1F
100
AcDbEntity
  8
0
  6
Continuous
 62
     7
370
    25
100
AcDbLine
 10
2.2971377254
 20
1.9348032309
 30
0.0
 11
2.2971377254
 21
1.9426772466
 31
0.0
  0
LINE
  5
94
330
1F
100
AcDbEntity
  8
0
  6
Continuous
 62
     7
370
    25
100
AcDbLine
 10
2.1790274892
 20
1.9426772466
 30
0.0
 11
2.1790274892
 21
1.9348032309
 31
0.0
  0
ARC
  5
95
330
1F
100
AcDbEntity
  8
0
  6
Continuous
 62
     7
370
    25
100
AcDbCircle
 10
3.897925127
 20
1.9285040183
 30
0.0
 40
0.0062992125984251
100
AcDbArc
 50
90.0
 51
180.0
  0
ARC
  5
96
330
1F
100
AcDbEntity
  8
0
  6
Continuous
 62
     7
370
    25
100
AcDbCircle
 10
4.3577676466
 20
1.9285040183
 30
0.0
 40
0.0062992125984251
100
AcDbArc
 50
0.0
 51
90.0
  0
LINE
  5
97
330
1F
100
AcDbEntity
  8
0
  6
Continuous
 62
     7
370
    25
100
AcDbLine
 10
4.3640668592
 20
1.8718111049
 30
0.0
 11
4.3640668592
 21
1.9285040183
 31
0.0
  0
LINE
  5
98
330
1F
100
AcDbEntity
  8
0
  6
Continuous
 62
     7
370
    25
100
AcDbLine
 10
3.8916259144
 20
1.9285040183
 30
0.0
 11
3.8916259144
 21
1.8718111049
 31
0.0
  0
LINE
  5
99
330
1F
100
AcDbEntity
  8
0
  6
Continuous
 62
     7
370
    25
100
AcDbLine
 10
4.1869015049
 20
1.9348032309
 30
0.0
 11
4.1869015049
 21
1.9426772466
 31
0.0
  0
LINE
  5
9A
330
1F
100
AcDbEntity
  8
0
  6
Continuous
 62
     7
370
    25
100
AcDbLine
 10
4.0687912687
 20
1.9426772466
 30
0.0
 11
4.0687912687
 21
1.9348032309
 31
0.0
  0
LWPOLYLINE
  5
9B
330
1F
100
AcDbEntity
  8
0
  6
Continuous
 62
     7
370
    25
100
AcDbPolyline
 90
       40
 70
   128
 43
0.0
 10
3.182964497
 20
3.1091497098
 10
3.2002687061
 20
3.1099509618
 10
3.2171247452
 20
3.1123339656
 10
3.2330960518
 20
3.1162370029
 10
3.2477689775
 20
3.1215589869
 10
3.2607635012
 20
3.1281620811
 10
3.2717430716
 20
3.1358752689
 10
3.2804233235
 20
3.1444987825
 10
3.2865794429
 20
3.1538092778
 10
3.2900519898
 20
3.1635656175
 10
3.2907510268
 20
3.1735151178
 10
3.2886584493
 20
3.1834000918
 10
3.2838284539
 20
3.1929645238
 10
3.2763861351
 20
3.2019607001
 10
3.2665242449
 20
3.2101556244
 10
3.2544982011
 20
3.2173370525
 10
3.240619472
 20
3.2233189892
 10
3.2252475093
 20
3.2279465055
 10
3.2087804388
 20
3.231099751
 10
3.1916447489
 20
3.2326970585
 10
3.1742842451
 20
3.2326970585
 10
3.1571485553
 20
3.231099751
 10
3.1406814848
 20
3.2279465055
 10
3.1253095221
 20
3.2233189892
 10
3.111430793
 20
3.2173370525
 10
3.0994047492
 20
3.2101556244
 10
3.089542859
 20
3.2019607001
 10
3.0821005402
 20
3.1929645238
 10
3.0772705448
 20
3.1834000918
 10
3.0751779673
 20
3.1735151178
 10
3.0758770043
 20
3.1635656175
 10
3.0793495511
 20
3.1538092778
 10
3.0855056706
 20
3.1444987825
 10
3.0941859225
 20
3.1358752689
 10
3.1051654929
 20
3.1281620811
 10
3.1181600166
 20
3.1215589869
 10
3.1328329423
 20
3.1162370029
 10
3.1488042489
 20
3.1123339656
 10
3.165660288
 20
3.1099509618
 10
3.182964497
 20
3.1091497098
  0
LINE
  5
9C
330
1F
100
AcDbEntity
  8
0
  6
Continuous
 62
     7
370
    25
100
AcDbLine
 10
3.2970895811
 20
3.1780852986
 30
0.0
 11
3.2971377254
 21
3.1761837162
 31
0.0
  0
LWPOLYLINE
  5
9D
330
1F
100
AcDbEntity
  8
0
  6
Continuous
 62
     7
370
    25
100
AcDbPolyline
 90
       39
 70
   128
 43
0.0
 10
3.182964497
 20
3.1114078847
 10
3.1658570278
 20
3.1122209668
 10
3.1492162058
 20
3.1146380342
 10
3.1334959491
 20
3.1185931557
 10
3.1191250655
 20
3.1239784459
 10
3.1064955551
 20
3.130647008
 10
3.0959519182
 20
3.1384169411
 10
3.0877817576
 20
3.1470763018
 10
3.082207934
 20
3.156388885
 10
3.0793824867
 20
3.166100668
 10
3.0793824867
 20
3.1759467386
 10
3.082207934
 20
3.1856585216
 10
3.0877817576
 20
3.1949711049
 10
3.0959519182
 20
3.2036304655
 10
3.1064955551
 20
3.2114003986
 10
3.1191250655
 20
3.2180689608
 10
3.1334959491
 20
3.2234542509
 10
3.1492162058
 20
3.2274093724
 10
3.1658570278
 20
3.2298264398
 10
3.182964497
 20
3.2306395219
 10
3.2000719663
 20
3.2298264398
 10
3.2167127883
 20
3.2274093724
 10
3.232433045
 20
3.2234542509
 10
3.2468039286
 20
3.2180689608
 10
3.2594334389
 20
3.2114003986
 10
3.2699770759
 20
3.2036304655
 10
3.2781472365
 20
3.1949711049
 10
3.2837210601
 20
3.1856585216
 10
3.2865465073
 20
3.1759467386
 10
3.2865465073
 20
3.166100668
 10
3.2837210601
 20
3.156388885
 10
3.2781472365
 20
3.1470763018
 10
3.2699770759
 20
3.1384169411
 10
3.2594334389
 20
3.130647008
 10
3.2468039286
 20
3.1239784459
 10
3.232433045
 20
3.1185931557
 10
3.2167127883
 20
3.1146380342
 10
3.2000719663
 20
3.1122209668
 10
3.182964497
 20
3.1114078847
  0
LWPOLYLINE
  5
9E
330
1F
100
AcDbEntity
  8
0
  6
Continuous
 62
     7
370
    25
100
AcDbPolyline
 90
       15
 70
   128
 43
0.0
 10
3.182964497
 20
3.1136011579
 10
3.1998127622
 20
3.1144019206
 10
3.2162014506
 20
3.1167823658
 10
3.2316835215
 20
3.1206775612
 10
3.2458366645
 20
3.125981256
 10
3.2582748186
 20
3.1325487793
 10
3.2686587035
 20
3.1402009862
 10
3.2767050738
 20
3.1487291444
 10
3.2821944455
 20
3.1579006279
 10
3.2849770829
 20
3.1674652627
 10
3.2849770829
 20
3.1771621504
 10
3.2821944455
 20
3.1867267851
 10
3.2767050738
 20
3.1958982687
 10
3.2686587035
 20
3.2044264269
 10
3.2596405039
 20
3.2112105249
  0
LWPOLYLINE
  5
9F
330
1F
100
AcDbEntity
  8
0
  6
Continuous
 62
     7
370
    25
100
AcDbPolyline
 90
       18
 70
   128
 43
0.0
 10
3.136397661
 20
3.224599063
 10
3.1342454726
 20
3.2239498519
 10
3.1200923296
 20
3.218646157
 10
3.1076541755
 20
3.2120786337
 10
3.0972702906
 20
3.2044264269
 10
3.0892239203
 20
3.1958982687
 10
3.0837345486
 20
3.1867267851
 10
3.0809519111
 20
3.1771621504
 10
3.0809519111
 20
3.1674652627
 10
3.0837345486
 20
3.1579006279
 10
3.0892239203
 20
3.1487291444
 10
3.0972702906
 20
3.1402009862
 10
3.1076541755
 20
3.1325487793
 10
3.1200923296
 20
3.125981256
 10
3.1342454726
 20
3.1206775612
 10
3.1497275435
 20
3.1167823658
 10
3.1661162319
 20
3.1144019206
 10
3.182964497
 20
3.1136011579
  0
ARC
  5
A0
330
1F
100
AcDbEntity
  8
0
  6
Continuous
 62
     7
370
    25
100
AcDbCircle
 10
3.1428785036
 20
3.2204008727
 30
0.0
 40
0.0671084606417652
100
AcDbArc
 50
209.0706015195
 51
245.6874516584
  0
ARC
  5
A1
330
1F
100
AcDbEntity
  8
0
  6
Continuous
 62
     7
370
    25
100
AcDbCircle
 10
3.2230504905
 20
3.2204008727
 30
0.0
 40
0.0671084606417715
100
AcDbArc
 50
294.3125483416
 51
330.9293984805
  0
LINE
  5
A2
330
1F
100
AcDbEntity
  8
0
  6
Continuous
 62
     7
370
    25
100
AcDbLine
 10
3.0120983553
 20
2.588346538
 30
0.0
 11
3.3538306388
 21
2.588346538
 31
0.0
  0
LINE
  5
A3
330
1F
100
AcDbEntity
  8
0
  6
Continuous
 62
     7
370
    25
100
AcDbLine
 10
3.4128857569
 20
1.9348032309
 30
0.0
 11
2.9530432372
 21
1.9348032309
 31
0.0
  0
LINE
  5
A4
330
1F
100
AcDbEntity
  8
0
  6
Continuous
 62
     7
370
    25
100
AcDbLine
 10
3.4191849695
 20
1.8718111049
 30
0.0
 11
2.9467440246
 21
1.8718111049
 31
0.0
  0
LINE
  5
A5
330
1F
100
AcDbEntity
  8
0
  6
Continuous
 62
     7
370
    25
100
AcDbLine
 10
2.3695786703
 20
2.5962205537
 30
0.0
 11
2.1087422174
 21
2.5962205537
 31
0.0
  0
ARC
  5
A6
330
1F
100
AcDbEntity
  8
0
  6
Continuous
 62
     7
370
    25
100
AcDbCircle
 10
2.1087942806
 20
2.5899725508
 30
0.0
 40
0.0062482198400781
100
AcDbArc
 50
90.4774214376
 51
180.4695946799
  0
SPLINE
  5
A7
330
1F
100
AcDbEntity
  8
0
  6
Continuous
 62
     7
370
    25
100
AcDbSpline
210
0.0
220
0.0
230
1.0
 70
     8
 71
     3
 72
    18
 73
    14
 74
     0
 42
0.000000001
 43
0.00000001
 40
0.0
 40
0.0
 40
0.0
 40
0.0
 40
0.2500000000000046
 40
0.2500000000000046
 40
0.5000000000000091
 40
0.5000000000000091
 40
0.6250000000000068
 40
0.6250000000000068
 40
0.7500000000000046
 40
0.7500000000000046
 40
0.8750000000000022
 40
0.8750000000000022
 40
1.0
 40
1.0
 40
1.0
 40
1.0
 10
2.102546270631191
 20
2.468661498590002
 30
0.0
 10
2.102546270631191
 20
2.467027524270574
 30
0.0
 10
2.102488930398632
 20
2.465402428912419
 30
0.0
 10
2.102282587203989
 20
2.462405488577609
 30
0.0
 10
2.102131487242533
 20
2.461005259505497
 30
0.0
 10
2.101872581536812
 20
2.459250842171391
 30
0.0
 10
2.101779306796002
 20
2.458711851086192
 30
0.0
 10
2.101591413453541
 20
2.457780333180851
 30
0.0
 10
2.101496487519841
 20
2.457383717067713
 30
0.0
 10
2.101308054994455
 20
2.456732588682057
 30
0.0
 10
2.101214820786204
 20
2.456481029811916
 30
0.0
 10
2.101040963068237
 20
2.456148513997045
 30
0.0
 10
2.100959164422166
 20
2.456063073393152
 30
0.0
 10
2.100883185880083
 20
2.456063073393152
 30
0.0
  0
LINE
  5
A8
330
1F
100
AcDbEntity
  8
0
  6
Continuous
 62
     7
370
    25
100
AcDbLine
 10
2.1025462706
 20
2.4686614986
 30
0.0
 11
2.1025462706
 21
2.5899213411
 31
0.0
  0
LINE
  5
A9
330
1F
100
AcDbEntity
  8
0
  6
Continuous
 62
     7
370
    25
100
AcDbLine
 10
2.2380826073
 20
1.9426772466
 30
0.0
 11
2.1002873317
 21
1.9426772466
 31
0.0
  0
LINE
  5
AA
330
1F
100
AcDbEntity
  8
0
  6
Continuous
 62
     7
370
    25
100
AcDbLine
 10
2.3758778829
 20
1.9426772466
 30
0.0
 11
2.2380826073
 21
1.9426772466
 31
0.0
  0
SPLINE
  5
AB
330
1F
100
AcDbEntity
  8
0
  6
Continuous
 62
     7
370
    25
100
AcDbSpline
210
0.0
220
0.0
230
1.0
 70
     8
 71
     3
 72
    12
 73
     8
 74
     0
 42
0.000000001
 43
0.00000001
 40
0.0
 40
0.0
 40
0.0
 40
0.0
 40
0.2500000000000054
 40
0.2500000000000054
 40
0.5000000000000109
 40
0.5000000000000109
 40
1.0
 40
1.0
 40
1.0
 40
1.0
 10
2.094611212330481
 20
2.462362285991577
 30
0.0
 10
2.09476648641423
 20
2.462362285991577
 30
0.0
 10
2.094947564343974
 20
2.462525391164495
 30
0.0
 10
2.095332398945505
 20
2.463148317952115
 30
0.0
 10
2.095533423451717
 20
2.463606846333224
 30
0.0
 10
2.096077759161289
 20
2.465328290702948
 30
0.0
 10
2.096350323813068
 20
2.46696719952753
 30
0.0
 10
2.096350323813068
 20
2.468661498590002
 30
0.0
  0
LINE
  5
AC
330
1F
100
AcDbEntity
  8
0
  6
Continuous
 62
     7
370
    25
100
AcDbLine
 10
2.1025462706
 20
2.4686614986
 30
0.0
 11
2.0963503238
 21
2.4686614986
 31
0.0
  0
ARC
  5
AD
330
1F
100
AcDbEntity
  8
0
  6
Continuous
 62
     7
370
    25
100
AcDbCircle
 10
2.0945975632
 20
2.4560766635
 30
0.0
 40
0.0062856373401299
100
AcDbArc
 50
359.8761215996
 51
89.8755835975
  0
LINE
  5
AE
330
1F
100
AcDbEntity
  8
0
  6
Continuous
 62
     7
370
    25
100
AcDbLine
 10
2.0963503238
 20
2.5899213411
 30
0.0
 11
2.1025462706
 21
2.5899213411
 31
0.0
  0
LINE
  5
AF
330
1F
100
AcDbEntity
  8
0
  6
Continuous
 62
     7
370
    25
100
AcDbLine
 10
2.0963503238
 20
2.5899213411
 30
0.0
 11
2.0963503238
 21
2.5962205537
 31
0.0
  0
LINE
  5
B0
330
1F
100
AcDbEntity
  8
0
  6
Continuous
 62
     7
370
    25
100
AcDbLine
 10
2.1087422174
 20
2.5962205537
 30
0.0
 11
2.0963503238
 21
2.5962205537
 31
0.0
  0
LINE
  5
B1
330
1F
100
AcDbEntity
  8
0
  6
Continuous
 62
     7
370
    25
100
AcDbLine
 10
2.0963503238
 20
2.5899213411
 30
0.0
 11
2.0963503238
 21
2.4686614986
 31
0.0
  0
LINE
  5
B2
330
1F
100
AcDbEntity
  8
0
  6
Continuous
 62
     7
370
    25
100
AcDbLine
 10
1.6081613474
 20
2.462362286
 30
0.0
 11
1.6081613474
 21
2.4686614986
 31
0.0
  0
LINE
  5
B3
330
1F
100
AcDbEntity
  8
0
  6
Continuous
 62
     7
370
    25
100
AcDbLine
 10
2.0963503238
 20
2.4686614986
 30
0.0
 11
1.6081613474
 21
2.4686614986
 31
0.0
  0
LINE
  5
B4
330
1F
100
AcDbEntity
  8
0
  6
Continuous
 62
     7
370
    25
100
AcDbLine
 10
1.6081613474
 20
2.462362286
 30
0.0
 11
2.0946112123
 21
2.462362286
 31
0.0
  0
SPLINE
  5
B5
330
1F
100
AcDbEntity
  8
0
  6
Continuous
 62
     7
370
    25
100
AcDbSpline
210
0.0
220
0.0
230
1.0
 70
     8
 71
     3
 72
    22
 73
    18
 74
     0
 42
0.000000001
 43
0.00000001
 40
0.0
 40
0.0
 40
0.0
 40
0.0
 40
0.2499999999999847
 40
0.2499999999999847
 40
0.3749999999999774
 40
0.3749999999999774
 40
0.49999999999997
 40
0.49999999999997
 40
0.5624999999999724
 40
0.5624999999999724
 40
0.6249999999999748
 40
0.6249999999999748
 40
0.7499999999999832
 40
0.7499999999999832
 40
0.8749999999999917
 40
0.8749999999999917
 40
1.0
 40
1.0
 40
1.0
 40
1.0
 10
1.608161347435114
 20
2.468661498590002
 30
0.0
 10
1.603387295964213
 20
2.468661498590002
 30
0.0
 10
1.598611435841556
 20
2.468631886979443
 30
0.0
 10
1.591499447519468
 20
2.469435580071634
 30
0.0
 10
1.589111198098875
 20
2.469851530550977
 30
0.0
 10
1.584575189503131
 20
2.471341594889888
 30
0.0
 10
1.582377920707091
 20
2.472467726117463
 30
0.0
 10
1.57982771082309
 20
2.474988509365764
 30
0.0
 10
1.579095174783932
 20
2.475972610337825
 30
0.0
 10
1.577912945287283
 20
2.478051057050108
 30
0.0
 10
1.577441471781107
 20
2.479167138089367
 30
0.0
 10
1.576298249489702
 20
2.482592213608509
 30
0.0
 10
1.575879003087526
 20
2.484974432310839
 30
0.0
 10
1.575332523842902
 20
2.489746903279907
 30
0.0
 10
1.575212482695648
 20
2.492140536903445
 30
0.0
 10
1.575089776294408
 20
2.496933472373875
 30
0.0
 10
1.575090423355456
 20
2.499332934176451
 30
0.0
 10
1.575090423355456
 20
2.501732364731669
 30
0.0
  0
LINE
  5
B6
330
1F
100
AcDbEntity
  8
0
  6
Continuous
 62
     7
370
    25
100
AcDbLine
 10
1.5750904234
 20
2.5017323647
 30
0.0
 11
1.5750904234
 21
2.556850475
 31
0.0
  0
SPLINE
  5
B7
330
1F
100
AcDbEntity
  8
0
  6
Continuous
 62
     7
370
    25
100
AcDbSpline
210
0.0
220
0.0
230
1.0
 70
     8
 71
     3
 72
    22
 73
    18
 74
     0
 42
0.000000001
 43
0.00000001
 40
0.0
 40
0.0
 40
0.0
 40
0.0
 40
0.2499999999999934
 40
0.2499999999999934
 40
0.3749999999999936
 40
0.3749999999999936
 40
0.4999999999999938
 40
0.4999999999999938
 40
0.5624999999999939
 40
0.5624999999999939
 40
0.624999999999994
 40
0.624999999999994
 40
0.749999999999996
 40
0.749999999999996
 40
0.8749999999999981
 40
0.8749999999999981
 40
1.0
 40
1.0
 40
1.0
 40
1.0
 10
1.575090423355456
 20
2.55685047496802
 30
0.0
 10
1.575090423355456
 20
2.5616245264238
 30
0.0
 10
1.575060811464673
 20
2.566400386550375
 30
0.0
 10
1.575864510339352
 20
2.573512374444438
 30
0.0
 10
1.576280463851647
 20
2.575900623564409
 30
0.0
 10
1.577770539609849
 20
2.580436628214148
 30
0.0
 10
1.578896680373949
 20
2.582633891893301
 30
0.0
 10
1.581417477782566
 20
2.585184088779439
 30
0.0
 10
1.58240158234895
 20
2.585916619407198
 30
0.0
 10
1.584480033978399
 20
2.587098840104208
 30
0.0
 10
1.585596116630662
 20
2.587570309982002
 30
0.0
 10
1.589021194855919
 20
2.588713523461935
 30
0.0
 10
1.591403413953575
 20
2.58913276689309
 30
0.0
 10
1.596175885428121
 20
2.589679242272072
 30
0.0
 10
1.598569519206084
 20
2.589799282615183
 30
0.0
 10
1.603362454915026
 20
2.589921988169622
 30
0.0
 10
1.60576191679863
 20
2.589921341109687
 30
0.0
 10
1.608161347435114
 20
2.589921341109687
 30
0.0
  0
LINE
  5
B8
330
1F
100
AcDbEntity
  8
0
  6
Continuous
 62
     7
370
    25
100
AcDbLine
 10
1.6081613474
 20
2.5899213411
 30
0.0
 11
2.0963503238
 21
2.5899213411
 31
0.0
  0
LINE
  5
B9
330
1F
100
AcDbEntity
  8
0
  6
Continuous
 62
     7
370
    25
100
AcDbLine
 10
1.6081613474
 20
2.5962205537
 30
0.0
 11
1.6081613474
 21
2.5899213411
 31
0.0
  0
LINE
  5
BA
330
1F
100
AcDbEntity
  8
0
  6
Continuous
 62
     7
370
    25
100
AcDbLine
 10
2.0963503238
 20
2.5962205537
 30
0.0
 11
1.6081613474
 21
2.5962205537
 31
0.0
  0
SPLINE
  5
BB
330
1F
100
AcDbEntity
  8
0
  6
Continuous
 62
     7
370
    25
100
AcDbSpline
210
0.0
220
0.0
230
1.0
 70
     8
 71
     3
 72
    26
 73
    22
 74
     0
 42
0.000000001
 43
0.00000001
 40
0.0
 40
0.0
 40
0.0
 40
0.0
 40
0.124999999999995
 40
0.124999999999995
 40
0.24999999999999
 40
0.24999999999999
 40
0.374999999999985
 40
0.374999999999985
 40
0.4374999999999843
 40
0.4374999999999843
 40
0.4999999999999837
 40
0.4999999999999837
 40
0.5624999999999829
 40
0.5624999999999829
 40
0.6249999999999822
 40
0.6249999999999822
 40
0.7499999999999881
 40
0.7499999999999881
 40
0.874999999999994
 40
0.874999999999994
 40
1.0
 40
1.0
 40
1.0
 40
1.0
 10
1.568791210757031
 20
2.501732364731669
 30
0.0
 10
1.568791210757031
 20
2.498919567602778
 30
0.0
 10
1.568791055112327
 20
2.496106762690499
 30
0.0
 10
1.568980620670682
 20
2.490490648114942
 30
0.0
 10
1.569165720218609
 20
2.487687107334669
 30
0.0
 10
1.569984254244008
 20
2.482102445841877
 30
0.0
 10
1.570613619981309
 20
2.479341269947966
 30
0.0
 10
1.572198941511359
 20
2.475412377239969
 30
0.0
 10
1.572827934424735
 20
2.474159905468558
 30
0.0
 10
1.574337137025159
 20
2.471797766394445
 30
0.0
 10
1.575232227422733
 20
2.470677421927481
 30
0.0
 10
1.57721851984609
 20
2.468706855899389
 30
0.0
 10
1.57831270939043
 20
2.467844743793465
 30
0.0
 10
1.580686108984147
 20
2.466346057902904
 30
0.0
 10
1.581964142356803
 20
2.465713680621145
 30
0.0
 10
1.58586602053182
 20
2.464160511870984
 30
0.0
 10
1.588634073064783
 20
2.463535664099562
 30
0.0
 10
1.59418341589445
 20
2.462731682094842
 30
0.0
 10
1.596972070154038
 20
2.462549053249398
 30
0.0
 10
1.602560748824378
 20
2.462362169911328
 30
0.0
 10
1.605361051829409
 20
2.462362285991577
 30
0.0
 10
1.608161347435114
 20
2.462362285991577
 30
0.0
  0
LINE
  5
BC
330
1F
100
AcDbEntity
  8
0
  6
Continuous
 62
     7
370
    25
100
AcDbLine
 10
1.5687912108
 20
2.5017323647
 30
0.0
 11
1.5750904234
 21
2.5017323647
 31
0.0
  0
LINE
  5
BD
330
1F
100
AcDbEntity
  8
0
  6
Continuous
 62
     7
370
    25
100
AcDbLine
 10
1.5687912108
 20
2.556850475
 30
0.0
 11
1.5687912108
 21
2.5017323647
 31
0.0
  0
LINE
  5
BE
330
1F
100
AcDbEntity
  8
0
  6
Continuous
 62
     7
370
    25
100
AcDbLine
 10
1.5687912108
 20
2.556850475
 30
0.0
 11
1.5750904234
 21
2.556850475
 31
0.0
  0
SPLINE
  5
BF
330
1F
100
AcDbEntity
  8
0
  6
Continuous
 62
     7
370
    25
100
AcDbSpline
210
0.0
220
0.0
230
1.0
 70
     8
 71
     3
 72
    26
 73
    22
 74
     0
 42
0.000000001
 43
0.00000001
 40
0.0
 40
0.0
 40
0.0
 40
0.0
 40
0.1250000000000042
 40
0.1250000000000042
 40
0.2500000000000084
 40
0.2500000000000084
 40
0.3750000000000125
 40
0.3750000000000125
 40
0.4375000000000138
 40
0.4375000000000138
 40
0.500000000000015
 40
0.500000000000015
 40
0.5625000000000162
 40
0.5625000000000162
 40
0.6250000000000174
 40
0.6250000000000174
 40
0.7500000000000115
 40
0.7500000000000115
 40
0.8750000000000058
 40
0.8750000000000058
 40
1.0
 40
1.0
 40
1.0
 40
1.0
 10
1.608161347435114
 20
2.596220553708113
 30
0.0
 10
1.60534855020148
 20
2.596220553708113
 30
0.0
 10
1.6025357451839
 20
2.596220709364943
 30
0.0
 10
1.596919630278803
 20
2.596031145042453
 30
0.0
 10
1.594116089278073
 20
2.595846046671066
 30
0.0
 10
1.588531427066108
 20
2.595027517808125
 30
0.0
 10
1.585770250436177
 20
2.594398156113345
 30
0.0
 10
1.581841353990016
 20
2.592812843773947
 30
0.0
 10
1.580588880439847
 20
2.592183854343936
 30
0.0
 10
1.578226736740975
 20
2.590674659295295
 30
0.0
 10
1.577106389134283
 20
2.589779572867701
 30
0.0
 10
1.575135816032121
 20
2.587793287338628
 30
0.0
 10
1.574273700309727
 20
2.5866991010472
 30
0.0
 10
1.572775007491813
 20
2.584325707233638
 30
0.0
 10
1.572142626284795
 20
2.583047675114953
 30
0.0
 10
1.570589448231867
 20
2.579145800234609
 30
0.0
 10
1.569964596515675
 20
2.576377748862748
 30
0.0
 10
1.569160609301016
 20
2.570828406396283
 30
0.0
 10
1.568977979270791
 20
2.568039752211597
 30
0.0
 10
1.568791094688573
 20
2.562451073606177
 30
0.0
 10
1.568791210757031
 20
2.559650770587807
 30
0.0
 10
1.568791210757031
 20
2.55685047496802
 30
0.0
  0
LINE
  5
C0
330
1F
100
AcDbEntity
  8
0
  6
Continuous
 62
     7
370
    25
100
AcDbLine
 10
3.9963503238
 20
2.5962205537
 30
0.0
 11
4.2571867766
 21
2.5962205537
 31
0.0
  0
ARC
  5
C1
330
1F
100
AcDbEntity
  8
0
  6
Continuous
 62
     7
370
    25
100
AcDbCircle
 10
4.2571347135
 20
2.5899725508
 30
0.0
 40
0.0062482198400776
100
AcDbArc
 50
359.5304053201
 51
89.5225785624
  0
SPLINE
  5
C2
330
1F
100
AcDbEntity
  8
0
  6
Continuous
 62
     7
370
    25
100
AcDbSpline
210
0.0
220
0.0
230
1.0
 70
     8
 71
     3
 72
    18
 73
    14
 74
     0
 42
0.000000001
 43
0.00000001
 40
0.0
 40
0.0
 40
0.0
 40
0.0
 40
0.2500000000000046
 40
0.2500000000000046
 40
0.5000000000000091
 40
0.5000000000000091
 40
0.6250000000000068
 40
0.6250000000000068
 40
0.7500000000000046
 40
0.7500000000000046
 40
0.8750000000000022
 40
0.8750000000000022
 40
1.0
 40
1.0
 40
1.0
 40
1.0
 10
4.263382723451635
 20
2.468661498590002
 30
0.0
 10
4.263382723451635
 20
2.467027524270574
 30
0.0
 10
4.263440063684195
 20
2.465402428912419
 30
0.0
 10
4.263646406878839
 20
2.462405488577609
 30
0.0
 10
4.263797506840294
 20
2.461005259505497
 30
0.0
 10
4.264056412546015
 20
2.459250842171391
 30
0.0
 10
4.264149687286825
 20
2.458711851086192
 30
0.0
 10
4.264337580629286
 20
2.457780333180851
 30
0.0
 10
4.264432506562986
 20
2.457383717067713
 30
0.0
 10
4.264620939088372
 20
2.456732588682057
 30
0.0
 10
4.264714173296622
 20
2.456481029811916
 30
0.0
 10
4.26488803101459
 20
2.456148513997045
 30
0.0
 10
4.264969829660661
 20
2.456063073393152
 30
0.0
 10
4.265045808202744
 20
2.456063073393152
 30
0.0
  0
LINE
  5
C3
330
1F
100
AcDbEntity
  8
0
  6
Continuous
 62
     7
370
    25
100
AcDbLine
 10
4.2633827235
 20
2.4686614986
 30
0.0
 11
4.2633827235
 21
2.5899213411
 31
0.0
  0
LINE
  5
C4
330
1F
100
AcDbEntity
  8
0
  6
Continuous
 62
     7
370
    25
100
AcDbLine
 10
4.1278463868
 20
1.9426772466
 30
0.0
 11
4.2656416624
 21
1.9426772466
 31
0.0
  0
LINE
  5
C5
330
1F
100
AcDbEntity
  8
0
  6
Continuous
 62
     7
370
    25
100
AcDbLine
 10
3.9900511112
 20
1.9426772466
 30
0.0
 11
4.1278463868
 21
1.9426772466
 31
0.0
  0
LINE
  5
C6
330
1F
100
AcDbEntity
  8
0
  6
Continuous
 62
     7
370
    25
100
AcDbLine
 10
4.2633827235
 20
2.4686614986
 30
0.0
 11
4.2695786703
 21
2.4686614986
 31
0.0
  0
SPLINE
  5
C7
330
1F
100
AcDbEntity
  8
0
  6
Continuous
 62
     7
370
    25
100
AcDbSpline
210
0.0
220
0.0
230
1.0
 70
     8
 71
     3
 72
    12
 73
     8
 74
     0
 42
0.000000001
 43
0.00000001
 40
0.0
 40
0.0
 40
0.0
 40
0.0
 40
0.2500000000000054
 40
0.2500000000000054
 40
0.5000000000000109
 40
0.5000000000000109
 40
1.0
 40
1.0
 40
1.0
 40
1.0
 10
4.271317781752346
 20
2.462362285991577
 30
0.0
 10
4.271162507668597
 20
2.462362285991577
 30
0.0
 10
4.270981429738853
 20
2.462525391164495
 30
0.0
 10
4.270596595137322
 20
2.463148317952115
 30
0.0
 10
4.270395570631109
 20
2.463606846333224
 30
0.0
 10
4.269851234921537
 20
2.465328290702948
 30
0.0
 10
4.269578670269759
 20
2.46696719952753
 30
0.0
 10
4.269578670269759
 20
2.468661498590002
 30
0.0
  0
ARC
  5
C8
330
1F
100
AcDbEntity
  8
0
  6
Continuous
 62
     7
370
    25
100
AcDbCircle
 10
4.2713314309
 20
2.4560766635
 30
0.0
 40
0.0062856373401307
100
AcDbArc
 50
90.1244164025
 51
180.1238784004
  0
LINE
  5
C9
330
1F
100
AcDbEntity
  8
0
  6
Continuous
 62
     7
370
    25
100
AcDbLine
 10
4.2695786703
 20
2.5899213411
 30
0.0
 11
4.2633827235
 21
2.5899213411
 31
0.0
  0
LINE
  5
CA
330
1F
100
AcDbEntity
  8
0
  6
Continuous
 62
     7
370
    25
100
AcDbLine
 10
4.2695786703
 20
2.5899213411
 30
0.0
 11
4.2695786703
 21
2.4686614986
 31
0.0
  0
LINE
  5
CB
330
1F
100
AcDbEntity
  8
0
  6
Continuous
 62
     7
370
    25
100
AcDbLine
 10
4.2695786703
 20
2.5899213411
 30
0.0
 11
4.2695786703
 21
2.5962205537
 31
0.0
  0
LINE
  5
CC
330
1F
100
AcDbEntity
  8
0
  6
Continuous
 62
     7
370
    25
100
AcDbLine
 10
4.2571867766
 20
2.5962205537
 30
0.0
 11
4.2695786703
 21
2.5962205537
 31
0.0
  0
SPLINE
  5
CD
330
1F
100
AcDbEntity
  8
0
  6
Continuous
 62
     7
370
    25
100
AcDbSpline
210
0.0
220
0.0
230
1.0
 70
     8
 71
     3
 72
    26
 73
    22
 74
     0
 42
0.000000001
 43
0.00000001
 40
0.0
 40
0.0
 40
0.0
 40
0.0
 40
0.1250000000000042
 40
0.1250000000000042
 40
0.2500000000000084
 40
0.2500000000000084
 40
0.3750000000000125
 40
0.3750000000000125
 40
0.4375000000000138
 40
0.4375000000000138
 40
0.500000000000015
 40
0.500000000000015
 40
0.5625000000000162
 40
0.5625000000000162
 40
0.6250000000000174
 40
0.6250000000000174
 40
0.7500000000000115
 40
0.7500000000000115
 40
0.8750000000000058
 40
0.8750000000000058
 40
1.0
 40
1.0
 40
1.0
 40
1.0
 10
4.757767646647713
 20
2.596220553708113
 30
0.0
 10
4.760580443881347
 20
2.596220553708113
 30
0.0
 10
4.763393248898927
 20
2.596220709364943
 30
0.0
 10
4.769009363804024
 20
2.596031145042453
 30
0.0
 10
4.771812904804754
 20
2.595846046671066
 30
0.0
 10
4.777397567016719
 20
2.595027517808125
 30
0.0
 10
4.780158743646649
 20
2.594398156113345
 30
0.0
 10
4.784087640092811
 20
2.592812843773947
 30
0.0
 10
4.78534011364298
 20
2.592183854343936
 30
0.0
 10
4.787702257341851
 20
2.590674659295295
 30
0.0
 10
4.788822604948543
 20
2.589779572867701
 30
0.0
 10
4.790793178050706
 20
2.587793287338628
 30
0.0
 10
4.7916552937731
 20
2.5866991010472
 30
0.0
 10
4.793153986591014
 20
2.584325707233638
 30
0.0
 10
4.793786367798032
 20
2.583047675114953
 30
0.0
 10
4.795339545850959
 20
2.579145800234609
 30
0.0
 10
4.795964397567152
 20
2.576377748862748
 30
0.0
 10
4.796768384781811
 20
2.570828406396283
 30
0.0
 10
4.796951014812036
 20
2.568039752211597
 30
0.0
 10
4.797137899394254
 20
2.562451073606177
 30
0.0
 10
4.797137783325796
 20
2.559650770587807
 30
0.0
 10
4.797137783325796
 20
2.55685047496802
 30
0.0
  0
LINE
  5
CE
330
1F
100
AcDbEntity
  8
0
  6
Continuous
 62
     7
370
    25
100
AcDbLine
 10
4.7971377833
 20
2.556850475
 30
0.0
 11
4.7908385707
 21
2.556850475
 31
0.0
  0
SPLINE
  5
CF
330
1F
100
AcDbEntity
  8
0
  6
Continuous
 62
     7
370
    25
100
AcDbSpline
210
0.0
220
0.0
230
1.0
 70
     8
 71
     3
 72
    22
 73
    18
 74
     0
 42
0.000000001
 43
0.00000001
 40
0.0
 40
0.0
 40
0.0
 40
0.0
 40
0.2499999999999934
 40
0.2499999999999934
 40
0.3749999999999936
 40
0.3749999999999936
 40
0.4999999999999938
 40
0.4999999999999938
 40
0.5624999999999939
 40
0.5624999999999939
 40
0.624999999999994
 40
0.624999999999994
 40
0.749999999999996
 40
0.749999999999996
 40
0.8749999999999981
 40
0.8749999999999981
 40
1.0
 40
1.0
 40
1.0
 40
1.0
 10
4.79083857072737
 20
2.55685047496802
 30
0.0
 10
4.79083857072737
 20
2.5616245264238
 30
0.0
 10
4.790868182618153
 20
2.566400386550375
 30
0.0
 10
4.790064483743475
 20
2.573512374444438
 30
0.0
 10
4.78964853023118
 20
2.575900623564409
 30
0.0
 10
4.788158454472978
 20
2.580436628214148
 30
0.0
 10
4.787032313708877
 20
2.582633891893301
 30
0.0
 10
4.784511516300261
 20
2.585184088779439
 30
0.0
 10
4.783527411733877
 20
2.585916619407198
 30
0.0
 10
4.781448960104428
 20
2.587098840104208
 30
0.0
 10
4.780332877452164
 20
2.587570309982002
 30
0.0
 10
4.776907799226908
 20
2.588713523461935
 30
0.0
 10
4.774525580129252
 20
2.58913276689309
 30
0.0
 10
4.769753108654705
 20
2.589679242272072
 30
0.0
 10
4.767359474876743
 20
2.589799282615183
 30
0.0
 10
4.762566539167802
 20
2.589921988169622
 30
0.0
 10
4.760167077284197
 20
2.589921341109687
 30
0.0
 10
4.757767646647713
 20
2.589921341109687
 30
0.0
  0
LINE
  5
D0
330
1F
100
AcDbEntity
  8
0
  6
Continuous
 62
     7
370
    25
100
AcDbLine
 10
4.7577676466
 20
2.5962205537
 30
0.0
 11
4.7577676466
 21
2.5899213411
 31
0.0
  0
SPLINE
  5
D1
330
1F
100
AcDbEntity
  8
0
  6
Continuous
 62
     7
370
    25
100
AcDbSpline
210
0.0
220
0.0
230
1.0
 70
     8
 71
     3
 72
    26
 73
    22
 74
     0
 42
0.000000001
 43
0.00000001
 40
0.0
 40
0.0
 40
0.0
 40
0.0
 40
0.124999999999995
 40
0.124999999999995
 40
0.24999999999999
 40
0.24999999999999
 40
0.374999999999985
 40
0.374999999999985
 40
0.4374999999999843
 40
0.4374999999999843
 40
0.4999999999999837
 40
0.4999999999999837
 40
0.5624999999999829
 40
0.5624999999999829
 40
0.6249999999999822
 40
0.6249999999999822
 40
0.7499999999999881
 40
0.7499999999999881
 40
0.874999999999994
 40
0.874999999999994
 40
1.0
 40
1.0
 40
1.0
 40
1.0
 10
4.797137783325796
 20
2.501732364731669
 30
0.0
 10
4.797137783325796
 20
2.498919567602778
 30
0.0
 10
4.797137938970501
 20
2.496106762690499
 30
0.0
 10
4.796948373412145
 20
2.490490648114942
 30
0.0
 10
4.796763273864218
 20
2.487687107334669
 30
0.0
 10
4.795944739838819
 20
2.482102445841877
 30
0.0
 10
4.795315374101517
 20
2.479341269947966
 30
0.0
 10
4.793730052571468
 20
2.475412377239969
 30
0.0
 10
4.793101059658092
 20
2.474159905468558
 30
0.0
 10
4.791591857057668
 20
2.471797766394445
 30
0.0
 10
4.790696766660094
 20
2.470677421927481
 30
0.0
 10
4.788710474236737
 20
2.468706855899389
 30
0.0
 10
4.787616284692397
 20
2.467844743793465
 30
0.0
 10
4.78524288509868
 20
2.466346057902904
 30
0.0
 10
4.783964851726024
 20
2.465713680621145
 30
0.0
 10
4.780062973551006
 20
2.464160511870984
 30
0.0
 10
4.777294921018044
 20
2.463535664099562
 30
0.0
 10
4.771745578188376
 20
2.462731682094842
 30
0.0
 10
4.768956923928789
 20
2.462549053249398
 30
0.0
 10
4.763368245258448
 20
2.462362169911328
 30
0.0
 10
4.760567942253418
 20
2.462362285991577
 30
0.0
 10
4.757767646647713
 20
2.462362285991577
 30
0.0
  0
LINE
  5
D2
330
1F
100
AcDbEntity
  8
0
  6
Continuous
 62
     7
370
    25
100
AcDbLine
 10
4.7577676466
 20
2.462362286
 30
0.0
 11
4.7577676466
 21
2.4686614986
 31
0.0
  0
SPLINE
  5
D3
330
1F
100
AcDbEntity
  8
0
  6
Continuous
 62
     7
370
    25
100
AcDbSpline
210
0.0
220
0.0
230
1.0
 70
     8
 71
     3
 72
    22
 73
    18
 74
     0
 42
0.000000001
 43
0.00000001
 40
0.0
 40
0.0
 40
0.0
 40
0.0
 40
0.2499999999999847
 40
0.2499999999999847
 40
0.3749999999999774
 40
0.3749999999999774
 40
0.49999999999997
 40
0.49999999999997
 40
0.5624999999999724
 40
0.5624999999999724
 40
0.6249999999999748
 40
0.6249999999999748
 40
0.7499999999999832
 40
0.7499999999999832
 40
0.8749999999999917
 40
0.8749999999999917
 40
1.0
 40
1.0
 40
1.0
 40
1.0
 10
4.757767646647713
 20
2.468661498590002
 30
0.0
 10
4.762541698118613
 20
2.468661498590002
 30
0.0
 10
4.767317558241271
 20
2.468631886979443
 30
0.0
 10
4.774429546563359
 20
2.469435580071634
 30
0.0
 10
4.776817795983952
 20
2.469851530550977
 30
0.0
 10
4.781353804579695
 20
2.471341594889888
 30
0.0
 10
4.783551073375735
 20
2.472467726117463
 30
0.0
 10
4.786101283259737
 20
2.474988509365764
 30
0.0
 10
4.786833819298895
 20
2.475972610337825
 30
0.0
 10
4.788016048795544
 20
2.478051057050108
 30
0.0
 10
4.78848752230172
 20
2.479167138089367
 30
0.0
 10
4.789630744593124
 20
2.482592213608509
 30
0.0
 10
4.790049990995301
 20
2.484974432310839
 30
0.0
 10
4.790596470239925
 20
2.489746903279907
 30
0.0
 10
4.790716511387179
 20
2.492140536903445
 30
0.0
 10
4.790839217788419
 20
2.496933472373875
 30
0.0
 10
4.79083857072737
 20
2.499332934176451
 30
0.0
 10
4.79083857072737
 20
2.501732364731669
 30
0.0
  0
LINE
  5
D4
330
1F
100
AcDbEntity
  8
0
  6
Continuous
 62
     7
370
    25
100
AcDbLine
 10
4.7971377833
 20
2.5017323647
 30
0.0
 11
4.7908385707
 21
2.5017323647
 31
0.0
  0
LINE
  5
D5
330
1F
100
AcDbEntity
  8
0
  6
Continuous
 62
     7
370
    25
100
AcDbLine
 10
4.7577676466
 20
2.5899213411
 30
0.0
 11
4.2695786703
 21
2.5899213411
 31
0.0
  0
LINE
  5
D6
330
1F
100
AcDbEntity
  8
0
  6
Continuous
 62
     7
370
    25
100
AcDbLine
 10
4.7908385707
 20
2.5017323647
 30
0.0
 11
4.7908385707
 21
2.556850475
 31
0.0
  0
LINE
  5
D7
330
1F
100
AcDbEntity
  8
0
  6
Continuous
 62
     7
370
    25
100
AcDbLine
 10
4.2695786703
 20
2.4686614986
 30
0.0
 11
4.7577676466
 21
2.4686614986
 31
0.0
  0
LINE
  5
D8
330
1F
100
AcDbEntity
  8
0
  6
Continuous
 62
     7
370
    25
100
AcDbLine
 10
4.2695786703
 20
2.5962205537
 30
0.0
 11
4.7577676466
 21
2.5962205537
 31
0.0
  0
LINE
  5
D9
330
1F
100
AcDbEntity
  8
0
  6
Continuous
 62
     7
370
    25
100
AcDbLine
 10
4.7577676466
 20
2.462362286
 30
0.0
 11
4.2713177818
 21
2.462362286
 31
0.0
  0
LINE
  5
DA
330
1F
100
AcDbEntity
  8
0
  6
Continuous
 62
     7
370
    25
100
AcDbLine
 10
4.7971377833
 20
2.556850475
 30
0.0
 11
4.7971377833
 21
2.5017323647
 31
0.0
  0
LWPOLYLINE
  5
DB
330
1F
100
AcDbEntity
  8
0
  6
Continuous
 62
     7
370
    25
100
AcDbPolyline
 90
       30
 70
   128
 43
0.0
 10
3.182964497
 20
3.1413429203
 10
3.1965059421
 20
3.1421876383
 10
3.2094142042
 20
3.1446822942
 10
3.2210857074
 20
3.1487102408
 10
3.2309747052
 20
3.1540831356
 10
3.2386187991
 20
3.1605497481
 10
3.2436605596
 20
3.1678077067
 10
3.2458642396
 20
3.1755176374
 10
3.2451267977
 20
3.1833190322
 10
3.2414827156
 20
3.1908471068
 10
3.2351023867
 20
3.1977498565
 10
3.226284148
 20
3.2037045167
 10
3.2154403306
 20
3.2084326539
 10
3.2030779793
 20
3.2117131858
 10
3.1897751439
 20
3.2133927183
 10
3.1761538502
 20
3.2133927183
 10
3.1628510148
 20
3.2117131858
 10
3.1504886635
 20
3.2084326539
 10
3.1396448461
 20
3.2037045167
 10
3.1308266074
 20
3.1977498565
 10
3.1244462785
 20
3.1908471068
 10
3.1208021964
 20
3.1833190322
 10
3.1200647544
 20
3.1755176374
 10
3.1222684345
 20
3.1678077067
 10
3.127310195
 20
3.1605497481
 10
3.1349542888
 20
3.1540831356
 10
3.1448432866
 20
3.1487102408
 10
3.1565147899
 20
3.1446822942
 10
3.169423052
 20
3.1421876383
 10
3.182964497
 20
3.1413429203
  0
LWPOLYLINE
  5
DC
330
1F
100
AcDbEntity
  8
0
  6
Continuous
 62
     7
370
    25
100
AcDbPolyline
 90
       33
 70
   128
 43
0.0
 10
3.182964497
 20
3.1345683954
 10
3.1975578676
 20
3.1353928092
 10
3.2115904231
 20
3.1378343688
 10
3.2245229003
 20
3.1417992463
 10
3.2358583114
 20
3.1471350739
 10
3.2451610428
 20
3.1536367986
 10
3.2520735959
 20
3.1610545628
 10
3.2563303251
 20
3.1691033059
 10
3.2577676466
 20
3.1774737194
 10
3.2563303251
 20
3.1858441329
 10
3.2520735959
 20
3.1938928761
 10
3.2451610428
 20
3.2013106403
 10
3.2358583114
 20
3.2078123649
 10
3.2245229003
 20
3.2131481925
 10
3.2115904231
 20
3.2171130701
 10
3.1975578676
 20
3.2195546296
 10
3.182964497
 20
3.2203790434
 10
3.1683711265
 20
3.2195546296
 10
3.154338571
 20
3.2171130701
 10
3.1414060938
 20
3.2131481925
 10
3.1300706827
 20
3.2078123649
 10
3.1207679512
 20
3.2013106403
 10
3.1138553982
 20
3.1938928761
 10
3.109598669
 20
3.1858441329
 10
3.1081613474
 20
3.1774737194
 10
3.109598669
 20
3.1691033059
 10
3.1138553982
 20
3.1610545628
 10
3.1207679512
 20
3.1536367986
 10
3.1300706827
 20
3.1471350739
 10
3.1414060938
 20
3.1417992463
 10
3.154338571
 20
3.1378343688
 10
3.1683711265
 20
3.1353928092
 10
3.182964497
 20
3.1345683954
  0
LWPOLYLINE
  5
DD
330
1F
100
AcDbEntity
  8
0
  6
Continuous
 62
     7
370
    25
100
AcDbPolyline
 90
        3
 70
   128
 43
0.0
 10
3.2577676466
 20
3.2032737838
 10
3.2563303251
 20
3.2116441973
 10
3.2555100366
 20
3.213735162
  0
LWPOLYLINE
  5
DE
330
1F
100
AcDbEntity
  8
0
  6
Continuous
 62
     7
370
    25
100
AcDbPolyline
 90
        3
 70
   128
 43
0.0
 10
3.1104189575
 20
3.213735162
 10
3.109598669
 20
3.2116441973
 10
3.1081613474
 20
3.2032737838
  0
LWPOLYLINE
  5
DF
330
1F
100
AcDbEntity
  8
0
  6
Continuous
 62
     7
370
    25
100
AcDbPolyline
 90
        9
 70
   128
 43
0.0
 10
3.182964497
 20
3.1445679283
 10
3.1965059421
 20
3.1454126463
 10
3.2094142042
 20
3.1479073023
 10
3.2210857074
 20
3.1519352488
 10
3.2309747052
 20
3.1573081436
 10
3.2386187991
 20
3.1637747562
 10
3.2436605596
 20
3.1710327148
 10
3.2458642396
 20
3.1787426454
 10
3.2458938578
 20
3.1790862234
  0
LWPOLYLINE
  5
E0
330
1F
100
AcDbEntity
  8
0
  6
Continuous
 62
     7
370
    25
100
AcDbPolyline
 90
        9
 70
   128
 43
0.0
 10
3.1200351363
 20
3.1790862234
 10
3.1200647544
 20
3.1787426454
 10
3.1222684345
 20
3.1710327148
 10
3.127310195
 20
3.1637747562
 10
3.1349542888
 20
3.1573081436
 10
3.1448432866
 20
3.1519352488
 10
3.1565147899
 20
3.1479073023
 10
3.169423052
 20
3.1454126463
 10
3.182964497
 20
3.1445679283
  0
LINE
  5
E1
330
1F
100
AcDbEntity
  8
0
  6
Continuous
 62
     7
370
    25
100
AcDbLine
 10
2.2380826073
 20
1.8718111049
 30
0.0
 11
2.0018621348
 21
1.8718111049
 31
0.0
  0
LINE
  5
E2
330
1F
100
AcDbEntity
  8
0
  6
Continuous
 62
     7
370
    25
100
AcDbLine
 10
2.4743030797
 20
1.8718111049
 30
0.0
 11
2.2380826073
 21
1.8718111049
 31
0.0
  0
LINE
  5
E3
330
1F
100
AcDbEntity
  8
0
  6
Continuous
 62
     7
370
    25
100
AcDbLine
 10
2.2380826073
 20
1.9348032309
 30
0.0
 11
2.0081613474
 21
1.9348032309
 31
0.0
  0
LINE
  5
E4
330
1F
100
AcDbEntity
  8
0
  6
Continuous
 62
     7
370
    25
100
AcDbLine
 10
2.4680038671
 20
1.9348032309
 30
0.0
 11
2.2380826073
 21
1.9348032309
 31
0.0
  0
LINE
  5
E5
330
1F
100
AcDbEntity
  8
0
  6
Continuous
 62
     7
370
    25
100
AcDbLine
 10
4.1278463868
 20
1.9348032309
 30
0.0
 11
4.3577676466
 21
1.9348032309
 31
0.0
  0
LINE
  5
E6
330
1F
100
AcDbEntity
  8
0
  6
Continuous
 62
     7
370
    25
100
AcDbLine
 10
3.897925127
 20
1.9348032309
 30
0.0
 11
4.1278463868
 21
1.9348032309
 31
0.0
  0
LINE
  5
E7
330
1F
100
AcDbEntity
  8
0
  6
Continuous
 62
     7
370
    25
100
AcDbLine
 10
4.1278463868
 20
1.8718111049
 30
0.0
 11
4.3640668592
 21
1.8718111049
 31
0.0
  0
LINE
  5
E8
330
1F
100
AcDbEntity
  8
0
  6
Continuous
 62
     7
370
    25
100
AcDbLine
 10
3.8916259144
 20
1.8718111049
 30
0.0
 11
4.1278463868
 21
1.8718111049
 31
0.0
  0
LWPOLYLINE
  5
E9
330
1F
100
AcDbEntity
  8
0
  6
Continuous
 62
     7
370
    25
100
AcDbPolyline
 90
       22
 70
   128
 43
0.0
 10
3.068792539
 20
3.175874794
 10
3.0687912687
 20
3.1761837162
 10
3.0701969306
 20
3.1864281515
 10
3.0743793042
 20
3.1964203348
 10
3.0812354057
 20
3.2059142254
 10
3.090596415
 20
3.2146760522
 10
3.102231833
 20
3.2224900699
 10
3.1158551572
 20
3.2291638715
 10
3.131130936
 20
3.2345331259
 10
3.1476830292
 20
3.2384656241
 10
3.1651038691
 20
3.2408645351
 10
3.182964497
 20
3.2416707896
 10
3.2008251249
 20
3.2408645351
 10
3.2182459649
 20
3.2384656241
 10
3.234798058
 20
3.2345331259
 10
3.2500738369
 20
3.2291638715
 10
3.263697161
 20
3.2224900699
 10
3.2753325791
 20
3.2146760522
 10
3.2846935884
 20
3.2059142254
 10
3.2915496898
 20
3.1964203348
 10
3.2957320635
 20
3.1864281515
 10
3.2970895811
 20
3.1780852986
  0
LWPOLYLINE
  5
EA
330
1F
100
AcDbEntity
  8
0
  6
Continuous
 62
     7
370
    25
100
AcDbPolyline
 90
       21
 70
   128
 43
0.0
 10
3.2971377254
 20
3.8652360154
 10
3.2957320635
 20
3.8754804507
 10
3.2915496898
 20
3.885472634
 10
3.2846935884
 20
3.8949665246
 10
3.2753325791
 20
3.9037283514
 10
3.263697161
 20
3.9115423692
 10
3.2500738369
 20
3.9182161708
 10
3.234798058
 20
3.9235854251
 10
3.2182459649
 20
3.9275179234
 10
3.2008251249
 20
3.9299168343
 10
3.182964497
 20
3.9307230889
 10
3.1651038691
 20
3.9299168343
 10
3.1476830292
 20
3.9275179234
 10
3.131130936
 20
3.9235854251
 10
3.1158551572
 20
3.9182161708
 10
3.102231833
 20
3.9115423692
 10
3.090596415
 20
3.9037283514
 10
3.0812354057
 20
3.8949665246
 10
3.0743793042
 20
3.885472634
 10
3.0701969306
 20
3.8754804507
 10
3.0687912687
 20
3.8652360154
  0
LINE
  5
EB
330
1F
100
AcDbEntity
  8
0
  6
Continuous
 62
     7
370
    25
100
AcDbLine
 10
3.3601298514
 20
2.5820473254
 30
0.0
 11
3.0057991427
 21
2.5820473254
 31
0.0
  0
LINE
  5
EC
330
1F
100
AcDbEntity
  8
0
  6
Continuous
 62
     7
370
    25
100
AcDbLine
 10
3.4191849695
 20
1.9285040183
 30
0.0
 11
2.9467440246
 21
1.9285040183
 31
0.0
  0
LINE
  5
ED
330
1F
100
AcDbEntity
  8
0
  6
Continuous
 62
     7
370
    25
100
AcDbLine
 10
2.1025462706
 20
2.5899213411
 30
0.0
 11
2.3758778829
 21
2.5899213411
 31
0.0
  0
LINE
  5
EE
330
1F
100
AcDbEntity
  8
0
  6
Continuous
 62
     7
370
    25
100
AcDbLine
 10
2.1002873317
 20
2.4560630734
 30
0.0
 11
2.1008831859
 21
2.4560630734
 31
0.0
  0
LINE
  5
EF
330
1F
100
AcDbEntity
  8
0
  6
Continuous
 62
     7
370
    25
100
AcDbLine
 10
4.2633827235
 20
2.5899213411
 30
0.0
 11
3.9900511112
 21
2.5899213411
 31
0.0
  0
LINE
  5
F0
330
1F
100
AcDbEntity
  8
0
  6
Continuous
 62
     7
370
    25
100
AcDbLine
 10
4.2656416624
 20
2.4560630734
 30
0.0
 11
4.2650458082
 21
2.4560630734
 31
0.0
  0
LINE
  5
F1
330
1F
100
AcDbEntity
  8
0
  6
Continuous
 62
     7
370
    25
100
AcDbLine
 10
2.2380826073
 20
1.9285040183
 30
0.0
 11
2.4743030797
 21
1.9285040183
 31
0.0
  0
LINE
  5
F2
330
1F
100
AcDbEntity
  8
0
  6
Continuous
 62
     7
370
    25
100
AcDbLine
 10
2.0018621348
 20
1.9285040183
 30
0.0
 11
2.2380826073
 21
1.9285040183
 31
0.0
  0
LINE
  5
F3
330
1F
100
AcDbEntity
  8
0
  6
Continuous
 62
     7
370
    25
100
AcDbLine
 10
4.1278463868
 20
1.9285040183
 30
0.0
 11
3.8916259144
 21
1.9285040183
 31
0.0
  0
LINE
  5
F4
330
1F
100
AcDbEntity
  8
0
  6
Continuous
 62
     7
370
    25
100
AcDbLine
 10
4.3640668592
 20
1.9285040183
 30
0.0
 11
4.1278463868
 21
1.9285040183
 31
0.0
  0
LINE
  5
F5
330
1F
100
AcDbEntity
  8
0
  6
Continuous
 62
     7
370
    25
100
AcDbLine
 10
3.0687912687
 20
7.5935571727
 30
0.0
 11
3.0687912687
 21
6.3473664022
 31
0.0
  0
LINE
  5
F6
330
1F
100
AcDbEntity
  8
0
  6
Continuous
 62
     7
370
    25
100
AcDbLine
 10
3.2971377254
 20
6.3473664022
 30
0.0
 11
3.2971377254
 21
7.5935571727
 31
0.0
  0
LINE
  5
F7
330
1F
100
AcDbEntity
  8
0
  6
Continuous
 62
     7
370
    25
100
AcDbLine
 10
3.2971377254
 20
5.864886788
 30
0.0
 11
3.2971377254
 21
6.3473664022
 31
0.0
  0
LINE
  5
F8
330
1F
100
AcDbEntity
  8
0
  6
Continuous
 62
     7
370
    25
100
AcDbLine
 10
3.0687912687
 20
6.3473664022
 30
0.0
 11
3.0687912687
 21
5.864886788
 31
0.0
  0
ARC
  5
F9
330
1F
100
AcDbEntity
  8
0
  6
Continuous
 62
     7
370
    25
100
AcDbCircle
 10
3.182964497
 20
7.5935571727
 30
0.0
 40
0.1141732283464569
100
AcDbArc
 50
0.0
 51
180.0
  0
LWPOLYLINE
  5
FA
330
1F
100
AcDbEntity
  8
0
  6
Continuous
 62
     7
370
    25
100
AcDbPolyline
 90
       21
 70
   128
 43
0.0
 10
3.0687912687
 20
5.864886788
 10
3.0701969306
 20
5.8502562182
 10
3.0743793042
 20
5.8359859015
 10
3.0812354057
 20
5.8224272206
 10
3.090596415
 20
5.8099140351
 10
3.102231833
 20
5.7987544613
 10
3.1158551572
 20
5.7892232848
 10
3.131130936
 20
5.7815551949
 10
3.1476830292
 20
5.7759390053
 10
3.1651038691
 20
5.7725130054
 10
3.182964497
 20
5.7713615546
 10
3.2008251249
 20
5.7725130054
 10
3.2182459649
 20
5.7759390053
 10
3.234798058
 20
5.7815551949
 10
3.2500738369
 20
5.7892232848
 10
3.263697161
 20
5.7987544613
 10
3.2753325791
 20
5.8099140351
 10
3.2846935884
 20
5.8224272206
 10
3.2915496898
 20
5.8359859015
 10
3.2957320635
 20
5.8502562182
 10
3.2971377254
 20
5.864886788
  0
ARC
  5
FB
330
1F
100
AcDbEntity
  8
0
  6
Continuous
 62
     7
370
    25
100
AcDbCircle
 10
3.182964497
 20
7.5935571727
 30
0.0
 40
0.1771653543307092
100
AcDbArc
 50
310.1240345935
 51
90.0
  0
ARC
  5
FC
330
1F
100
AcDbEntity
  8
0
  6
Continuous
 62
     7
370
    25
100
AcDbCircle
 10
3.182964497
 20
7.5935571727
 30
0.0
 40
0.1771653543307092
100
AcDbArc
 50
90.0
 51
229.8759654065
  0
ARC
  5
FD
330
1F
100
AcDbEntity
  8
0
  6
Continuous
 62
     7
370
    25
100
AcDbCircle
 10
3.182964497
 20
7.5935571727
 30
0.0
 40
0.2362204724409454
100
AcDbArc
 50
298.9033345398
 51
90.0
  0
ARC
  5
FE
330
1F
100
AcDbEntity
  8
0
  6
Continuous
 62
     7
370
    25
100
AcDbCircle
 10
3.182964497
 20
7.5935571727
 30
0.0
 40
0.2362204724409454
100
AcDbArc
 50
90.0
 51
241.0966654602
  0
SPLINE
  5
FF
330
1F
100
AcDbEntity
  8
0
  6
Continuous
 62
     7
370
    25
100
AcDbSpline
210
0.0
220
0.0
230
1.0
 70
    24
 71
     3
 72
    30
 73
    26
 74
     0
 42
0.000000001
 43
0.00000001
 40
0.0
 40
0.0
 40
0.0
 40
0.0
 40
0.125
 40
0.125
 40
0.25
 40
0.25
 40
0.3125
 40
0.3125
 40
0.375
 40
0.375
 40
0.4375
 40
0.4375
 40
0.5
 40
0.5
 40
0.5625
 40
0.5625
 40
0.625
 40
0.625
 40
0.6875
 40
0.6875
 40
0.75
 40
0.75
 40
0.875
 40
0.875
 40
1.0
 40
1.0
 40
1.0
 40
1.0
 10
1.568791210757031
 20
7.606942999439683
 30
0.0
 10
1.568791210757031
 20
7.606942999439683
 30
0.0
 10
1.568791028915296
 20
7.606942999439683
 30
0.0
 10
1.56898207008797
 20
7.606942999439683
 30
0.0
 10
1.569169768441461
 20
7.606942999439683
 30
0.0
 10
1.56978764073044
 20
7.606942999439683
 30
0.0
 10
1.570049743996317
 20
7.606942999439683
 30
0.0
 10
1.570734755343392
 20
7.606942999439683
 30
0.0
 10
1.571161286389979
 20
7.606942999439683
 30
0.0
 10
1.572218780963676
 20
7.606942999439683
 30
0.0
 10
1.572849494236977
 20
7.606942999439683
 30
0.0
 10
1.574372895146939
 20
7.606942999439683
 30
0.0
 10
1.575269154806583
 20
7.606942999439683
 30
0.0
 10
1.577263858710829
 20
7.606942999439683
 30
0.0
 10
1.578380879429861
 20
7.606942999439683
 30
0.0
 10
1.580780106040343
 20
7.606942999439683
 30
0.0
 10
1.582039472608318
 20
7.606942999439683
 30
0.0
 10
1.584648733984163
 20
7.606942999439683
 30
0.0
 10
1.586008093002225
 20
7.606942999439683
 30
0.0
 10
1.588740625526767
 20
7.606942999439683
 30
0.0
 10
1.590113748979797
 20
7.606942999439683
 30
0.0
 10
1.59424698718305
 20
7.606942999439683
 30
0.0
 10
1.597020716201105
 20
7.606942999439683
 30
0.0
 10
1.602583183188474
 20
7.606942999439683
 30
0.0
 10
1.605372268012115
 20
7.606942999439683
 30
0.0
 10
1.608161347435114
 20
7.606942999439683
 30
0.0
  0
ARC
  5
100
330
1F
100
AcDbEntity
  8
0
  6
Continuous
 62
     7
370
    25
100
AcDbCircle
 10
1.5750904234
 20
7.6069429994
 30
0.0
 40
0.0062992125984254
100
AcDbArc
 50
90.0
 51
180.0
  0
SPLINE
  5
101
330
1F
100
AcDbEntity
  8
0
  6
Continuous
 62
     7
370
    25
100
AcDbSpline
210
0.0
220
0.0
230
1.0
 70
    24
 71
     3
 72
    26
 73
    22
 74
     0
 42
0.000000001
 43
0.00000001
 40
0.0
 40
0.0
 40
0.0
 40
0.0
 40
0.2500000000000103
 40
0.2500000000000103
 40
0.3125000000000103
 40
0.3125000000000103
 40
0.3750000000000104
 40
0.3750000000000104
 40
0.4375000000000104
 40
0.4375000000000104
 40
0.5000000000000104
 40
0.5000000000000104
 40
0.5625000000000104
 40
0.5625000000000104
 40
0.6250000000000104
 40
0.6250000000000104
 40
0.750000000000007
 40
0.750000000000007
 40
0.8750000000000034
 40
0.8750000000000034
 40
1.0
 40
1.0
 40
1.0
 40
1.0
 10
1.608161347435114
 20
7.613242212038108
 30
0.0
 10
1.603406475768971
 20
7.613242212038108
 30
0.0
 10
1.598649346624777
 20
7.613242212038108
 30
0.0
 10
1.592758764872
 20
7.613242212038108
 30
0.0
 10
1.591583641522064
 20
7.613242212038108
 30
0.0
 10
1.589242636470702
 20
7.613242212038108
 30
0.0
 10
1.588067718813863
 20
7.613242212038108
 30
0.0
 10
1.58577976130159
 20
7.613242212038108
 30
0.0
 10
1.584672028363406
 20
7.613242212038108
 30
0.0
 10
1.582568067323906
 20
7.613242212038108
 30
0.0
 10
1.581574102797216
 20
7.613242212038108
 30
0.0
 10
1.579863500033145
 20
7.613242212038108
 30
0.0
 10
1.579125416561494
 20
7.613242212038108
 30
0.0
 10
1.577932795933631
 20
7.613242212038108
 30
0.0
 10
1.57746306603914
 20
7.613242212038108
 30
0.0
 10
1.576306970742898
 20
7.613242212038108
 30
0.0
 10
1.575886673739874
 20
7.613242212038108
 30
0.0
 10
1.575334472216294
 20
7.613242212038108
 30
0.0
 10
1.575213491436859
 20
7.613242212038108
 30
0.0
 10
1.57508975722504
 20
7.613242212038108
 30
0.0
 10
1.575090423355454
 20
7.613242212038108
 30
0.0
 10
1.575090423355455
 20
7.613242212038108
 30
0.0
  0
LINE
  5
102
330
1F
100
AcDbEntity
  8
0
  6
Continuous
 62
     7
370
    25
100
AcDbLine
 10
1.6081613474
 20
7.613242212
 30
0.0
 11
1.6081613474
 21
7.6069429994
 31
0.0
  0
LINE
  5
103
330
1F
100
AcDbEntity
  8
0
  6
Continuous
 62
     7
370
    25
100
AcDbLine
 10
1.6081613474
 20
7.6069429994
 30
0.0
 11
1.6081613474
 21
7.5801713459
 31
0.0
  0
SPLINE
  5
104
330
1F
100
AcDbEntity
  8
0
  6
Continuous
 62
     7
370
    25
100
AcDbSpline
210
0.0
220
0.0
230
1.0
 70
    24
 71
     3
 72
    26
 73
    22
 74
     0
 42
0.000000001
 43
0.00000001
 40
0.0
 40
0.0
 40
0.0
 40
0.0
 40
0.1250000000000042
 40
0.1250000000000042
 40
0.2500000000000084
 40
0.2500000000000084
 40
0.3750000000000125
 40
0.3750000000000125
 40
0.4375000000000138
 40
0.4375000000000138
 40
0.500000000000015
 40
0.500000000000015
 40
0.5625000000000162
 40
0.5625000000000162
 40
0.6250000000000174
 40
0.6250000000000174
 40
0.7500000000000115
 40
0.7500000000000115
 40
0.8750000000000058
 40
0.8750000000000058
 40
1.0
 40
1.0
 40
1.0
 40
1.0
 10
1.608161347435114
 20
7.580171345896376
 30
0.0
 10
1.60534855020148
 20
7.580171345896376
 30
0.0
 10
1.6025357451839
 20
7.580171345896376
 30
0.0
 10
1.596919630278803
 20
7.580171345896376
 30
0.0
 10
1.594116089278073
 20
7.580171345896376
 30
0.0
 10
1.588531427066108
 20
7.580171345896376
 30
0.0
 10
1.585770250436177
 20
7.580171345896376
 30
0.0
 10
1.581841353990016
 20
7.580171345896376
 30
0.0
 10
1.580588880439847
 20
7.580171345896376
 30
0.0
 10
1.578226736740975
 20
7.580171345896376
 30
0.0
 10
1.577106389134283
 20
7.580171345896376
 30
0.0
 10
1.575135816032121
 20
7.580171345896376
 30
0.0
 10
1.574273700309727
 20
7.580171345896376
 30
0.0
 10
1.572775007491813
 20
7.580171345896376
 30
0.0
 10
1.572142626284795
 20
7.580171345896376
 30
0.0
 10
1.570589448231867
 20
7.580171345896376
 30
0.0
 10
1.569964596515675
 20
7.580171345896376
 30
0.0
 10
1.569160609301016
 20
7.580171345896376
 30
0.0
 10
1.568977979270791
 20
7.580171345896376
 30
0.0
 10
1.568791094688573
 20
7.580171345896376
 30
0.0
 10
1.568791210757031
 20
7.580171345896376
 30
0.0
 10
1.568791210757031
 20
7.580171345896376
 30
0.0
  0
LINE
  5
105
330
1F
100
AcDbEntity
  8
0
  6
Continuous
 62
     7
370
    25
100
AcDbLine
 10
1.5687912108
 20
7.6069429994
 30
0.0
 11
1.5687912108
 21
7.5801713459
 31
0.0
  0
SPLINE
  5
106
330
1F
100
AcDbEntity
  8
0
  6
Continuous
 62
     7
370
    25
100
AcDbSpline
210
0.0
220
0.0
230
1.0
 70
    24
 71
     3
 72
    22
 73
    18
 74
     0
 42
0.000000001
 43
0.00000001
 40
0.0
 40
0.0
 40
0.0
 40
0.0
 40
0.2499999999999934
 40
0.2499999999999934
 40
0.3749999999999936
 40
0.3749999999999936
 40
0.4999999999999938
 40
0.4999999999999938
 40
0.5624999999999939
 40
0.5624999999999939
 40
0.624999999999994
 40
0.624999999999994
 40
0.749999999999996
 40
0.749999999999996
 40
0.8749999999999981
 40
0.8749999999999981
 40
1.0
 40
1.0
 40
1.0
 40
1.0
 10
1.575090423355456
 20
7.57387213329795
 30
0.0
 10
1.575090423355456
 20
7.57387213329795
 30
0.0
 10
1.575060811464673
 20
7.57387213329795
 30
0.0
 10
1.575864510339352
 20
7.57387213329795
 30
0.0
 10
1.576280463851647
 20
7.57387213329795
 30
0.0
 10
1.577770539609849
 20
7.57387213329795
 30
0.0
 10
1.578896680373949
 20
7.57387213329795
 30
0.0
 10
1.581417477782566
 20
7.57387213329795
 30
0.0
 10
1.58240158234895
 20
7.57387213329795
 30
0.0
 10
1.584480033978399
 20
7.57387213329795
 30
0.0
 10
1.585596116630662
 20
7.57387213329795
 30
0.0
 10
1.589021194855919
 20
7.57387213329795
 30
0.0
 10
1.591403413953575
 20
7.57387213329795
 30
0.0
 10
1.596175885428121
 20
7.57387213329795
 30
0.0
 10
1.598569519206084
 20
7.57387213329795
 30
0.0
 10
1.603362454915026
 20
7.57387213329795
 30
0.0
 10
1.60576191679863
 20
7.57387213329795
 30
0.0
 10
1.608161347435114
 20
7.57387213329795
 30
0.0
  0
ARC
  5
107
330
1F
100
AcDbEntity
  8
0
  6
Continuous
 62
     7
370
    25
100
AcDbCircle
 10
1.5750904234
 20
7.5801713459
 30
0.0
 40
0.0062992125984263
100
AcDbArc
 50
180.0
 51
270.0
  0
LINE
  5
108
330
1F
100
AcDbEntity
  8
0
  6
Continuous
 62
     7
370
    25
100
AcDbLine
 10
1.6081613474
 20
7.5801713459
 30
0.0
 11
1.6081613474
 21
7.5738721333
 31
0.0
  0
ARC
  5
109
330
1F
100
AcDbEntity
  8
0
  6
Continuous
 62
     7
370
    25
100
AcDbCircle
 10
2.2380826073
 20
7.5935571727
 30
0.0
 40
0.1314960629921246
100
AcDbArc
 50
190.3888578155
 51
169.6111421845
  0
LINE
  5
10A
330
1F
100
AcDbEntity
  8
0
  6
Continuous
 62
     7
370
    25
100
AcDbLine
 10
2.1025462706
 20
7.6184055011
 30
0.0
 11
2.1087422174
 21
7.6172695775
 31
0.0
  0
ARC
  5
10B
330
1F
100
AcDbEntity
  8
0
  6
Continuous
 62
     7
370
    25
100
AcDbCircle
 10
2.2380826073
 20
7.5935571727
 30
0.0
 40
0.1377952755905499
100
AcDbArc
 50
190.3888578155
 51
169.6111421845
  0
LINE
  5
10C
330
1F
100
AcDbEntity
  8
0
  6
Continuous
 62
     7
370
    25
100
AcDbLine
 10
2.1025462706
 20
7.5687088443
 30
0.0
 11
2.1087422174
 21
7.5698447679
 31
0.0
  0
LINE
  5
10D
330
1F
100
AcDbEntity
  8
0
  6
Continuous
 62
     7
370
    25
100
AcDbLine
 10
1.6081613474
 20
7.6069429994
 30
0.0
 11
2.0963503238
 21
7.6069429994
 31
0.0
  0
ARC
  5
10E
330
1F
100
AcDbEntity
  8
0
  6
Continuous
 62
     7
370
    25
100
AcDbCircle
 10
2.0963503238
 20
7.6195414246
 30
0.0
 40
0.0125984251968507
100
AcDbArc
 50
270.0
 51
349.6111421845
  0
ARC
  5
10F
330
1F
100
AcDbEntity
  8
0
  6
Continuous
 62
     7
370
    25
100
AcDbCircle
 10
2.0963503238
 20
7.5675729207
 30
0.0
 40
0.0125984251968516
100
AcDbArc
 50
10.3888578155
 51
90.0
  0
LINE
  5
110
330
1F
100
AcDbEntity
  8
0
  6
Continuous
 62
     7
370
    25
100
AcDbLine
 10
2.0963503238
 20
7.5801713459
 30
0.0
 11
1.6081613474
 21
7.5801713459
 31
0.0
  0
LINE
  5
111
330
1F
100
AcDbEntity
  8
0
  6
Continuous
 62
     7
370
    25
100
AcDbLine
 10
2.0963503238
 20
7.613242212
 30
0.0
 11
1.6081613474
 21
7.613242212
 31
0.0
  0
LINE
  5
112
330
1F
100
AcDbEntity
  8
0
  6
Continuous
 62
     7
370
    25
100
AcDbLine
 10
2.0963503238
 20
7.613242212
 30
0.0
 11
2.0963503238
 21
7.6069429994
 31
0.0
  0
ARC
  5
113
330
1F
100
AcDbEntity
  8
0
  6
Continuous
 62
     7
370
    25
100
AcDbCircle
 10
2.0963503238
 20
7.6195414246
 30
0.0
 40
0.0062992125984263
100
AcDbArc
 50
270.0
 51
349.6111421845
  0
LINE
  5
114
330
1F
100
AcDbEntity
  8
0
  6
Continuous
 62
     7
370
    25
100
AcDbLine
 10
2.0963503238
 20
7.5738721333
 30
0.0
 11
2.0963503238
 21
7.5801713459
 31
0.0
  0
LINE
  5
115
330
1F
100
AcDbEntity
  8
0
  6
Continuous
 62
     7
370
    25
100
AcDbLine
 10
1.6081613474
 20
7.5738721333
 30
0.0
 11
2.0963503238
 21
7.5738721333
 31
0.0
  0
ARC
  5
116
330
1F
100
AcDbEntity
  8
0
  6
Continuous
 62
     7
370
    25
100
AcDbCircle
 10
2.0963503238
 20
7.5675729207
 30
0.0
 40
0.0062992125984254
100
AcDbArc
 50
10.3888578155
 51
90.0
  0
SPLINE
  5
117
330
1F
100
AcDbEntity
  8
0
  6
Continuous
 62
     7
370
    25
100
AcDbSpline
210
0.0
220
0.0
230
1.0
 70
    24
 71
     3
 72
    26
 73
    22
 74
     0
 42
0.000000001
 43
0.00000001
 40
0.0
 40
0.0
 40
0.0
 40
0.0
 40
0.2500000000000103
 40
0.2500000000000103
 40
0.3125000000000103
 40
0.3125000000000103
 40
0.3750000000000104
 40
0.3750000000000104
 40
0.4375000000000104
 40
0.4375000000000104
 40
0.5000000000000104
 40
0.5000000000000104
 40
0.5625000000000104
 40
0.5625000000000104
 40
0.6250000000000104
 40
0.6250000000000104
 40
0.750000000000007
 40
0.750000000000007
 40
0.8750000000000034
 40
0.8750000000000034
 40
1.0
 40
1.0
 40
1.0
 40
1.0
 10
4.757767646647713
 20
7.613242212038108
 30
0.0
 10
4.762522518313856
 20
7.613242212038108
 30
0.0
 10
4.76727964745805
 20
7.613242212038108
 30
0.0
 10
4.773170229210827
 20
7.613242212038108
 30
0.0
 10
4.774345352560763
 20
7.613242212038108
 30
0.0
 10
4.776686357612125
 20
7.613242212038108
 30
0.0
 10
4.777861275268964
 20
7.613242212038108
 30
0.0
 10
4.780149232781238
 20
7.613242212038108
 30
0.0
 10
4.781256965719421
 20
7.613242212038108
 30
0.0
 10
4.783360926758921
 20
7.613242212038108
 30
0.0
 10
4.784354891285611
 20
7.613242212038108
 30
0.0
 10
4.786065494049681
 20
7.613242212038108
 30
0.0
 10
4.786803577521333
 20
7.613242212038108
 30
0.0
 10
4.787996198149195
 20
7.613242212038108
 30
0.0
 10
4.788465928043687
 20
7.613242212038108
 30
0.0
 10
4.789622023339929
 20
7.613242212038108
 30
0.0
 10
4.790042320342953
 20
7.613242212038108
 30
0.0
 10
4.790594521866533
 20
7.613242212038108
 30
0.0
 10
4.790715502645968
 20
7.613242212038108
 30
0.0
 10
4.790839236857787
 20
7.613242212038108
 30
0.0
 10
4.790838570727373
 20
7.613242212038108
 30
0.0
 10
4.790838570727372
 20
7.613242212038108
 30
0.0
  0
ARC
  5
118
330
1F
100
AcDbEntity
  8
0
  6
Continuous
 62
     7
370
    25
100
AcDbCircle
 10
4.7908385707
 20
7.6069429994
 30
0.0
 40
0.0062992125984254
100
AcDbArc
 50
0.0
 51
90.0
  0
SPLINE
  5
119
330
1F
100
AcDbEntity
  8
0
  6
Continuous
 62
     7
370
    25
100
AcDbSpline
210
0.0
220
0.0
230
1.0
 70
    24
 71
     3
 72
    30
 73
    26
 74
     0
 42
0.000000001
 43
0.00000001
 40
0.0
 40
0.0
 40
0.0
 40
0.0
 40
0.125
 40
0.125
 40
0.25
 40
0.25
 40
0.3125
 40
0.3125
 40
0.375
 40
0.375
 40
0.4375
 40
0.4375
 40
0.5
 40
0.5
 40
0.5625
 40
0.5625
 40
0.625
 40
0.625
 40
0.6875
 40
0.6875
 40
0.75
 40
0.75
 40
0.875
 40
0.875
 40
1.0
 40
1.0
 40
1.0
 40
1.0
 10
4.797137783325796
 20
7.606942999439683
 30
0.0
 10
4.797137783325796
 20
7.606942999439683
 30
0.0
 10
4.797137965167531
 20
7.606942999439683
 30
0.0
 10
4.796946923994858
 20
7.606942999439683
 30
0.0
 10
4.796759225641366
 20
7.606942999439683
 30
0.0
 10
4.796141353352387
 20
7.606942999439683
 30
0.0
 10
4.79587925008651
 20
7.606942999439683
 30
0.0
 10
4.795194238739435
 20
7.606942999439683
 30
0.0
 10
4.794767707692849
 20
7.606942999439683
 30
0.0
 10
4.793710213119151
 20
7.606942999439683
 30
0.0
 10
4.79307949984585
 20
7.606942999439683
 30
0.0
 10
4.791556098935888
 20
7.606942999439683
 30
0.0
 10
4.790659839276244
 20
7.606942999439683
 30
0.0
 10
4.788665135371998
 20
7.606942999439683
 30
0.0
 10
4.787548114652966
 20
7.606942999439683
 30
0.0
 10
4.785148888042484
 20
7.606942999439683
 30
0.0
 10
4.783889521474509
 20
7.606942999439683
 30
0.0
 10
4.781280260098664
 20
7.606942999439683
 30
0.0
 10
4.779920901080602
 20
7.606942999439683
 30
0.0
 10
4.77718836855606
 20
7.606942999439683
 30
0.0
 10
4.77581524510303
 20
7.606942999439683
 30
0.0
 10
4.771682006899777
 20
7.606942999439683
 30
0.0
 10
4.768908277881722
 20
7.606942999439683
 30
0.0
 10
4.763345810894353
 20
7.606942999439683
 30
0.0
 10
4.760556726070711
 20
7.606942999439683
 30
0.0
 10
4.757767646647713
 20
7.606942999439683
 30
0.0
  0
LINE
  5
11A
330
1F
100
AcDbEntity
  8
0
  6
Continuous
 62
     7
370
    25
100
AcDbLine
 10
4.7577676466
 20
7.613242212
 30
0.0
 11
4.7577676466
 21
7.6069429994
 31
0.0
  0
SPLINE
  5
11B
330
1F
100
AcDbEntity
  8
0
  6
Continuous
 62
     7
370
    25
100
AcDbSpline
210
0.0
220
0.0
230
1.0
 70
    24
 71
     3
 72
    26
 73
    22
 74
     0
 42
0.000000001
 43
0.00000001
 40
0.0
 40
0.0
 40
0.0
 40
0.0
 40
0.1250000000000042
 40
0.1250000000000042
 40
0.2500000000000084
 40
0.2500000000000084
 40
0.3750000000000125
 40
0.3750000000000125
 40
0.4375000000000138
 40
0.4375000000000138
 40
0.500000000000015
 40
0.500000000000015
 40
0.5625000000000162
 40
0.5625000000000162
 40
0.6250000000000174
 40
0.6250000000000174
 40
0.7500000000000115
 40
0.7500000000000115
 40
0.8750000000000058
 40
0.8750000000000058
 40
1.0
 40
1.0
 40
1.0
 40
1.0
 10
4.757767646647713
 20
7.580171345896376
 30
0.0
 10
4.760580443881347
 20
7.580171345896376
 30
0.0
 10
4.763393248898927
 20
7.580171345896376
 30
0.0
 10
4.769009363804024
 20
7.580171345896376
 30
0.0
 10
4.771812904804754
 20
7.580171345896376
 30
0.0
 10
4.777397567016719
 20
7.580171345896376
 30
0.0
 10
4.780158743646649
 20
7.580171345896376
 30
0.0
 10
4.784087640092811
 20
7.580171345896376
 30
0.0
 10
4.78534011364298
 20
7.580171345896376
 30
0.0
 10
4.787702257341851
 20
7.580171345896376
 30
0.0
 10
4.788822604948543
 20
7.580171345896376
 30
0.0
 10
4.790793178050706
 20
7.580171345896376
 30
0.0
 10
4.7916552937731
 20
7.580171345896376
 30
0.0
 10
4.793153986591014
 20
7.580171345896376
 30
0.0
 10
4.793786367798032
 20
7.580171345896376
 30
0.0
 10
4.795339545850959
 20
7.580171345896376
 30
0.0
 10
4.795964397567152
 20
7.580171345896376
 30
0.0
 10
4.796768384781811
 20
7.580171345896376
 30
0.0
 10
4.796951014812036
 20
7.580171345896376
 30
0.0
 10
4.797137899394254
 20
7.580171345896376
 30
0.0
 10
4.797137783325796
 20
7.580171345896376
 30
0.0
 10
4.797137783325796
 20
7.580171345896376
 30
0.0
  0
LINE
  5
11C
330
1F
100
AcDbEntity
  8
0
  6
Continuous
 62
     7
370
    25
100
AcDbLine
 10
4.7577676466
 20
7.6069429994
 30
0.0
 11
4.7577676466
 21
7.5801713459
 31
0.0
  0
LINE
  5
11D
330
1F
100
AcDbEntity
  8
0
  6
Continuous
 62
     7
370
    25
100
AcDbLine
 10
4.7971377833
 20
7.6069429994
 30
0.0
 11
4.7971377833
 21
7.5801713459
 31
0.0
  0
ARC
  5
11E
330
1F
100
AcDbEntity
  8
0
  6
Continuous
 62
     7
370
    25
100
AcDbCircle
 10
4.7908385707
 20
7.5801713459
 30
0.0
 40
0.0062992125984263
100
AcDbArc
 50
270.0
 51
0.0
  0
SPLINE
  5
11F
330
1F
100
AcDbEntity
  8
0
  6
Continuous
 62
     7
370
    25
100
AcDbSpline
210
0.0
220
0.0
230
1.0
 70
    24
 71
     3
 72
    22
 73
    18
 74
     0
 42
0.000000001
 43
0.00000001
 40
0.0
 40
0.0
 40
0.0
 40
0.0
 40
0.2499999999999934
 40
0.2499999999999934
 40
0.3749999999999936
 40
0.3749999999999936
 40
0.4999999999999938
 40
0.4999999999999938
 40
0.5624999999999939
 40
0.5624999999999939
 40
0.624999999999994
 40
0.624999999999994
 40
0.749999999999996
 40
0.749999999999996
 40
0.8749999999999981
 40
0.8749999999999981
 40
1.0
 40
1.0
 40
1.0
 40
1.0
 10
4.79083857072737
 20
7.57387213329795
 30
0.0
 10
4.79083857072737
 20
7.57387213329795
 30
0.0
 10
4.790868182618153
 20
7.57387213329795
 30
0.0
 10
4.790064483743475
 20
7.57387213329795
 30
0.0
 10
4.78964853023118
 20
7.57387213329795
 30
0.0
 10
4.788158454472978
 20
7.57387213329795
 30
0.0
 10
4.787032313708877
 20
7.57387213329795
 30
0.0
 10
4.784511516300261
 20
7.57387213329795
 30
0.0
 10
4.783527411733877
 20
7.57387213329795
 30
0.0
 10
4.781448960104428
 20
7.57387213329795
 30
0.0
 10
4.780332877452164
 20
7.57387213329795
 30
0.0
 10
4.776907799226908
 20
7.57387213329795
 30
0.0
 10
4.774525580129252
 20
7.57387213329795
 30
0.0
 10
4.769753108654705
 20
7.57387213329795
 30
0.0
 10
4.767359474876743
 20
7.57387213329795
 30
0.0
 10
4.762566539167802
 20
7.57387213329795
 30
0.0
 10
4.760167077284197
 20
7.57387213329795
 30
0.0
 10
4.757767646647713
 20
7.57387213329795
 30
0.0
  0
LINE
  5
120
330
1F
100
AcDbEntity
  8
0
  6
Continuous
 62
     7
370
    25
100
AcDbLine
 10
4.7577676466
 20
7.5801713459
 30
0.0
 11
4.7577676466
 21
7.5738721333
 31
0.0
  0
ARC
  5
121
330
1F
100
AcDbEntity
  8
0
  6
Continuous
 62
     7
370
    25
100
AcDbCircle
 10
4.1278463868
 20
7.5935571727
 30
0.0
 40
0.1377952755905499
100
AcDbArc
 50
10.3888578155
 51
349.6111421845
  0
LINE
  5
122
330
1F
100
AcDbEntity
  8
0
  6
Continuous
 62
     7
370
    25
100
AcDbLine
 10
4.2633827235
 20
7.6184055011
 30
0.0
 11
4.2571867766
 21
7.6172695775
 31
0.0
  0
ARC
  5
123
330
1F
100
AcDbEntity
  8
0
  6
Continuous
 62
     7
370
    25
100
AcDbCircle
 10
4.1278463868
 20
7.5935571727
 30
0.0
 40
0.1314960629921255
100
AcDbArc
 50
10.3888578155
 51
349.6111421845
  0
LINE
  5
124
330
1F
100
AcDbEntity
  8
0
  6
Continuous
 62
     7
370
    25
100
AcDbLine
 10
4.2633827235
 20
7.5687088443
 30
0.0
 11
4.2571867766
 21
7.5698447679
 31
0.0
  0
ARC
  5
125
330
1F
100
AcDbEntity
  8
0
  6
Continuous
 62
     7
370
    25
100
AcDbCircle
 10
4.2695786703
 20
7.5675729207
 30
0.0
 40
0.0125984251968516
100
AcDbArc
 50
90.0
 51
169.6111421845
  0
ARC
  5
126
330
1F
100
AcDbEntity
  8
0
  6
Continuous
 62
     7
370
    25
100
AcDbCircle
 10
4.2695786703
 20
7.6195414246
 30
0.0
 40
0.0125984251968507
100
AcDbArc
 50
190.3888578155
 51
270.0
  0
LINE
  5
127
330
1F
100
AcDbEntity
  8
0
  6
Continuous
 62
     7
370
    25
100
AcDbLine
 10
4.7577676466
 20
7.6069429994
 30
0.0
 11
4.2695786703
 21
7.6069429994
 31
0.0
  0
LINE
  5
128
330
1F
100
AcDbEntity
  8
0
  6
Continuous
 62
     7
370
    25
100
AcDbLine
 10
4.2695786703
 20
7.5801713459
 30
0.0
 11
4.7577676466
 21
7.5801713459
 31
0.0
  0
LINE
  5
129
330
1F
100
AcDbEntity
  8
0
  6
Continuous
 62
     7
370
    25
100
AcDbLine
 10
4.2695786703
 20
7.613242212
 30
0.0
 11
4.2695786703
 21
7.6069429994
 31
0.0
  0
LINE
  5
12A
330
1F
100
AcDbEntity
  8
0
  6
Continuous
 62
     7
370
    25
100
AcDbLine
 10
4.2695786703
 20
7.613242212
 30
0.0
 11
4.7577676466
 21
7.613242212
 31
0.0
  0
ARC
  5
12B
330
1F
100
AcDbEntity
  8
0
  6
Continuous
 62
     7
370
    25
100
AcDbCircle
 10
4.2695786703
 20
7.6195414246
 30
0.0
 40
0.0062992125984263
100
AcDbArc
 50
190.3888578155
 51
270.0
  0
ARC
  5
12C
330
1F
100
AcDbEntity
  8
0
  6
Continuous
 62
     7
370
    25
100
AcDbCircle
 10
4.2695786703
 20
7.5675729207
 30
0.0
 40
0.0062992125984256
100
AcDbArc
 50
90.0
 51
169.6111421845
  0
LINE
  5
12D
330
1F
100
AcDbEntity
  8
0
  6
Continuous
 62
     7
370
    25
100
AcDbLine
 10
4.2695786703
 20
7.5738721333
 30
0.0
 11
4.2695786703
 21
7.5801713459
 31
0.0
  0
LINE
  5
12E
330
1F
100
AcDbEntity
  8
0
  6
Continuous
 62
     7
370
    25
100
AcDbLine
 10
4.7577676466
 20
7.5738721333
 30
0.0
 11
4.2695786703
 21
7.5738721333
 31
0.0
  0
LINE
  5
12F
330
1F
100
AcDbEntity
  8
0
  6
Continuous
 62
     7
370
    25
100
AcDbLine
 10
4.2633827235
 20
7.5687088443
 30
0.0
 11
4.2633961658
 21
7.5687825861
 31
0.0
  0
ARC
  5
130
330
1F
100
AcDbEntity
  8
0
  6
Continuous
 62
     7
370
    25
100
AcDbCircle
 10
2.2380826073
 20
7.5935571727
 30
0.0
 40
0.2362204724409454
100
AcDbArc
 50
270.0
 51
175.2198081528
  0
ARC
  5
131
330
1F
100
AcDbEntity
  8
0
  6
Continuous
 62
     7
370
    25
100
AcDbCircle
 10
2.2380826073
 20
7.5935571727
 30
0.0
 40
0.2362204724409454
100
AcDbArc
 50
184.7801918472
 51
270.0
  0
ARC
  5
132
330
1F
100
AcDbEntity
  8
0
  6
Continuous
 62
     7
370
    25
100
AcDbCircle
 10
4.1278463868
 20
7.5935571727
 30
0.0
 40
0.2362204724409454
100
AcDbArc
 50
4.7801918472
 51
270.0
  0
ARC
  5
133
330
1F
100
AcDbEntity
  8
0
  6
Continuous
 62
     7
370
    25
100
AcDbCircle
 10
4.1278463868
 20
7.5935571727
 30
0.0
 40
0.2362204724409454
100
AcDbArc
 50
270.0
 51
355.2198081528
  0
LWPOLYLINE
  5
134
330
1F
100
AcDbEntity
  8
0
  6
Continuous
 62
     7
370
    25
100
AcDbPolyline
 90
       21
 70
   128
 43
0.0
 10
3.2971377254
 20
6.3473664022
 10
3.2957320635
 20
6.3327358323
 10
3.2915496898
 20
6.3184655156
 10
3.2846935884
 20
6.3049068347
 10
3.2753325791
 20
6.2923936493
 10
3.263697161
 20
6.2812340754
 10
3.2500738369
 20
6.2717028989
 10
3.234798058
 20
6.264034809
 10
3.2182459649
 20
6.2584186195
 10
3.2008251249
 20
6.2549926196
 10
3.182964497
 20
6.2538411688
 10
3.1651038691
 20
6.2549926196
 10
3.1476830292
 20
6.2584186195
 10
3.131130936
 20
6.264034809
 10
3.1158551572
 20
6.2717028989
 10
3.102231833
 20
6.2812340754
 10
3.090596415
 20
6.2923936493
 10
3.0812354057
 20
6.3049068347
 10
3.0743793042
 20
6.3184655156
 10
3.0701969306
 20
6.3327358323
 10
3.0687912687
 20
6.3473664022
  0
ARC
  5
135
330
1F
100
AcDbEntity
  8
0
  6
Continuous
 62
     7
370
    25
100
AcDbCircle
 10
3.182964497
 20
7.5935571727
 30
0.0
 40
0.1708661417322839
100
AcDbArc
 50
90.0
 51
228.0714955674
  0
ARC
  5
136
330
1F
100
AcDbEntity
  8
0
  6
Continuous
 62
     7
370
    25
100
AcDbCircle
 10
3.182964497
 20
7.5935571727
 30
0.0
 40
0.1708661417322839
100
AcDbArc
 50
311.9285044326
 51
90.0
  0
ARC
  5
137
330
1F
100
AcDbEntity
  8
0
  6
Continuous
 62
     7
370
    25
100
AcDbCircle
 10
3.182964497
 20
7.5935571727
 30
0.0
 40
0.22992125984252
100
AcDbArc
 50
299.7736839506
 51
90.0
  0
ARC
  5
138
330
1F
100
AcDbEntity
  8
0
  6
Continuous
 62
     7
370
    25
100
AcDbCircle
 10
3.182964497
 20
7.5935571727
 30
0.0
 40
0.22992125984252
100
AcDbArc
 50
90.0
 51
240.2263160494
  0
ARC
  5
139
330
1F
100
AcDbEntity
  8
0
  6
Continuous
 62
     7
370
    25
100
AcDbCircle
 10
2.2380826073
 20
7.5935571727
 30
0.0
 40
0.2299212598425197
100
AcDbArc
 50
184.9114734101
 51
270.0
  0
ARC
  5
13A
330
1F
100
AcDbEntity
  8
0
  6
Continuous
 62
     7
370
    25
100
AcDbCircle
 10
2.2380826073
 20
7.5935571727
 30
0.0
 40
0.2299212598425198
100
AcDbArc
 50
270.0
 51
175.0885265899
  0
ARC
  5
13B
330
1F
100
AcDbEntity
  8
0
  6
Continuous
 62
     7
370
    25
100
AcDbCircle
 10
4.1278463868
 20
7.5935571727
 30
0.0
 40
0.2299212598425201
100
AcDbArc
 50
270.0
 51
355.0885265899
  0
ARC
  5
13C
330
1F
100
AcDbEntity
  8
0
  6
Continuous
 62
     7
370
    25
100
AcDbCircle
 10
4.1278463868
 20
7.5935571727
 30
0.0
 40
0.2299212598425198
100
AcDbArc
 50
4.9114734101
 51
270.0
  0
INSERT
  5
148
330
1F
100
AcDbEntity
  8
0
  6
Continuous
 62
     7
370
     0
100
AcDbBlockReference
  2
SW_CENTERMARKSYMBOL_0
 10
4.1278463868
 20
7.5935571727
 30
0.0
  0
INSERT
  5
154
330
1F
100
AcDbEntity
  8
0
  6
Continuous
 62
     7
370
     0
100
AcDbBlockReference
  2
SW_CENTERMARKSYMBOL_1
 10
2.2380826073
 20
7.5935571727
 30
0.0
  0
INSERT
  5
160
330
1F
100
AcDbEntity
  8
0
  6
Continuous
 62
     7
370
     0
100
AcDbBlockReference
  2
SW_CENTERMARKSYMBOL_2
 10
3.182964497
 20
7.5935571727
 30
0.0
  0
ARC
  5
161
330
1F
100
AcDbEntity
  8
0
  6
Continuous
 62
     7
370
    25
100
AcDbCircle
 10
8.6643108884
 20
2.5820473254
 30
0.0
 40
0.0062992125984249
100
AcDbArc
 50
0.0
 51
90.0
  0
ARC
  5
162
330
1F
100
AcDbEntity
  8
0
  6
Continuous
 62
     7
370
    25
100
AcDbCircle
 10
8.3225786049
 20
2.5820473254
 30
0.0
 40
0.0062992125984249
100
AcDbArc
 50
90.0
 51
180.0
  0
LINE
  5
163
330
1F
100
AcDbEntity
  8
0
  6
Continuous
 62
     7
370
    25
100
AcDbLine
 10
8.670610101
 20
1.9348032309
 30
0.0
 11
8.670610101
 21
2.5820473254
 31
0.0
  0
LINE
  5
164
330
1F
100
AcDbEntity
  8
0
  6
Continuous
 62
     7
370
    25
100
AcDbLine
 10
8.3162793923
 20
2.5820473254
 30
0.0
 11
8.3162793923
 21
1.9348032309
 31
0.0
  0
LINE
  5
165
330
1F
100
AcDbEntity
  8
0
  6
Continuous
 62
     7
370
    25
100
AcDbLine
 10
8.607617975
 20
2.5962205537
 30
0.0
 11
8.607617975
 21
3.4723135748
 31
0.0
  0
LINE
  5
166
330
1F
100
AcDbEntity
  8
0
  6
Continuous
 62
     7
370
    25
100
AcDbLine
 10
8.3792715183
 20
3.4723135748
 30
0.0
 11
8.3792715183
 21
2.5962205537
 31
0.0
  0
ARC
  5
167
330
1F
100
AcDbEntity
  8
0
  6
Continuous
 62
     7
370
    25
100
AcDbCircle
 10
7.8084053766
 20
3.4723135748
 30
0.0
 40
0.5708661417322842
100
AcDbArc
 50
0.0
 51
145.0
  0
ARC
  5
168
330
1F
100
AcDbEntity
  8
0
  6
Continuous
 62
     7
370
    25
100
AcDbCircle
 10
7.8084053766
 20
3.4723135748
 30
0.0
 40
0.7992125984251972
100
AcDbArc
 50
0.0
 51
145.0
  0
LINE
  5
169
330
1F
100
AcDbEntity
  8
0
  6
Continuous
 62
     7
370
    25
100
AcDbLine
 10
6.8582995954
 20
3.1106966428
 30
0.0
 11
7.3407792095
 21
3.799748942
 31
0.0
  0
LINE
  5
16A
330
1F
100
AcDbEntity
  8
0
  6
Continuous
 62
     7
370
    25
100
AcDbLine
 10
7.1537287427
 20
3.9307230889
 30
0.0
 11
6.6712491286
 21
3.2416707896
 31
0.0
  0
ARC
  5
16B
330
1F
100
AcDbEntity
  8
0
  6
Continuous
 62
     7
370
    25
100
AcDbCircle
 10
6.8531395825
 20
3.1143097227
 30
0.0
 40
0.0062992125984257
100
AcDbArc
 50
235.0
 51
325.0
  0
ARC
  5
16C
330
1F
100
AcDbEntity
  8
0
  6
Continuous
 62
     7
370
    25
100
AcDbCircle
 10
6.6764091415
 20
3.2380577097
 30
0.0
 40
0.0062992125984255
100
AcDbArc
 50
145.0
 51
235.0
  0
LINE
  5
16D
330
1F
100
AcDbEntity
  8
0
  6
Continuous
 62
     7
370
    25
100
AcDbLine
 10
8.355649471
 20
2.5899213411
 30
0.0
 11
8.355649471
 21
1.9426772466
 31
0.0
  0
LINE
  5
16E
330
1F
100
AcDbEntity
  8
0
  6
Continuous
 62
     7
370
    25
100
AcDbLine
 10
8.6312400222
 20
1.9426772466
 30
0.0
 11
8.6312400222
 21
2.5899213411
 31
0.0
  0
ARC
  5
16F
330
1F
100
AcDbEntity
  8
0
  6
Continuous
 62
     7
370
    25
100
AcDbCircle
 10
8.6249408096
 20
2.5899213411
 30
0.0
 40
0.0062992125984258
100
AcDbArc
 50
0.0
 51
90.0
  0
ARC
  5
170
330
1F
100
AcDbEntity
  8
0
  6
Continuous
 62
     7
370
    25
100
AcDbCircle
 10
8.3619486836
 20
2.5899213411
 30
0.0
 40
0.0062992125984258
100
AcDbArc
 50
90.0
 51
180.0
  0
ARC
  5
171
330
1F
100
AcDbEntity
  8
0
  6
Continuous
 62
     7
370
    25
100
AcDbCircle
 10
8.2635234868
 20
1.9285040183
 30
0.0
 40
0.0062992125984263
100
AcDbArc
 50
90.0
 51
180.0
  0
ARC
  5
172
330
1F
100
AcDbEntity
  8
0
  6
Continuous
 62
     7
370
    25
100
AcDbCircle
 10
8.7233660065
 20
1.9285040183
 30
0.0
 40
0.0062992125984263
100
AcDbArc
 50
0.0
 51
90.0
  0
LINE
  5
173
330
1F
100
AcDbEntity
  8
0
  6
Continuous
 62
     7
370
    25
100
AcDbLine
 10
8.7296652191
 20
1.8718111049
 30
0.0
 11
8.7296652191
 21
1.9285040183
 31
0.0
  0
LINE
  5
174
330
1F
100
AcDbEntity
  8
0
  6
Continuous
 62
     7
370
    25
100
AcDbLine
 10
8.2572242742
 20
1.9285040183
 30
0.0
 11
8.2572242742
 21
1.8718111049
 31
0.0
  0
LINE
  5
175
330
1F
100
AcDbEntity
  8
0
  6
Continuous
 62
     7
370
    25
100
AcDbLine
 10
8.5524998647
 20
1.9348032309
 30
0.0
 11
8.5524998647
 21
1.9426772466
 31
0.0
  0
LINE
  5
176
330
1F
100
AcDbEntity
  8
0
  6
Continuous
 62
     7
370
    25
100
AcDbLine
 10
8.4343896285
 20
1.9426772466
 30
0.0
 11
8.4343896285
 21
1.9348032309
 31
0.0
  0
LINE
  5
177
330
1F
100
AcDbEntity
  8
0
  6
Continuous
 62
     7
370
    25
100
AcDbLine
 10
8.3225786056
 20
2.588346538
 30
0.0
 11
8.355649471
 21
2.588346538
 31
0.0
  0
LINE
  5
178
330
1F
100
AcDbEntity
  8
0
  6
Continuous
 62
     7
370
    25
100
AcDbLine
 10
8.6312400222
 20
2.588346538
 30
0.0
 11
8.6643108884
 21
2.588346538
 31
0.0
  0
LINE
  5
179
330
1F
100
AcDbEntity
  8
0
  6
Continuous
 62
     7
370
    25
100
AcDbLine
 10
6.8495265026
 20
3.1091497098
 30
0.0
 11
6.6727960645
 21
3.2328976948
 31
0.0
  0
SPLINE
  5
17A
330
1F
100
AcDbEntity
  8
0
  6
Continuous
 62
     7
370
    25
100
AcDbSpline
210
0.0
220
0.0
230
1.0
 70
    24
 71
     3
 72
    26
 73
    22
 74
     0
 42
0.000000001
 43
0.00000001
 40
0.0
 40
0.0
 40
0.0
 40
0.0
 40
0.2500000000000103
 40
0.2500000000000103
 40
0.3125000000000103
 40
0.3125000000000103
 40
0.3750000000000104
 40
0.3750000000000104
 40
0.4375000000000104
 40
0.4375000000000104
 40
0.5000000000000104
 40
0.5000000000000104
 40
0.5625000000000104
 40
0.5625000000000104
 40
0.6250000000000104
 40
0.6250000000000104
 40
0.750000000000007
 40
0.750000000000007
 40
0.8750000000000034
 40
0.8750000000000034
 40
1.0
 40
1.0
 40
1.0
 40
1.0
 10
8.513129786002603
 20
2.589921341109687
 30
0.0
 10
8.513129786002603
 20
2.589921341109687
 30
0.0
 10
8.513129786002603
 20
2.589949380766091
 30
0.0
 10
8.513129786002603
 20
2.589290981745931
 30
0.0
 10
8.513129786002603
 20
2.589122126515587
 30
0.0
 10
8.513129786002603
 20
2.588669627497512
 30
0.0
 10
8.513129786002603
 20
2.588383826293895
 30
0.0
 10
8.513129786002603
 20
2.587641325433821
 30
0.0
 10
8.513129786002603
 20
2.587187903980178
 30
0.0
 10
8.513129786002603
 20
2.58602827421086
 30
0.0
 10
8.513129786002603
 20
2.585312482246628
 30
0.0
 10
8.513129786002603
 20
2.583637415465608
 30
0.0
 10
8.513129786002603
 20
2.582655113482406
 30
0.0
 10
8.513129786002603
 20
2.580574623267677
 30
0.0
 10
8.513129786002603
 20
2.5794711919081
 30
0.0
 10
8.513129786002603
 20
2.576034558496183
 30
0.0
 10
8.513129786002603
 20
2.57365880607712
 30
0.0
 10
8.513129786002603
 20
2.568869254651792
 30
0.0
 10
8.513129786002603
 20
2.566468350177909
 30
0.0
 10
8.513129786002603
 20
2.561661870089983
 30
0.0
 10
8.513129786002603
 20
2.559256159369659
 30
0.0
 10
8.513129786002603
 20
2.55685047496802
 30
0.0
  0
LINE
  5
17B
330
1F
100
AcDbEntity
  8
0
  6
Continuous
 62
     7
370
    25
100
AcDbLine
 10
8.513129786
 20
2.556850475
 30
0.0
 11
8.5068305734
 21
2.556850475
 31
0.0
  0
SPLINE
  5
17C
330
1F
100
AcDbEntity
  8
0
  6
Continuous
 62
     7
370
    25
100
AcDbSpline
210
0.0
220
0.0
230
1.0
 70
    24
 71
     3
 72
    30
 73
    26
 74
     0
 42
0.000000001
 43
0.00000001
 40
0.0
 40
0.0
 40
0.0
 40
0.0
 40
0.125
 40
0.125
 40
0.25
 40
0.25
 40
0.3125
 40
0.3125
 40
0.375
 40
0.375
 40
0.4375
 40
0.4375
 40
0.5
 40
0.5
 40
0.5625
 40
0.5625
 40
0.625
 40
0.625
 40
0.6875
 40
0.6875
 40
0.75
 40
0.75
 40
0.875
 40
0.875
 40
1.0
 40
1.0
 40
1.0
 40
1.0
 10
8.506830573404176
 20
2.55685047496802
 30
0.0
 10
8.506830573404176
 20
2.559669998003054
 30
0.0
 10
8.506830573404176
 20
2.56248952843993
 30
0.0
 10
8.506830573404176
 20
2.568120798207515
 30
0.0
 10
8.506830573404176
 20
2.570940565978382
 30
0.0
 10
8.506830573404176
 20
2.575130128105787
 30
0.0
 10
8.506830573404176
 20
2.576514513192479
 30
0.0
 10
8.506830573404176
 20
2.579248526264409
 30
0.0
 10
8.506830573404176
 20
2.58060624175635
 30
0.0
 10
8.506830573404176
 20
2.583211957976668
 30
0.0
 10
8.506830573404176
 20
2.584463381352742
 30
0.0
 10
8.506830573404176
 20
2.586834080295733
 30
0.0
 10
8.506830573404176
 20
2.58794807514098
 30
0.0
 10
8.506830573404176
 20
2.589914687332506
 30
0.0
 10
8.506830573404176
 20
2.590788687177296
 30
0.0
 10
8.506830573404176
 20
2.592288062105179
 30
0.0
 10
8.506830573404176
 20
2.592903888473134
 30
0.0
 10
8.506830573404176
 20
2.59393273706319
 30
0.0
 10
8.506830573404176
 20
2.594347501751741
 30
0.0
 10
8.506830573404176
 20
2.595012043392701
 30
0.0
 10
8.506830573404176
 20
2.595263728205373
 30
0.0
 10
8.506830573404176
 20
2.59585580712811
 30
0.0
 10
8.506830573404176
 20
2.596036205763038
 30
0.0
 10
8.506830573404176
 20
2.59622061717669
 30
0.0
 10
8.506830573404176
 20
2.596220553708113
 30
0.0
 10
8.506830573404176
 20
2.596220553708113
 30
0.0
  0
ARC
  5
17D
330
1F
100
AcDbEntity
  8
0
  6
Continuous
 62
     7
370
    25
100
AcDbCircle
 10
8.5068305734
 20
2.5899213411
 30
0.0
 40
0.0062992125984263
100
AcDbArc
 50
0.0
 51
90.0
  0
SPLINE
  5
17E
330
1F
100
AcDbEntity
  8
0
  6
Continuous
 62
     7
370
    25
100
AcDbSpline
210
0.0
220
0.0
230
1.0
 70
    24
 71
     3
 72
    26
 73
    22
 74
     0
 42
0.000000001
 43
0.00000001
 40
0.0
 40
0.0
 40
0.0
 40
0.0
 40
0.1250000000000042
 40
0.1250000000000042
 40
0.2500000000000084
 40
0.2500000000000084
 40
0.3750000000000125
 40
0.3750000000000125
 40
0.4375000000000138
 40
0.4375000000000138
 40
0.500000000000015
 40
0.500000000000015
 40
0.5625000000000162
 40
0.5625000000000162
 40
0.6250000000000174
 40
0.6250000000000174
 40
0.7500000000000115
 40
0.7500000000000115
 40
0.8750000000000058
 40
0.8750000000000058
 40
1.0
 40
1.0
 40
1.0
 40
1.0
 10
8.48005891986087
 20
2.596220553708113
 30
0.0
 10
8.48005891986087
 20
2.596220553708113
 30
0.0
 10
8.48005891986087
 20
2.596220709364943
 30
0.0
 10
8.48005891986087
 20
2.596031145042453
 30
0.0
 10
8.48005891986087
 20
2.595846046671066
 30
0.0
 10
8.48005891986087
 20
2.595027517808125
 30
0.0
 10
8.48005891986087
 20
2.594398156113345
 30
0.0
 10
8.48005891986087
 20
2.592812843773947
 30
0.0
 10
8.48005891986087
 20
2.592183854343936
 30
0.0
 10
8.48005891986087
 20
2.590674659295295
 30
0.0
 10
8.48005891986087
 20
2.589779572867701
 30
0.0
 10
8.48005891986087
 20
2.587793287338628
 30
0.0
 10
8.48005891986087
 20
2.5866991010472
 30
0.0
 10
8.48005891986087
 20
2.584325707233638
 30
0.0
 10
8.48005891986087
 20
2.583047675114953
 30
0.0
 10
8.48005891986087
 20
2.579145800234609
 30
0.0
 10
8.48005891986087
 20
2.576377748862748
 30
0.0
 10
8.48005891986087
 20
2.570828406396283
 30
0.0
 10
8.48005891986087
 20
2.568039752211597
 30
0.0
 10
8.48005891986087
 20
2.562451073606177
 30
0.0
 10
8.48005891986087
 20
2.559650770587807
 30
0.0
 10
8.48005891986087
 20
2.55685047496802
 30
0.0
  0
LINE
  5
17F
330
1F
100
AcDbEntity
  8
0
  6
Continuous
 62
     7
370
    25
100
AcDbLine
 10
8.5068305734
 20
2.5962205537
 30
0.0
 11
8.4800589199
 21
2.5962205537
 31
0.0
  0
LINE
  5
180
330
1F
100
AcDbEntity
  8
0
  6
Continuous
 62
     7
370
    25
100
AcDbLine
 10
8.5068305734
 20
2.556850475
 30
0.0
 11
8.4800589199
 21
2.556850475
 31
0.0
  0
SPLINE
  5
181
330
1F
100
AcDbEntity
  8
0
  6
Continuous
 62
     7
370
    25
100
AcDbSpline
210
0.0
220
0.0
230
1.0
 70
    24
 71
     3
 72
    26
 73
    22
 74
     0
 42
0.000000001
 43
0.00000001
 40
0.0
 40
0.0
 40
0.0
 40
0.0
 40
0.2500000000000067
 40
0.2500000000000067
 40
0.3125000000000061
 40
0.3125000000000061
 40
0.3750000000000056
 40
0.3750000000000056
 40
0.437500000000005
 40
0.437500000000005
 40
0.5000000000000044
 40
0.5000000000000044
 40
0.5625000000000039
 40
0.5625000000000039
 40
0.6250000000000033
 40
0.6250000000000033
 40
0.7500000000000022
 40
0.7500000000000022
 40
0.8750000000000011
 40
0.8750000000000011
 40
1.0
 40
1.0
 40
1.0
 40
1.0
 10
8.513129786002603
 20
2.501732364731669
 30
0.0
 10
8.513129786002603
 20
2.496977492668893
 30
0.0
 10
8.513129786002603
 20
2.492220363111198
 30
0.0
 10
8.513129786002603
 20
2.486329781114525
 30
0.0
 10
8.513129786002603
 20
2.485154657731125
 30
0.0
 10
8.513129786002603
 20
2.482813652672168
 30
0.0
 10
8.513129786002603
 20
2.481638734701422
 30
0.0
 10
8.513129786002603
 20
2.479350780108962
 30
0.0
 10
8.513129786002603
 20
2.478243048829829
 30
0.0
 10
8.513129786002603
 20
2.476139091886489
 30
0.0
 10
8.513129786002603
 20
2.475145131995898
 30
0.0
 10
8.513129786002603
 20
2.473434538464026
 30
0.0
 10
8.513129786002603
 20
2.472696460268655
 30
0.0
 10
8.513129786002603
 20
2.471503849265624
 30
0.0
 10
8.513129786002603
 20
2.471034123011175
 30
0.0
 10
8.513129786002603
 20
2.469878036520155
 30
0.0
 10
8.513129786002603
 20
2.469457743000055
 30
0.0
 10
8.513129786002603
 20
2.468905545690835
 30
0.0
 10
8.513129786002603
 20
2.468784565767998
 30
0.0
 10
8.513129786002603
 20
2.468660832461984
 30
0.0
 10
8.513129786002603
 20
2.468661498590002
 30
0.0
 10
8.513129786002603
 20
2.468661498590002
 30
0.0
  0
ARC
  5
182
330
1F
100
AcDbEntity
  8
0
  6
Continuous
 62
     7
370
    25
100
AcDbCircle
 10
8.5068305734
 20
2.4686614986
 30
0.0
 40
0.0062992125984263
100
AcDbArc
 50
270.0
 51
0.0
  0
SPLINE
  5
183
330
1F
100
AcDbEntity
  8
0
  6
Continuous
 62
     7
370
    25
100
AcDbSpline
210
0.0
220
0.0
230
1.0
 70
    24
 71
     3
 72
    30
 73
    26
 74
     0
 42
0.000000001
 43
0.00000001
 40
0.0
 40
0.0
 40
0.0
 40
0.0
 40
0.1250000000000012
 40
0.1250000000000012
 40
0.2500000000000024
 40
0.2500000000000024
 40
0.3125000000000031
 40
0.3125000000000031
 40
0.3750000000000037
 40
0.3750000000000037
 40
0.4375000000000043
 40
0.4375000000000043
 40
0.5000000000000049
 40
0.5000000000000049
 40
0.5625000000000056
 40
0.5625000000000056
 40
0.6250000000000061
 40
0.6250000000000061
 40
0.6875000000000067
 40
0.6875000000000067
 40
0.7500000000000073
 40
0.7500000000000073
 40
0.8750000000000037
 40
0.8750000000000037
 40
1.0
 40
1.0
 40
1.0
 40
1.0
 10
8.506830573404176
 20
2.462362285991577
 30
0.0
 10
8.506830573404176
 20
2.462362285991577
 30
0.0
 10
8.506830573404176
 20
2.462362104139562
 30
0.0
 10
8.506830573404176
 20
2.462553143989668
 30
0.0
 10
8.506830573404176
 20
2.462740840974842
 30
0.0
 10
8.506830573404176
 20
2.463358709254979
 30
0.0
 10
8.506830573404176
 20
2.463620810832421
 30
0.0
 10
8.506830573404176
 20
2.46430581772583
 30
0.0
 10
8.506830573404176
 20
2.464732345998191
 30
0.0
 10
8.506830573404176
 20
2.465789834390721
 30
0.0
 10
8.506830573404176
 20
2.46642054403834
 30
0.0
 10
8.506830573404176
 20
2.46794393633845
 30
0.0
 10
8.506830573404176
 20
2.468840192451336
 30
0.0
 10
8.506830573404176
 20
2.470834889220334
 30
0.0
 10
8.506830573404176
 20
2.471951905189934
 30
0.0
 10
8.506830573404176
 20
2.474351128217556
 30
0.0
 10
8.506830573404176
 20
2.475610493168432
 30
0.0
 10
8.506830573404176
 20
2.478219751547296
 30
0.0
 10
8.506830573404176
 20
2.479579109123454
 30
0.0
 10
8.506830573404176
 20
2.482311641643494
 30
0.0
 10
8.506830573404176
 20
2.483684765125626
 30
0.0
 10
8.506830573404176
 20
2.487818003471304
 30
0.0
 10
8.506830573404176
 20
2.490591732656446
 30
0.0
 10
8.506830573404176
 20
2.496154200033191
 30
0.0
 10
8.506830573404176
 20
2.498943285082256
 30
0.0
 10
8.506830573404176
 20
2.501732364731669
 30
0.0
  0
LINE
  5
184
330
1F
100
AcDbEntity
  8
0
  6
Continuous
 62
     7
370
    25
100
AcDbLine
 10
8.513129786
 20
2.5017323647
 30
0.0
 11
8.5068305734
 21
2.5017323647
 31
0.0
  0
SPLINE
  5
185
330
1F
100
AcDbEntity
  8
0
  6
Continuous
 62
     7
370
    25
100
AcDbSpline
210
0.0
220
0.0
230
1.0
 70
    24
 71
     3
 72
    26
 73
    22
 74
     0
 42
0.000000001
 43
0.00000001
 40
0.0
 40
0.0
 40
0.0
 40
0.0
 40
0.124999999999995
 40
0.124999999999995
 40
0.24999999999999
 40
0.24999999999999
 40
0.374999999999985
 40
0.374999999999985
 40
0.4374999999999843
 40
0.4374999999999843
 40
0.4999999999999837
 40
0.4999999999999837
 40
0.5624999999999829
 40
0.5624999999999829
 40
0.6249999999999822
 40
0.6249999999999822
 40
0.7499999999999881
 40
0.7499999999999881
 40
0.874999999999994
 40
0.874999999999994
 40
1.0
 40
1.0
 40
1.0
 40
1.0
 10
8.48005891986087
 20
2.501732364731669
 30
0.0
 10
8.48005891986087
 20
2.498919567602778
 30
0.0
 10
8.48005891986087
 20
2.496106762690499
 30
0.0
 10
8.48005891986087
 20
2.490490648114942
 30
0.0
 10
8.48005891986087
 20
2.487687107334669
 30
0.0
 10
8.48005891986087
 20
2.482102445841877
 30
0.0
 10
8.48005891986087
 20
2.479341269947966
 30
0.0
 10
8.48005891986087
 20
2.475412377239969
 30
0.0
 10
8.48005891986087
 20
2.474159905468558
 30
0.0
 10
8.48005891986087
 20
2.471797766394445
 30
0.0
 10
8.48005891986087
 20
2.470677421927481
 30
0.0
 10
8.48005891986087
 20
2.468706855899389
 30
0.0
 10
8.48005891986087
 20
2.467844743793465
 30
0.0
 10
8.48005891986087
 20
2.466346057902904
 30
0.0
 10
8.48005891986087
 20
2.465713680621145
 30
0.0
 10
8.48005891986087
 20
2.464160511870984
 30
0.0
 10
8.48005891986087
 20
2.463535664099562
 30
0.0
 10
8.48005891986087
 20
2.462731682094842
 30
0.0
 10
8.48005891986087
 20
2.462549053249398
 30
0.0
 10
8.48005891986087
 20
2.462362169911328
 30
0.0
 10
8.48005891986087
 20
2.462362285991577
 30
0.0
 10
8.48005891986087
 20
2.462362285991577
 30
0.0
  0
LINE
  5
186
330
1F
100
AcDbEntity
  8
0
  6
Continuous
 62
     7
370
    25
100
AcDbLine
 10
8.5068305734
 20
2.5017323647
 30
0.0
 11
8.4800589199
 21
2.5017323647
 31
0.0
  0
LINE
  5
187
330
1F
100
AcDbEntity
  8
0
  6
Continuous
 62
     7
370
    25
100
AcDbLine
 10
8.5068305734
 20
2.462362286
 30
0.0
 11
8.4800589199
 21
2.462362286
 31
0.0
  0
ARC
  5
188
330
1F
100
AcDbEntity
  8
0
  6
Continuous
 62
     7
370
    25
100
AcDbCircle
 10
8.4800589199
 20
2.4686614986
 30
0.0
 40
0.0062992125984249
100
AcDbArc
 50
180.0
 51
270.0
  0
SPLINE
  5
189
330
1F
100
AcDbEntity
  8
0
  6
Continuous
 62
     7
370
    25
100
AcDbSpline
210
0.0
220
0.0
230
1.0
 70
    24
 71
     3
 72
    22
 73
    18
 74
     0
 42
0.000000001
 43
0.00000001
 40
0.0
 40
0.0
 40
0.0
 40
0.0
 40
0.2499999999999847
 40
0.2499999999999847
 40
0.3749999999999774
 40
0.3749999999999774
 40
0.49999999999997
 40
0.49999999999997
 40
0.5624999999999724
 40
0.5624999999999724
 40
0.6249999999999748
 40
0.6249999999999748
 40
0.7499999999999832
 40
0.7499999999999832
 40
0.8749999999999917
 40
0.8749999999999917
 40
1.0
 40
1.0
 40
1.0
 40
1.0
 10
8.473759707262445
 20
2.468661498590002
 30
0.0
 10
8.473759707262445
 20
2.468661498590002
 30
0.0
 10
8.473759707262445
 20
2.468631886979443
 30
0.0
 10
8.473759707262445
 20
2.469435580071634
 30
0.0
 10
8.473759707262445
 20
2.469851530550977
 30
0.0
 10
8.473759707262445
 20
2.471341594889888
 30
0.0
 10
8.473759707262445
 20
2.472467726117463
 30
0.0
 10
8.473759707262445
 20
2.474988509365764
 30
0.0
 10
8.473759707262445
 20
2.475972610337825
 30
0.0
 10
8.473759707262445
 20
2.478051057050108
 30
0.0
 10
8.473759707262445
 20
2.479167138089367
 30
0.0
 10
8.473759707262445
 20
2.482592213608509
 30
0.0
 10
8.473759707262445
 20
2.484974432310839
 30
0.0
 10
8.473759707262445
 20
2.489746903279907
 30
0.0
 10
8.473759707262445
 20
2.492140536903445
 30
0.0
 10
8.473759707262445
 20
2.496933472373875
 30
0.0
 10
8.473759707262445
 20
2.499332934176451
 30
0.0
 10
8.473759707262445
 20
2.501732364731669
 30
0.0
  0
LINE
  5
18A
330
1F
100
AcDbEntity
  8
0
  6
Continuous
 62
     7
370
    25
100
AcDbLine
 10
8.4800589199
 20
2.5017323647
 30
0.0
 11
8.4737597073
 21
2.5017323647
 31
0.0
  0
LINE
  5
18B
330
1F
100
AcDbEntity
  8
0
  6
Continuous
 62
     7
370
    25
100
AcDbLine
 10
8.4800589199
 20
2.556850475
 30
0.0
 11
8.4737597073
 21
2.556850475
 31
0.0
  0
SPLINE
  5
18C
330
1F
100
AcDbEntity
  8
0
  6
Continuous
 62
     7
370
    25
100
AcDbSpline
210
0.0
220
0.0
230
1.0
 70
    24
 71
     3
 72
    22
 73
    18
 74
     0
 42
0.000000001
 43
0.00000001
 40
0.0
 40
0.0
 40
0.0
 40
0.0
 40
0.2499999999999934
 40
0.2499999999999934
 40
0.3749999999999936
 40
0.3749999999999936
 40
0.4999999999999938
 40
0.4999999999999938
 40
0.5624999999999939
 40
0.5624999999999939
 40
0.624999999999994
 40
0.624999999999994
 40
0.749999999999996
 40
0.749999999999996
 40
0.8749999999999981
 40
0.8749999999999981
 40
1.0
 40
1.0
 40
1.0
 40
1.0
 10
8.473759707262445
 20
2.55685047496802
 30
0.0
 10
8.473759707262445
 20
2.5616245264238
 30
0.0
 10
8.473759707262445
 20
2.566400386550375
 30
0.0
 10
8.473759707262445
 20
2.573512374444438
 30
0.0
 10
8.473759707262445
 20
2.575900623564409
 30
0.0
 10
8.473759707262445
 20
2.580436628214148
 30
0.0
 10
8.473759707262445
 20
2.582633891893301
 30
0.0
 10
8.473759707262445
 20
2.585184088779439
 30
0.0
 10
8.473759707262445
 20
2.585916619407198
 30
0.0
 10
8.473759707262445
 20
2.587098840104208
 30
0.0
 10
8.473759707262445
 20
2.587570309982002
 30
0.0
 10
8.473759707262445
 20
2.588713523461935
 30
0.0
 10
8.473759707262445
 20
2.58913276689309
 30
0.0
 10
8.473759707262445
 20
2.589679242272072
 30
0.0
 10
8.473759707262445
 20
2.589799282615183
 30
0.0
 10
8.473759707262445
 20
2.589921988169622
 30
0.0
 10
8.473759707262445
 20
2.589921341109687
 30
0.0
 10
8.473759707262445
 20
2.589921341109687
 30
0.0
  0
ARC
  5
18D
330
1F
100
AcDbEntity
  8
0
  6
Continuous
 62
     7
370
    25
100
AcDbCircle
 10
8.4800589199
 20
2.5899213411
 30
0.0
 40
0.0062992125984258
100
AcDbArc
 50
90.0
 51
180.0
  0
LINE
  5
18E
330
1F
100
AcDbEntity
  8
0
  6
Continuous
 62
     7
370
    25
100
AcDbLine
 10
8.513129786
 20
2.556850475
 30
0.0
 11
8.513129786
 21
2.5017323647
 31
0.0
  0
LINE
  5
18F
330
1F
100
AcDbEntity
  8
0
  6
Continuous
 62
     7
370
    25
100
AcDbLine
 10
8.5068305734
 20
2.5017323647
 30
0.0
 11
8.5068305734
 21
2.556850475
 31
0.0
  0
LINE
  5
190
330
1F
100
AcDbEntity
  8
0
  6
Continuous
 62
     7
370
    25
100
AcDbLine
 10
8.4800589199
 20
2.556850475
 30
0.0
 11
8.4800589199
 21
2.5017323647
 31
0.0
  0
LINE
  5
191
330
1F
100
AcDbEntity
  8
0
  6
Continuous
 62
     7
370
    25
100
AcDbLine
 10
8.4737597073
 20
2.5017323647
 30
0.0
 11
8.4737597073
 21
2.556850475
 31
0.0
  0
LINE
  5
192
330
1F
100
AcDbEntity
  8
0
  6
Continuous
 62
     7
370
    25
100
AcDbLine
 10
8.5062454006
 20
2.4560630734
 30
0.0
 11
8.4806440926
 21
2.4560630734
 31
0.0
  0
ARC
  5
193
330
1F
100
AcDbEntity
  8
0
  6
Continuous
 62
     7
370
    25
100
AcDbCircle
 10
8.4632529203
 20
2.4576242865
 30
0.0
 40
0.0174611070677258
100
AcDbArc
 50
354.8702832291
 51
15.7443704696
  0
ARC
  5
194
330
1F
100
AcDbEntity
  8
0
  6
Continuous
 62
     7
370
    25
100
AcDbCircle
 10
8.5236365729
 20
2.4576242865
 30
0.0
 40
0.0174611070676964
100
AcDbArc
 50
164.2556295304
 51
185.1297167709
  0
SPLINE
  5
195
330
1F
100
AcDbEntity
  8
0
  6
Continuous
 62
     7
370
    25
100
AcDbSpline
210
0.0
220
0.0
230
1.0
 70
     8
 71
     3
 72
    18
 73
    14
 74
     0
 42
0.000000001
 43
0.00000001
 40
0.0
 40
0.0
 40
0.0
 40
0.0
 40
0.2500000000000046
 40
0.2500000000000046
 40
0.5000000000000091
 40
0.5000000000000091
 40
0.6250000000000068
 40
0.6250000000000068
 40
0.7500000000000046
 40
0.7500000000000046
 40
0.8750000000000022
 40
0.8750000000000022
 40
1.0
 40
1.0
 40
1.0
 40
1.0
 10
8.468596418247342
 20
2.468661498590002
 30
0.0
 10
8.468596418247342
 20
2.467027524270574
 30
0.0
 10
8.468904067469133
 20
2.465402428912419
 30
0.0
 10
8.47007286841606
 20
2.462405488577609
 30
0.0
 10
8.470948827166964
 20
2.461005259505497
 30
0.0
 10
8.47259586832118
 20
2.459250842171391
 30
0.0
 10
8.473211471256633
 20
2.458711851086192
 30
0.0
 10
8.474520445771025
 20
2.457780333180851
 30
0.0
 10
8.475215083215778
 20
2.457383717067713
 30
0.0
 10
8.476687342701307
 20
2.456732588682057
 30
0.0
 10
8.477464500079675
 20
2.456481029811916
 30
0.0
 10
8.479031315003022
 20
2.456148513997045
 30
0.0
 10
8.479829742661694
 20
2.456063073393152
 30
0.0
 10
8.480644092615915
 20
2.456063073393152
 30
0.0
  0
LINE
  5
196
330
1F
100
AcDbEntity
  8
0
  6
Continuous
 62
     7
370
    25
100
AcDbLine
 10
8.4685964182
 20
2.4686614986
 30
0.0
 11
8.4737597073
 21
2.4686614986
 31
0.0
  0
SPLINE
  5
197
330
1F
100
AcDbEntity
  8
0
  6
Continuous
 62
     7
370
    25
100
AcDbSpline
210
0.0
220
0.0
230
1.0
 70
     8
 71
     3
 72
    18
 73
    14
 74
     0
 42
0.000000001
 43
0.00000001
 40
0.0
 40
0.0
 40
0.0
 40
0.0
 40
0.2499999999999939
 40
0.2499999999999939
 40
0.4999999999999878
 40
0.4999999999999878
 40
0.6249999999999908
 40
0.6249999999999908
 40
0.7499999999999939
 40
0.7499999999999939
 40
0.8749999999999969
 40
0.8749999999999969
 40
1.0
 40
1.0
 40
1.0
 40
1.0
 10
8.506245400649133
 20
2.456063073393152
 30
0.0
 10
8.507873556133129
 20
2.456063073393152
 30
0.0
 10
8.50948570089938
 20
2.456414180613938
 30
0.0
 10
8.512409966980156
 20
2.457710585749033
 30
0.0
 10
8.513750433550586
 20
2.458670715998092
 30
0.0
 10
8.515396993458936
 20
2.460426909892476
 30
0.0
 10
8.515896260480405
 20
2.46107620443557
 30
0.0
 10
8.516751242973166
 20
2.462441257497272
 30
0.0
 10
8.517111499627498
 20
2.463159727988229
 30
0.0
 10
8.517698416032575
 20
2.464668381286016
 30
0.0
 10
8.51792213565175
 20
2.46545606831764
 30
0.0
 10
8.518217834284664
 20
2.467040455733509
 30
0.0
 10
8.518293075017706
 20
2.467844718336851
 30
0.0
 10
8.518293075017706
 20
2.468661498590002
 30
0.0
  0
LINE
  5
198
330
1F
100
AcDbEntity
  8
0
  6
Continuous
 62
     7
370
    25
100
AcDbLine
 10
8.518293075
 20
2.4686614986
 30
0.0
 11
8.513129786
 21
2.4686614986
 31
0.0
  0
LINE
  5
199
330
1F
100
AcDbEntity
  8
0
  6
Continuous
 62
     7
370
    25
100
AcDbLine
 10
8.4737597073
 20
2.5899213411
 30
0.0
 11
8.4685964182
 21
2.5899213411
 31
0.0
  0
ARC
  5
19A
330
1F
100
AcDbEntity
  8
0
  6
Continuous
 62
     7
370
    25
100
AcDbCircle
 10
8.4781813602
 20
2.5914449346
 30
0.0
 40
0.0097052794752439
100
AcDbArc
 50
150.5236639385
 51
189.0319987942
  0
LINE
  5
19B
330
1F
100
AcDbEntity
  8
0
  6
Continuous
 62
     7
370
    25
100
AcDbLine
 10
8.4697323418
 20
2.5962205537
 30
0.0
 11
8.4800589199
 21
2.5962205537
 31
0.0
  0
LINE
  5
19C
330
1F
100
AcDbEntity
  8
0
  6
Continuous
 62
     7
370
    25
100
AcDbLine
 10
8.518293075
 20
2.5899213411
 30
0.0
 11
8.513129786
 21
2.5899213411
 31
0.0
  0
LINE
  5
19D
330
1F
100
AcDbEntity
  8
0
  6
Continuous
 62
     7
370
    25
100
AcDbLine
 10
8.518293075
 20
2.5899213411
 30
0.0
 11
8.518293075
 21
2.4686614986
 31
0.0
  0
ARC
  5
19E
330
1F
100
AcDbEntity
  8
0
  6
Continuous
 62
     7
370
    25
100
AcDbCircle
 10
8.508708133
 20
2.5914449346
 30
0.0
 40
0.0097052794752299
100
AcDbArc
 50
350.9680012058
 51
29.4763360615
  0
LINE
  5
19F
330
1F
100
AcDbEntity
  8
0
  6
Continuous
 62
     7
370
    25
100
AcDbLine
 10
8.5068305734
 20
2.5962205537
 30
0.0
 11
8.5171571514
 21
2.5962205537
 31
0.0
  0
LINE
  5
1A0
330
1F
100
AcDbEntity
  8
0
  6
Continuous
 62
     7
370
    25
100
AcDbLine
 10
8.4685964182
 20
2.4686614986
 30
0.0
 11
8.4685964182
 21
2.5899213411
 31
0.0
  0
LINE
  5
1A1
330
1F
100
AcDbEntity
  8
0
  6
Continuous
 62
     7
370
    25
100
AcDbLine
 10
8.355649471
 20
1.9426772466
 30
0.0
 11
8.6312400222
 21
1.9426772466
 31
0.0
  0
LINE
  5
1A2
330
1F
100
AcDbEntity
  8
0
  6
Continuous
 62
     7
370
    25
100
AcDbLine
 10
8.5171571514
 20
2.5962205537
 30
0.0
 11
8.6249408096
 21
2.5962205537
 31
0.0
  0
LINE
  5
1A3
330
1F
100
AcDbEntity
  8
0
  6
Continuous
 62
     7
370
    25
100
AcDbLine
 10
8.3619486836
 20
2.5962205537
 30
0.0
 11
8.4697323418
 21
2.5962205537
 31
0.0
  0
LINE
  5
1A4
330
1F
100
AcDbEntity
  8
0
  6
Continuous
 62
     7
370
    25
100
AcDbLine
 10
8.2635234868
 20
1.9348032309
 30
0.0
 11
8.723366006
 21
1.9348032309
 31
0.0
  0
LINE
  5
1A5
330
1F
100
AcDbEntity
  8
0
  6
Continuous
 62
     7
370
    25
100
AcDbLine
 10
8.2572242742
 20
1.8718111049
 30
0.0
 11
8.7296652191
 21
1.8718111049
 31
0.0
  0
LINE
  5
1A6
330
1F
100
AcDbEntity
  8
0
  6
Continuous
 62
     7
370
    25
100
AcDbLine
 10
8.670610101
 20
2.5820473254
 30
0.0
 11
8.6312400222
 21
2.5820473254
 31
0.0
  0
LINE
  5
1A7
330
1F
100
AcDbEntity
  8
0
  6
Continuous
 62
     7
370
    25
100
AcDbLine
 10
8.355649471
 20
2.5820473254
 30
0.0
 11
8.3162793923
 21
2.5820473254
 31
0.0
  0
LINE
  5
1A8
330
1F
100
AcDbEntity
  8
0
  6
Continuous
 62
     7
370
    25
100
AcDbLine
 10
8.3792715183
 20
3.4723135748
 30
0.0
 11
8.607617975
 21
3.4723135748
 31
0.0
  0
LINE
  5
1A9
330
1F
100
AcDbEntity
  8
0
  6
Continuous
 62
     7
370
    25
100
AcDbLine
 10
7.3407792095
 20
3.799748942
 30
0.0
 11
7.1537287427
 21
3.9307230889
 31
0.0
  0
LINE
  5
1AA
330
1F
100
AcDbEntity
  8
0
  6
Continuous
 62
     7
370
    25
100
AcDbLine
 10
6.6712491286
 20
3.2416707896
 30
0.0
 11
6.8582995954
 21
3.1106966428
 31
0.0
  0
LINE
  5
1AB
330
1F
100
AcDbEntity
  8
0
  6
Continuous
 62
     7
370
    25
100
AcDbLine
 10
8.4685964182
 20
2.5899213411
 30
0.0
 11
8.355649471
 21
2.5899213411
 31
0.0
  0
LINE
  5
1AC
330
1F
100
AcDbEntity
  8
0
  6
Continuous
 62
     7
370
    25
100
AcDbLine
 10
8.6312400222
 20
2.5899213411
 30
0.0
 11
8.518293075
 21
2.5899213411
 31
0.0
  0
LINE
  5
1AD
330
1F
100
AcDbEntity
  8
0
  6
Continuous
 62
     7
370
    25
100
AcDbLine
 10
8.7296652191
 20
1.9285040183
 30
0.0
 11
8.2572242742
 21
1.9285040183
 31
0.0
  0
ENDSEC
  0
SECTION
  2
OBJECTS
  0
DICTIONARY
  5
C
330
0
100
AcDbDictionary
281
     1
  3
ACAD_GROUP
350
D
  3
ACAD_LAYOUT
350
1A
  3
ACAD_MLINESTYLE
350
17
  3
ACAD_PLOTSETTINGS
350
19
  3
ACAD_PLOTSTYLENAME
350
E
  3
ACAD_SCALELIST
350
47
  0
DICTIONARY
  5
D
102
{ACAD_REACTORS
330
C
102
}
330
C
100
AcDbDictionary
281
     1
  0
DICTIONARY
  5
1A
102
{ACAD_REACTORS
330
C
102
}
330
C
100
AcDbDictionary
281
     1
  3
Layout1
350
1E
  3
Layout2
350
26
  3
Model
350
22
  0
DICTIONARY
  5
17
102
{ACAD_REACTORS
330
C
102
}
330
C
100
AcDbDictionary
281
     1
  3
Standard
350
18
  0
DICTIONARY
  5
19
102
{ACAD_REACTORS
330
C
102
}
330
C
100
AcDbDictionary
281
     1
  0
ACDBDICTIONARYWDFLT
  5
E
102
{ACAD_REACTORS
330
C
102
}
330
C
100
AcDbDictionary
281
     1
  3
Normal
350
F
100
AcDbDictionaryWithDefault
340
F
  0
DICTIONARY
  5
47
102
{ACAD_REACTORS
330
C
102
}
330
C
100
AcDbDictionary
281
     1
  3
A0
350
48
  3
A1
350
49
  3
A2
350
4A
  3
A3
350
4B
  3
A4
350
4C
  3
A5
350
4D
  3
A6
350
4E
  3
A7
350
4F
  3
A8
350
50
  3
A9
350
51
  3
B0
350
52
  3
B1
350
53
  3
B2
350
54
  3
B3
350
55
  3
B4
350
56
  3
B5
350
57
  3
B6
350
58
  3
B7
350
59
  3
B8
350
5A
  3
B9
350
5B
  3
C0
350
5C
  3
C1
350
5D
  3
C2
350
5E
  3
C3
350
5F
  3
C4
350
60
  3
C5
350
61
  3
C6
350
62
  3
C7
350
63
  3
C8
350
64
  3
C9
350
65
  3
D0
350
66
  3
D1
350
67
  3
D2
350
68
  0
LAYOUT
  5
1E
102
{ACAD_REACTORS
330
1A
102
}
330
1A
100
AcDbPlotSettings
  1

  2
none_device
  4

  6

 40
0.0
 41
0.0
 42
0.0
 43
0.0
 44
0.0
 45
0.0
 46
0.0
 47
0.0
 48
0.0
 49
0.0
140
0.0
141
0.0
142
1.0
143
1.0
 70
   688
 72
     0
 73
     0
 74
     5
  7

 75
    16
147
1.0
148
0.0
149
0.0
100
AcDbLayout
  1
Layout1
 70
     1
 71
     1
 10
0.0
 20
0.0
 11
12.0
 21
9.0
 12
0.0
 22
0.0
 32
0.0
 14
1.0000000000E+20
 24
1.0000000000E+20
 34
1.0000000000E+20
 15
-1.0000000000E+20
 25
-1.0000000000E+20
 35
-1.0000000000E+20
146
0.0
 13
0.0
 23
0.0
 33
0.0
 16
1.0
 26
0.0
 36
0.0
 17
0.0
 27
1.0
 37
0.0
 76
     0
330
1B
  0
LAYOUT
  5
26
102
{ACAD_REACTORS
330
1A
102
}
330
1A
100
AcDbPlotSettings
  1

  2
none_device
  4

  6

 40
0.0
 41
0.0
 42
0.0
 43
0.0
 44
0.0
 45
0.0
 46
0.0
 47
0.0
 48
0.0
 49
0.0
140
0.0
141
0.0
142
1.0
143
1.0
 70
   688
 72
     0
 73
     0
 74
     5
  7

 75
    16
147
1.0
148
0.0
149
0.0
100
AcDbLayout
  1
Layout2
 70
     1
 71
     2
 10
0.0
 20
0.0
 11
0.0
 21
0.0
 12
0.0
 22
0.0
 32
0.0
 14
0.0
 24
0.0
 34
0.0
 15
0.0
 25
0.0
 35
0.0
146
0.0
 13
0.0
 23
0.0
 33
0.0
 16
1.0
 26
0.0
 36
0.0
 17
0.0
 27
1.0
 37
0.0
 76
     0
330
23
  0
LAYOUT
  5
22
102
{ACAD_REACTORS
330
1A
102
}
330
1A
100
AcDbPlotSettings
  1

  2
none_device
  4
Letter_(8.50_x_11.00_Inches)
  6

 40
6.35
 41
6.35
 42
6.35000508
 43
6.35000508
 44
215.9
 45
279.4
 46
0.0
 47
0.0
 48
0.0
 49
0.0
140
0.0
141
0.0
142
1.0
143
1.0
 70
  1712
 72
     0
 73
     0
 74
     0
  7

 75
     0
147
1.0
148
0.0
149
0.0
100
AcDbLayout
  1
Model
 70
     1
 71
     0
 10
0.0
 20
0.0
 11
11.0
 21
8.5
 12
0.0
 22
0.0
 32
0.0
 14
0.0
 24
0.0
 34
0.0
 15
11.0
 25
8.5
 35
0.0
146
0.0
 13
0.0
 23
0.0
 33
0.0
 16
1.0
 26
0.0
 36
0.0
 17
0.0
 27
1.0
 37
0.0
 76
     0
330
1F
331
29
  0
MLINESTYLE
  5
18
102
{ACAD_REACTORS
330
17
102
}
330
17
100
AcDbMlineStyle
  2
Standard
 70
     0
  3

 62
   256
 51
90.0
 52
90.0
 71
     2
 49
0.5
 62
   256
  6
BYLAYER
 49
-0.5
 62
   256
  6
BYLAYER
  0
ACDBPLACEHOLDER
  5
F
102
{ACAD_REACTORS
330
E
102
}
330
E
  0
SCALE
  5
48
102
{ACAD_REACTORS
330
47
102
}
330
47
100
AcDbScale
 70
     0
300
1:1
140
1.0
141
1.0
290
     1
  0
SCALE
  5
49
102
{ACAD_REACTORS
330
47
102
}
330
47
100
AcDbScale
 70
     0
300
1:2
140
1.0
141
2.0
290
     0
  0
SCALE
  5
4A
102
{ACAD_REACTORS
330
47
102
}
330
47
100
AcDbScale
 70
     0
300
1:4
140
1.0
141
4.0
290
     0
  0
SCALE
  5
4B
102
{ACAD_REACTORS
330
47
102
}
330
47
100
AcDbScale
 70
     0
300
1:5
140
1.0
141
5.0
290
     0
  0
SCALE
  5
4C
102
{ACAD_REACTORS
330
47
102
}
330
47
100
AcDbScale
 70
     0
300
1:8
140
1.0
141
8.0
290
     0
  0
SCALE
  5
4D
102
{ACAD_REACTORS
330
47
102
}
330
47
100
AcDbScale
 70
     0
300
1:10
140
1.0
141
10.0
290
     0
  0
SCALE
  5
4E
102
{ACAD_REACTORS
330
47
102
}
330
47
100
AcDbScale
 70
     0
300
1:16
140
1.0
141
16.0
290
     0
  0
SCALE
  5
4F
102
{ACAD_REACTORS
330
47
102
}
330
47
100
AcDbScale
 70
     0
300
1:20
140
1.0
141
20.0
290
     0
  0
SCALE
  5
50
102
{ACAD_REACTORS
330
47
102
}
330
47
100
AcDbScale
 70
     0
300
1:30
140
1.0
141
30.0
290
     0
  0
SCALE
  5
51
102
{ACAD_REACTORS
330
47
102
}
330
47
100
AcDbScale
 70
     0
300
1:40
140
1.0
141
40.0
290
     0
  0
SCALE
  5
52
102
{ACAD_REACTORS
330
47
102
}
330
47
100
AcDbScale
 70
     0
300
1:50
140
1.0
141
50.0
290
     0
  0
SCALE
  5
53
102
{ACAD_REACTORS
330
47
102
}
330
47
100
AcDbScale
 70
     0
300
1:100
140
1.0
141
100.0
290
     0
  0
SCALE
  5
54
102
{ACAD_REACTORS
330
47
102
}
330
47
100
AcDbScale
 70
     0
300
2:1
140
2.0
141
1.0
290
     0
  0
SCALE
  5
55
102
{ACAD_REACTORS
330
47
102
}
330
47
100
AcDbScale
 70
     0
300
4:1
140
4.0
141
1.0
290
     0
  0
SCALE
  5
56
102
{ACAD_REACTORS
330
47
102
}
330
47
100
AcDbScale
 70
     0
300
8:1
140
8.0
141
1.0
290
     0
  0
SCALE
  5
57
102
{ACAD_REACTORS
330
47
102
}
330
47
100
AcDbScale
 70
     0
300
10:1
140
10.0
141
1.0
290
     0
  0
SCALE
  5
58
102
{ACAD_REACTORS
330
47
102
}
330
47
100
AcDbScale
 70
     0
300
100:1
140
100.0
141
1.0
290
     0
  0
SCALE
  5
59
102
{ACAD_REACTORS
330
47
102
}
330
47
100
AcDbScale
 70
     0
300
1/128" = 1'-0"
140
0.0078125
141
12.0
290
     0
  0
SCALE
  5
5A
102
{ACAD_REACTORS
330
47
102
}
330
47
100
AcDbScale
 70
     0
300
1/64" = 1'-0"
140
0.015625
141
12.0
290
     0
  0
SCALE
  5
5B
102
{ACAD_REACTORS
330
47
102
}
330
47
100
AcDbScale
 70
     0
300
1/32" = 1'-0"
140
0.03125
141
12.0
290
     0
  0
SCALE
  5
5C
102
{ACAD_REACTORS
330
47
102
}
330
47
100
AcDbScale
 70
     0
300
1/16" = 1'-0"
140
0.0625
141
12.0
290
     0
  0
SCALE
  5
5D
102
{ACAD_REACTORS
330
47
102
}
330
47
100
AcDbScale
 70
     0
300
3/32" = 1'-0"
140
0.09375
141
12.0
290
     0
  0
SCALE
  5
5E
102
{ACAD_REACTORS
330
47
102
}
330
47
100
AcDbScale
 70
     0
300
1/8" = 1'-0"
140
0.125
141
12.0
290
     0
  0
SCALE
  5
5F
102
{ACAD_REACTORS
330
47
102
}
330
47
100
AcDbScale
 70
     0
300
3/16" = 1'-0"
140
0.1875
141
12.0
290
     0
  0
SCALE
  5
60
102
{ACAD_REACTORS
330
47
102
}
330
47
100
AcDbScale
 70
     0
300
1/4" = 1'-0"
140
0.25
141
12.0
290
     0
  0
SCALE
  5
61
102
{ACAD_REACTORS
330
47
102
}
330
47
100
AcDbScale
 70
     0
300
3/8" = 1'-0"
140
0.375
141
12.0
290
     0
  0
SCALE
  5
62
102
{ACAD_REACTORS
330
47
102
}
330
47
100
AcDbScale
 70
     0
300
1/2" = 1'-0"
140
0.5
141
12.0
290
     0
  0
SCALE
  5
63
102
{ACAD_REACTORS
330
47
102
}
330
47
100
AcDbScale
 70
     0
300
3/4" = 1'-0"
140
0.75
141
12.0
290
     0
  0
SCALE
  5
64
102
{ACAD_REACTORS
330
47
102
}
330
47
100
AcDbScale
 70
     0
300
1" = 1'-0"
140
1.0
141
12.0
290
     0
  0
SCALE
  5
65
102
{ACAD_REACTORS
330
47
102
}
330
47
100
AcDbScale
 70
     0
300
1-1/2" = 1'-0"
140
1.5
141
12.0
290
     0
  0
SCALE
  5
66
102
{ACAD_REACTORS
330
47
102
}
330
47
100
AcDbScale
 70
     0
300
3" = 1'-0"
140
3.0
141
12.0
290
     0
  0
SCALE
  5
67
102
{ACAD_REACTORS
330
47
102
}
330
47
100
AcDbScale
 70
     0
300
6" = 1'-0"
140
6.0
141
12.0
290
     0
  0
SCALE
  5
68
102
{ACAD_REACTORS
330
47
102
}
330
47
100
AcDbScale
 70
     0
300
1'-0" = 1'-0"
140
12.0
141
12.0
290
     0
  0
ENDSEC
  0
EOF
