  0
SECTION
  2
HEADER
  9
$ACADVER
  1
AC1015
  9
$ACADMAINTVER
 70
    20
  9
$DWGCODEPAGE
  3
ANSI_1252
  9
$INSBASE
 10
0.0
 20
0.0
 30
0.0
  9
$EXTMIN
 10
540.6294959415999
 20
254.1998441696793
 30
-0.0000000349181948
  9
$EXTMAX
 10
576.0983343635546
 20
277.8569892956526
 30
0.0000000814935746
  9
$LIMMIN
 10
0.0
 20
0.0
  9
$LIMMAX
 10
297.0
 20
210.0
  9
$ORTHOMODE
 70
     0
  9
$REGENMODE
 70
     1
  9
$FILLMODE
 70
     1
  9
$QTEXTMODE
 70
     0
  9
$MIRRTEXT
 70
     1
  9
$LTSCALE
 40
1.0
  9
$ATTMODE
 70
     1
  9
$TEXTSIZE
 40
3.0
  9
$TRACEWID
 40
0.5
  9
$TEXTSTYLE
  7
STANDARD
  9
$CLAYER
  8
0
  9
$CELTYPE
  6
ByLayer
  9
$CECOLOR
 62
     1
  9
$CELTSCALE
 40
1.0
  9
$DISPSILH
 70
     0
  9
$DIMSCALE
 40
1.0
  9
$DIMASZ
 40
2.5
  9
$DIMEXO
 40
1.0
  9
$DIMDLI
 40
5.0
  9
$DIMRND
 40
0.0
  9
$DIMDLE
 40
3.0
  9
$DIMEXE
 40
1.0
  9
$DIMTP
 40
0.0
  9
$DIMTM
 40
0.0
  9
$DIMTXT
 40
2.5
  9
$DIMCEN
 40
2.0
  9
$DIMTSZ
 40
0.0
  9
$DIMTOL
 70
     0
  9
$DIMLIM
 70
     0
  9
$DIMTIH
 70
     0
  9
$DIMTOH
 70
     0
  9
$DIMSE1
 70
     0
  9
$DIMSE2
 70
     0
  9
$DIMTAD
 70
     1
  9
$DIMZIN
 70
     8
  9
$DIMBLK
  1

  9
$DIMASO
 70
     1
  9
$DIMSHO
 70
     0
  9
$DIMPOST
  1

  9
$DIMAPOST
  1

  9
$DIMALT
 70
     0
  9
$DIMALTD
 70
     4
  9
$DIMALTF
 40
25.4
  9
$DIMLFAC
 40
1.0
  9
$DIMTOFL
 70
     1
  9
$DIMTVP
 40
1.0
  9
$DIMTIX
 70
     0
  9
$DIMSOXD
 70
     0
  9
$DIMSAH
 70
     0
  9
$DIMBLK1
  1

  9
$DIMBLK2
  1

  9
$DIMSTYLE
  2
Standard
  9
$DIMCLRD
 70
     0
  9
$DIMCLRE
 70
     0
  9
$DIMCLRT
 70
     0
  9
$DIMTFAC
 40
1.0
  9
$DIMGAP
 40
0.09
  9
$DIMJUST
 70
     0
  9
$DIMSD1
 70
     0
  9
$DIMSD2
 70
     0
  9
$DIMTOLJ
 70
     1
  9
$DIMTZIN
 70
     0
  9
$DIMALTZ
 70
     0
  9
$DIMALTTZ
 70
     0
  9
$DIMUPT
 70
     0
  9
$DIMDEC
 70
     4
  9
$DIMTDEC
 70
     4
  9
$DIMALTU
 70
     2
  9
$DIMALTTD
 70
     2
  9
$DIMTXSTY
  7
STANDARD
  9
$DIMAUNIT
 70
     0
  9
$DIMADEC
 70
     0
  9
$DIMALTRND
 40
0.0
  9
$DIMAZIN
 70
     0
  9
$DIMDSEP
 70
    46
  9
$DIMATFIT
 70
     3
  9
$DIMFRAC
 70
     0
  9
$DIMLDRBLK
  1

  9
$DIMLUNIT
 70
     2
  9
$DIMLWD
 70
    -2
  9
$DIMLWE
 70
    -2
  9
$DIMTMOVE
 70
     0
  9
$LUNITS
 70
     2
  9
$LUPREC
 70
     4
  9
$SKETCHINC
 40
1.0
  9
$FILLETRAD
 40
0.0
  9
$AUNITS
 70
     0
  9
$AUPREC
 70
     0
  9
$MENU
  1
acad
  9
$ELEVATION
 40
0.0
  9
$PELEVATION
 40
0.0
  9
$THICKNESS
 40
0.0
  9
$LIMCHECK
 70
     0
  9
$CHAMFERA
 40
0.0
  9
$CHAMFERB
 40
0.0
  9
$CHAMFERC
 40
0.0
  9
$CHAMFERD
 40
0.0
  9
$SKPOLY
 70
     0
  9
$TDCREATE
 40
2453763.555625000
  9
$TDUCREATE
 40
2453763.847291666
  9
$TDUPDATE
 40
2454918.363933009
  9
$TDUUPDATE
 40
2454918.655599676
  9
$TDINDWG
 40
0.0863851157
  9
$TDUSRTIMER
 40
0.0863849306
  9
$USRTIMER
 70
     1
  9
$ANGBASE
 50
0.0
  9
$ANGDIR
 70
     0
  9
$PDMODE
 70
     0
  9
$PDSIZE
 40
0.0
  9
$PLINEWID
 40
0.0
  9
$SPLFRAME
 70
     0
  9
$SPLINETYPE
 70
     6
  9
$SPLINESEGS
 70
     8
  9
$HANDSEED
  5
BC8
  9
$SURFTAB1
 70
     6
  9
$SURFTAB2
 70
     6
  9
$SURFTYPE
 70
     6
  9
$SURFU
 70
     6
  9
$SURFV
 70
     6
  9
$UCSBASE
  2

  9
$UCSNAME
  2

  9
$UCSORG
 10
0.0
 20
0.0
 30
0.0
  9
$UCSXDIR
 10
1.0
 20
0.0
 30
0.0
  9
$UCSYDIR
 10
0.0
 20
1.0
 30
0.0
  9
$UCSORTHOREF
  2

  9
$UCSORTHOVIEW
 70
     0
  9
$UCSORGTOP
 10
0.0
 20
0.0
 30
0.0
  9
$UCSORGBOTTOM
 10
0.0
 20
0.0
 30
0.0
  9
$UCSORGLEFT
 10
0.0
 20
0.0
 30
0.0
  9
$UCSORGRIGHT
 10
0.0
 20
0.0
 30
0.0
  9
$UCSORGFRONT
 10
0.0
 20
0.0
 30
0.0
  9
$UCSORGBACK
 10
0.0
 20
0.0
 30
0.0
  9
$PUCSBASE
  2

  9
$PUCSNAME
  2

  9
$PUCSORG
 10
0.0
 20
0.0
 30
0.0
  9
$PUCSXDIR
 10
1.0
 20
0.0
 30
0.0
  9
$PUCSYDIR
 10
0.0
 20
1.0
 30
0.0
  9
$PUCSORTHOREF
  2

  9
$PUCSORTHOVIEW
 70
     0
  9
$PUCSORGTOP
 10
0.0
 20
0.0
 30
0.0
  9
$PUCSORGBOTTOM
 10
0.0
 20
0.0
 30
0.0
  9
$PUCSORGLEFT
 10
0.0
 20
0.0
 30
0.0
  9
$PUCSORGRIGHT
 10
0.0
 20
0.0
 30
0.0
  9
$PUCSORGFRONT
 10
0.0
 20
0.0
 30
0.0
  9
$PUCSORGBACK
 10
0.0
 20
0.0
 30
0.0
  9
$USERI1
 70
     0
  9
$USERI2
 70
     0
  9
$USERI3
 70
     0
  9
$USERI4
 70
     0
  9
$USERI5
 70
     0
  9
$USERR1
 40
0.0
  9
$USERR2
 40
0.0
  9
$USERR3
 40
0.0
  9
$USERR4
 40
0.0
  9
$USERR5
 40
0.0
  9
$WORLDVIEW
 70
     1
  9
$SHADEDGE
 70
     3
  9
$SHADEDIF
 70
    70
  9
$TILEMODE
 70
     1
  9
$MAXACTVP
 70
    64
  9
$PINSBASE
 10
0.0
 20
0.0
 30
0.0
  9
$PLIMCHECK
 70
     0
  9
$PEXTMIN
 10
0.275537074428712
 20
0.9669407133658864
 30
0.0
  9
$PEXTMAX
 10
35.70853707442871
 20
24.0
 30
0.0
  9
$PLIMMIN
 10
-16.9757080078125
 20
-4.995333194732666
  9
$PLIMMAX
 10
1171.955932617187
 20
835.9563269615174
  9
$UNITMODE
 70
     0
  9
$VISRETAIN
 70
     1
  9
$PLINEGEN
 70
     0
  9
$PSLTSCALE
 70
     1
  9
$TREEDEPTH
 70
  3020
  9
$CMLSTYLE
  2
Standard
  9
$CMLJUST
 70
     0
  9
$CMLSCALE
 40
1.0
  9
$PROXYGRAPHICS
 70
     1
  9
$MEASUREMENT
 70
     0
  9
$CELWEIGHT
370
    -1
  9
$ENDCAPS
280
     0
  9
$JOINSTYLE
280
     0
  9
$LWDISPLAY
290
     0
  9
$INSUNITS
 70
     4
  9
$HYPERLINKBASE
  1

  9
$STYLESHEET
  1

  9
$XEDIT
290
     1
  9
$CEPSNTYPE
380
     0
  9
$PSTYLEMODE
290
     1
  9
$FINGERPRINTGUID
  2
{1DC806F1-7EDC-4A60-B12F-A91F6BCF462C}
  9
$VERSIONGUID
  2
{A4AE10A9-B87B-4483-829B-9A7281FB1801}
  9
$EXTNAMES
290
     1
  9
$PSVPSCALE
 40
0.0
  9
$OLESTARTUP
290
     0
  0
ENDSEC
  0
SECTION
  2
CLASSES
  0
CLASS
  1
ACDBDICTIONARYWDFLT
  2
AcDbDictionaryWithDefault
  3
ObjectDBX Classes
 90
        0
280
     0
281
     0
  0
CLASS
  1
TABLESTYLE
  2
AcDbTableStyle
  3
ObjectDBX Classes
 90
     4095
280
     0
281
     0
  0
CLASS
  1
SORTENTSTABLE
  2
AcDbSortentsTable
  3
ObjectDBX Classes
 90
    32768
280
     0
281
     0
  0
CLASS
  1
DICTIONARYVAR
  2
AcDbDictionaryVar
  3
ObjectDBX Classes
 90
        0
280
     0
281
     0
  0
CLASS
  1
ACDBPLACEHOLDER
  2
AcDbPlaceHolder
  3
ObjectDBX Classes
 90
        0
280
     0
281
     0
  0
CLASS
  1
LAYOUT
  2
AcDbLayout
  3
ObjectDBX Classes
 90
        0
280
     0
281
     0
  0
CLASS
  1
MATERIAL
  2
AcDbMaterial
  3
ObjectDBX Classes
 90
     1024
280
     0
281
     0
  0
CLASS
  1
VISUALSTYLE
  2
AcDbVisualStyle
  3
ObjectDBX Classes
 90
     4095
280
     0
281
     0
  0
ENDSEC
  0
SECTION
  2
TABLES
  0
TABLE
  2
VPORT
  5
8
330
0
100
AcDbSymbolTable
 70
     1
  0
VPORT
  5
B92
330
8
100
AcDbSymbolTableRecord
100
AcDbViewportTableRecord
  2
*Active
 70
     0
 10
0.0
 20
0.0
 11
1.0
 21
1.0
 12
558.3639151525773
 22
266.0284167326659
 13
0.0
 23
0.0
 14
0.0
 24
0.0
 15
0.0
 25
0.0
 16
0.0
 26
0.0
 36
1.0
 17
0.0
 27
0.0
 37
0.0
 40
23.85622348607967
 41
1.644662921348314
 42
50.0
 43
0.0
 44
0.0
 50
0.0
 51
0.0
 71
     0
 72
   100
 73
     1
 74
     1
 75
     0
 76
     0
 77
     0
 78
     0
281
     0
 65
     1
110
0.0
120
0.0
130
0.0
111
1.0
121
0.0
131
0.0
112
0.0
122
1.0
132
0.0
 79
     0
146
0.0
  0
ENDTAB
  0
TABLE
  2
LTYPE
  5
5
330
0
100
AcDbSymbolTable
 70
     4
  0
LTYPE
  5
13
330
5
100
AcDbSymbolTableRecord
100
AcDbLinetypeTableRecord
  2
ByBlock
 70
     0
  3

 72
    65
 73
     0
 40
0.0
  0
LTYPE
  5
14
330
5
100
AcDbSymbolTableRecord
100
AcDbLinetypeTableRecord
  2
ByLayer
 70
     0
  3

 72
    65
 73
     0
 40
0.0
  0
LTYPE
  5
15
330
5
100
AcDbSymbolTableRecord
100
AcDbLinetypeTableRecord
  2
CONTINUOUS
 70
     0
  3
solid line
 72
    65
 73
     0
 40
0.0
  0
LTYPE
  5
27
330
5
100
AcDbSymbolTableRecord
100
AcDbLinetypeTableRecord
  2
DASHED
 70
     0
  3
-- -- -- -- -- -- -- -- -- --
 72
    65
 73
     2
 40
3.0
 49
2.0
 74
     0
 49
-1.0
 74
     0
  0
LTYPE
  5
28
330
5
100
AcDbSymbolTableRecord
100
AcDbLinetypeTableRecord
  2
CENTER
 70
     0
  3
--- - --- - --- - --- - --- -
 72
    65
 73
     4
 40
6.0
 49
3.0
 74
     0
 49
-1.0
 74
     0
 49
1.0
 74
     0
 49
-1.0
 74
     0
  0
LTYPE
  5
29
330
5
100
AcDbSymbolTableRecord
100
AcDbLinetypeTableRecord
  2
PHANTOM
 70
     0
  3
----- - - ----- - - ----- - -
 72
    65
 73
     6
 40
12.0
 49
7.0
 74
     0
 49
-1.0
 74
     0
 49
1.0
 74
     0
 49
-1.0
 74
     0
 49
1.0
 74
     0
 49
-1.0
 74
     0
  0
ENDTAB
  0
TABLE
  2
LAYER
  5
2
102
{ACAD_XDICTIONARY
360
155
102
}
330
0
100
AcDbSymbolTable
 70
    13
  0
LAYER
  5
10
330
2
100
AcDbSymbolTableRecord
100
AcDbLayerTableRecord
  2
0
 70
     0
 62
     7
  6
CONTINUOUS
370
    -3
390
F
  0
LAYER
  5
2A
330
2
100
AcDbSymbolTableRecord
100
AcDbLayerTableRecord
  2
PIC05
 70
     0
 62
     7
  6
CONTINUOUS
370
    -3
390
F
  0
LAYER
  5
2B
330
2
100
AcDbSymbolTableRecord
100
AcDbLayerTableRecord
  2
DRAW1
 70
     0
 62
     7
  6
CONTINUOUS
370
    -3
390
F
  0
LAYER
  5
154
330
2
100
AcDbSymbolTableRecord
100
AcDbLayerTableRecord
  2
TOTO
 70
     0
 62
     7
  6
CONTINUOUS
370
    -3
390
F
  0
LAYER
  5
191
330
2
100
AcDbSymbolTableRecord
100
AcDbLayerTableRecord
  2
LINE_TEX
 70
     0
 62
     6
  6
CONTINUOUS
370
    -3
390
F
  0
LAYER
  5
206
330
2
100
AcDbSymbolTableRecord
100
AcDbLayerTableRecord
  2
FRAME 070
 70
     0
 62
     5
  6
CONTINUOUS
370
    -3
390
F
  0
LAYER
  5
207
330
2
100
AcDbSymbolTableRecord
100
AcDbLayerTableRecord
  2
FRAME 050
 70
     0
 62
     6
  6
CONTINUOUS
370
    -3
390
F
  0
LAYER
  5
208
330
2
100
AcDbSymbolTableRecord
100
AcDbLayerTableRecord
  2
FRAME 025
 70
     0
 62
     7
  6
CONTINUOUS
370
    -3
390
F
  0
LAYER
  5
3DF
330
2
100
AcDbSymbolTableRecord
100
AcDbLayerTableRecord
  2
DIM
 70
     0
 62
     4
  6
CONTINUOUS
370
    -3
390
F
  0
LAYER
  5
481
330
2
100
AcDbSymbolTableRecord
100
AcDbLayerTableRecord
  2
PIC03
 70
     0
 62
     7
  6
CONTINUOUS
370
    -3
390
F
  0
LAYER
  5
482
330
2
100
AcDbSymbolTableRecord
100
AcDbLayerTableRecord
  2
PIC21
 70
     0
 62
     7
  6
CONTINUOUS
370
    -3
390
F
  0
LAYER
  5
ABB
330
2
100
AcDbSymbolTableRecord
100
AcDbLayerTableRecord
  2
1
 70
     0
 62
     7
  6
CONTINUOUS
370
    -3
390
F
  0
LAYER
  5
B6C
330
2
100
AcDbSymbolTableRecord
100
AcDbLayerTableRecord
  2
defpoints
 70
     0
 62
     1
  6
CONTINUOUS
290
     0
370
    -3
390
F
1001
AcAecLayerStandard
1000

1000

  0
ENDTAB
  0
TABLE
  2
STYLE
  5
3
330
0
100
AcDbSymbolTable
 70
     7
  0
STYLE
  5
11
330
3
100
AcDbSymbolTableRecord
100
AcDbTextStyleTableRecord
  2
STANDARD
 70
     0
 40
0.0
 41
1.0
 50
0.0
 71
     0
 42
3.0
  3
monotxt
  4
extfont
  0
STYLE
  5
192
330
3
100
AcDbSymbolTableRecord
100
AcDbTextStyleTableRecord
  2
ROMANS
 70
     0
 40
0.0
 41
0.75
 50
10.0
 71
     0
 42
6.0
  3
romans.shx
  4

  0
STYLE
  5
193
330
3
100
AcDbSymbolTableRecord
100
AcDbTextStyleTableRecord
  2
DUTCH
 70
     0
 40
0.0
 41
1.0
 50
0.0
 71
     0
 42
6.0
  3
dutcheb.ttf
  4

1001
ACAD
1000
Dutch801 XBd BT
1071
       18
  0
STYLE
  5
209
330
3
100
AcDbSymbolTableRecord
100
AcDbTextStyleTableRecord
  2
ISO Proportional
 70
     0
 40
0.0
 41
1.0
 50
0.0
 71
     0
 42
2.5
  3
isocp.shx
  4

  0
STYLE
  5
3E0
330
3
100
AcDbSymbolTableRecord
100
AcDbTextStyleTableRecord
  2
BLACK
 70
     0
 40
0.4
 41
1.0
 50
0.0
 71
     0
 42
0.4
  3
ARIAL.TTF
  4

1001
ACAD
1000
Arial
1071
       34
  0
STYLE
  5
ABC
330
3
100
AcDbSymbolTableRecord
100
AcDbTextStyleTableRecord
  2
Arial Reguler
 70
     0
 40
0.0
 41
1.0
 50
0.0
 71
     0
 42
3.0
  3
ARIAL.TTF
  4

1001
ACAD
1000
Arial
1071
       34
  0
STYLE
  5
ABD
330
3
100
AcDbSymbolTableRecord
100
AcDbTextStyleTableRecord
  2
Arial
 70
     0
 40
0.0
 41
1.0
 50
0.0
 71
     0
 42
0.2
  3
ARIALBD.TTF
  4

1001
ACAD
1000
Arial
1071
 33554466
  0
ENDTAB
  0
TABLE
  2
VIEW
  5
6
330
0
100
AcDbSymbolTable
 70
     1
  0
ENDTAB
  0
TABLE
  2
UCS
  5
7
330
0
100
AcDbSymbolTable
 70
     0
  0
ENDTAB
  0
TABLE
  2
APPID
  5
9
330
0
100
AcDbSymbolTable
 70
     9
  0
APPID
  5
12
330
9
100
AcDbSymbolTableRecord
100
AcDbRegAppTableRecord
  2
ACAD
 70
     0
  0
APPID
  5
CB
330
9
100
AcDbSymbolTableRecord
100
AcDbRegAppTableRecord
  2
ACAD_EXEMPT_FROM_CAD_STANDARDS
 70
     0
  0
APPID
  5
174
330
9
100
AcDbSymbolTableRecord
100
AcDbRegAppTableRecord
  2
ACAD_PSEXT
 70
     0
  0
APPID
  5
179
330
9
100
AcDbSymbolTableRecord
100
AcDbRegAppTableRecord
  2
DCO15
 70
     0
  0
APPID
  5
ABE
330
9
100
AcDbSymbolTableRecord
100
AcDbRegAppTableRecord
  2
ACAD_DSTYLE_DIMEXT_LENGTH
 70
     0
  0
APPID
  5
ABF
330
9
100
AcDbSymbolTableRecord
100
AcDbRegAppTableRecord
  2
ACAD_DSTYLE_DIMEXT_ENABLED
 70
     0
  0
APPID
  5
AC0
330
9
100
AcDbSymbolTableRecord
100
AcDbRegAppTableRecord
  2
ACAD_DSTYLE_DIMJOGGED_JOGANGLE_SYMBOL
 70
     0
  0
APPID
  5
AC1
330
9
100
AcDbSymbolTableRecord
100
AcDbRegAppTableRecord
  2
ACAD_DSTYLE_DIMARC_LENGTH_SYMBOL
 70
     0
  0
APPID
  5
B6D
330
9
100
AcDbSymbolTableRecord
100
AcDbRegAppTableRecord
  2
AcAecLayerStandard
 70
     0
  0
ENDTAB
  0
TABLE
  2
DIMSTYLE
  5
A
330
0
100
AcDbSymbolTable
 70
     4
100
AcDbDimStyleTable
 71
     1
340
C8
  0
DIMSTYLE
105
C8
330
A
100
AcDbSymbolTableRecord
100
AcDbDimStyleTableRecord
  2
Standard
 70
     0
340
11
  0
DIMSTYLE
105
194
330
A
100
AcDbSymbolTableRecord
100
AcDbDimStyleTableRecord
  2
DIM-1
 70
     0
 40
2.0
 41
2.1
 42
0.5
 43
5.0
 44
0.5
 73
     0
 74
     0
 77
     1
140
2.799999999999998
141
0.0
147
0.5
174
     1
176
   256
177
   256
178
   256
271
     0
272
     0
340
192
  0
DIMSTYLE
105
20A
330
A
100
AcDbSymbolTableRecord
100
AcDbDimStyleTableRecord
  2
ISO-25
 70
     0
 41
2.5
 42
0.625
 43
3.75
 44
1.25
 73
     0
 74
     0
 77
     1
 78
     8
140
2.5
141
2.5
143
0.03937007874016
147
0.625
171
     3
172
     1
271
     2
272
     2
274
     3
278
    44
283
     0
284
     8
340
11
  0
DIMSTYLE
105
3E1
330
A
100
AcDbSymbolTableRecord
100
AcDbDimStyleTableRecord
  2
COPY_OF_STANDARD
 70
     0
  3
mm
  4
"
 41
3.0
 42
2.0
 43
9.5
 44
1.0
 73
     0
 74
     0
 77
     1
140
3.0
141
2.0
143
0.03937
144
6.0
170
     1
171
     3
271
     0
272
     0
273
     7
274
     3
340
11
  0
ENDTAB
  0
TABLE
  2
BLOCK_RECORD
  5
1
330
0
100
AcDbSymbolTable
 70
     4
  0
BLOCK_RECORD
  5
22
330
1
100
AcDbSymbolTableRecord
100
AcDbBlockTableRecord
  2
*Model_Space
340
25
  0
BLOCK_RECORD
  5
2EC
330
1
100
AcDbSymbolTableRecord
100
AcDbBlockTableRecord
  2
*Paper_Space
340
2ED
  0
BLOCK_RECORD
  5
2E
330
1
100
AcDbSymbolTableRecord
100
AcDbBlockTableRecord
  2
SYM1
340
0
102
{BLKREFS
331
C7
102
}
  0
BLOCK_RECORD
  5
146
330
1
100
AcDbSymbolTableRecord
100
AcDbBlockTableRecord
  2
A$C74DC1801
340
0
102
{BLKREFS
331
15E
331
1CD
102
}
  0
BLOCK_RECORD
  5
1C0
330
1
100
AcDbSymbolTableRecord
100
AcDbBlockTableRecord
  2
A$C12037C68
340
0
  0
BLOCK_RECORD
  5
20B
330
1
100
AcDbSymbolTableRecord
100
AcDbBlockTableRecord
  2
ISO A0 title block.dwg
340
0
1001
ACAD
1000
DesignCenter Data
1002
{
1070
     1
1070
     4
1002
}
  0
ENDTAB
  0
ENDSEC
  0
SECTION
  2
BLOCKS
  0
BLOCK
  5
23
330
22
100
AcDbEntity
  8
0
100
AcDbBlockBegin
  2
*Model_Space
 70
     0
 10
0.0
 20
0.0
 30
0.0
  3
*Model_Space
  1

  0
ENDBLK
  5
24
330
22
100
AcDbEntity
  8
0
100
AcDbBlockEnd
  0
BLOCK
  5
2EE
330
2EC
100
AcDbEntity
 67
     1
  8
0
 62
     1
100
AcDbBlockBegin
  2
*Paper_Space
 70
     0
 10
0.0
 20
0.0
 30
0.0
  3
*Paper_Space
  1

  0
ENDBLK
  5
2EF
330
2EC
100
AcDbEntity
 67
     1
  8
0
 62
     1
100
AcDbBlockEnd
  0
BLOCK
  5
2F
330
2E
100
AcDbEntity
  8
DRAW1
100
AcDbBlockBegin
  2
SYM1
 70
     0
 10
0.0
 20
0.0
 30
0.0
  3
SYM1
  1

  0
ENDBLK
  5
30
330
2E
100
AcDbEntity
  8
DRAW1
100
AcDbBlockEnd
  0
BLOCK
  5
147
330
146
100
AcDbEntity
  8
0
100
AcDbBlockBegin
  2
A$C74DC1801
 70
     0
 10
0.0
 20
0.0
 30
0.0
  3
A$C74DC1801
  1

  0
LWPOLYLINE
  5
148
330
146
100
AcDbEntity
  8
TOTO
100
AcDbPolyline
 90
        7
 70
     1
 43
0.0
 10
37.91232115383411
 20
23.73162294462236
 10
37.91232115383411
 20
23.73162294462236
 42
0.331883
 10
37.82668915383402
 20
6.373072944622206
 42
0.4729860000000001
 10
64.75835615383411
 20
6.365232944622333
 10
64.75835615383411
 20
6.365232944622333
 42
0.331879
 10
64.68393115383404
 20
23.72368594462227
 10
64.68393115383404
 20
23.72368594462227
 42
0.468582
  0
HATCH
  5
149
330
146
100
AcDbEntity
  8
TOTO
100
AcDbHatch
 10
0.0
 20
0.0
 30
0.0
210
0.0
220
0.0
230
1.0
  2
SOLID
 70
     1
 71
     0
 91
       10
 92
        7
 72
     1
 73
     1
 93
       20
 10
18.53316830636113
 20
25.64512690726724
 42
0.0
 10
21.08924420219011
 20
25.64512690726724
 42
-0.4142752124674323
 10
26.80593530322191
 20
19.92723241900728
 42
0.0
 10
26.80561126091433
 20
18.38770741058533
 42
0.0
 10
30.19296838640961
 20
18.38770741058533
 42
0.0
 10
30.19520892030833
 20
29.03248395772914
 42
0.0
 10
0.0002185510645631
 20
29.03248395772914
 42
0.0
 10
-0.0000019816554726
 20
18.38770741058533
 42
0.0
 10
3.386681374428674
 20
18.38770741058533
 42
0.0
 10
3.387005923266556
 20
19.92963894019908
 42
-0.4141519149660894
 10
9.103697024299107
 20
25.64512690726724
 42
0.0
 10
11.66233392741882
 20
25.64512690726724
 42
0.0
 10
11.65816177148882
 20
6.483784833212553
 42
-0.4141497897727592
 10
9.528785548528716
 20
4.354872206299546
 42
0.0
 10
5.899612067634492
 20
4.354872206299546
 42
0.0
 10
5.898874510644191
 20
0.9675151558371908
 42
0.0
 10
24.28588120613003
 20
0.9675151558371908
 42
0.0
 10
24.28661876312041
 20
4.354872206299546
 42
0.0
 10
20.65837257529541
 20
4.354872206299546
 42
-0.4142773378492039
 10
18.52899635233612
 20
6.484712126259638
 42
0.0
 97
        0
 92
        7
 72
     1
 73
     1
 93
       20
 10
90.93278059410906
 20
25.64512690726724
 42
0.0
 10
93.48885648993805
 20
25.64512690726724
 42
-0.4142752124674332
 10
99.20554759097059
 20
19.92723241900728
 42
0.0
 10
99.20522354866321
 20
18.38770741058533
 42
0.0
 10
102.5925806741584
 20
18.38770741058533
 42
0.0
 10
102.5948212080568
 20
29.03248395772914
 42
0.0
 10
72.3998308388133
 20
29.03248395772914
 42
0.0
 10
72.39961030609331
 20
18.38770741058533
 42
0.0
 10
75.78629366217744
 20
18.38770741058533
 42
0.0
 10
75.78661821101523
 20
19.92963894019908
 42
-0.414151914966089
 10
81.50330931204711
 20
25.64512690726724
 42
0.0
 10
84.0619462151678
 20
25.64512690726724
 42
0.0
 10
84.05777405923723
 20
6.483784833212553
 42
-0.41414978977276
 10
81.92839783627695
 20
4.354872206299546
 42
0.0
 10
78.29922435538242
 20
4.354872206299546
 42
0.0
 10
78.29848679839253
 20
0.9675151558371908
 42
0.0
 10
96.6854934938788
 20
0.9675151558371908
 42
0.0
 10
96.68623105086922
 20
4.354872206299546
 42
0.0
 10
93.05798486304381
 20
4.354872206299546
 42
-0.4142773378492051
 10
90.92860864008505
 20
6.484712126259638
 42
0.0
 97
        0
 92
       16
 93
        4
 72
     2
 10
51.29488215383403
 20
11.21940294462217
 40
7.832046
 50
199.1202649999999
 51
340.867675
 73
     1
 72
     2
 10
40.40886015383413
 20
14.99590494462222
 40
19.354522
 50
340.867675
 51
379.193527
 73
     1
 72
     2
 10
51.29567815383413
 20
18.78571694462243
 40
7.826925
 50
19.193527
 51
160.7944129999999
 73
     1
 72
     2
 10
62.18169815383413
 20
14.99361394462221
 40
19.354522
 50
160.7944129999999
 51
199.1202649999999
 73
     1
 97
        0
 92
        1
 93
        4
 72
     2
 10
49.50506915383403
 20
14.99494794462236
 40
14.516242
 50
142.997119
 51
216.4375859999999
 73
     1
 72
     2
 10
51.29573915383411
 20
17.41948994462222
 40
17.419491
 50
219.356321
 51
320.61032
 73
     1
 72
     2
 10
53.08549015383403
 20
14.99457094462241
 40
14.516242
 50
323.5257889999999
 51
396.965523
 73
     1
 72
     2
 10
51.29482115383414
 20
12.58050894462235
 40
17.419491
 50
39.769149
 51
140.196876
 73
     1
 97
        0
 92
        1
 93
        4
 72
     2
 10
121.9033351538341
 20
14.99494794462236
 40
14.516242
 50
142.997119
 51
216.4375859999999
 73
     1
 72
     2
 10
123.694005153834
 20
17.41948994462222
 40
17.419491
 50
219.356321
 51
320.61032
 73
     1
 72
     2
 10
125.4837561538341
 20
14.99457094462241
 40
14.516242
 50
323.5257889999999
 51
396.965523
 73
     1
 72
     2
 10
123.693087153834
 20
12.58050894462235
 40
17.419491
 50
39.769149
 51
140.196876
 73
     1
 97
        0
 92
       16
 93
        4
 72
     2
 10
123.6931481538341
 20
11.21940294462217
 40
7.832046
 50
199.1202649999999
 51
340.867675
 73
     1
 72
     2
 10
112.8071261538341
 20
14.99590494462222
 40
19.354522
 50
340.867675
 51
379.193527
 73
     1
 72
     2
 10
123.6939441538341
 20
18.78571694462243
 40
7.826925
 50
19.193527
 51
160.7944129999999
 73
     1
 72
     2
 10
134.579964153834
 20
14.99361394462221
 40
19.354522
 50
160.7944129999999
 51
199.1202649999999
 73
     1
 97
        0
 92
        0
 93
       67
 72
     1
 10
144.6053441538341
 20
27.94836994462218
 11
144.628044153834
 21
27.94805894462217
 72
     1
 10
144.628044153834
 20
27.94805894462217
 11
144.6746891538341
 21
27.94650394462223
 72
     1
 10
144.6746891538341
 20
27.94650394462223
 11
144.719779153834
 21
27.94308394462234
 72
     1
 10
144.719779153834
 20
27.94308394462234
 11
144.763935153834
 21
27.93810794462217
 72
     1
 10
144.763935153834
 20
27.93810794462217
 11
144.806537153834
 21
27.9312669446224
 72
     1
 10
144.806537153834
 20
27.9312669446224
 11
144.848207153834
 21
27.92255994462232
 72
     1
 10
144.848207153834
 20
27.92255994462232
 11
144.8886321538341
 21
27.91260894462232
 72
     1
 10
144.8886321538341
 20
27.91260894462232
 11
144.9275021538341
 21
27.90048094462235
 72
     1
 10
144.9275021538341
 20
27.90048094462235
 11
144.9654401538341
 21
27.88679894462234
 72
     1
 10
144.9654401538341
 20
27.88679894462234
 11
145.0021341538341
 21
27.87156194462227
 72
     1
 10
145.0021341538341
 20
27.87156194462227
 11
145.037584153834
 21
27.85445894462236
 72
     1
 10
145.037584153834
 20
27.85445894462236
 11
145.0717901538341
 21
27.83580094462218
 72
     1
 10
145.0717901538341
 20
27.83580094462218
 11
145.1044411538341
 21
27.81527694462238
 72
     1
 10
145.1044411538341
 20
27.81527694462238
 11
145.136159153834
 21
27.7931989446223
 72
     1
 10
145.136159153834
 20
27.7931989446223
 11
145.166634153834
 21
27.76925494462239
 72
     1
 10
145.166634153834
 20
27.76925494462239
 11
145.1921331538341
 21
27.74624294462239
 72
     1
 10
145.1921331538341
 20
27.74624294462239
 11
145.2204301538341
 21
27.7176349446222
 72
     1
 10
145.2204301538341
 20
27.7176349446222
 11
145.2462401538341
 21
27.68747094462219
 72
     1
 10
145.2462401538341
 20
27.68747094462219
 11
145.269874153834
 21
27.65606394462236
 72
     1
 10
145.269874153834
 20
27.65606394462236
 11
145.291330153834
 21
27.62310194462236
 72
     1
 10
145.291330153834
 20
27.62310194462236
 11
145.310610153834
 21
27.58889594462222
 72
     1
 10
145.310610153834
 20
27.58889594462222
 11
145.327402153834
 21
27.55313494462223
 72
     1
 10
145.327402153834
 20
27.55313494462223
 11
145.342017153834
 21
27.51581894462231
 72
     1
 10
145.342017153834
 20
27.51581894462231
 11
145.3544561538341
 21
27.47725994462234
 72
     1
 10
145.3544561538341
 20
27.47725994462234
 11
145.364407153834
 21
27.43745594462234
 72
     1
 10
145.364407153834
 20
27.43745594462234
 11
145.3724921538341
 21
27.39578694462227
 72
     1
 10
145.3724921538341
 20
27.39578694462227
 11
145.3780891538341
 21
27.35318494462218
 72
     1
 10
145.3780891538341
 20
27.35318494462218
 11
145.3815101538341
 21
27.30871694462234
 72
     1
 10
145.3815101538341
 20
27.30871694462234
 11
145.382443153834
 21
27.26300594462236
 72
     1
 10
145.382443153834
 20
27.26300594462236
 11
145.382132153834
 21
27.22973194462224
 72
     1
 10
145.382132153834
 20
27.22973194462224
 11
145.3808881538341
 21
27.18184394462218
 72
     1
 10
145.3808881538341
 20
27.18184394462218
 11
145.3780891538341
 21
27.13550994462218
 72
     1
 10
145.3780891538341
 20
27.13550994462218
 11
145.373736153834
 21
27.09073194462234
 72
     1
 10
145.373736153834
 20
27.09073194462234
 11
145.368449153834
 21
27.04719694462232
 72
     1
 10
145.368449153834
 20
27.04719694462232
 11
145.3619191538341
 21
27.00490594462223
 72
     1
 10
145.3619191538341
 20
27.00490594462223
 11
145.3538341538341
 21
26.96447994462233
 72
     1
 10
145.3538341538341
 20
26.96447994462233
 11
145.3448161538341
 21
26.92498794462233
 72
     1
 10
145.3448161538341
 20
26.92498794462233
 11
145.334243153834
 21
26.88736094462218
 72
     1
 10
145.334243153834
 20
26.88736094462218
 11
145.3224271538341
 21
26.85097794462218
 72
     1
 10
145.3224271538341
 20
26.85097794462218
 11
145.3093661538341
 21
26.81583894462232
 72
     1
 10
145.3093661538341
 20
26.81583894462232
 11
145.295062153834
 21
26.7825659446222
 72
     1
 10
145.295062153834
 20
26.7825659446222
 11
145.2795141538341
 21
26.75022594462223
 72
     1
 10
145.2795141538341
 20
26.75022594462223
 11
145.262410153834
 21
26.71975194462231
 72
     1
 10
145.262410153834
 20
26.71975194462231
 11
145.2443751538341
 21
26.69052094462232
 72
     1
 10
145.2443751538341
 20
26.69052094462232
 11
145.2247841538341
 21
26.66253394462251
 72
     1
 10
145.2247841538341
 20
26.66253394462251
 11
145.2042601538341
 21
26.63610194462239
 72
     1
 10
145.2042601538341
 20
26.63610194462239
 11
145.1821821538341
 21
26.61122494462233
 72
     1
 10
145.1821821538341
 20
26.61122494462233
 11
145.1588601538341
 21
26.58790294462221
 72
     1
 10
145.1588601538341
 20
26.58790294462221
 11
145.1342931538341
 21
26.56551394462224
 72
     1
 10
145.1342931538341
 20
26.56551394462224
 11
145.1084831538341
 21
26.54498994462233
 72
     1
 10
145.1084831538341
 20
26.54498994462233
 11
145.0811191538341
 21
26.52570994462235
 72
     1
 10
145.0811191538341
 20
26.52570994462235
 11
145.052821153834
 21
26.50798494462219
 72
     1
 10
145.052821153834
 20
26.50798494462219
 11
145.0229681538341
 21
26.4915039446223
 72
     1
 10
145.0229681538341
 20
26.4915039446223
 11
144.9921831538341
 21
26.47657794462236
 72
     1
 10
144.9921831538341
 20
26.47657794462236
 11
144.9598431538341
 21
26.46289494462223
 72
     1
 10
144.9598431538341
 20
26.46289494462223
 11
144.9262591538341
 21
26.45076794462238
 72
     1
 10
144.9262591538341
 20
26.45076794462238
 11
144.8914311538341
 21
26.44019494462236
 72
     1
 10
144.8914311538341
 20
26.44019494462236
 11
144.8553591538341
 21
26.43086594462227
 72
     1
 10
144.8553591538341
 20
26.43086594462227
 11
144.8177321538341
 21
26.42309194462234
 72
     1
 10
144.8177321538341
 20
26.42309194462234
 11
144.779173153834
 21
26.41656194462234
 72
     1
 10
144.779173153834
 20
26.41656194462234
 11
144.7390581538341
 21
26.41158594462218
 72
     1
 10
144.7390581538341
 20
26.41158594462218
 11
144.6980111538341
 21
26.40816594462228
 72
     1
 10
144.6980111538341
 20
26.40816594462228
 11
144.655409153834
 21
26.4059889446222
 72
     1
 10
144.655409153834
 20
26.4059889446222
 11
144.611563153834
 21
26.40505594462217
 72
     1
 10
144.611563153834
 20
26.40505594462217
 11
143.1005901538341
 21
26.40505594462217
 72
     1
 10
143.1005901538341
 20
26.40505594462217
 11
143.1005901538341
 21
27.94836994462218
 72
     1
 10
143.1005901538341
 20
27.94836994462218
 11
144.6053441538341
 21
27.94836994462218
 97
        0
 92
        0
 93
      207
 72
     1
 10
145.508694153834
 20
26.08818394462218
 11
145.467336153834
 21
26.11896894462233
 72
     1
 10
145.467336153834
 20
26.11896894462233
 11
145.4231791538341
 21
26.15068794462218
 72
     1
 10
145.4231791538341
 20
26.15068794462218
 11
145.3765341538341
 21
26.18302794462227
 72
     1
 10
145.3765341538341
 20
26.18302794462227
 11
145.4038991538341
 21
26.20292994462238
 72
     1
 10
145.4038991538341
 20
26.20292994462238
 11
145.4418371538341
 21
26.23184894462236
 72
     1
 10
145.4418371538341
 20
26.23184894462236
 11
145.4782191538341
 21
26.26076894462221
 72
     1
 10
145.4782191538341
 20
26.26076894462221
 11
145.5133581538341
 21
26.29031094462232
 72
     1
 10
145.5133581538341
 20
26.29031094462232
 11
145.547253153834
 21
26.32016294462232
 72
     1
 10
145.547253153834
 20
26.32016294462232
 11
145.5799051538341
 21
26.35032694462234
 72
     1
 10
145.5799051538341
 20
26.35032694462234
 11
145.611001153834
 21
26.38080094462236
 72
     1
 10
145.611001153834
 20
26.38080094462236
 11
145.640854153834
 21
26.41189694462218
 72
     1
 10
145.640854153834
 20
26.41189694462218
 11
145.6694621538341
 21
26.44330494462235
 72
     1
 10
145.6694621538341
 20
26.44330494462235
 11
145.6968271538341
 21
26.47502294462219
 72
     1
 10
145.6968271538341
 20
26.47502294462219
 11
145.722637153834
 21
26.50705194462239
 72
     1
 10
145.722637153834
 20
26.50705194462239
 11
145.7472031538341
 21
26.53970394462227
 72
     1
 10
145.7472031538341
 20
26.53970394462227
 11
145.7705251538341
 21
26.57235494462236
 72
     1
 10
145.7705251538341
 20
26.57235494462236
 11
145.7922931538341
 21
26.60562794462236
 72
     1
 10
145.7922931538341
 20
26.60562794462236
 11
145.812817153834
 21
26.63921194462227
 72
     1
 10
145.812817153834
 20
26.63921194462227
 11
145.8320961538341
 21
26.6734179446222
 72
     1
 10
145.8320961538341
 20
26.6734179446222
 11
145.850132153834
 21
26.70762394462224
 72
     1
 10
145.850132153834
 20
26.70762394462224
 11
145.8666131538341
 21
26.7424519446222
 72
     1
 10
145.8666131538341
 20
26.7424519446222
 11
145.8818511538341
 21
26.77759094462226
 72
     1
 10
145.8818511538341
 20
26.77759094462226
 11
145.8958441538341
 21
26.81304094462234
 72
     1
 10
145.8958441538341
 20
26.81304094462234
 11
145.908593153834
 21
26.84911294462233
 72
     1
 10
145.908593153834
 20
26.84911294462233
 11
145.9197881538341
 21
26.88518394462232
 72
     1
 10
145.9197881538341
 20
26.88518394462232
 11
145.9297391538341
 21
26.92187794462233
 72
     1
 10
145.9297391538341
 20
26.92187794462233
 11
145.938446153834
 21
26.95888294462235
 72
     1
 10
145.938446153834
 20
26.95888294462235
 11
145.945598153834
 21
26.99650994462218
 72
     1
 10
145.945598153834
 20
26.99650994462218
 11
145.9518171538341
 21
27.03413594462222
 72
     1
 10
145.9518171538341
 20
27.03413594462222
 11
145.9561711538341
 21
27.07238494462217
 72
     1
 10
145.9561711538341
 20
27.07238494462217
 11
145.9595911538341
 21
27.11094394462236
 72
     1
 10
145.9595911538341
 20
27.11094394462236
 11
145.9617681538341
 21
27.14981494462233
 72
     1
 10
145.9617681538341
 20
27.14981494462233
 11
145.9623901538341
 21
27.1889959446222
 72
     1
 10
145.9623901538341
 20
27.1889959446222
 11
145.962079153834
 21
27.22568994462221
 72
     1
 10
145.962079153834
 20
27.22568994462221
 11
145.960835153834
 21
27.27637694462237
 72
     1
 10
145.960835153834
 20
27.27637694462237
 11
145.958659153834
 21
27.32613094462237
 72
     1
 10
145.958659153834
 20
27.32613094462237
 11
145.9555491538341
 21
27.37433094462221
 72
     1
 10
145.9555491538341
 20
27.37433094462221
 11
145.951506153834
 21
27.42190794462227
 72
     1
 10
145.951506153834
 20
27.42190794462227
 11
145.9462201538341
 21
27.46793094462214
 72
     1
 10
145.9462201538341
 20
27.46793094462214
 11
145.9400011538341
 21
27.51333094462234
 72
     1
 10
145.9400011538341
 20
27.51333094462234
 11
145.932849153834
 21
27.55717694462237
 72
     1
 10
145.932849153834
 20
27.55717694462237
 11
145.9247641538341
 21
27.60008994462237
 72
     1
 10
145.9247641538341
 20
27.60008994462237
 11
145.9157461538341
 21
27.6417599446222
 72
     1
 10
145.9157461538341
 20
27.6417599446222
 11
145.9057951538341
 21
27.68249594462236
 72
     1
 10
145.9057951538341
 20
27.68249594462236
 11
145.8946001538341
 21
27.72198794462235
 72
     1
 10
145.8946001538341
 20
27.72198794462235
 11
145.882472153834
 21
27.7602369446222
 72
     1
 10
145.882472153834
 20
27.7602369446222
 11
145.8694121538341
 21
27.79755194462234
 72
     1
 10
145.8694121538341
 20
27.79755194462234
 11
145.8554191538341
 21
27.83393494462222
 72
     1
 10
145.8554191538341
 20
27.83393494462222
 11
145.8404921538341
 21
27.86876294462218
 72
     1
 10
145.8404921538341
 20
27.86876294462218
 11
145.8243221538341
 21
27.90265794462232
 72
     1
 10
145.8243221538341
 20
27.90265794462232
 11
145.8075301538341
 21
27.9356199446222
 72
     1
 10
145.8075301538341
 20
27.9356199446222
 11
145.789494153834
 21
27.96733894462238
 72
     1
 10
145.789494153834
 20
27.96733894462238
 11
145.7705251538341
 21
27.99781294462241
 72
     1
 10
145.7705251538341
 20
27.99781294462241
 11
145.750624153834
 21
28.02735494462218
 72
     1
 10
145.750624153834
 20
28.02735494462218
 11
145.729478153834
 21
28.05565194462235
 72
     1
 10
145.729478153834
 20
28.05565194462235
 11
145.707711153834
 21
28.08270594462237
 72
     1
 10
145.707711153834
 20
28.08270594462237
 11
145.684699153834
 21
28.10882694462236
 72
     1
 10
145.684699153834
 20
28.10882694462236
 11
145.6641761538341
 21
28.13028394462219
 72
     1
 10
145.6641761538341
 20
28.13028394462219
 11
145.639921153834
 21
28.1532949446223
 72
     1
 10
145.639921153834
 20
28.1532949446223
 11
145.614733153834
 21
28.1756849446224
 72
     1
 10
145.614733153834
 20
28.1756849446224
 11
145.5886121538341
 21
28.19714094462222
 72
     1
 10
145.5886121538341
 20
28.19714094462222
 11
145.561247153834
 21
28.21766494462235
 72
     1
 10
145.561247153834
 20
28.21766494462235
 11
145.532638153834
 21
28.23756594462236
 72
     1
 10
145.532638153834
 20
28.23756594462236
 11
145.503097153834
 21
28.25653494462221
 72
     1
 10
145.503097153834
 20
28.25653494462221
 11
145.472622153834
 21
28.27457094462238
 72
     1
 10
145.472622153834
 20
28.27457094462238
 11
145.440904153834
 21
28.29198494462231
 72
     1
 10
145.440904153834
 20
28.29198494462231
 11
145.408253153834
 21
28.30846594462218
 72
     1
 10
145.408253153834
 20
28.30846594462218
 11
145.374357153834
 21
28.32401394462237
 72
     1
 10
145.374357153834
 20
28.32401394462237
 11
145.3395301538341
 21
28.33894094462221
 72
     1
 10
145.3395301538341
 20
28.33894094462221
 11
145.3034581538341
 21
28.35262294462222
 72
     1
 10
145.3034581538341
 20
28.35262294462222
 11
145.2664531538341
 21
28.36568294462233
 72
     1
 10
145.2664531538341
 20
28.36568294462233
 11
145.2282041538341
 21
28.3781219446222
 72
     1
 10
145.2282041538341
 20
28.3781219446222
 11
145.1890231538341
 21
28.38931694462223
 72
     1
 10
145.1890231538341
 20
28.38931694462223
 11
145.148598153834
 21
28.39988894462237
 72
     1
 10
145.148598153834
 20
28.39988894462237
 11
145.107240153834
 21
28.40952894462214
 72
     1
 10
145.107240153834
 20
28.40952894462214
 11
145.064948153834
 21
28.41854694462222
 72
     1
 10
145.064948153834
 20
28.41854694462222
 11
145.0211031538341
 21
28.42632094462237
 72
     1
 10
145.0211031538341
 20
28.42632094462237
 11
144.976635153834
 21
28.43378494462217
 72
     1
 10
144.976635153834
 20
28.43378494462217
 11
144.930923153834
 21
28.44000394462227
 72
     1
 10
144.930923153834
 20
28.44000394462227
 11
144.8842781538341
 21
28.44528994462223
 72
     1
 10
144.8842781538341
 20
28.44528994462223
 11
144.8363901538341
 21
28.44995494462239
 72
     1
 10
144.8363901538341
 20
28.44995494462239
 11
144.787258153834
 21
28.45399694462241
 72
     1
 10
144.787258153834
 20
28.45399694462241
 11
144.737193153834
 21
28.45679594462217
 72
     1
 10
144.737193153834
 20
28.45679594462217
 11
144.686194153834
 21
28.45897294462236
 72
     1
 10
144.686194153834
 20
28.45897294462236
 11
144.6339521538341
 21
28.46021594462218
 72
     1
 10
144.6339521538341
 20
28.46021594462218
 11
144.580778153834
 21
28.46052694462219
 72
     1
 10
144.580778153834
 20
28.46052694462219
 11
142.5209531538341
 21
28.46052694462219
 72
     1
 10
142.5209531538341
 20
28.46052694462219
 11
142.5209531538341
 21
23.96087994462232
 72
     1
 10
142.5209531538341
 20
23.96087994462232
 11
143.1005901538341
 21
23.96087994462232
 72
     1
 10
143.1005901538341
 20
23.96087994462232
 11
143.1005901538341
 21
25.89289894462218
 72
     1
 10
143.1005901538341
 20
25.89289894462218
 11
144.611563153834
 21
25.89289894462218
 72
     1
 10
144.611563153834
 20
25.89289894462218
 11
144.6457691538341
 21
25.89227694462238
 72
     1
 10
144.6457691538341
 20
25.89227694462238
 11
144.686194153834
 21
25.8900999446222
 72
     1
 10
144.686194153834
 20
25.8900999446222
 11
144.7256871538341
 21
25.88636794462217
 72
     1
 10
144.7256871538341
 20
25.88636794462217
 11
144.7636241538341
 21
25.88108194462233
 72
     1
 10
144.7636241538341
 20
25.88108194462233
 11
144.800318153834
 21
25.87424094462233
 72
     1
 10
144.800318153834
 20
25.87424094462233
 11
144.835768153834
 21
25.86553394462237
 72
     1
 10
144.835768153834
 20
25.86553394462237
 11
144.8699741538341
 21
25.85558294462225
 72
     1
 10
144.8699741538341
 20
25.85558294462225
 11
144.9029361538341
 21
25.84376594462219
 72
     1
 10
144.9029361538341
 20
25.84376594462219
 11
144.9346551538341
 21
25.83039494462218
 72
     1
 10
144.9346551538341
 20
25.83039494462218
 11
144.9648181538341
 21
25.81515794462224
 72
     1
 10
144.9648181538341
 20
25.81515794462224
 11
144.9940491538341
 21
25.79867694462222
 72
     1
 10
144.9940491538341
 20
25.79867694462222
 11
145.021724153834
 21
25.78032994462251
 72
     1
 10
145.021724153834
 20
25.78032994462251
 11
145.0481561538341
 21
25.76073894462217
 72
     1
 10
145.0481561538341
 20
25.76073894462217
 11
145.0733441538341
 21
25.73928294462223
 72
     1
 10
145.0733441538341
 20
25.73928294462223
 11
145.097289153834
 21
25.71627094462235
 72
     1
 10
145.097289153834
 20
25.71627094462235
 11
145.119989153834
 21
25.69139394462217
 72
     1
 10
145.119989153834
 20
25.69139394462217
 11
145.1414461538341
 21
25.6652729446223
 72
     1
 10
145.1414461538341
 20
25.6652729446223
 11
145.161347153834
 21
25.63728594462236
 72
     1
 10
145.161347153834
 20
25.63728594462236
 11
145.180316153834
 21
25.60774494462236
 72
     1
 10
145.180316153834
 20
25.60774494462236
 11
145.197730153834
 21
25.57664794462232
 72
     1
 10
145.197730153834
 20
25.57664794462232
 11
145.2142111538341
 21
25.54399694462233
 72
     1
 10
145.2142111538341
 20
25.54399694462233
 11
145.2291371538341
 21
25.50979094462229
 72
     1
 10
145.2291371538341
 20
25.50979094462229
 11
145.242820153834
 21
25.47371894462219
 72
     1
 10
145.242820153834
 20
25.47371894462219
 11
145.255258153834
 21
25.43640394462227
 72
     1
 10
145.255258153834
 20
25.43640394462227
 11
145.2664531538341
 21
25.39722194462218
 72
     1
 10
145.2664531538341
 20
25.39722194462218
 11
145.2760931538341
 21
25.35648594462236
 72
     1
 10
145.2760931538341
 20
25.35648594462236
 11
145.2848001538341
 21
25.31388394462237
 72
     1
 10
145.2848001538341
 20
25.31388394462237
 11
145.2919521538341
 21
25.27003794462234
 72
     1
 10
145.2919521538341
 20
25.27003794462234
 11
145.2981711538341
 21
25.22432594462236
 72
     1
 10
145.2981711538341
 20
25.22432594462236
 11
145.3028361538341
 21
25.17737094462233
 72
     1
 10
145.3028361538341
 20
25.17737094462233
 11
145.306256153834
 21
25.12854994462213
 72
     1
 10
145.306256153834
 20
25.12854994462213
 11
145.308433153834
 21
25.07817294462233
 72
     1
 10
145.308433153834
 20
25.07817294462233
 11
145.3071891538341
 21
25.05018694462228
 72
     1
 10
145.3071891538341
 20
25.05018694462228
 11
145.3047021538341
 21
24.99701194462227
 72
     1
 10
145.3047021538341
 20
24.99701194462227
 11
145.3025251538341
 21
24.9453919446222
 72
     1
 10
145.3025251538341
 20
24.9453919446222
 11
145.300970153834
 21
24.89532694462218
 72
     1
 10
145.300970153834
 20
24.89532694462218
 11
145.300037153834
 21
24.84681594462222
 72
     1
 10
145.300037153834
 20
24.84681594462222
 11
145.2997261538341
 21
24.7998609446222
 72
     1
 10
145.2997261538341
 20
24.7998609446222
 11
145.2997261538341
 21
24.75414894462221
 72
     1
 10
145.2997261538341
 20
24.75414894462221
 11
145.300037153834
 21
24.70999194462218
 72
     1
 10
145.300037153834
 20
24.70999194462218
 11
145.301281153834
 21
24.66738994462218
 72
     1
 10
145.301281153834
 20
24.66738994462218
 11
145.3025251538341
 21
24.62634294462236
 72
     1
 10
145.3025251538341
 20
24.62634294462236
 11
145.3047021538341
 21
24.58684994462226
 72
     1
 10
145.3047021538341
 20
24.58684994462226
 11
145.3071891538341
 21
24.54860194462219
 72
     1
 10
145.3071891538341
 20
24.54860194462219
 11
145.3099881538341
 21
24.5122189446223
 72
     1
 10
145.3099881538341
 20
24.5122189446223
 11
145.3137201538341
 21
24.47707994462234
 72
     1
 10
145.3137201538341
 20
24.47707994462234
 11
145.3174511538341
 21
24.44349594462221
 72
     1
 10
145.3174511538341
 20
24.44349594462221
 11
145.3221161538341
 21
24.41115594462235
 72
     1
 10
145.3221161538341
 20
24.41115594462235
 11
145.3270911538341
 21
24.38068094462221
 72
     1
 10
145.3270911538341
 20
24.38068094462221
 11
145.3289571538341
 21
24.36886494462237
 72
     1
 10
145.3289571538341
 20
24.36886494462237
 11
145.3367311538341
 21
24.32595194462237
 72
     1
 10
145.3367311538341
 20
24.32595194462237
 11
145.3451271538341
 21
24.28366094462229
 72
     1
 10
145.3451271538341
 20
24.28366094462229
 11
145.3544561538341
 21
24.24168094462231
 72
     1
 10
145.3544561538341
 20
24.24168094462231
 11
145.364096153834
 21
24.20001094462236
 72
     1
 10
145.364096153834
 20
24.20001094462236
 11
145.3746681538341
 21
24.15896394462231
 72
     1
 10
145.3746681538341
 20
24.15896394462231
 11
145.386174153834
 21
24.11853894462217
 72
     1
 10
145.386174153834
 20
24.11853894462217
 11
145.397991153834
 21
24.07842494462227
 72
     1
 10
145.397991153834
 20
24.07842494462227
 11
145.410740153834
 21
24.03862094462238
 72
     1
 10
145.410740153834
 20
24.03862094462238
 11
145.424112153834
 21
23.99943994462228
 72
     1
 10
145.424112153834
 20
23.99943994462228
 11
145.438105153834
 21
23.96087994462232
 72
     1
 10
145.438105153834
 20
23.96087994462232
 11
146.1349751538341
 21
23.96087994462232
 72
     1
 10
146.1349751538341
 20
23.96087994462232
 11
146.1349751538341
 21
24.10889894462218
 72
     1
 10
146.1349751538341
 20
24.10889894462218
 11
146.1066771538341
 21
24.13315394462232
 72
     1
 10
146.1066771538341
 20
24.13315394462232
 11
146.076203153834
 21
24.16238494462231
 72
     1
 10
146.076203153834
 20
24.16238494462231
 11
146.0485271538341
 21
24.19316994462235
 72
     1
 10
146.0485271538341
 20
24.19316994462235
 11
146.0236501538341
 21
24.22519894462221
 72
     1
 10
146.0236501538341
 20
24.22519894462221
 11
146.0015721538341
 21
24.25909494462235
 72
     1
 10
146.0015721538341
 20
24.25909494462235
 11
145.9819811538341
 21
24.2942329446223
 72
     1
 10
145.9819811538341
 20
24.2942329446223
 11
145.9651891538341
 21
24.33061594462219
 72
     1
 10
145.9651891538341
 20
24.33061594462219
 11
145.9511951538341
 21
24.36886494462237
 72
     1
 10
145.9511951538341
 20
24.36886494462237
 11
145.939690153834
 21
24.40835694462236
 72
     1
 10
145.939690153834
 20
24.40835694462236
 11
145.9312941538341
 21
24.44909294462218
 72
     1
 10
145.9312941538341
 20
24.44909294462218
 11
145.9253851538341
 21
24.49169494462228
 72
     1
 10
145.9253851538341
 20
24.49169494462228
 11
145.9247641538341
 21
24.50071294462236
 72
     1
 10
145.9247641538341
 20
24.50071294462236
 11
145.9210321538341
 21
24.5588639446222
 72
     1
 10
145.9210321538341
 20
24.5588639446222
 11
145.9173001538341
 21
24.61545894462223
 72
     1
 10
145.9173001538341
 20
24.61545894462223
 11
145.913880153834
 21
24.67049994462218
 72
     1
 10
145.913880153834
 20
24.67049994462218
 11
145.9104591538341
 21
24.72398594462219
 72
     1
 10
145.9104591538341
 20
24.72398594462219
 11
145.9073501538341
 21
24.77622694462218
 72
     1
 10
145.9073501538341
 20
24.77622694462218
 11
145.904240153834
 21
24.82660394462232
 72
     1
 10
145.904240153834
 20
24.82660394462232
 11
145.901130153834
 21
24.8757359446223
 72
     1
 10
145.901130153834
 20
24.8757359446223
 11
145.898643153834
 21
24.92331294462235
 72
     1
 10
145.898643153834
 20
24.92331294462235
 11
145.8958441538341
 21
24.96933594462234
 72
     1
 10
145.8958441538341
 20
24.96933594462234
 11
145.8933561538341
 21
25.01380394462228
 72
     1
 10
145.8933561538341
 20
25.01380394462228
 11
145.891179153834
 21
25.0567169446224
 72
     1
 10
145.891179153834
 20
25.0567169446224
 11
145.8890031538341
 21
25.09807494462234
 72
     1
 10
145.8890031538341
 20
25.09807494462234
 11
145.887137153834
 21
25.13818894462235
 72
     1
 10
145.887137153834
 20
25.13818894462235
 11
145.8852711538341
 21
25.17643794462242
 72
     1
 10
145.8852711538341
 20
25.17643794462242
 11
145.8834051538341
 21
25.21344294462233
 72
     1
 10
145.8834051538341
 20
25.21344294462233
 11
145.882161153834
 21
25.24889294462218
 72
     1
 10
145.882161153834
 20
25.24889294462218
 11
145.8806071538341
 21
25.28278794462233
 72
     1
 10
145.8806071538341
 20
25.28278794462233
 11
145.8793631538341
 21
25.3154389446222
 72
     1
 10
145.8793631538341
 20
25.3154389446222
 11
145.8784301538341
 21
25.34622394462235
 72
     1
 10
145.8784301538341
 20
25.34622394462235
 11
145.8774971538341
 21
25.37576594462223
 72
     1
 10
145.8774971538341
 20
25.37576594462223
 11
145.876564153834
 21
25.40344194462238
 72
     1
 10
145.876564153834
 20
25.40344194462238
 11
145.8759421538341
 21
25.42987394462227
 72
     1
 10
145.8759421538341
 20
25.42987394462227
 11
145.871900153834
 21
25.47247594462237
 72
     1
 10
145.871900153834
 20
25.47247594462237
 11
145.865369153834
 21
25.52502794462236
 72
     1
 10
145.865369153834
 20
25.52502794462236
 11
145.8579061538341
 21
25.57416094462235
 72
     1
 10
145.8579061538341
 20
25.57416094462235
 11
145.8495101538341
 21
25.62018294462234
 72
     1
 10
145.8495101538341
 20
25.62018294462234
 11
145.840181153834
 21
25.66278494462233
 72
     1
 10
145.840181153834
 20
25.66278494462233
 11
145.8296091538341
 21
25.70196694462242
 72
     1
 10
145.8296091538341
 20
25.70196694462242
 11
145.818103153834
 21
25.73772794462218
 72
     1
 10
145.818103153834
 20
25.73772794462218
 11
145.8056641538341
 21
25.77006794462238
 72
     1
 10
145.8056641538341
 20
25.77006794462238
 11
145.791982153834
 21
25.79929894462236
 72
     1
 10
145.791982153834
 20
25.79929894462236
 11
145.7773671538341
 21
25.82479794462233
 72
     1
 10
145.7773671538341
 20
25.82479794462233
 11
145.7643061538341
 21
25.84469894462222
 72
     1
 10
145.7643061538341
 20
25.84469894462222
 11
145.746270153834
 21
25.86864394462236
 72
     1
 10
145.746270153834
 20
25.86864394462236
 11
145.7257471538341
 21
25.89352094462219
 72
     1
 10
145.7257471538341
 20
25.89352094462219
 11
145.702735153834
 21
25.91901994462228
 72
     1
 10
145.702735153834
 20
25.91901994462228
 11
145.6769251538341
 21
25.94545194462239
 72
     1
 10
145.6769251538341
 20
25.94545194462239
 11
145.6486281538341
 21
25.97250494462219
 72
     1
 10
145.6486281538341
 20
25.97250494462219
 11
145.617531153834
 21
26.00018094462234
 72
     1
 10
145.617531153834
 20
26.00018094462234
 11
145.5839471538341
 21
26.0287899446222
 72
     1
 10
145.5839471538341
 20
26.0287899446222
 11
145.5475641538341
 21
26.05833094462218
 72
     1
 10
145.5475641538341
 20
26.05833094462218
 11
145.508694153834
 21
26.08818394462218
 97
        0
 92
       16
 93
        1
 72
     2
 10
143.9999981538341
 20
25.99999994462223
 40
3.5
 50
0.0
 51
360.0
 73
     1
 97
        0
 92
        1
 93
        1
 72
     2
 10
143.9999981538341
 20
25.99999994462223
 40
4.0
 50
0.0
 51
360.0
 73
     1
 97
        0
 75
     0
 76
     1
 47
0.5016490000000001
 98
        2
 10
14.36045815383403
 20
14.55321394462237
 10
89.17606215383404
 20
16.05816194462227
  0
LWPOLYLINE
  5
14A
330
146
100
AcDbEntity
  8
TOTO
100
AcDbPolyline
 90
       27
 70
     0
 43
0.0
 10
11.65816215383411
 20
6.483784944622357
 10
11.66233415383402
 20
25.64512694462234
 10
9.103697153834033
 20
25.64512694462234
 42
0.414152
 10
3.387006153834121
 20
19.92963894462218
 10
3.387006153834121
 20
19.92963894462218
 10
3.386681153834118
 20
18.38770694462221
 10
-0.0000018461658726
 20
18.38770694462221
 10
0.0002181538341262
 20
29.03248394462218
 10
30.19520915383411
 20
29.03248394462218
 10
30.19296815383404
 20
18.38770694462221
 10
26.80561115383402
 20
18.38770694462221
 10
26.80593515383411
 20
19.92723194462234
 10
26.80593515383411
 20
19.92723194462234
 42
0.4142750000000003
 10
21.08924415383403
 20
25.64512694462234
 10
21.08924415383403
 20
25.64512694462234
 10
18.53316815383412
 20
25.64512694462234
 10
18.52899615383412
 20
6.484711944622175
 10
18.52899615383412
 20
6.484711944622175
 42
0.4142770000000002
 10
20.65837215383412
 20
4.354871944622344
 10
20.65837215383412
 20
4.354871944622344
 10
24.28661915383412
 20
4.354871944622344
 10
24.28588115383411
 20
0.9675149446222803
 10
5.898874153834128
 20
0.9675149446222803
 10
5.899612153834112
 20
4.354871944622344
 10
9.528785153834023
 20
4.354871944622344
 10
9.528785153834023
 20
4.354871944622344
 42
0.4142140000000003
 10
11.65816215383411
 20
6.484248944622322
  0
CIRCLE
  5
14B
330
146
100
AcDbEntity
  8
TOTO
100
AcDbCircle
 10
143.9999981538341
 20
25.99999994462223
 30
0.0
 40
3.5
  0
CIRCLE
  5
14C
330
146
100
AcDbEntity
  8
TOTO
100
AcDbCircle
 10
143.9999981538341
 20
25.99999994462223
 30
0.0
 40
4.0
  0
LWPOLYLINE
  5
14D
330
146
100
AcDbEntity
  8
TOTO
100
AcDbPolyline
 90
        6
 70
     0
 43
0.0
 10
116.2931711538341
 20
8.653999944622341
 42
0.7116310000000003
 10
131.0925851538341
 20
8.65244194462241
 42
0.168805
 10
131.0857981538341
 20
21.35889694462241
 42
0.7106690000000003
 10
116.302632153834
 20
21.36045294462235
 10
116.302632153834
 20
21.36045294462235
 42
0.168805
 10
116.2931711538341
 20
8.653999944622341
  0
LWPOLYLINE
  5
14E
330
146
100
AcDbEntity
  8
TOTO
100
AcDbPolyline
 90
        7
 70
     1
 43
0.0
 10
110.310588153834
 20
23.73162294462236
 10
110.310588153834
 20
23.73162294462236
 42
0.331883
 10
110.224955153834
 20
6.373072944622206
 42
0.4729860000000001
 10
137.156622153834
 20
6.365232944622333
 10
137.156622153834
 20
6.365232944622333
 42
0.331879
 10
137.082197153834
 20
23.72368594462227
 10
137.082197153834
 20
23.72368594462227
 42
0.468582
  0
LWPOLYLINE
  5
14F
330
146
100
AcDbEntity
  8
TOTO
100
AcDbPolyline
 90
        6
 70
     0
 43
0.0
 10
43.89490515383411
 20
8.653999944622341
 42
0.7116310000000003
 10
58.69431915383414
 20
8.65244194462241
 42
0.168805
 10
58.687532153834
 20
21.35889694462241
 42
0.7106690000000003
 10
43.90436615383413
 20
21.36045294462235
 10
43.90436615383413
 20
21.36045294462235
 42
0.168805
 10
43.89490515383411
 20
8.653999944622341
  0
LWPOLYLINE
  5
150
330
146
100
AcDbEntity
  8
TOTO
100
AcDbPolyline
 90
       27
 70
     0
 43
0.0
 10
84.05777415383402
 20
6.483784944622357
 10
84.06194615383412
 20
25.64512694462234
 10
81.50330915383412
 20
25.64512694462234
 42
0.414152
 10
75.78661815383412
 20
19.92963894462218
 10
75.78661815383412
 20
19.92963894462218
 10
75.78629415383403
 20
18.38770694462221
 10
72.39961015383411
 20
18.38770694462221
 10
72.39983115383409
 20
29.03248394462218
 10
102.5948211538341
 20
29.03248394462218
 10
102.5925811538341
 20
18.38770694462221
 10
99.20522315383406
 20
18.38770694462221
 10
99.20554715383413
 20
19.92723194462234
 10
99.20554715383413
 20
19.92723194462234
 42
0.4142750000000003
 10
93.48885615383403
 20
25.64512694462234
 10
93.48885615383403
 20
25.64512694462234
 10
90.93278015383408
 20
25.64512694462234
 10
90.92860815383414
 20
6.484711944622175
 10
90.92860815383414
 20
6.484711944622175
 42
0.4142770000000002
 10
93.05798515383413
 20
4.354871944622344
 10
93.05798515383413
 20
4.354871944622344
 10
96.68623115383406
 20
4.354871944622344
 10
96.68549315383414
 20
0.9675149446222803
 10
78.29848715383412
 20
0.9675149446222803
 10
78.29922415383411
 20
4.354871944622344
 10
81.92839815383406
 20
4.354871944622344
 10
81.92839815383406
 20
4.354871944622344
 42
0.4142140000000003
 10
84.05777415383402
 20
6.484248944622322
  0
LWPOLYLINE
  5
151
330
146
100
AcDbEntity
  8
TOTO
100
AcDbPolyline
 90
       67
 70
     1
 43
0.0
 10
144.6053441538341
 20
27.94836994462218
 10
144.628044153834
 20
27.94805894462217
 10
144.6746891538341
 20
27.94650394462223
 10
144.719779153834
 20
27.94308394462234
 10
144.763935153834
 20
27.93810794462217
 10
144.806537153834
 20
27.9312669446224
 10
144.848207153834
 20
27.92255994462232
 10
144.8886321538341
 20
27.91260894462232
 10
144.9275021538341
 20
27.90048094462235
 10
144.9654401538341
 20
27.88679894462234
 10
145.0021341538341
 20
27.87156194462227
 10
145.037584153834
 20
27.85445894462236
 10
145.0717901538341
 20
27.83580094462218
 10
145.1044411538341
 20
27.81527694462238
 10
145.136159153834
 20
27.7931989446223
 10
145.166634153834
 20
27.76925494462239
 10
145.1921331538341
 20
27.74624294462239
 10
145.2204301538341
 20
27.7176349446222
 10
145.2462401538341
 20
27.68747094462219
 10
145.269874153834
 20
27.65606394462236
 10
145.291330153834
 20
27.62310194462236
 10
145.310610153834
 20
27.58889594462222
 10
145.327402153834
 20
27.55313494462223
 10
145.342017153834
 20
27.51581894462231
 10
145.3544561538341
 20
27.47725994462234
 10
145.364407153834
 20
27.43745594462234
 10
145.3724921538341
 20
27.39578694462227
 10
145.3780891538341
 20
27.35318494462218
 10
145.3815101538341
 20
27.30871694462234
 10
145.382443153834
 20
27.26300594462236
 10
145.382132153834
 20
27.22973194462224
 10
145.3808881538341
 20
27.18184394462218
 10
145.3780891538341
 20
27.13550994462218
 10
145.373736153834
 20
27.09073194462234
 10
145.368449153834
 20
27.04719694462232
 10
145.3619191538341
 20
27.00490594462223
 10
145.3538341538341
 20
26.96447994462233
 10
145.3448161538341
 20
26.92498794462233
 10
145.334243153834
 20
26.88736094462218
 10
145.3224271538341
 20
26.85097794462218
 10
145.3093661538341
 20
26.81583894462232
 10
145.295062153834
 20
26.7825659446222
 10
145.2795141538341
 20
26.75022594462223
 10
145.262410153834
 20
26.71975194462231
 10
145.2443751538341
 20
26.69052094462232
 10
145.2247841538341
 20
26.66253394462251
 10
145.2042601538341
 20
26.63610194462239
 10
145.1821821538341
 20
26.61122494462233
 10
145.1588601538341
 20
26.58790294462221
 10
145.1342931538341
 20
26.56551394462224
 10
145.1084831538341
 20
26.54498994462233
 10
145.0811191538341
 20
26.52570994462235
 10
145.052821153834
 20
26.50798494462219
 10
145.0229681538341
 20
26.4915039446223
 10
144.9921831538341
 20
26.47657794462236
 10
144.9598431538341
 20
26.46289494462223
 10
144.9262591538341
 20
26.45076794462238
 10
144.8914311538341
 20
26.44019494462236
 10
144.8553591538341
 20
26.43086594462227
 10
144.8177321538341
 20
26.42309194462234
 10
144.779173153834
 20
26.41656194462234
 10
144.7390581538341
 20
26.41158594462218
 10
144.6980111538341
 20
26.40816594462228
 10
144.655409153834
 20
26.4059889446222
 10
144.611563153834
 20
26.40505594462217
 10
143.1005901538341
 20
26.40505594462217
 10
143.1005901538341
 20
27.94836994462218
  0
LWPOLYLINE
  5
152
330
146
100
AcDbEntity
  8
TOTO
100
AcDbPolyline
 90
      207
 70
     1
 43
0.0
 10
145.508694153834
 20
26.08818394462218
 10
145.467336153834
 20
26.11896894462233
 10
145.4231791538341
 20
26.15068794462218
 10
145.3765341538341
 20
26.18302794462227
 10
145.4038991538341
 20
26.20292994462238
 10
145.4418371538341
 20
26.23184894462236
 10
145.4782191538341
 20
26.26076894462221
 10
145.5133581538341
 20
26.29031094462232
 10
145.547253153834
 20
26.32016294462232
 10
145.5799051538341
 20
26.35032694462234
 10
145.611001153834
 20
26.38080094462236
 10
145.640854153834
 20
26.41189694462218
 10
145.6694621538341
 20
26.44330494462235
 10
145.6968271538341
 20
26.47502294462219
 10
145.722637153834
 20
26.50705194462239
 10
145.7472031538341
 20
26.53970394462227
 10
145.7705251538341
 20
26.57235494462236
 10
145.7922931538341
 20
26.60562794462236
 10
145.812817153834
 20
26.63921194462227
 10
145.8320961538341
 20
26.6734179446222
 10
145.850132153834
 20
26.70762394462224
 10
145.8666131538341
 20
26.7424519446222
 10
145.8818511538341
 20
26.77759094462226
 10
145.8958441538341
 20
26.81304094462234
 10
145.908593153834
 20
26.84911294462233
 10
145.9197881538341
 20
26.88518394462232
 10
145.9297391538341
 20
26.92187794462233
 10
145.938446153834
 20
26.95888294462235
 10
145.945598153834
 20
26.99650994462218
 10
145.9518171538341
 20
27.03413594462222
 10
145.9561711538341
 20
27.07238494462217
 10
145.9595911538341
 20
27.11094394462236
 10
145.9617681538341
 20
27.14981494462233
 10
145.9623901538341
 20
27.1889959446222
 10
145.962079153834
 20
27.22568994462221
 10
145.960835153834
 20
27.27637694462237
 10
145.958659153834
 20
27.32613094462237
 10
145.9555491538341
 20
27.37433094462221
 10
145.951506153834
 20
27.42190794462227
 10
145.9462201538341
 20
27.46793094462214
 10
145.9400011538341
 20
27.51333094462234
 10
145.932849153834
 20
27.55717694462237
 10
145.9247641538341
 20
27.60008994462237
 10
145.9157461538341
 20
27.6417599446222
 10
145.9057951538341
 20
27.68249594462236
 10
145.8946001538341
 20
27.72198794462235
 10
145.882472153834
 20
27.7602369446222
 10
145.8694121538341
 20
27.79755194462234
 10
145.8554191538341
 20
27.83393494462222
 10
145.8404921538341
 20
27.86876294462218
 10
145.8243221538341
 20
27.90265794462232
 10
145.8075301538341
 20
27.9356199446222
 10
145.789494153834
 20
27.96733894462238
 10
145.7705251538341
 20
27.99781294462241
 10
145.750624153834
 20
28.02735494462218
 10
145.729478153834
 20
28.05565194462235
 10
145.707711153834
 20
28.08270594462237
 10
145.684699153834
 20
28.10882694462236
 10
145.6641761538341
 20
28.13028394462219
 10
145.639921153834
 20
28.1532949446223
 10
145.614733153834
 20
28.1756849446224
 10
145.5886121538341
 20
28.19714094462222
 10
145.561247153834
 20
28.21766494462235
 10
145.532638153834
 20
28.23756594462236
 10
145.503097153834
 20
28.25653494462221
 10
145.472622153834
 20
28.27457094462238
 10
145.440904153834
 20
28.29198494462231
 10
145.408253153834
 20
28.30846594462218
 10
145.374357153834
 20
28.32401394462237
 10
145.3395301538341
 20
28.33894094462221
 10
145.3034581538341
 20
28.35262294462222
 10
145.2664531538341
 20
28.36568294462233
 10
145.2282041538341
 20
28.3781219446222
 10
145.1890231538341
 20
28.38931694462223
 10
145.148598153834
 20
28.39988894462237
 10
145.107240153834
 20
28.40952894462214
 10
145.064948153834
 20
28.41854694462222
 10
145.0211031538341
 20
28.42632094462237
 10
144.976635153834
 20
28.43378494462217
 10
144.930923153834
 20
28.44000394462227
 10
144.8842781538341
 20
28.44528994462223
 10
144.8363901538341
 20
28.44995494462239
 10
144.787258153834
 20
28.45399694462241
 10
144.737193153834
 20
28.45679594462217
 10
144.686194153834
 20
28.45897294462236
 10
144.6339521538341
 20
28.46021594462218
 10
144.580778153834
 20
28.46052694462219
 10
142.5209531538341
 20
28.46052694462219
 10
142.5209531538341
 20
23.96087994462232
 10
143.1005901538341
 20
23.96087994462232
 10
143.1005901538341
 20
25.89289894462218
 10
144.611563153834
 20
25.89289894462218
 10
144.6457691538341
 20
25.89227694462238
 10
144.686194153834
 20
25.8900999446222
 10
144.7256871538341
 20
25.88636794462217
 10
144.7636241538341
 20
25.88108194462233
 10
144.800318153834
 20
25.87424094462233
 10
144.835768153834
 20
25.86553394462237
 10
144.8699741538341
 20
25.85558294462225
 10
144.9029361538341
 20
25.84376594462219
 10
144.9346551538341
 20
25.83039494462218
 10
144.9648181538341
 20
25.81515794462224
 10
144.9940491538341
 20
25.79867694462222
 10
145.021724153834
 20
25.78032994462251
 10
145.0481561538341
 20
25.76073894462217
 10
145.0733441538341
 20
25.73928294462223
 10
145.097289153834
 20
25.71627094462235
 10
145.119989153834
 20
25.69139394462217
 10
145.1414461538341
 20
25.6652729446223
 10
145.161347153834
 20
25.63728594462236
 10
145.180316153834
 20
25.60774494462236
 10
145.197730153834
 20
25.57664794462232
 10
145.2142111538341
 20
25.54399694462233
 10
145.2291371538341
 20
25.50979094462229
 10
145.242820153834
 20
25.47371894462219
 10
145.255258153834
 20
25.43640394462227
 10
145.2664531538341
 20
25.39722194462218
 10
145.2760931538341
 20
25.35648594462236
 10
145.2848001538341
 20
25.31388394462237
 10
145.2919521538341
 20
25.27003794462234
 10
145.2981711538341
 20
25.22432594462236
 10
145.3028361538341
 20
25.17737094462233
 10
145.306256153834
 20
25.12854994462213
 10
145.308433153834
 20
25.07817294462233
 10
145.3071891538341
 20
25.05018694462228
 10
145.3047021538341
 20
24.99701194462227
 10
145.3025251538341
 20
24.9453919446222
 10
145.300970153834
 20
24.89532694462218
 10
145.300037153834
 20
24.84681594462222
 10
145.2997261538341
 20
24.7998609446222
 10
145.2997261538341
 20
24.75414894462221
 10
145.300037153834
 20
24.70999194462218
 10
145.301281153834
 20
24.66738994462218
 10
145.3025251538341
 20
24.62634294462236
 10
145.3047021538341
 20
24.58684994462226
 10
145.3071891538341
 20
24.54860194462219
 10
145.3099881538341
 20
24.5122189446223
 10
145.3137201538341
 20
24.47707994462234
 10
145.3174511538341
 20
24.44349594462221
 10
145.3221161538341
 20
24.41115594462235
 10
145.3270911538341
 20
24.38068094462221
 10
145.3289571538341
 20
24.36886494462237
 10
145.3367311538341
 20
24.32595194462237
 10
145.3451271538341
 20
24.28366094462229
 10
145.3544561538341
 20
24.24168094462231
 10
145.364096153834
 20
24.20001094462236
 10
145.3746681538341
 20
24.15896394462231
 10
145.386174153834
 20
24.11853894462217
 10
145.397991153834
 20
24.07842494462227
 10
145.410740153834
 20
24.03862094462238
 10
145.424112153834
 20
23.99943994462228
 10
145.438105153834
 20
23.96087994462232
 10
146.1349751538341
 20
23.96087994462232
 10
146.1349751538341
 20
24.10889894462218
 10
146.1066771538341
 20
24.13315394462232
 10
146.076203153834
 20
24.16238494462231
 10
146.0485271538341
 20
24.19316994462235
 10
146.0236501538341
 20
24.22519894462221
 10
146.0015721538341
 20
24.25909494462235
 10
145.9819811538341
 20
24.2942329446223
 10
145.9651891538341
 20
24.33061594462219
 10
145.9511951538341
 20
24.36886494462237
 10
145.939690153834
 20
24.40835694462236
 10
145.9312941538341
 20
24.44909294462218
 10
145.9253851538341
 20
24.49169494462228
 10
145.9247641538341
 20
24.50071294462236
 10
145.9210321538341
 20
24.5588639446222
 10
145.9173001538341
 20
24.61545894462223
 10
145.913880153834
 20
24.67049994462218
 10
145.9104591538341
 20
24.72398594462219
 10
145.9073501538341
 20
24.77622694462218
 10
145.904240153834
 20
24.82660394462232
 10
145.901130153834
 20
24.8757359446223
 10
145.898643153834
 20
24.92331294462235
 10
145.8958441538341
 20
24.96933594462234
 10
145.8933561538341
 20
25.01380394462228
 10
145.891179153834
 20
25.0567169446224
 10
145.8890031538341
 20
25.09807494462234
 10
145.887137153834
 20
25.13818894462235
 10
145.8852711538341
 20
25.17643794462242
 10
145.8834051538341
 20
25.21344294462233
 10
145.882161153834
 20
25.24889294462218
 10
145.8806071538341
 20
25.28278794462233
 10
145.8793631538341
 20
25.3154389446222
 10
145.8784301538341
 20
25.34622394462235
 10
145.8774971538341
 20
25.37576594462223
 10
145.876564153834
 20
25.40344194462238
 10
145.8759421538341
 20
25.42987394462227
 10
145.871900153834
 20
25.47247594462237
 10
145.865369153834
 20
25.52502794462236
 10
145.8579061538341
 20
25.57416094462235
 10
145.8495101538341
 20
25.62018294462234
 10
145.840181153834
 20
25.66278494462233
 10
145.8296091538341
 20
25.70196694462242
 10
145.818103153834
 20
25.73772794462218
 10
145.8056641538341
 20
25.77006794462238
 10
145.791982153834
 20
25.79929894462236
 10
145.7773671538341
 20
25.82479794462233
 10
145.7643061538341
 20
25.84469894462222
 10
145.746270153834
 20
25.86864394462236
 10
145.7257471538341
 20
25.89352094462219
 10
145.702735153834
 20
25.91901994462228
 10
145.6769251538341
 20
25.94545194462239
 10
145.6486281538341
 20
25.97250494462219
 10
145.617531153834
 20
26.00018094462234
 10
145.5839471538341
 20
26.0287899446222
 10
145.5475641538341
 20
26.05833094462218
  0
ENDBLK
  5
153
330
146
100
AcDbEntity
  8
0
100
AcDbBlockEnd
  0
BLOCK
  5
1D0
330
1C0
100
AcDbEntity
  8
0
 62
     1
100
AcDbBlockBegin
  2
A$C12037C68
 70
     0
 10
0.0
 20
0.0
 30
0.0
  3
A$C12037C68
  1

  0
ARC
  5
1C1
330
1C0
100
AcDbEntity
  8
PIC05
  6
Continuous
 62
     7
100
AcDbCircle
 10
453.5000001599465
 20
657.4964459034268
 30
0.0
 40
570.99429926276
100
AcDbArc
 50
241.3246261532605
 51
270.0
  0
ARC
  5
1C2
330
1C0
100
AcDbEntity
  8
PIC05
  6
Continuous
 62
     7
100
AcDbCircle
 10
203.5024961044464
 20
200.4003641222483
 30
0.0
 40
49.99950081110004
100
AcDbArc
 50
169.9938076443575
 51
241.3246261532605
  0
LINE
  5
1C3
330
1C0
100
AcDbEntity
  8
PIC05
  6
Continuous
 62
     7
100
AcDbLine
 10
201.2134474130313
 20
475.1859966543809
 30
0.0
 11
154.2635387057977
 21
209.0880079716041
 31
0.0
  0
ARC
  5
1C4
330
1C0
100
AcDbEntity
  8
PIC05
  6
Continuous
 62
     7
100
AcDbCircle
 10
250.4524048116799
 20
466.4983528050249
 30
0.0
 40
49.99950081110002
100
AcDbArc
 50
90.0
 51
169.9938076443575
  0
LINE
  5
1C5
330
1C0
100
AcDbEntity
  8
PIC05
  6
Continuous
 62
     7
100
AcDbLine
 10
453.5000001599465
 20
516.497853616125
 30
0.0
 11
250.4524048116799
 21
516.497853616125
 31
0.0
  0
LINE
  5
1C6
330
1C0
100
AcDbEntity
  8
PIC05
  6
Continuous
 62
     7
100
AcDbLine
 10
453.5000001599465
 20
516.497853616125
 30
0.0
 11
656.5475955082129
 21
516.497853616125
 31
0.0
  0
ARC
  5
1C7
330
1C0
100
AcDbEntity
  8
PIC05
  6
Continuous
 62
     7
100
AcDbCircle
 10
656.5475955082129
 20
466.4983528050249
 30
0.0
 40
49.99950081110002
100
AcDbArc
 50
10.00619235564248
 51
90.0
  0
LINE
  5
1C8
330
1C0
100
AcDbEntity
  8
PIC05
  6
Continuous
 62
     7
100
AcDbLine
 10
705.7865529068615
 20
475.1859966543809
 30
0.0
 11
752.7364616140951
 21
209.0880079716041
 31
0.0
  0
ARC
  5
1C9
330
1C0
100
AcDbEntity
  8
PIC05
  6
Continuous
 62
     7
100
AcDbCircle
 10
703.4975042154465
 20
200.4003641222483
 30
0.0
 40
49.99950081110004
100
AcDbArc
 50
298.6753738467395
 51
10.00619235564248
  0
ARC
  5
1CA
330
1C0
100
AcDbEntity
  8
PIC05
  6
Continuous
 62
     7
100
AcDbCircle
 10
453.5000001599465
 20
657.4964459034268
 30
0.0
 40
570.99429926276
100
AcDbArc
 50
270.0
 51
298.6753738467395
  0
LINE
  5
1CB
330
1C0
100
AcDbEntity
  8
0
 62
     7
100
AcDbLine
 10
453.5000001599465
 20
516.497853616125
 30
0.0
 11
453.5000001599465
 21
543.3832463450636
 31
0.0
  0
LINE
  5
1CC
330
1C0
100
AcDbEntity
  8
0
 62
     7
100
AcDbLine
 10
453.5000001599465
 20
86.5021466406668
 30
0.0
 11
453.5000001599465
 21
49.63988888100427
 31
0.0
  0
INSERT
  5
1CD
330
1C0
100
AcDbEntity
  8
TOTO
 62
     7
100
AcDbBlockReference
  2
A$C74DC1801
 10
235.8762871995477
 20
558.1264966516203
 30
0.0
  0
MTEXT
  5
1CE
330
1C0
100
AcDbEntity
  8
0
 62
     7
100
AcDbMText
 10
648.6840794762774
 20
64.35351978078862
 30
0.0
 40
5.0
 41
86.54887012155791
 71
     1
 72
     5
  1
{\fArial|b0|i0|c0|p34;\C256;Template for LT963\P0GU126\PRev: Feb.2006}
 73
     1
 44
1.0
1001
ACAD
1000
MTEXTBEGIN
1070
    73
1070
     1
1070
    44
1040
1.0
1070
    74
1070
     0
1000
MTEXTEND
  0
LWPOLYLINE
  5
1CF
330
1C0
100
AcDbEntity
  8
LINE_TEX
100
AcDbPolyline
 90
        4
 70
     1
 43
0.0
 10
0.0000001599466373
 20
603.0000001283958
 10
907.0000001599465
 20
603.0000001283958
 10
907.0000001599465
 20
0.000000128395925
 10
0.0000001599466373
 20
0.000000128395925
  0
ENDBLK
  5
1D1
330
1C0
100
AcDbEntity
  8
0
 62
     1
100
AcDbBlockEnd
  0
BLOCK
  5
2CF
330
20B
100
AcDbEntity
  8
0
 62
     1
100
AcDbBlockBegin
  2
ISO A0 title block.dwg
 70
     2
 10
0.0
 20
0.0
 30
0.0
  3
ISO A0 title block.dwg
  1

  0
LINE
  5
2F7
330
20B
100
AcDbEntity
  8
FRAME 070
100
AcDbLine
 10
1168.0
 20
820.0
 30
0.0
 11
20.0
 21
820.0
 31
0.0
  0
LINE
  5
2F8
330
20B
100
AcDbEntity
  8
FRAME 070
100
AcDbLine
 10
20.0
 20
20.0
 30
0.0
 11
1168.0
 21
20.0
 31
0.0
  0
LINE
  5
2F9
330
20B
100
AcDbEntity
  8
FRAME 070
100
AcDbLine
 10
20.0
 20
820.0
 30
0.0
 11
20.0
 21
20.0
 31
0.0
  0
TEXT
  5
2FA
330
20B
100
AcDbEntity
  8
FRAME 050
100
AcDbText
 10
15.9
 20
43.0
 30
0.0
 40
4.0
  1
P
  7
ISO Proportional
 72
     4
 11
17.5
 21
45.0
 31
0.0
100
AcDbText
  0
TEXT
  5
2FB
330
20B
100
AcDbEntity
  8
FRAME 050
100
AcDbText
 10
54.875
 20
15.5
 30
0.0
 40
4.0
  1
1
  7
ISO Proportional
 72
     4
 11
55.875
 21
17.5
 31
0.0
100
AcDbText
  0
LINE
  5
2FC
330
20B
100
AcDbEntity
  8
FRAME 050
100
AcDbLine
 10
15.0
 20
70.0
 30
0.0
 11
20.0
 21
70.0
 31
0.0
  0
TEXT
  5
2FD
330
20B
100
AcDbEntity
  8
FRAME 050
100
AcDbText
 10
15.9
 20
93.0
 30
0.0
 40
4.0
  1
O
  7
ISO Proportional
 72
     4
 11
17.5
 21
95.0
 31
0.0
100
AcDbText
  0
LINE
  5
2FE
330
20B
100
AcDbEntity
  8
FRAME 050
100
AcDbLine
 10
15.0
 20
120.0
 30
0.0
 11
20.0
 21
120.0
 31
0.0
  0
TEXT
  5
2FF
330
20B
100
AcDbEntity
  8
FRAME 050
100
AcDbText
 10
15.9
 20
143.0
 30
0.0
 40
4.0
  1
N
  7
ISO Proportional
 72
     4
 11
17.5
 21
145.0
 31
0.0
100
AcDbText
  0
LINE
  5
300
330
20B
100
AcDbEntity
  8
FRAME 050
100
AcDbLine
 10
91.75
 20
15.0
 30
0.0
 11
91.75
 21
20.0
 31
0.0
  0
TEXT
  5
301
330
20B
100
AcDbEntity
  8
FRAME 050
100
AcDbText
 10
126.1556692913386
 20
15.39960629921259
 30
0.0
 40
4.0
  1
2
  7
ISO Proportional
 72
     4
 11
127.625
 21
17.5
 31
0.0
100
AcDbText
  0
LINE
  5
302
330
20B
100
AcDbEntity
  8
FRAME 050
100
AcDbLine
 10
163.5
 20
15.0
 30
0.0
 11
163.5
 21
20.0
 31
0.0
  0
TEXT
  5
303
330
20B
100
AcDbEntity
  8
FRAME 050
100
AcDbText
 10
197.8921572875254
 20
15.58284271247461
 30
0.0
 40
4.0
  1
3
  7
ISO Proportional
 72
     4
 11
199.375
 21
17.5
 31
0.0
100
AcDbText
  0
TEXT
  5
304
330
20B
100
AcDbEntity
  8
FRAME 050
100
AcDbText
 10
15.7
 20
193.0
 30
0.0
 40
4.0
  1
M
  7
ISO Proportional
 72
     4
 11
17.5
 21
195.0
 31
0.0
100
AcDbText
  0
LINE
  5
305
330
20B
100
AcDbEntity
  8
FRAME 050
100
AcDbLine
 10
15.0
 20
170.0
 30
0.0
 11
20.0
 21
170.0
 31
0.0
  0
LINE
  5
306
330
20B
100
AcDbEntity
  8
FRAME 050
100
AcDbLine
 10
15.0
 20
220.0
 30
0.0
 11
20.0
 21
220.0
 31
0.0
  0
TEXT
  5
307
330
20B
100
AcDbEntity
  8
FRAME 050
100
AcDbText
 10
16.1
 20
243.0
 30
0.0
 40
4.0
  1
L
  7
ISO Proportional
 72
     4
 11
17.5
 21
245.0
 31
0.0
100
AcDbText
  0
LINE
  5
308
330
20B
100
AcDbEntity
  8
FRAME 050
100
AcDbLine
 10
15.0
 20
270.0
 30
0.0
 11
20.0
 21
270.0
 31
0.0
  0
TEXT
  5
309
330
20B
100
AcDbEntity
  8
FRAME 050
100
AcDbText
 10
15.89
 20
293.0
 30
0.0
 40
4.0
  1
K
  7
ISO Proportional
 72
     4
 11
17.5
 21
295.0
 31
0.0
100
AcDbText
  0
LINE
  5
30A
330
20B
100
AcDbEntity
  8
FRAME 050
100
AcDbLine
 10
15.0
 20
320.0
 30
0.0
 11
20.0
 21
320.0
 31
0.0
  0
TEXT
  5
30B
330
20B
100
AcDbEntity
  8
FRAME 050
100
AcDbText
 10
16.21715728752538
 20
343.0828427124747
 30
0.0
 40
4.0
  1
J
  7
ISO Proportional
 72
     4
 11
17.5
 21
345.0
 31
0.0
100
AcDbText
  0
LINE
  5
30C
330
20B
100
AcDbEntity
  8
FRAME 050
100
AcDbLine
 10
15.0
 20
370.0
 30
0.0
 11
20.0
 21
370.0
 31
0.0
  0
TEXT
  5
30D
330
20B
100
AcDbEntity
  8
FRAME 050
100
AcDbText
 10
16.9
 20
393.0
 30
0.0
 40
4.0
  1
I
  7
ISO Proportional
 72
     4
 11
17.5
 21
395.0
 31
0.0
100
AcDbText
  0
LINE
  5
30E
330
20B
100
AcDbEntity
  8
FRAME 050
100
AcDbLine
 10
17.5
 20
420.0
 30
0.0
 11
22.5
 21
422.4999999999999
 31
0.0
  0
LINE
  5
30F
330
20B
100
AcDbEntity
  8
FRAME 050
100
AcDbLine
 10
22.5
 20
417.4999999999999
 30
0.0
 11
17.5
 21
420.0
 31
0.0
  0
LINE
  5
310
330
20B
100
AcDbEntity
  8
FRAME 050
100
AcDbLine
 10
15.0
 20
420.0
 30
0.0
 11
25.0
 21
420.0
 31
0.0
  0
LINE
  5
311
330
20B
100
AcDbEntity
  8
FRAME 050
100
AcDbLine
 10
22.5
 20
422.4999999999999
 30
0.0
 11
22.5
 21
417.4999999999999
 31
0.0
  0
TEXT
  5
312
330
20B
100
AcDbEntity
  8
FRAME 050
100
AcDbText
 10
15.9
 20
443.0
 30
0.0
 40
4.0
  1
H
  7
ISO Proportional
 72
     4
 11
17.5
 21
445.0
 31
0.0
100
AcDbText
  0
LINE
  5
313
330
20B
100
AcDbEntity
  8
FRAME 050
100
AcDbLine
 10
15.0
 20
470.0
 30
0.0
 11
20.0
 21
470.0
 31
0.0
  0
TEXT
  5
314
330
20B
100
AcDbEntity
  8
FRAME 050
100
AcDbText
 10
16.00355339059327
 20
493.0
 30
0.0
 40
4.0
  1
G
  7
ISO Proportional
 72
     4
 11
17.5
 21
495.0
 31
0.0
100
AcDbText
  0
LINE
  5
315
330
20B
100
AcDbEntity
  8
FRAME 050
100
AcDbLine
 10
15.0
 20
520.0
 30
0.0
 11
20.0
 21
520.0
 31
0.0
  0
TEXT
  5
316
330
20B
100
AcDbEntity
  8
FRAME 050
100
AcDbText
 10
16.1
 20
543.0
 30
0.0
 40
4.0
  1
F
  7
ISO Proportional
 72
     4
 11
17.5
 21
545.0
 31
0.0
100
AcDbText
  0
LINE
  5
317
330
20B
100
AcDbEntity
  8
FRAME 050
100
AcDbLine
 10
15.0
 20
570.0
 30
0.0
 11
20.0
 21
570.0
 31
0.0
  0
TEXT
  5
318
330
20B
100
AcDbEntity
  8
FRAME 050
100
AcDbText
 10
16.1
 20
593.0
 30
0.0
 40
4.0
  1
E
  7
ISO Proportional
 72
     4
 11
17.5
 21
595.0
 31
0.0
100
AcDbText
  0
LINE
  5
319
330
20B
100
AcDbEntity
  8
FRAME 050
100
AcDbLine
 10
15.0
 20
620.0
 30
0.0
 11
20.0
 21
620.0
 31
0.0
  0
TEXT
  5
31A
330
20B
100
AcDbEntity
  8
FRAME 050
100
AcDbText
 10
15.7860912703474
 20
643.0
 30
0.0
 40
4.0
  1
D
  7
ISO Proportional
 72
     4
 11
17.5
 21
645.0
 31
0.0
100
AcDbText
  0
LINE
  5
31B
330
20B
100
AcDbEntity
  8
FRAME 050
100
AcDbLine
 10
15.0
 20
670.0
 30
0.0
 11
20.0
 21
670.0
 31
0.0
  0
TEXT
  5
31C
330
20B
100
AcDbEntity
  8
FRAME 050
100
AcDbText
 10
16.19319805153395
 20
693.0
 30
0.0
 40
4.0
  1
C
  7
ISO Proportional
 72
     4
 11
17.5
 21
695.0
 31
0.0
100
AcDbText
  0
LINE
  5
31D
330
20B
100
AcDbEntity
  8
FRAME 050
100
AcDbLine
 10
15.0
 20
720.0
 30
0.0
 11
20.0
 21
720.0
 31
0.0
  0
TEXT
  5
31E
330
20B
100
AcDbEntity
  8
FRAME 050
100
AcDbText
 10
15.9
 20
743.0
 30
0.0
 40
4.0
  1
B
  7
ISO Proportional
 72
     4
 11
17.5
 21
745.0
 31
0.0
100
AcDbText
  0
LINE
  5
31F
330
20B
100
AcDbEntity
  8
FRAME 050
100
AcDbLine
 10
15.0
 20
770.0
 30
0.0
 11
20.0
 21
770.0
 31
0.0
  0
TEXT
  5
320
330
20B
100
AcDbEntity
  8
FRAME 050
100
AcDbText
 10
15.7
 20
793.0
 30
0.0
 40
4.0
  1
A
  7
ISO Proportional
 72
     4
 11
17.5
 21
795.0
 31
0.0
100
AcDbText
  0
TEXT
  5
321
330
20B
100
AcDbEntity
  8
FRAME 050
100
AcDbText
 10
54.875
 20
820.5
 30
0.0
 40
4.0
  1
1
  7
ISO Proportional
 72
     4
 11
55.875
 21
822.4999999999999
 31
0.0
100
AcDbText
  0
LINE
  5
322
330
20B
100
AcDbEntity
  8
FRAME 050
100
AcDbLine
 10
91.75
 20
820.0
 30
0.0
 11
91.75
 21
825.0
 31
0.0
  0
TEXT
  5
323
330
20B
100
AcDbEntity
  8
FRAME 050
100
AcDbText
 10
126.1556692913386
 20
820.3996062992125
 30
0.0
 40
4.0
  1
2
  7
ISO Proportional
 72
     4
 11
127.625
 21
822.4999999999999
 31
0.0
100
AcDbText
  0
LINE
  5
324
330
20B
100
AcDbEntity
  8
FRAME 050
100
AcDbLine
 10
163.5
 20
820.0
 30
0.0
 11
163.5
 21
825.0
 31
0.0
  0
TEXT
  5
325
330
20B
100
AcDbEntity
  8
FRAME 050
100
AcDbText
 10
197.8921572875254
 20
820.5828427124746
 30
0.0
 40
4.0
  1
3
  7
ISO Proportional
 72
     4
 11
199.375
 21
822.4999999999999
 31
0.0
100
AcDbText
  0
LINE
  5
326
330
20B
100
AcDbEntity
  8
FRAME 070
100
AcDbLine
 10
1168.0
 20
20.0
 30
0.0
 11
1168.0
 21
820.0
 31
0.0
  0
LINE
  5
327
330
20B
100
AcDbEntity
  8
FRAME 050
100
AcDbLine
 10
235.25
 20
15.0
 30
0.0
 11
235.25
 21
20.0
 31
0.0
  0
TEXT
  5
328
330
20B
100
AcDbEntity
  8
FRAME 050
100
AcDbText
 10
269.525
 20
15.5
 30
0.0
 40
4.0
  1
4
  7
ISO Proportional
 72
     4
 11
271.125
 21
17.5
 31
0.0
100
AcDbText
  0
LINE
  5
329
330
20B
100
AcDbEntity
  8
FRAME 050
100
AcDbLine
 10
307.0
 20
15.0
 30
0.0
 11
307.0
 21
20.0
 31
0.0
  0
TEXT
  5
32A
330
20B
100
AcDbEntity
  8
FRAME 050
100
AcDbText
 10
341.3921572875254
 20
15.58284271247462
 30
0.0
 40
4.0
  1
5
  7
ISO Proportional
 72
     4
 11
342.875
 21
17.5
 31
0.0
100
AcDbText
  0
LINE
  5
32B
330
20B
100
AcDbEntity
  8
FRAME 050
100
AcDbLine
 10
378.75
 20
15.0
 30
0.0
 11
378.75
 21
20.0
 31
0.0
  0
TEXT
  5
32C
330
20B
100
AcDbEntity
  8
FRAME 050
100
AcDbText
 10
413.2454724409448
 20
15.41023622047244
 30
0.0
 40
4.0
  1
6
  7
ISO Proportional
 72
     4
 11
414.625
 21
17.5
 31
0.0
100
AcDbText
  0
LINE
  5
32D
330
20B
100
AcDbEntity
  8
FRAME 050
100
AcDbLine
 10
450.4999999999999
 20
15.0
 30
0.0
 11
450.4999999999999
 21
20.0
 31
0.0
  0
LINE
  5
32E
330
20B
100
AcDbEntity
  8
FRAME 050
100
AcDbLine
 10
544.0
 20
15.0
 30
0.0
 11
644.0
 21
15.0
 31
0.0
  0
TEXT
  5
32F
330
20B
100
AcDbEntity
  8
FRAME 050
100
AcDbText
 10
484.975
 20
15.5
 30
0.0
 40
4.0
  1
7
  7
ISO Proportional
 72
     4
 11
486.375
 21
17.5
 31
0.0
100
AcDbText
  0
LINE
  5
330
330
20B
100
AcDbEntity
  8
FRAME 050
100
AcDbLine
 10
522.25
 20
15.0
 30
0.0
 11
522.25
 21
20.0
 31
0.0
  0
LINE
  5
331
330
20B
100
AcDbEntity
  8
FRAME 050
100
AcDbLine
 10
544.0
 20
15.0
 30
0.0
 11
544.0
 21
20.0
 31
0.0
  0
LINE
  5
332
330
20B
100
AcDbEntity
  8
FRAME 050
100
AcDbLine
 10
554.0
 20
15.0
 30
0.0
 11
554.0
 21
20.0
 31
0.0
  0
LINE
  5
333
330
20B
100
AcDbEntity
  8
FRAME 050
100
AcDbLine
 10
564.0
 20
15.0
 30
0.0
 11
564.0
 21
20.0
 31
0.0
  0
LINE
  5
334
330
20B
100
AcDbEntity
  8
FRAME 050
100
AcDbLine
 10
574.0
 20
15.0
 30
0.0
 11
574.0
 21
20.0
 31
0.0
  0
LINE
  5
335
330
20B
100
AcDbEntity
  8
FRAME 050
100
AcDbLine
 10
584.0
 20
15.0
 30
0.0
 11
584.0
 21
20.0
 31
0.0
  0
LINE
  5
336
330
20B
100
AcDbEntity
  8
FRAME 050
100
AcDbLine
 10
596.4999999999999
 20
22.5
 30
0.0
 11
594.0
 21
17.5
 31
0.0
  0
LINE
  5
337
330
20B
100
AcDbEntity
  8
FRAME 050
100
AcDbLine
 10
594.0
 20
17.5
 30
0.0
 11
591.5
 21
22.5
 31
0.0
  0
LINE
  5
338
330
20B
100
AcDbEntity
  8
FRAME 050
100
AcDbLine
 10
594.0
 20
20.0
 30
0.0
 11
594.0
 21
25.0
 31
0.0
  0
LINE
  5
339
330
20B
100
AcDbEntity
  8
FRAME 050
100
AcDbLine
 10
594.0
 20
20.0
 30
0.0
 11
594.0
 21
15.0
 31
0.0
  0
LINE
  5
33A
330
20B
100
AcDbEntity
  8
FRAME 050
100
AcDbLine
 10
591.5
 20
22.5
 30
0.0
 11
596.4999999999999
 21
22.5
 31
0.0
  0
LINE
  5
33B
330
20B
100
AcDbEntity
  8
FRAME 050
100
AcDbLine
 10
604.0
 20
15.0
 30
0.0
 11
604.0
 21
20.0
 31
0.0
  0
LINE
  5
33C
330
20B
100
AcDbEntity
  8
FRAME 050
100
AcDbLine
 10
614.0
 20
15.0
 30
0.0
 11
614.0
 21
20.0
 31
0.0
  0
LINE
  5
33D
330
20B
100
AcDbEntity
  8
FRAME 050
100
AcDbLine
 10
624.0
 20
15.0
 30
0.0
 11
624.0
 21
20.0
 31
0.0
  0
LINE
  5
33E
330
20B
100
AcDbEntity
  8
FRAME 050
100
AcDbLine
 10
634.0
 20
15.0
 30
0.0
 11
634.0
 21
20.0
 31
0.0
  0
LINE
  5
33F
330
20B
100
AcDbEntity
  8
FRAME 050
100
AcDbLine
 10
644.0
 20
15.0
 30
0.0
 11
644.0
 21
20.0
 31
0.0
  0
LINE
  5
340
330
20B
100
AcDbEntity
  8
FRAME 050
100
AcDbLine
 10
665.7499999999999
 20
15.0
 30
0.0
 11
665.7499999999999
 21
20.0
 31
0.0
  0
TEXT
  5
341
330
20B
100
AcDbEntity
  8
FRAME 050
100
AcDbText
 10
699.2234251968503
 20
15.5
 30
0.0
 40
4.0
  1
10
  7
ISO Proportional
 72
     4
 11
701.625
 21
17.5
 31
0.0
100
AcDbText
  0
LINE
  5
342
330
20B
100
AcDbEntity
  8
FRAME 050
100
AcDbLine
 10
737.5
 20
15.0
 30
0.0
 11
737.5
 21
20.0
 31
0.0
  0
TEXT
  5
343
330
20B
100
AcDbEntity
  8
FRAME 050
100
AcDbText
 10
771.375
 20
15.5
 30
0.0
 40
4.0
  1
11
  7
ISO Proportional
 72
     4
 11
773.375
 21
17.5
 31
0.0
100
AcDbText
  0
LINE
  5
344
330
20B
100
AcDbEntity
  8
FRAME 050
100
AcDbLine
 10
809.2499999999999
 20
15.0
 30
0.0
 11
809.2499999999999
 21
20.0
 31
0.0
  0
TEXT
  5
345
330
20B
100
AcDbEntity
  8
FRAME 050
100
AcDbText
 10
842.6048818897637
 20
15.39960629921259
 30
0.0
 40
4.0
  1
12
  7
ISO Proportional
 72
     4
 11
845.1249999999999
 21
17.5
 31
0.0
100
AcDbText
  0
LINE
  5
346
330
20B
100
AcDbEntity
  8
FRAME 050
100
AcDbLine
 10
881.0
 20
15.0
 30
0.0
 11
881.0
 21
20.0
 31
0.0
  0
TEXT
  5
347
330
20B
100
AcDbEntity
  8
FRAME 050
100
AcDbText
 10
914.3921572875253
 20
15.58284271247461
 30
0.0
 40
4.0
  1
13
  7
ISO Proportional
 72
     4
 11
916.8750000000001
 21
17.5
 31
0.0
100
AcDbText
  0
LINE
  5
348
330
20B
100
AcDbEntity
  8
FRAME 050
100
AcDbLine
 10
952.7499999999999
 20
15.0
 30
0.0
 11
952.7499999999999
 21
20.0
 31
0.0
  0
TEXT
  5
349
330
20B
100
AcDbEntity
  8
FRAME 050
100
AcDbText
 10
986.025
 20
15.5
 30
0.0
 40
4.0
  1
14
  7
ISO Proportional
 72
     4
 11
988.625
 21
17.5
 31
0.0
100
AcDbText
  0
TEXT
  5
34A
330
20B
100
AcDbEntity
  8
FRAME 025
100
AcDbText
 10
1120.0
 20
51.75
 30
0.0
 40
2.5
  1
Article No./Reference
  7
ISO Proportional
 11
1120.0
 21
53.0
 31
0.0
100
AcDbText
 73
     2
  0
LINE
  5
34B
330
20B
100
AcDbEntity
  8
FRAME 070
100
AcDbLine
 10
998.0
 20
56.0
 30
0.0
 11
1168.0
 21
56.0
 31
0.0
  0
LINE
  5
34C
330
20B
100
AcDbEntity
  8
FRAME 070
100
AcDbLine
 10
998.0
 20
50.0
 30
0.0
 11
1168.0
 21
50.0
 31
0.0
  0
LINE
  5
34D
330
20B
100
AcDbEntity
  8
FRAME 070
100
AcDbLine
 10
998.0
 20
40.0
 30
0.0
 11
1168.0
 21
40.0
 31
0.0
  0
LINE
  5
34E
330
20B
100
AcDbEntity
  8
FRAME 070
100
AcDbLine
 10
1073.0
 20
30.0
 30
0.0
 11
1168.0
 21
30.0
 31
0.0
  0
LINE
  5
34F
330
20B
100
AcDbEntity
  8
FRAME 070
100
AcDbLine
 10
1118.0
 20
50.0
 30
0.0
 11
1118.0
 21
56.0
 31
0.0
  0
LINE
  5
350
330
20B
100
AcDbEntity
  8
FRAME 070
100
AcDbLine
 10
1030.0
 20
50.0
 30
0.0
 11
1030.0
 21
56.0
 31
0.0
  0
LINE
  5
351
330
20B
100
AcDbEntity
  8
FRAME 070
100
AcDbLine
 10
998.0
 20
50.0
 30
0.0
 11
998.0
 21
56.0
 31
0.0
  0
LINE
  5
352
330
20B
100
AcDbEntity
  8
FRAME 070
100
AcDbLine
 10
1013.0
 20
50.0
 30
0.0
 11
1013.0
 21
56.0
 31
0.0
  0
ATTDEF
  5
353
330
20B
100
AcDbEntity
  8
FRAME 025
100
AcDbText
 10
1057.0
 20
41.74999999999999
 30
0.0
 40
2.5
  1

  7
ISO Proportional
 11
1057.0
 21
43.0
 31
0.0
100
AcDbAttributeDefinition
  3
Approved by - Date
  2
APPROVED_BY_DATE
 70
     8
 74
     2
  0
TEXT
  5
354
330
20B
100
AcDbEntity
  8
FRAME 025
100
AcDbText
 10
1032.0
 20
51.75
 30
0.0
 40
2.5
  1
Title/Name, designation, material, dimension etc
  7
ISO Proportional
 11
1032.0
 21
53.0
 31
0.0
100
AcDbText
 73
     2
  0
TEXT
  5
355
330
20B
100
AcDbEntity
  8
FRAME 025
100
AcDbText
 10
1057.0
 20
45.75
 30
0.0
 40
2.5
  1
Approved by - date
  7
ISO Proportional
 11
1057.0
 21
47.0
 31
0.0
100
AcDbText
 73
     2
  0
ATTDEF
  5
356
330
20B
100
AcDbEntity
  8
FRAME 050
100
AcDbText
 10
1035.5
 20
30.0
 30
0.0
 40
5.0
  1

  7
ISO Proportional
 72
     4
 11
1035.5
 21
30.0
 31
0.0
100
AcDbAttributeDefinition
  3
Owner
  2
OWNER
 70
     8
  0
LINE
  5
357
330
20B
100
AcDbEntity
  8
FRAME 070
100
AcDbLine
 10
998.0
 20
20.0
 30
0.0
 11
998.0
 21
50.0
 31
0.0
  0
LINE
  5
358
330
20B
100
AcDbEntity
  8
FRAME 050
100
AcDbLine
 10
1024.5
 20
15.0
 30
0.0
 11
1024.5
 21
20.0
 31
0.0
  0
ATTDEF
  5
359
330
20B
100
AcDbEntity
  8
FRAME 025
100
AcDbText
 10
1000.0
 20
41.74999999999999
 30
0.0
 40
2.5
  1

  7
ISO Proportional
 11
1000.0
 21
43.0
 31
0.0
100
AcDbAttributeDefinition
  3
Designed by
  2
DESIGNED_BY
 70
     8
 74
     2
  0
TEXT
  5
35A
330
20B
100
AcDbEntity
  8
FRAME 025
100
AcDbText
 10
1000.0
 20
45.75
 30
0.0
 40
2.5
  1
Designed by
  7
ISO Proportional
 11
1000.0
 21
47.0
 31
0.0
100
AcDbText
 73
     2
  0
TEXT
  5
35B
330
20B
100
AcDbEntity
  8
FRAME 025
100
AcDbText
 10
1000.0
 20
51.75
 30
0.0
 40
2.5
  1
Itemref
  7
ISO Proportional
 11
1000.0
 21
53.0
 31
0.0
100
AcDbText
 73
     2
  0
LINE
  5
35C
330
20B
100
AcDbEntity
  8
FRAME 070
100
AcDbLine
 10
1030.0
 20
40.0
 30
0.0
 11
1030.0
 21
50.0
 31
0.0
  0
TEXT
  5
35D
330
20B
100
AcDbEntity
  8
FRAME 025
100
AcDbText
 10
1015.0
 20
51.75
 30
0.0
 40
2.5
  1
Quantity
  7
ISO Proportional
 11
1015.0
 21
53.0
 31
0.0
100
AcDbText
 73
     2
  0
TEXT
  5
35E
330
20B
100
AcDbEntity
  8
FRAME 050
100
AcDbText
 10
1057.892157287525
 20
15.58284271247462
 30
0.0
 40
4.0
  1
15
  7
ISO Proportional
 72
     4
 11
1060.375
 21
17.5
 31
0.0
100
AcDbText
  0
ATTDEF
  5
35F
330
20B
100
AcDbEntity
  8
FRAME 025
100
AcDbText
 10
1032.0
 20
41.74999999999999
 30
0.0
 40
2.5
  1

  7
ISO Proportional
 11
1032.0
 21
43.0
 31
0.0
100
AcDbAttributeDefinition
  3
Checked by
  2
CHECKED_BY
 70
     8
 74
     2
  0
TEXT
  5
360
330
20B
100
AcDbEntity
  8
FRAME 025
100
AcDbText
 10
1032.0
 20
45.75
 30
0.0
 40
2.5
  1
Checked by
  7
ISO Proportional
 11
1032.0
 21
47.0
 31
0.0
100
AcDbText
 73
     2
  0
LINE
  5
361
330
20B
100
AcDbEntity
  8
FRAME 070
100
AcDbLine
 10
1055.0
 20
40.0
 30
0.0
 11
1055.0
 21
50.0
 31
0.0
  0
ATTDEF
  5
362
330
20B
100
AcDbEntity
  8
FRAME 025
100
AcDbText
 10
1095.0
 20
41.74999999999999
 30
0.0
 40
2.5
  1

  7
ISO Proportional
 11
1095.0
 21
43.0
 31
0.0
100
AcDbAttributeDefinition
  3
File name
  2
FILENAME
 70
     8
 74
     2
  0
ATTDEF
  5
363
330
20B
100
AcDbEntity
  8
FRAME 050
100
AcDbText
 10
1103.0
 20
25.0
 30
0.0
 40
3.0
  1

  7
ISO Proportional
 72
     4
 11
1103.0
 21
25.0
 31
0.0
100
AcDbAttributeDefinition
  3
Drawing number
  2
DRAWING_NUMBER
 70
     8
  0
TEXT
  5
364
330
20B
100
AcDbEntity
  8
FRAME 025
100
AcDbText
 10
1095.0
 20
45.75
 30
0.0
 40
2.5
  1
Filename
  7
ISO Proportional
 11
1095.0
 21
47.0
 31
0.0
100
AcDbText
 73
     2
  0
LINE
  5
365
330
20B
100
AcDbEntity
  8
FRAME 070
100
AcDbLine
 10
1073.0
 20
20.0
 30
0.0
 11
1073.0
 21
40.0
 31
0.0
  0
LINE
  5
366
330
20B
100
AcDbEntity
  8
FRAME 070
100
AcDbLine
 10
1093.0
 20
40.0
 30
0.0
 11
1093.0
 21
50.0
 31
0.0
  0
LINE
  5
367
330
20B
100
AcDbEntity
  8
FRAME 050
100
AcDbLine
 10
1096.25
 20
15.0
 30
0.0
 11
1096.25
 21
20.0
 31
0.0
  0
ATTDEF
  5
368
330
20B
100
AcDbEntity
  8
FRAME 025
100
AcDbText
 10
1120.0
 20
41.74999999999999
 30
0.0
 40
2.5
  1

  7
ISO Proportional
 11
1120.0
 21
43.0
 31
0.0
100
AcDbAttributeDefinition
  3
Date
  2
DATE
 70
     8
 74
     2
  0
LINE
  5
369
330
20B
100
AcDbEntity
  8
FRAME 070
100
AcDbLine
 10
1118.0
 20
40.0
 30
0.0
 11
1118.0
 21
50.0
 31
0.0
  0
ATTDEF
  5
36A
330
20B
100
AcDbEntity
  8
FRAME 050
100
AcDbText
 10
1120.5
 20
35.0
 30
0.0
 40
5.0
  1

  7
ISO Proportional
 72
     4
 11
1120.5
 21
35.0
 31
0.0
100
AcDbAttributeDefinition
  3
Title / Name
  2
TITLE
 70
     8
  0
TEXT
  5
36B
330
20B
100
AcDbEntity
  8
FRAME 025
100
AcDbText
 10
1120.0
 20
45.75
 30
0.0
 40
2.5
  1
Date
  7
ISO Proportional
 11
1120.0
 21
47.0
 31
0.0
100
AcDbText
 73
     2
  0
ATTDEF
  5
36C
330
20B
100
AcDbEntity
  8
FRAME 025
100
AcDbText
 10
1135.0
 20
21.75
 30
0.0
 40
2.5
  1

  7
ISO Proportional
 11
1135.0
 21
23.0
 31
0.0
100
AcDbAttributeDefinition
  3
Edition
  2
EDITION
 70
     8
 74
     2
  0
LINE
  5
36D
330
20B
100
AcDbEntity
  8
FRAME 070
100
AcDbLine
 10
1133.0
 20
20.0
 30
0.0
 11
1133.0
 21
30.0
 31
0.0
  0
TEXT
  5
36E
330
20B
100
AcDbEntity
  8
FRAME 050
100
AcDbText
 10
1129.625787401575
 20
15.41023622047244
 30
0.0
 40
4.0
  1
16
  7
ISO Proportional
 72
     4
 11
1132.125
 21
17.5
 31
0.0
100
AcDbText
  0
TEXT
  5
36F
330
20B
100
AcDbEntity
  8
FRAME 025
100
AcDbText
 10
1135.0
 20
25.75
 30
0.0
 40
2.5
  1
Edition
  7
ISO Proportional
 11
1135.0
 21
27.0
 31
0.0
100
AcDbText
 73
     2
  0
LINE
  5
370
330
20B
100
AcDbEntity
  8
FRAME 070
100
AcDbLine
 10
1148.0
 20
20.0
 30
0.0
 11
1148.0
 21
30.0
 31
0.0
  0
ATTDEF
  5
371
330
20B
100
AcDbEntity
  8
FRAME 025
100
AcDbText
 10
1150.0
 20
21.75
 30
0.0
 40
2.5
  1
1/?
  7
ISO Proportional
 11
1150.0
 21
23.0
 31
0.0
100
AcDbAttributeDefinition
  3
Sheet
  2
SHEET
 70
     8
 74
     2
  0
TEXT
  5
372
330
20B
100
AcDbEntity
  8
FRAME 025
100
AcDbText
 10
1150.0
 20
25.75
 30
0.0
 40
2.5
  1
Sheet
  7
ISO Proportional
 11
1150.0
 21
27.0
 31
0.0
100
AcDbText
 73
     2
  0
ATTDEF
  5
373
330
20B
100
AcDbEntity
  8
FRAME 025
100
AcDbText
 10
1150.0
 20
41.74999999999999
 30
0.0
 40
2.5
  1

  7
ISO Proportional
 11
1150.0
 21
43.0
 31
0.0
100
AcDbAttributeDefinition
  3
Scale
  2
SCALE
 70
     8
 74
     2
  0
LINE
  5
374
330
20B
100
AcDbEntity
  8
FRAME 070
100
AcDbLine
 10
1148.0
 20
40.0
 30
0.0
 11
1148.0
 21
50.0
 31
0.0
  0
TEXT
  5
375
330
20B
100
AcDbEntity
  8
FRAME 025
100
AcDbText
 10
1150.0
 20
45.75
 30
0.0
 40
2.5
  1
Scale
  7
ISO Proportional
 11
1150.0
 21
47.0
 31
0.0
100
AcDbText
 73
     2
  0
TEXT
  5
376
330
20B
100
AcDbEntity
  8
FRAME 050
100
AcDbText
 10
1168.9
 20
43.0
 30
0.0
 40
4.0
  1
P
  7
ISO Proportional
 72
     4
 11
1170.5
 21
45.0
 31
0.0
100
AcDbText
  0
LINE
  5
377
330
20B
100
AcDbEntity
  8
FRAME 050
100
AcDbLine
 10
1168.0
 20
70.0
 30
0.0
 11
1173.0
 21
70.0
 31
0.0
  0
TEXT
  5
378
330
20B
100
AcDbEntity
  8
FRAME 050
100
AcDbText
 10
1168.9
 20
93.0
 30
0.0
 40
4.0
  1
O
  7
ISO Proportional
 72
     4
 11
1170.5
 21
95.0
 31
0.0
100
AcDbText
  0
LINE
  5
379
330
20B
100
AcDbEntity
  8
FRAME 050
100
AcDbLine
 10
1168.0
 20
120.0
 30
0.0
 11
1173.0
 21
120.0
 31
0.0
  0
TEXT
  5
37A
330
20B
100
AcDbEntity
  8
FRAME 050
100
AcDbText
 10
1168.9
 20
143.0
 30
0.0
 40
4.0
  1
N
  7
ISO Proportional
 72
     4
 11
1170.5
 21
145.0
 31
0.0
100
AcDbText
  0
LINE
  5
37B
330
20B
100
AcDbEntity
  8
FRAME 050
100
AcDbLine
 10
235.25
 20
820.0
 30
0.0
 11
235.25
 21
825.0
 31
0.0
  0
TEXT
  5
37C
330
20B
100
AcDbEntity
  8
FRAME 050
100
AcDbText
 10
269.525
 20
820.5
 30
0.0
 40
4.0
  1
4
  7
ISO Proportional
 72
     4
 11
271.125
 21
822.4999999999999
 31
0.0
100
AcDbText
  0
LINE
  5
37D
330
20B
100
AcDbEntity
  8
FRAME 050
100
AcDbLine
 10
307.0
 20
820.0
 30
0.0
 11
307.0
 21
825.0
 31
0.0
  0
TEXT
  5
37E
330
20B
100
AcDbEntity
  8
FRAME 050
100
AcDbText
 10
341.3921572875254
 20
820.5828427124746
 30
0.0
 40
4.0
  1
5
  7
ISO Proportional
 72
     4
 11
342.875
 21
822.4999999999999
 31
0.0
100
AcDbText
  0
LINE
  5
37F
330
20B
100
AcDbEntity
  8
FRAME 050
100
AcDbLine
 10
378.75
 20
820.0
 30
0.0
 11
378.75
 21
825.0
 31
0.0
  0
TEXT
  5
380
330
20B
100
AcDbEntity
  8
FRAME 050
100
AcDbText
 10
413.2454724409448
 20
820.4102362204725
 30
0.0
 40
4.0
  1
6
  7
ISO Proportional
 72
     4
 11
414.625
 21
822.4999999999999
 31
0.0
100
AcDbText
  0
LINE
  5
381
330
20B
100
AcDbEntity
  8
FRAME 050
100
AcDbLine
 10
450.4999999999999
 20
820.0
 30
0.0
 11
450.4999999999999
 21
825.0
 31
0.0
  0
TEXT
  5
382
330
20B
100
AcDbEntity
  8
FRAME 050
100
AcDbText
 10
484.975
 20
820.5
 30
0.0
 40
4.0
  1
7
  7
ISO Proportional
 72
     4
 11
486.375
 21
822.4999999999999
 31
0.0
100
AcDbText
  0
LINE
  5
383
330
20B
100
AcDbEntity
  8
FRAME 050
100
AcDbLine
 10
522.25
 20
820.0
 30
0.0
 11
522.25
 21
825.0
 31
0.0
  0
TEXT
  5
384
330
20B
100
AcDbEntity
  8
FRAME 050
100
AcDbText
 10
556.725
 20
820.5
 30
0.0
 40
4.0
  1
8
  7
ISO Proportional
 72
     4
 11
558.1249999999999
 21
822.4999999999999
 31
0.0
100
AcDbText
  0
LINE
  5
385
330
20B
100
AcDbEntity
  8
FRAME 050
100
AcDbLine
 10
594.0
 20
815.0
 30
0.0
 11
594.0
 21
825.0
 31
0.0
  0
TEXT
  5
386
330
20B
100
AcDbEntity
  8
FRAME 050
100
AcDbText
 10
628.4076670934825
 20
820.5961825830808
 30
0.0
 40
4.0
  1
9
  7
ISO Proportional
 72
     4
 11
629.875
 21
822.4999999999999
 31
0.0
100
AcDbText
  0
LINE
  5
387
330
20B
100
AcDbEntity
  8
FRAME 050
100
AcDbLine
 10
665.7499999999999
 20
820.0
 30
0.0
 11
665.7499999999999
 21
825.0
 31
0.0
  0
TEXT
  5
388
330
20B
100
AcDbEntity
  8
FRAME 050
100
AcDbText
 10
699.2234251968503
 20
820.5
 30
0.0
 40
4.0
  1
10
  7
ISO Proportional
 72
     4
 11
701.625
 21
822.4999999999999
 31
0.0
100
AcDbText
  0
TEXT
  5
389
330
20B
100
AcDbEntity
  8
FRAME 050
100
AcDbText
 10
1168.7
 20
193.0
 30
0.0
 40
4.0
  1
M
  7
ISO Proportional
 72
     4
 11
1170.5
 21
195.0
 31
0.0
100
AcDbText
  0
LINE
  5
38A
330
20B
100
AcDbEntity
  8
FRAME 050
100
AcDbLine
 10
1168.0
 20
170.0
 30
0.0
 11
1173.0
 21
170.0
 31
0.0
  0
LINE
  5
38B
330
20B
100
AcDbEntity
  8
FRAME 050
100
AcDbLine
 10
1168.0
 20
220.0
 30
0.0
 11
1173.0
 21
220.0
 31
0.0
  0
TEXT
  5
38C
330
20B
100
AcDbEntity
  8
FRAME 050
100
AcDbText
 10
1169.1
 20
243.0
 30
0.0
 40
4.0
  1
L
  7
ISO Proportional
 72
     4
 11
1170.5
 21
245.0
 31
0.0
100
AcDbText
  0
LINE
  5
38D
330
20B
100
AcDbEntity
  8
FRAME 050
100
AcDbLine
 10
1168.0
 20
270.0
 30
0.0
 11
1173.0
 21
270.0
 31
0.0
  0
TEXT
  5
38E
330
20B
100
AcDbEntity
  8
FRAME 050
100
AcDbText
 10
1168.89
 20
293.0
 30
0.0
 40
4.0
  1
K
  7
ISO Proportional
 72
     4
 11
1170.5
 21
295.0
 31
0.0
100
AcDbText
  0
LINE
  5
38F
330
20B
100
AcDbEntity
  8
FRAME 050
100
AcDbLine
 10
1168.0
 20
320.0
 30
0.0
 11
1173.0
 21
320.0
 31
0.0
  0
TEXT
  5
390
330
20B
100
AcDbEntity
  8
FRAME 050
100
AcDbText
 10
1169.217157287525
 20
343.0828427124747
 30
0.0
 40
4.0
  1
J
  7
ISO Proportional
 72
     4
 11
1170.5
 21
345.0
 31
0.0
100
AcDbText
  0
LINE
  5
391
330
20B
100
AcDbEntity
  8
FRAME 050
100
AcDbLine
 10
1168.0
 20
370.0
 30
0.0
 11
1173.0
 21
370.0
 31
0.0
  0
TEXT
  5
392
330
20B
100
AcDbEntity
  8
FRAME 050
100
AcDbText
 10
1169.9
 20
393.0
 30
0.0
 40
4.0
  1
I
  7
ISO Proportional
 72
     4
 11
1170.5
 21
395.0
 31
0.0
100
AcDbText
  0
LINE
  5
393
330
20B
100
AcDbEntity
  8
FRAME 050
100
AcDbLine
 10
1163.0
 20
420.0
 30
0.0
 11
1173.0
 21
420.0
 31
0.0
  0
TEXT
  5
394
330
20B
100
AcDbEntity
  8
FRAME 050
100
AcDbText
 10
1168.9
 20
443.0
 30
0.0
 40
4.0
  1
H
  7
ISO Proportional
 72
     4
 11
1170.5
 21
445.0
 31
0.0
100
AcDbText
  0
LINE
  5
395
330
20B
100
AcDbEntity
  8
FRAME 050
100
AcDbLine
 10
1168.0
 20
470.0
 30
0.0
 11
1173.0
 21
470.0
 31
0.0
  0
TEXT
  5
396
330
20B
100
AcDbEntity
  8
FRAME 050
100
AcDbText
 10
1169.003553390593
 20
493.0
 30
0.0
 40
4.0
  1
G
  7
ISO Proportional
 72
     4
 11
1170.5
 21
495.0
 31
0.0
100
AcDbText
  0
LINE
  5
397
330
20B
100
AcDbEntity
  8
FRAME 050
100
AcDbLine
 10
737.5
 20
820.0
 30
0.0
 11
737.5
 21
825.0
 31
0.0
  0
TEXT
  5
398
330
20B
100
AcDbEntity
  8
FRAME 050
100
AcDbText
 10
771.375
 20
820.5
 30
0.0
 40
4.0
  1
11
  7
ISO Proportional
 72
     4
 11
773.375
 21
822.4999999999999
 31
0.0
100
AcDbText
  0
LINE
  5
399
330
20B
100
AcDbEntity
  8
FRAME 050
100
AcDbLine
 10
809.2499999999999
 20
820.0
 30
0.0
 11
809.2499999999999
 21
825.0
 31
0.0
  0
TEXT
  5
39A
330
20B
100
AcDbEntity
  8
FRAME 050
100
AcDbText
 10
842.6048818897637
 20
820.3996062992125
 30
0.0
 40
4.0
  1
12
  7
ISO Proportional
 72
     4
 11
845.1249999999999
 21
822.4999999999999
 31
0.0
100
AcDbText
  0
LINE
  5
39B
330
20B
100
AcDbEntity
  8
FRAME 050
100
AcDbLine
 10
881.0
 20
820.0
 30
0.0
 11
881.0
 21
825.0
 31
0.0
  0
TEXT
  5
39C
330
20B
100
AcDbEntity
  8
FRAME 050
100
AcDbText
 10
914.3921572875253
 20
820.5828427124746
 30
0.0
 40
4.0
  1
13
  7
ISO Proportional
 72
     4
 11
916.8750000000001
 21
822.4999999999999
 31
0.0
100
AcDbText
  0
LINE
  5
39D
330
20B
100
AcDbEntity
  8
FRAME 050
100
AcDbLine
 10
952.7499999999999
 20
820.0
 30
0.0
 11
952.7499999999999
 21
825.0
 31
0.0
  0
TEXT
  5
39E
330
20B
100
AcDbEntity
  8
FRAME 050
100
AcDbText
 10
986.025
 20
820.5
 30
0.0
 40
4.0
  1
14
  7
ISO Proportional
 72
     4
 11
988.625
 21
822.4999999999999
 31
0.0
100
AcDbText
  0
LINE
  5
39F
330
20B
100
AcDbEntity
  8
FRAME 050
100
AcDbLine
 10
1168.0
 20
520.0
 30
0.0
 11
1173.0
 21
520.0
 31
0.0
  0
TEXT
  5
3A0
330
20B
100
AcDbEntity
  8
FRAME 050
100
AcDbText
 10
1169.1
 20
543.0
 30
0.0
 40
4.0
  1
F
  7
ISO Proportional
 72
     4
 11
1170.5
 21
545.0
 31
0.0
100
AcDbText
  0
LINE
  5
3A1
330
20B
100
AcDbEntity
  8
FRAME 050
100
AcDbLine
 10
1168.0
 20
570.0
 30
0.0
 11
1173.0
 21
570.0
 31
0.0
  0
TEXT
  5
3A2
330
20B
100
AcDbEntity
  8
FRAME 050
100
AcDbText
 10
1169.1
 20
593.0
 30
0.0
 40
4.0
  1
E
  7
ISO Proportional
 72
     4
 11
1170.5
 21
595.0
 31
0.0
100
AcDbText
  0
LINE
  5
3A3
330
20B
100
AcDbEntity
  8
FRAME 050
100
AcDbLine
 10
1168.0
 20
620.0
 30
0.0
 11
1173.0
 21
620.0
 31
0.0
  0
TEXT
  5
3A4
330
20B
100
AcDbEntity
  8
FRAME 050
100
AcDbText
 10
1168.786091270347
 20
643.0
 30
0.0
 40
4.0
  1
D
  7
ISO Proportional
 72
     4
 11
1170.5
 21
645.0
 31
0.0
100
AcDbText
  0
LINE
  5
3A5
330
20B
100
AcDbEntity
  8
FRAME 050
100
AcDbLine
 10
1168.0
 20
670.0
 30
0.0
 11
1173.0
 21
670.0
 31
0.0
  0
TEXT
  5
3A6
330
20B
100
AcDbEntity
  8
FRAME 050
100
AcDbText
 10
1169.193198051534
 20
693.0
 30
0.0
 40
4.0
  1
C
  7
ISO Proportional
 72
     4
 11
1170.5
 21
695.0
 31
0.0
100
AcDbText
  0
LINE
  5
3A7
330
20B
100
AcDbEntity
  8
FRAME 070
100
AcDbLine
 10
998.0
 20
814.0
 30
0.0
 11
1168.0
 21
814.0
 31
0.0
  0
TEXT
  5
3A8
330
20B
100
AcDbEntity
  8
FRAME 025
100
AcDbText
 10
1012.0
 20
815.75
 30
0.0
 40
2.5
  1
Revision note
  7
ISO Proportional
 11
1012.0
 21
817.0
 31
0.0
100
AcDbText
 73
     2
  0
LINE
  5
3A9
330
20B
100
AcDbEntity
  8
FRAME 050
100
AcDbLine
 10
1024.5
 20
820.0
 30
0.0
 11
1024.5
 21
825.0
 31
0.0
  0
TEXT
  5
3AA
330
20B
100
AcDbEntity
  8
FRAME 025
100
AcDbText
 10
1000.0
 20
815.75
 30
0.0
 40
2.5
  1
RevNo
  7
ISO Proportional
 11
1000.0
 21
817.0
 31
0.0
100
AcDbText
 73
     2
  0
LINE
  5
3AB
330
20B
100
AcDbEntity
  8
FRAME 070
100
AcDbLine
 10
998.0
 20
814.0
 30
0.0
 11
998.0
 21
820.0
 31
0.0
  0
LINE
  5
3AC
330
20B
100
AcDbEntity
  8
FRAME 070
100
AcDbLine
 10
1010.0
 20
814.0
 30
0.0
 11
1010.0
 21
820.0
 31
0.0
  0
TEXT
  5
3AD
330
20B
100
AcDbEntity
  8
FRAME 050
100
AcDbText
 10
1057.892157287525
 20
820.5828427124746
 30
0.0
 40
4.0
  1
15
  7
ISO Proportional
 72
     4
 11
1060.375
 21
822.4999999999999
 31
0.0
100
AcDbText
  0
LINE
  5
3AE
330
20B
100
AcDbEntity
  8
FRAME 050
100
AcDbLine
 10
1096.25
 20
820.0
 30
0.0
 11
1096.25
 21
825.0
 31
0.0
  0
LINE
  5
3AF
330
20B
100
AcDbEntity
  8
FRAME 070
100
AcDbLine
 10
1119.0
 20
814.0
 30
0.0
 11
1119.0
 21
820.0
 31
0.0
  0
TEXT
  5
3B0
330
20B
100
AcDbEntity
  8
FRAME 025
100
AcDbText
 10
1121.0
 20
815.75
 30
0.0
 40
2.5
  1
Date
  7
ISO Proportional
 11
1121.0
 21
817.0
 31
0.0
100
AcDbText
 73
     2
  0
LINE
  5
3B1
330
20B
100
AcDbEntity
  8
FRAME 050
100
AcDbLine
 10
1168.0
 20
720.0
 30
0.0
 11
1173.0
 21
720.0
 31
0.0
  0
TEXT
  5
3B2
330
20B
100
AcDbEntity
  8
FRAME 050
100
AcDbText
 10
1168.9
 20
743.0
 30
0.0
 40
4.0
  1
B
  7
ISO Proportional
 72
     4
 11
1170.5
 21
745.0
 31
0.0
100
AcDbText
  0
LINE
  5
3B3
330
20B
100
AcDbEntity
  8
FRAME 050
100
AcDbLine
 10
1168.0
 20
770.0
 30
0.0
 11
1173.0
 21
770.0
 31
0.0
  0
TEXT
  5
3B4
330
20B
100
AcDbEntity
  8
FRAME 050
100
AcDbText
 10
1168.7
 20
793.0
 30
0.0
 40
4.0
  1
A
  7
ISO Proportional
 72
     4
 11
1170.5
 21
795.0
 31
0.0
100
AcDbText
  0
TEXT
  5
3B5
330
20B
100
AcDbEntity
  8
FRAME 025
100
AcDbText
 10
1155.082993918505
 20
815.75
 30
0.0
 40
2.5
  1
Checked
  7
ISO Proportional
 11
1155.082993918505
 21
817.0
 31
0.0
100
AcDbText
 73
     2
  0
TEXT
  5
3B6
330
20B
100
AcDbEntity
  8
FRAME 050
100
AcDbText
 10
1129.625787401575
 20
820.4102362204725
 30
0.0
 40
4.0
  1
16
  7
ISO Proportional
 72
     4
 11
1132.125
 21
822.4999999999999
 31
0.0
100
AcDbText
  0
TEXT
  5
3B7
330
20B
100
AcDbEntity
  8
FRAME 025
100
AcDbText
 10
1139.360997972835
 20
815.75
 30
0.0
 40
2.5
  1
Signature
  7
ISO Proportional
 11
1139.360997972835
 21
817.0
 31
0.0
100
AcDbText
 73
     2
  0
LINE
  5
3B8
330
20B
100
AcDbEntity
  8
FRAME 070
100
AcDbLine
 10
1139.0
 20
814.0
 30
0.0
 11
1139.0
 21
820.0
 31
0.0
  0
LINE
  5
3B9
330
20B
100
AcDbEntity
  8
FRAME 070
100
AcDbLine
 10
1154.0
 20
814.0
 30
0.0
 11
1154.0
 21
820.0
 31
0.0
  0
ENDBLK
  5
2D0
330
20B
100
AcDbEntity
  8
0
 62
     1
100
AcDbBlockEnd
  0
ENDSEC
  0
SECTION
  2
ENTITIES
  0
ARC
  5
80
330
22
100
AcDbEntity
  8
PIC05
  6
Continuous
 62
     7
100
AcDbCircle
 10
558.2088760387736
 20
280.103664803577
 30
0.0
 40
22.48004556197486
100
AcDbArc
 50
241.3246261532951
 51
270.0
  0
ARC
  5
81
330
22
100
AcDbEntity
  8
PIC05
  6
Continuous
 62
     7
100
AcDbCircle
 10
548.3664743041085
 20
262.107792063852
 30
0.0
 40
1.968480346933008
100
AcDbArc
 50
169.993807644365
 51
241.3246261532951
  0
LINE
  5
82
330
22
100
AcDbEntity
  8
PIC05
  6
Continuous
 62
     7
100
AcDbLine
 10
548.2763544571276
 20
272.9261024166421
 30
0.0
 11
546.4279365513237
 21
262.4498246022012
 31
0.0
  0
ARC
  5
83
330
22
100
AcDbEntity
  8
PIC05
  6
Continuous
 62
     7
100
AcDbCircle
 10
550.2148922099123
 20
272.584069878293
 30
0.0
 40
1.968480346933007
100
AcDbArc
 50
90.0
 51
169.993807644365
  0
LINE
  5
84
330
22
100
AcDbEntity
  8
PIC05
  6
Continuous
 62
     7
100
AcDbLine
 10
558.2088760387736
 20
274.5525502252259
 30
0.0
 11
550.2148922099123
 21
274.5525502252259
 31
0.0
  0
LINE
  5
A9
330
22
100
AcDbEntity
  8
PIC05
  6
Continuous
 62
     7
100
AcDbLine
 10
558.2088760387736
 20
274.5525502252259
 30
0.0
 11
566.2028598676348
 21
274.5525502252259
 31
0.0
  0
ARC
  5
AA
330
22
100
AcDbEntity
  8
PIC05
  6
Continuous
 62
     7
100
AcDbCircle
 10
566.2028598676348
 20
272.584069878293
 30
0.0
 40
1.968480346933007
100
AcDbArc
 50
10.00619235563494
 51
90.0
  0
LINE
  5
AB
330
22
100
AcDbEntity
  8
PIC05
  6
Continuous
 62
     7
100
AcDbLine
 10
568.1413976204196
 20
272.9261024166421
 30
0.0
 11
569.9898155262234
 21
262.4498246022012
 31
0.0
  0
ARC
  5
AC
330
22
100
AcDbEntity
  8
PIC05
  6
Continuous
 62
     7
100
AcDbCircle
 10
568.0512777734386
 20
262.107792063852
 30
0.0
 40
1.968480346933008
100
AcDbArc
 50
298.6753738467049
 51
10.00619235563494
  0
ARC
  5
AD
330
22
100
AcDbEntity
  8
PIC05
  6
Continuous
 62
     7
100
AcDbCircle
 10
558.2088760387736
 20
280.103664803577
 30
0.0
 40
22.48004556197486
100
AcDbArc
 50
270.0
 51
298.6753738467049
  0
INSERT
  5
C7
330
22
100
AcDbEntity
  8
DRAW1
  6
Continuous
 62
     3
100
AcDbBlockReference
  2
SYM1
 10
0.0
 20
0.0
 30
0.0
  0
LINE
  5
D1
330
22
100
AcDbEntity
  8
0
 62
     7
100
AcDbLine
 10
558.2088760387736
 20
274.5525502252259
 30
0.0
 11
558.2088760387736
 21
275.6110281369643
 31
0.0
  0
LINE
  5
D2
330
22
100
AcDbEntity
  8
0
 62
     7
100
AcDbLine
 10
558.2088760387736
 20
257.6236192416022
 30
0.0
 11
558.2088760387736
 21
256.1723521536042
 31
0.0
  0
INSERT
  5
15E
330
22
100
AcDbEntity
  8
TOTO
 62
     7
100
AcDbBlockReference
  2
A$C74DC1801
 10
542.4831396036636
 20
276.0733599015334
 30
0.0
 41
0.0393699999999626
 42
0.039369999999991
 43
0.03937
  0
MTEXT
  5
15F
330
22
100
AcDbEntity
  8
0
 62
     7
100
AcDbMText
 10
565.8202643807327
 20
256.7345199680572
 30
0.0
 40
0.19685
 41
3.407429016685735
 71
     1
 72
     5
  1
{\fArial|b0|i0|c0|p34;\C256;Template for LT963\P0GU126\PRev: Feb.2006}
 73
     1
 44
1.0
1001
ACAD
1000
MTEXTBEGIN
1070
    73
1070
     1
1070
    44
1040
1.0
1070
    74
1070
     0
1000
MTEXTEND
  0
LWPOLYLINE
  5
19D
330
22
100
AcDbEntity
  8
LINE_TEX
100
AcDbPolyline
 90
        4
 70
     1
 43
0.0
 10
540.6301710387736
 20
277.840029733414
 10
576.0631710387736
 20
277.840029733414
 10
576.0631710387736
 20
254.218029733414
 10
540.6301710387736
 20
254.218029733414
  0
CIRCLE
  5
8F7
330
22
100
AcDbEntity
  8
PIC21
  6
Continuous
 62
     7
100
AcDbCircle
 10
558.2088761925113
 20
267.6628847588032
 30
0.0
 40
1.259840020311345
  0
CIRCLE
  5
8F8
330
22
100
AcDbEntity
  8
PIC21
  6
Continuous
 62
     7
100
AcDbCircle
 10
558.2088761925113
 20
267.6628847588032
 30
0.0
 40
0.8661400139640496
  0
LINE
  5
8FD
330
22
100
AcDbEntity
  8
PIC21
  6
PHANTOM
 62
     7
100
AcDbLine
 10
547.3006784062335
 20
275.5368848857491
 30
0.0
 11
569.1170739787891
 21
275.5368848857491
 31
0.0
  0
ARC
  5
8FE
330
22
100
AcDbEntity
  8
PIC21
  6
PHANTOM
 62
     7
100
AcDbCircle
 10
570.4135763892775
 20
261.9003389998932
 30
0.0
 40
1.574800025389208
100
AcDbArc
 50
303.6123745985344
 51
8.252513759006827
  0
ARC
  5
900
330
22
100
AcDbEntity
  8
PIC21
  6
PHANTOM
 62
     7
100
AcDbCircle
 10
416.1227581598549
 20
239.5223234292541
 30
0.0
 40
157.4800025389182
100
AcDbArc
 50
8.252513759006827
 51
13.10638342876869
  0
ARC
  5
901
330
22
100
AcDbEntity
  8
PIC21
  6
PHANTOM
 62
     7
100
AcDbCircle
 10
700.2949942251677
 20
239.5223234292541
 30
0.0
 40
157.4800025389182
100
AcDbArc
 50
166.8936165712313
 51
171.7474862409932
  0
ARC
  5
91B
330
22
100
AcDbEntity
  8
PIC21
  6
PHANTOM
 62
     7
100
AcDbCircle
 10
569.1170739787891
 20
275.1431848794018
 30
0.0
 40
0.3937000063472954
100
AcDbArc
 50
13.10638342876869
 51
90.0
  0
ARC
  5
91C
330
22
100
AcDbEntity
  8
PIC21
  6
PHANTOM
 62
     7
100
AcDbCircle
 10
546.0041759957452
 20
261.9003389998933
 30
0.0
 40
1.574800025389181
100
AcDbArc
 50
171.7474862409932
 51
236.3876254014653
  0
ARC
  5
91D
330
22
100
AcDbEntity
  8
PIC21
  6
PHANTOM
 62
     7
100
AcDbCircle
 10
547.3006784062335
 20
275.1431848794018
 30
0.0
 40
0.3937000063472954
100
AcDbArc
 50
90.0
 51
166.8936165712313
  0
ARC
  5
98F
330
22
100
AcDbEntity
  8
PIC21
  6
PHANTOM
 62
     7
100
AcDbCircle
 10
558.2088761925113
 20
280.2612849619167
 30
0.0
 40
23.62200038083769
100
AcDbArc
 50
236.3876254014653
 51
303.6123731069551
  0
LINE
  5
AB7
330
22
100
AcDbEntity
  8
0
 62
     7
100
AcDbLine
 10
556.2088761925114
 20
267.6628847588032
 30
0.0
 11
560.2088761925114
 21
267.6628847588032
 31
0.0
  0
LINE
  5
AB8
330
22
100
AcDbEntity
  8
0
 62
     7
100
AcDbLine
 10
558.2088761925113
 20
265.6628847588032
 30
0.0
 11
558.2088761925113
 21
269.6628847588032
 31
0.0
  0
LEADER
  5
ACD
330
22
100
AcDbEntity
  8
1
  6
Continuous
100
AcDbLeader
  3
DIM-1
 40
0.511811014
 41
1.766029213142856
 76
     3
 10
570.4179070844186
 20
271.033562979681
 30
0.0
 10
566.3141605516242
 20
272.7238373554339
 30
0.0
 10
565.6387675885268
 20
272.7238373554339
 30
0.0
213
0.0
223
0.059055117
233
0.0
1001
ACAD
1000
DSTYLE
1002
{
1070
    41
1040
0.25
1002
}
  0
MTEXT
  5
ACE
330
22
100
AcDbEntity
  8
0
 62
     7
100
AcDbMText
 10
565.5623510296196
 20
272.5779125488493
 30
0.0
 40
0.19685039
 41
5.218993890951871
 71
     6
 72
     5
  1
RIM OF LAVATORY\PBORDE DEL LAVABO\PBORD DU LAVABO
  7
Arial Reguler
 73
     1
 44
1.0
1001
ACAD
1000
MTEXTBEGIN
1070
    73
1070
     1
1070
    44
1040
1.0
1070
    74
1070
     0
1000
MTEXTEND
  0
MTEXT
  5
ACF
330
22
100
AcDbEntity
  8
0
 62
     7
100
AcDbMText
 10
559.6551228655945
 20
260.4219527770432
 30
0.0
 40
0.19685039
 41
5.431524892030432
 71
     6
 72
     5
  1
CUT ALONG THIS LINE\PCORTE A LO LARGO DE ESTA LINEA\PDECOUPER AU LONG DE CETTE LIGNE
  7
Arial Reguler
 73
     1
 44
1.0
1001
ACAD
1000
MTEXTBEGIN
1070
    73
1070
     1
1070
    44
1040
1.0
1070
    74
1070
     0
1000
MTEXTEND
1000
ACAD_MTEXT_DEFINED_HEIGHT_BEGIN
1070
    46
1040
1.895578545603916
1000
ACAD_MTEXT_DEFINED_HEIGHT_END
  0
LEADER
  5
AD0
330
22
100
AcDbEntity
  8
1
  6
Continuous
100
AcDbLeader
  3
DIM-1
 40
0.511811014
 41
1.766029213142856
 76
     3
 10
563.7757522425696
 20
258.3238039729823
 30
0.0
 10
560.5510648154042
 20
260.1782380513583
 30
0.0
 10
559.8756718523064
 20
260.1782380513583
 30
0.0
213
0.0
223
0.059055117
233
0.0
1001
ACAD
1000
DSTYLE
1002
{
1070
    41
1040
0.25
1002
}
  0
VIEWPORT
  5
2F4
102
{ACAD_XDICTIONARY
360
BBE
102
}
330
2EC
100
AcDbEntity
 67
     1
  8
0
 62
     1
100
AcDbViewport
 10
24.39257396587453
 20
19.78812009498203
 30
0.0
 40
5.488582445903082
 41
3.892060822487877
 68
     1
 69
     1
 12
24.39257396587453
 22
19.78812009498203
 13
0.0
 23
0.0
 14
0.0
 24
0.0
 15
0.0
 25
0.0
 16
0.0
 26
0.0
 36
1.0
 17
0.0
 27
0.0
 37
0.0
 42
50.0
 43
0.0
 44
0.0
 45
3.892060822487877
 50
0.0
 51
0.0
 72
   100
 90
    32800
  1

281
     0
 71
     1
 74
     0
110
0.0
120
0.0
130
0.0
111
1.0
121
0.0
131
0.0
112
0.0
122
1.0
132
0.0
 79
     0
146
0.0
  0
VIEWPORT
  5
AF7
102
{ACAD_XDICTIONARY
360
BC0
102
}
330
2EC
100
AcDbEntity
 67
     1
  8
defpoints
100
AcDbViewport
 10
17.99203707442871
 20
12.48347035668294
 30
0.0
 40
35.43299999999999
 41
23.03305928663411
 68
     2
 69
     2
 12
558.3466710359353
 22
266.2309787346836
 13
0.0
 23
0.0
 14
0.0
 24
0.0
 15
0.0
 25
0.0
 16
0.0
 26
0.0
 36
1.0
 17
0.0
 27
0.0
 37
0.0
 42
50.0
 43
0.0
 44
0.0
 45
23.03305930151751
 50
0.0
 51
0.0
 72
   100
 90
    32800
  1

281
     0
 71
     1
 74
     0
110
0.0
120
0.0
130
0.0
111
1.0
121
0.0
131
0.0
112
0.0
122
1.0
132
0.0
 79
     0
146
0.0
  0
ENDSEC
  0
SECTION
  2
OBJECTS
  0
DICTIONARY
  5
C
330
0
100
AcDbDictionary
281
     1
  3
ACAD_COLOR
350
1B
  3
ACAD_GROUP
350
D
  3
ACAD_LAYOUT
350
19
  3
ACAD_MATERIAL
350
1A
  3
ACAD_MLINESTYLE
350
16
  3
ACAD_PLOTSETTINGS
350
18
  3
ACAD_PLOTSTYLENAME
350
E
  3
ACAD_TABLESTYLE
350
1C
  3
ACAD_VISUALSTYLE
350
B97
  3
AcDbVariableDictionary
350
161
  3
ASE_INDEX_DICTIONARY
350
B90
  3
DWGPROPS
350
BB8
  0
DICTIONARY
  5
155
330
2
100
AcDbDictionary
280
     1
281
     1
  3
ACAD_LAYERFILTERS
360
B6F
  3
ACAD_LAYERSTATES
360
156
  3
ACLYDICTIONARY
360
B6E
  0
DICTIONARY
  5
BBE
330
2F4
100
AcDbDictionary
280
     1
281
     1
  3
ACAD_XREC_ROUNDTRIP
360
BBF
  0
DICTIONARY
  5
BC0
330
AF7
100
AcDbDictionary
280
     1
281
     1
  3
ACAD_XREC_ROUNDTRIP
360
BC1
  0
DICTIONARY
  5
1B
102
{ACAD_REACTORS
330
C
102
}
330
C
100
AcDbDictionary
281
     1
  0
DICTIONARY
  5
D
102
{ACAD_REACTORS
330
C
102
}
330
C
100
AcDbDictionary
281
     1
  0
DICTIONARY
  5
19
102
{ACAD_REACTORS
330
C
102
}
330
C
100
AcDbDictionary
281
     1
  3
AO
350
2ED
  3
Model
350
25
  0
DICTIONARY
  5
1A
102
{ACAD_REACTORS
330
C
102
}
330
C
100
AcDbDictionary
281
     1
  3
ByBlock
350
B95
  3
ByLayer
350
B94
  3
Global
350
B96
  0
DICTIONARY
  5
16
102
{ACAD_REACTORS
330
C
102
}
330
C
100
AcDbDictionary
281
     1
  3
Standard
350
17
  0
DICTIONARY
  5
18
102
{ACAD_REACTORS
330
C
102
}
330
C
100
AcDbDictionary
281
     1
  0
ACDBDICTIONARYWDFLT
  5
E
102
{ACAD_REACTORS
330
C
102
}
330
C
100
AcDbDictionary
281
     1
  3
Normal
350
F
100
AcDbDictionaryWithDefault
340
F
  0
DICTIONARY
  5
1C
102
{ACAD_REACTORS
330
C
102
}
330
C
100
AcDbDictionary
281
     1
  3
Standard
350
1D
  0
DICTIONARY
  5
B97
102
{ACAD_REACTORS
330
C
102
}
330
C
100
AcDbDictionary
281
     1
  3
2dWireframe
350
B9D
  3
3D Hidden
350
B9F
  3
3dWireframe
350
B9E
  3
Basic
350
B9C
  3
Brighten
350
BA3
  3
ColorChange
350
BA7
  3
Conceptual
350
BA0
  3
Dim
350
BA2
  3
Facepattern
350
BA6
  3
Flat
350
B98
  3
FlatWithEdges
350
B99
  3
Gouraud
350
B9A
  3
GouraudWithEdges
350
B9B
  3
Linepattern
350
BA5
  3
Realistic
350
BA1
  3
Thicken
350
BA4
  0
DICTIONARY
  5
161
102
{ACAD_REACTORS
330
C
102
}
330
C
100
AcDbDictionary
281
     1
  3
CTABLESTYLE
350
162
  3
DIMASSOC
350
169
  3
INDEXCTL
350
BB7
  3
PROJECTNAME
350
16A
  3
SORTENTS
350
BB6
  0
DICTIONARY
  5
B90
102
{ACAD_REACTORS
330
C
102
}
330
C
100
AcDbDictionary
281
     1
  3
ASEBlockHierarchyIndexRecord
350
B91
1001
DCO15
1040
1651549139.812
  0
XRECORD
  5
BB8
102
{ACAD_REACTORS
330
C
102
}
330
C
100
AcDbXrecord
280
     1
  1
DWGPROPS COOKIE
  2

  3

  4

  6

  7

  8
nnguyen
  9

300
=
301
=
302
=
303
=
304
=
305
=
306
=
307
=
308
=
309
=
 40
0.0863789699074074
 41
2453763.555625
 42
2454918.363933009
  1

 90
        0
  0
DICTIONARY
  5
B6F
102
{ACAD_REACTORS
330
155
102
}
330
155
100
AcDbDictionary
281
     1
  0
DICTIONARY
  5
156
102
{ACAD_REACTORS
330
155
102
}
330
155
100
AcDbDictionary
281
     1
  0
DICTIONARY
  5
B6E
102
{ACAD_REACTORS
330
155
102
}
330
155
100
AcDbDictionary
281
     1
1001
ACAD
1000
<All
  0
XRECORD
  5
BBF
102
{ACAD_REACTORS
330
BBE
102
}
330
BBE
100
AcDbXrecord
280
     1
102
SHADEPLOT
 70
     0
  0
XRECORD
  5
BC1
102
{ACAD_REACTORS
330
BC0
102
}
330
BC0
100
AcDbXrecord
280
     1
102
SHADEPLOT
 70
     0
  0
LAYOUT
  5
2ED
102
{ACAD_XDICTIONARY
360
3CB
102
}
102
{ACAD_REACTORS
330
19
102
}
330
19
100
AcDbPlotSettings
  1

  2
\\totosrv3\RD-03-HPDJ500
  4
User272
  6

 40
4.995333194732666
 41
16.97562789916992
 42
4.99530029296875
 43
16.9757080078125
 44
840.9516601562499
 45
1188.931640625
 46
0.0
 47
0.0
 48
0.0
 49
0.0
140
0.0
141
0.0
142
1.0
143
1.0
 70
   688
 72
     1
 73
     1
 74
     5
  7

 75
    16
147
1.0
148
0.0
149
0.0
100
AcDbLayout
  1
AO
 70
     1
 71
     1
 10
-16.9757080078125
 20
-4.995333194732666
 11
1171.955932617187
 21
835.9563269615174
 12
0.0
 22
0.0
 32
0.0
 14
0.275537074428712
 24
0.9669407133658864
 34
0.0
 15
35.70853707442871
 25
24.0
 35
0.0
146
0.0
 13
0.0
 23
0.0
 33
0.0
 16
1.0
 26
0.0
 36
0.0
 17
0.0
 27
1.0
 37
0.0
 76
     0
330
2EC
331
2F4
1001
ACAD_PSEXT
1000
\\totosrv3\RD-03-HPDJ500
1000
HP DesignJet 500 42+HPGL2 Card
1000
R & D/Quality Engineering
1000
IP 172.16.4.69, HP DesignJet 500, S/N
1070
     0
  0
LAYOUT
  5
25
102
{ACAD_XDICTIONARY
360
BBB
102
}
102
{ACAD_REACTORS
330
19
102
}
330
19
100
AcDbPlotSettings
  1

  2
none_device
  4
Letter_(8.50_x_11.00_Inches)
  6

 40
6.349999904632568
 41
6.349999904632568
 42
6.350006103515625
 43
6.350006103515625
 44
215.8999938964844
 45
279.3999938964844
 46
0.0
 47
0.0
 48
0.0
 49
0.0
140
0.0
141
0.0
142
1.0
143
3.061408205730878
 70
 11952
 72
     0
 73
     1
 74
     0
  7

 75
     0
147
0.3266470633115915
148
-13842.21508883178
149
-6571.369783319224
100
AcDbLayout
  1
Model
 70
     1
 71
     0
 10
0.0
 20
0.0
 11
12.0
 21
9.0
 12
0.0
 22
0.0
 32
0.0
 14
0.0
 24
0.0
 34
0.0
 15
0.0
 25
0.0
 35
0.0
146
0.0
 13
0.0
 23
0.0
 33
0.0
 16
1.0
 26
0.0
 36
0.0
 17
0.0
 27
1.0
 37
0.0
 76
     0
330
22
331
B92
1001
ACAD_PSEXT
1000
None
1000
None
1000
Not applicable
1000
The layout will not be plotted unless a new plotter configuration name is selected.
1070
     0
  0
MATERIAL
  5
B95
102
{ACAD_XDICTIONARY
360
BC4
102
}
102
{ACAD_REACTORS
330
1A
102
}
330
1A
100
AcDbMaterial
  1
ByBlock
  0
MATERIAL
  5
B94
102
{ACAD_XDICTIONARY
360
BC2
102
}
102
{ACAD_REACTORS
330
1A
102
}
330
1A
100
AcDbMaterial
  1
ByLayer
  0
MATERIAL
  5
B96
102
{ACAD_XDICTIONARY
360
BC6
102
}
102
{ACAD_REACTORS
330
1A
102
}
330
1A
100
AcDbMaterial
  1
Global
  0
MLINESTYLE
  5
17
102
{ACAD_REACTORS
330
16
102
}
330
16
100
AcDbMlineStyle
  2
STANDARD
 70
     0
  3

 62
   256
 51
90.0
 52
90.0
 71
     2
 49
0.5
 62
   256
  6
BYLAYER
 49
-0.5
 62
   256
  6
BYLAYER
  0
ACDBPLACEHOLDER
  5
F
102
{ACAD_REACTORS
330
E
102
}
330
E
  0
TABLESTYLE
  5
1D
102
{ACAD_XDICTIONARY
360
BB9
102
}
102
{ACAD_REACTORS
330
1C
102
}
330
1C
100
AcDbTableStyle
  3
Standard
 70
     0
 71
     0
 40
0.06
 41
0.06
280
     0
281
     0
  7
STANDARD
140
0.18
170
     2
 62
     0
 63
     7
283
     0
274
    -2
284
     1
 64
     0
275
    -2
285
     1
 65
     0
276
    -2
286
     1
 66
     0
277
    -2
287
     1
 67
     0
278
    -2
288
     1
 68
     0
279
    -2
289
     1
 69
     0
  7
STANDARD
140
0.25
170
     5
 62
     0
 63
     7
283
     0
274
    -2
284
     1
 64
     0
275
    -2
285
     1
 65
     0
276
    -2
286
     1
 66
     0
277
    -2
287
     1
 67
     0
278
    -2
288
     1
 68
     0
279
    -2
289
     1
 69
     0
  7
STANDARD
140
0.18
170
     5
 62
     0
 63
     7
283
     0
274
    -2
284
     1
 64
     0
275
    -2
285
     1
 65
     0
276
    -2
286
     1
 66
     0
277
    -2
287
     1
 67
     0
278
    -2
288
     1
 68
     0
279
    -2
289
     1
 69
     0
  0
VISUALSTYLE
  5
B9D
102
{ACAD_REACTORS
330
B97
102
}
330
B97
100
AcDbVisualStyle
  2
2dWireframe
 70
     4
 71
     0
 72
     2
 73
     0
 90
        0
 40
-0.6
 41
-30.0
 62
     5
 63
     7
 74
     1
 91
        4
 64
     7
 65
   257
 75
     1
175
     1
 42
1.0
 92
        0
 66
   257
 43
1.0
 76
     1
 77
     6
 78
     2
 67
     7
 79
     5
170
     0
171
     0
290
     0
174
     0
 93
        1
 44
0.0
173
     0
291
     0
 45
0.0
1001
ACAD
1000
AcDbSavedByObjectVersion
1070
     0
  0
VISUALSTYLE
  5
B9F
102
{ACAD_REACTORS
330
B97
102
}
330
B97
100
AcDbVisualStyle
  2
3D Hidden
 70
     6
 71
     1
 72
     2
 73
     2
 90
        0
 40
-0.6
 41
-30.0
 62
     5
 63
     7
 74
     2
 91
        2
 64
     7
 65
   257
 75
     2
175
     1
 42
40.0
 92
        0
 66
   257
 43
1.0
 76
     1
 77
     6
 78
     2
 67
     7
 79
     3
170
     0
171
     0
290
     0
174
     0
 93
        1
 44
0.0
173
     0
291
     0
 45
0.0
1001
ACAD
1000
AcDbSavedByObjectVersion
1070
     0
  0
VISUALSTYLE
  5
B9E
102
{ACAD_REACTORS
330
B97
102
}
330
B97
100
AcDbVisualStyle
  2
3dWireframe
 70
     5
 71
     0
 72
     2
 73
     0
 90
        0
 40
-0.6
 41
-30.0
 62
     5
 63
     7
 74
     1
 91
        4
 64
     7
 65
   257
 75
     1
175
     1
 42
1.0
 92
        0
 66
   257
 43
1.0
 76
     1
 77
     6
 78
     2
 67
     7
 79
     5
170
     0
171
     0
290
     0
174
     0
 93
        1
 44
0.0
173
     0
291
     0
 45
0.0
1001
ACAD
1000
AcDbSavedByObjectVersion
1070
     0
  0
VISUALSTYLE
  5
B9C
102
{ACAD_REACTORS
330
B97
102
}
330
B97
100
AcDbVisualStyle
  2
Basic
 70
     7
 71
     1
 72
     0
 73
     1
 90
        0
 40
-0.6
 41
-30.0
 62
     5
 63
     7
 74
     0
 91
        4
 64
     7
 65
   257
 75
     1
175
     1
 42
1.0
 92
        8
 66
     7
 43
1.0
 76
     1
 77
     6
 78
     2
 67
     7
 79
     5
170
     0
171
     0
290
     0
174
     0
 93
        1
 44
0.0
173
     0
291
     1
 45
0.0
1001
ACAD
1000
AcDbSavedByObjectVersion
1070
     0
  0
VISUALSTYLE
  5
BA3
102
{ACAD_REACTORS
330
B97
102
}
330
B97
100
AcDbVisualStyle
  2
Brighten
 70
    12
 71
     2
 72
     2
 73
     0
 90
        0
 40
-0.6
 41
-30.0
 62
     5
 63
     7
 74
     1
 91
        4
 64
     7
 65
   257
 75
     1
175
     1
 42
1.0
 92
        8
 66
     7
 43
1.0
 76
     1
 77
     6
 78
     2
 67
     7
 79
     5
170
     0
171
     0
290
     0
174
     0
 93
        1
 44
50.0
173
     0
291
     1
 45
0.0
1001
ACAD
1000
AcDbSavedByObjectVersion
1070
     0
  0
VISUALSTYLE
  5
BA7
102
{ACAD_REACTORS
330
B97
102
}
330
B97
100
AcDbVisualStyle
  2
ColorChange
 70
    16
 71
     2
 72
     2
 73
     3
 90
        0
 40
-0.6
 41
-30.0
 62
     5
 63
     8
 74
     1
 91
        4
 64
     7
 65
   257
 75
     1
175
     1
 42
1.0
 92
        8
 66
     8
 43
1.0
 76
     1
 77
     6
 78
     2
 67
     7
 79
     5
170
     0
171
     0
290
     0
174
     0
 93
        1
 44
0.0
173
     0
291
     1
 45
0.0
1001
ACAD
1000
AcDbSavedByObjectVersion
1070
     0
  0
VISUALSTYLE
  5
BA0
102
{ACAD_REACTORS
330
B97
102
}
330
B97
100
AcDbVisualStyle
  2
Conceptual
 70
     9
 71
     3
 72
     2
 73
     0
 90
        0
 40
-0.6
 41
-30.0
 62
     5
 63
     7
 74
     2
 91
        2
 64
     7
 65
   257
 75
     1
175
     1
 42
40.0
 92
        8
 66
     7
 43
1.0
 76
     1
 77
     6
 78
     2
 67
     7
 79
     3
170
     0
171
     0
290
     0
174
     0
 93
        1
 44
0.0
173
     0
291
     0
 45
0.0
1001
ACAD
1000
AcDbSavedByObjectVersion
1070
     0
  0
VISUALSTYLE
  5
BA2
102
{ACAD_REACTORS
330
B97
102
}
330
B97
100
AcDbVisualStyle
  2
Dim
 70
    11
 71
     2
 72
     2
 73
     0
 90
        0
 40
-0.6
 41
-30.0
 62
     5
 63
     7
 74
     1
 91
        4
 64
     7
 65
   257
 75
     1
175
     1
 42
1.0
 92
        8
 66
     7
 43
1.0
 76
     1
 77
     6
 78
     2
 67
     7
 79
     5
170
     0
171
     0
290
     0
174
     0
 93
        1
 44
-50.0
173
     0
291
     1
 45
0.0
1001
ACAD
1000
AcDbSavedByObjectVersion
1070
     0
  0
VISUALSTYLE
  5
BA6
102
{ACAD_REACTORS
330
B97
102
}
330
B97
100
AcDbVisualStyle
  2
Facepattern
 70
    15
 71
     2
 72
     2
 73
     0
 90
        0
 40
-0.6
 41
-30.0
 62
     5
 63
     7
 74
     1
 91
        4
 64
     7
 65
   257
 75
     1
175
     1
 42
1.0
 92
        8
 66
     7
 43
1.0
 76
     1
 77
     6
 78
     2
 67
     7
 79
     5
170
     0
171
     0
290
     0
174
     0
 93
        1
 44
0.0
173
     0
291
     1
 45
0.0
1001
ACAD
1000
AcDbSavedByObjectVersion
1070
     0
  0
VISUALSTYLE
  5
B98
102
{ACAD_REACTORS
330
B97
102
}
330
B97
100
AcDbVisualStyle
  2
Flat
 70
     0
 71
     2
 72
     1
 73
     1
 90
        2
 40
-0.6
 41
30.0
 62
     5
 63
     7
 74
     0
 91
        4
 64
     7
 65
   257
 75
     1
175
     1
 42
1.0
 92
        8
 66
     7
 43
1.0
 76
     1
 77
     6
 78
     2
 67
     7
 79
     5
170
     0
171
     0
290
     0
174
     0
 93
       13
 44
0.0
173
     0
291
     1
 45
0.0
1001
ACAD
1000
AcDbSavedByObjectVersion
1070
     0
  0
VISUALSTYLE
  5
B99
102
{ACAD_REACTORS
330
B97
102
}
330
B97
100
AcDbVisualStyle
  2
FlatWithEdges
 70
     1
 71
     2
 72
     1
 73
     1
 90
        2
 40
-0.6
 41
30.0
 62
     5
 63
     7
 74
     1
 91
        4
 64
     7
 65
   257
 75
     1
175
     1
 42
1.0
 92
        0
 66
   257
 43
1.0
 76
     1
 77
     6
 78
     2
 67
     7
 79
     5
170
     0
171
     0
290
     0
174
     0
 93
       13
 44
0.0
173
     0
291
     1
 45
0.0
1001
ACAD
1000
AcDbSavedByObjectVersion
1070
     0
  0
VISUALSTYLE
  5
B9A
102
{ACAD_REACTORS
330
B97
102
}
330
B97
100
AcDbVisualStyle
  2
Gouraud
 70
     2
 71
     2
 72
     2
 73
     1
 90
        2
 40
-0.6
 41
30.0
 62
     5
 63
     7
 74
     0
 91
        4
 64
     7
 65
   257
 75
     1
175
     1
 42
1.0
 92
        0
 66
     7
 43
1.0
 76
     1
 77
     6
 78
     2
 67
     7
 79
     5
170
     0
171
     0
290
     0
174
     0
 93
       13
 44
0.0
173
     0
291
     1
 45
0.0
1001
ACAD
1000
AcDbSavedByObjectVersion
1070
     0
  0
VISUALSTYLE
  5
B9B
102
{ACAD_REACTORS
330
B97
102
}
330
B97
100
AcDbVisualStyle
  2
GouraudWithEdges
 70
     3
 71
     2
 72
     2
 73
     1
 90
        2
 40
-0.6
 41
30.0
 62
     5
 63
     7
 74
     1
 91
        4
 64
     7
 65
   257
 75
     1
175
     1
 42
1.0
 92
        0
 66
   257
 43
1.0
 76
     1
 77
     6
 78
     2
 67
     7
 79
     5
170
     0
171
     0
290
     0
174
     0
 93
       13
 44
0.0
173
     0
291
     1
 45
0.0
1001
ACAD
1000
AcDbSavedByObjectVersion
1070
     0
  0
VISUALSTYLE
  5
BA5
102
{ACAD_REACTORS
330
B97
102
}
330
B97
100
AcDbVisualStyle
  2
Linepattern
 70
    14
 71
     2
 72
     2
 73
     0
 90
        0
 40
-0.6
 41
-30.0
 62
     5
 63
     7
 74
     1
 91
        4
 64
     7
 65
   257
 75
     7
175
     7
 42
1.0
 92
        8
 66
     7
 43
1.0
 76
     1
 77
     6
 78
     2
 67
     7
 79
     5
170
     0
171
     0
290
     0
174
     0
 93
        1
 44
0.0
173
     0
291
     1
 45
0.0
1001
ACAD
1000
AcDbSavedByObjectVersion
1070
     0
  0
VISUALSTYLE
  5
BA1
102
{ACAD_REACTORS
330
B97
102
}
330
B97
100
AcDbVisualStyle
  2
Realistic
 70
     8
 71
     2
 72
     2
 73
     0
 90
        0
 40
-0.6
 41
-30.0
 62
     5
 63
     7
 74
     1
 91
        0
 64
     7
 65
   257
 75
     1
175
     1
 42
1.0
 92
        8
 66
     8
 43
1.0
 76
     1
 77
     6
 78
     2
 67
     7
 79
     5
170
     0
171
     0
290
     0
174
     0
 93
       13
 44
0.0
173
     0
291
     0
 45
0.0
1001
ACAD
1000
AcDbSavedByObjectVersion
1070
     0
  0
VISUALSTYLE
  5
BA4
102
{ACAD_REACTORS
330
B97
102
}
330
B97
100
AcDbVisualStyle
  2
Thicken
 70
    13
 71
     2
 72
     2
 73
     0
 90
        0
 40
-0.6
 41
-30.0
 62
     5
 63
     7
 74
     1
 91
        4
 64
     7
 65
   257
 75
     1
175
     1
 42
1.0
 92
       12
 66
     7
 43
1.0
 76
     1
 77
     6
 78
     2
 67
     7
 79
     5
170
     0
171
     0
290
     0
174
     0
 93
        1
 44
0.0
173
     0
291
     1
 45
0.0
1001
ACAD
1000
AcDbSavedByObjectVersion
1070
     0
  0
DICTIONARYVAR
  5
162
102
{ACAD_REACTORS
330
161
102
}
330
161
100
DictionaryVariables
280
     0
  1
STANDARD
  0
DICTIONARYVAR
  5
169
102
{ACAD_REACTORS
330
161
102
}
330
161
100
DictionaryVariables
280
     0
  1
1
  0
DICTIONARYVAR
  5
BB7
102
{ACAD_REACTORS
330
161
102
}
330
161
100
DictionaryVariables
280
     0
  1
0
  0
DICTIONARYVAR
  5
16A
102
{ACAD_REACTORS
330
161
102
}
330
161
100
DictionaryVariables
280
     0
  1

  0
DICTIONARYVAR
  5
BB6
102
{ACAD_REACTORS
330
161
102
}
330
161
100
DictionaryVariables
280
     0
  1
127
  0
XRECORD
  5
B91
102
{ACAD_REACTORS
330
B90
102
}
330
B90
100
AcDbXrecord
280
     1
330
C7
330
15E
330
1CD
  0
DICTIONARY
  5
3CB
330
2ED
100
AcDbDictionary
280
     1
281
     1
  3
ACAD_XREC_ROUNDTRIP
360
BBD
  3
ADSK_XREC_LAYOUTTHUMBNAIL
360
3CC
  0
DICTIONARY
  5
BBB
330
25
100
AcDbDictionary
280
     1
281
     1
  3
ACAD_XREC_ROUNDTRIP
360
BBC
  0
DICTIONARY
  5
BC4
330
B95
100
AcDbDictionary
280
     1
281
     1
  3
ACAD_XREC_ROUNDTRIP
360
BC5
  0
DICTIONARY
  5
BC2
330
B94
100
AcDbDictionary
280
     1
281
     1
  3
ACAD_XREC_ROUNDTRIP
360
BC3
  0
DICTIONARY
  5
BC6
330
B96
100
AcDbDictionary
280
     1
281
     1
  3
ACAD_XREC_ROUNDTRIP
360
BC7
  0
DICTIONARY
  5
BB9
330
1D
100
AcDbDictionary
280
     1
281
     1
  3
ACAD_XREC_ROUNDTRIP
360
BBA
  0
XRECORD
  5
BBD
102
{ACAD_REACTORS
330
3CB
102
}
330
3CB
100
AcDbXrecord
280
     1
102
SHADEPLOT
 70
     0
102
SHADEPLOTRESLEVEL
 70
     2
102
SHADEPLOTCUSTOMDPI
 70
   300
  0
XRECORD
  5
3CC
102
{ACAD_REACTORS
330
3CB
102
}
330
3CB
100
AcDbXrecord
280
     1
310
28000000B40000007F00000001000800000000004C590000000000000000000000010000000000000000000000000000FFFFFF000000000000000000000000000000000000000000000000000000000000000000330000006600000099000000CC000000FF00000000330000333300006633000099330000CC330000FF3300
310
0000660000336600006666000099660000CC660000FF66000000990000339900006699000099990000CC990000FF99000000CC000033CC000066CC000099CC0000CCCC0000FFCC000000FF000033FF000066FF000099FF0000CCFF0000FFFF000000003300330033006600330099003300CC003300FF003300003333003333
310
33006633330099333300CC333300FF33330000663300336633006666330099663300CC663300FF66330000993300339933006699330099993300CC993300FF99330000CC330033CC330066CC330099CC3300CCCC3300FFCC330000FF330033FF330066FF330099FF3300CCFF3300FFFF330000006600330066006600660099
310
006600CC006600FF00660000336600333366006633660099336600CC336600FF33660000666600336666006666660099666600CC666600FF66660000996600339966006699660099996600CC996600FF99660000CC660033CC660066CC660099CC6600CCCC6600FFCC660000FF660033FF660066FF660099FF6600CCFF6600
310
FFFF660000009900330099006600990099009900CC009900FF00990000339900333399006633990099339900CC339900FF33990000669900336699006666990099669900CC669900FF66990000999900339999006699990099999900CC999900FF99990000CC990033CC990066CC990099CC9900CCCC9900FFCC990000FF99
310
0033FF990066FF990099FF9900CCFF9900FFFF99000000CC003300CC006600CC009900CC00CC00CC00FF00CC000033CC003333CC006633CC009933CC00CC33CC00FF33CC000066CC003366CC006666CC009966CC00CC66CC00FF66CC000099CC003399CC006699CC009999CC00CC99CC00FF99CC0000CCCC0033CCCC0066CC
310
CC0099CCCC00CCCCCC00FFCCCC0000FFCC0033FFCC0066FFCC0099FFCC00CCFFCC00FFFFCC000000FF003300FF006600FF009900FF00CC00FF00FF00FF000033FF003333FF006633FF009933FF00CC33FF00FF33FF000066FF003366FF006666FF009966FF00CC66FF00FF66FF000099FF003399FF006699FF009999FF00CC
310
99FF00FF99FF0000CCFF0033CCFF0066CCFF0099CCFF00CCCCFF00FFCCFF0000FFFF0033FFFF0066FFFF0099FFFF00CCFFFF00FFFFFF00000000000D0D0D001A1A1A00282828003535350043434300505050005D5D5D006B6B6B00787878008686860093939300A1A1A100AEAEAE00BBBBBB00C9C9C900D6D6D600E4E4E400
310
F1F1F100FFFFFF0000000000000000000000000000000000000000000000000000000000000000000000000000000000E2E2E2E2E2E2E2E2E2E2E2E2E2E2E2E2E2E2E2E2E2E2E2E2E2E2E2E2E2E2E2E2E2E2E2E2E2E2E2E2E2E2E2E2E2E2E2E2E2E2E2E2E2E2E2E2E2E2E2E2E2E2E2E2E2E2E2E2E2E2E2E2E2E2E2E2E2E2E2
310
E2E2E2E2E2E2E2E2E2E2E2E2E2E2E2E2E2E2E2E2E2E2E2E2E2E2E2E2E2E2E2E2E2E2E2E2E2E2E2E2E2E2E2E2E2E2E2E2E2E2E2E2E2E2E2E2E2E2E2E2E2E2E2E2E2E2E2E2E2E2E2E2E2E2E2E2E2E2E2E2E2E2E2E2E2E2E2E2E2E2E2E2E2E2E2E2E2E2E2E2E2E2E2E2BEBEBEBEBEBEE2E2E2E2E2E2E2E2E2E2E2E2E2E2E2E2E2
310
E2E2E2E2E2E2E2E2E2E2E2E2E2E2E2E2E2E2E2E2E2E2E2E2E2E2E2E2E2E2E2E2E2E2E2E2E2E2E2E2E2E2E2E2E2E2E2E2E2E2E2E2E2E2E2E2E2E2E2E2E2E2E2E2E2E2E2E2E2E2E2E2E2E2E2E2E2E2E2E2E2E2E2E2E2E2E2E2E2E2E2E2E2E2E2E2E2E2E2E2E2E2E2E2E2E2E2E2E2E2E2E2E2E2E2E2E2E2E2E2E2E2E2E2E2E2E2
310
E2E2E2E2E2E2E2E2E2E2E2E2E2E2E2E2E2E2E2E2E2E2E2E2E2E2E2E2E2E2BEF5F5F5F5BEE2E2E2E2E2E2E2E2E2E2E2E2E2E2E2E2E2E2E2E2E2E2E2E2E2E2E2E2E2E2E2E2E2E2E2E2E2E2E2E2E2E2E2E2E2E2E2E2E2E2E2E2E2E2E2E2E2E2E2E2E2E2E2E2E2E2E2E2E2E2E2E2E2E2E2E2E2E2E2E2E2E2E2E2E2E2E2E2E2E2E2
310
E2E2E2E2E2E2E2E2E2E2E2E2E2E2E2E2E2E2E2E2E2E2E2E2E2E2E2E2E2E2E2E2E2E2E2E2E2E2E2E2E2E2E2E2E2E2E2E2E2E2E2E2E2E2E2E2E2E2E2E2E2E2E2E2E2E2E2E2E2E2E2E2E2E2E2E2E2E2E2E2E2E2E2BEF5F5F5F5BEE2E2E2E2E2E2E2E2E2E2E2E2E2E2E2E2E2E2E2E2E2E2E2E2E2E2E2E2E2E2E2E2E2E2E2E2E2E2
310
E2E2E2E2E2E2E2E2E2E2E2E2E2E2E2E2E2E2E2E2E2E2E2E2E2E2E2E2E2E2E2E2E2E2E2E2E2E2E2E2E2E2E2E2E2E2E2E2E2E2E2E2E2E2E2E2E2E2E2E2E2E2E2E2E2E2E2E2E2E2E2E2E2E2E2E2E2E2E2E2E2E2E2E2E2E2E2E2E2E2E2E2E2E2E2E2E2E2E2E2E2E2E2E2E2E2E2E2E2E2E2E2E2E2E2E2E2E2E2E2E2E2E2E2E2E2E2
310
E2E2E2E2E2E2E2E2E2BEF5F5F5F5BEE2E2E2E2E2E2E2E2E2E2E2E2E2E2E2E2E2E2E2E2E2E2E2E2E2E2E2E2E2E2E2E2E2E2E2E2E2E2E2E2E2E2E2E2E2E2E2E2E2E2E2E2E2E2E2E2E2E2E2E2E2E2E2E2E2E2E2E2E2E2E2E2E2E2E2E2E2E2E2E2E2E2E2E2E2E2E2E2E2E2E2E2E2E2E2E2E2E2E2E2E2E2E2E2E2E2E2E2E2E2E2E2
310
E2E2E2E2E2E2E2E2E2E2E2E2E2E2E2E2E2E2E2E2E2E2E2E2E2E2E2E2E2E2E2E2E2E2E2E2E2E2E2E2E2E2E2E2E2E2E2E2E2E2E2E2E2E2E2E2E2E2E2E2E2E2BEBEBEBEBEBEE2E2E2E2E2E2E2E2E2E2E2E2E2E2E2E2E2E2E2E2E2E2E2E2E2E2E2E2E2E2E2E2E2E2E2E2E2E2E2E2E2E2E2E2E2E2E2E2E2E2E2E2E2E2E2E2E2E2E2
310
E2E2E2E2E2E2E2E2E2E2E2E2E2E2E2E2E2E2E2E2E2E2E2E2E2E2E2E2E2E2E2E2E2E2E2E2E2E2E2E2E2E2E2E2E2E2E2E2E2E2E2E2E2E2E2E2E2E2E2E2E2E2E2E2E2E2E2E2E2E2E2E2E2E2E2E2E2E2E2E2E2E2E2E2E2E2E2E2E2E2E2E2E2E2E2E2E2E2E2E2E2E2E2E2E2E2E2E2E2E2E2E2E2E2E2E2E2E2E2E2E2E2E2E2E2E2E2
310
E2E2E2E2E2E2E2E2E2E2E2E2E2E2E2E2E2E2E2E2E2E2E2E2E2E2E2E2E2E2E2E2E2E2E2E2E2E2E2E2E2E2E2E2E2E2E2E2E2E2E2E2E2E2E2E2E2E2E2E2E2E2E2E2E2E2E2E2E2E2E2E2E2E2E2E2E2E2E2E2E2E2E2E2E2E2E2E2E2E2E2E2E2E2E2E2E2E2E2E2E2E2E2E2E2E2E2E2E2E2E2E2E2E2E2E2E2E2E2E2E2E2E2E2E2E2E2
310
E2E2E2E2E2E2E2E2E2E2E2E2E2E2E2E2E2E2E2E2E2E2E2E2E2E2E2E2E2E2E2E2E2E2E2E2E2E2E2E2E2E2E2E2E2E2E2E2E2E2E2E2E2E2E2E2E2E2E2E2E2E2E2E2E2E2E2E2E2E2E2E2E2E2E2E2E2E2E2E2E2E2E2E2E2E2E2E2E2E2E2E2E2E2E2E2E2E2E2E2E2E2E2E2E2E2E2E2E2E2E2E2E2E2E2E2E2E2E2E2E2E2E2E2E2E2E2
310
E2E2E2E2E2E2E2E2E2E2E2E2E2E2E2E2E2E2E2E2E2E2E2E2E2E2E2E2E2E2E2E2E2E2E2E2E2E2E2E2E2E2E2E2E2E2E2E2E2E2E2E2E2E2E2E2E2E2E2E2E2E2E2E2E2E2E2E2E2E2E2E2E2E2E2E2E2E2E2E2E2E2E2E2E2E2E2E2E2E2E2E2E2E2E2E2E2E2E2E2E2E2E2E2E2E2E2E2E2E2E2E2E2E2E2E2E2E2E2E2E2E2E2E2E2E2E2
310
E2E2E2E2E2E2E2E2E2E2E2E2E2E2E2E2E2E2E2E2E2E2E2E2E2E2E2E2E2E2E2E2E2E2E2E2E2E2E2E2E2E2E2E2E2E2E2E2E2E2E2E2E2E2E2E2E2E2E2E2E2E2E2E2E2E2E2E2E2E2E2E2E2E2E2E2E2E2E2E2E2E2E2E2E2E2E2E2E2E2E2E2E2E2E2E2E2E2E2E2E2E2E2E2E2E2E2E2E2E2E2E2E2E2E2E2E2E2E2E2E2E2E2E2E2E2E2
310
E2E2E2E2E2E2E2E2E2E2E2E2E2E2E2E2E2E2E2E2E2E2E2E2E2E2E2E2E2E2E2E2E2E2E2E2E2E2E2E2E2E2E2E2E2E2E2E2E2E2E2E2E2E2E2E2E2E2E2E2E2E2E2E2E2E2E2E2E2E2E2E2E2E2E2E2E2E2E2E2E2E2E2E2E2E2E2E2E2E2E2E2E2E2E2E2E2E2E2E2E2E2E2E2E2E2E2E2E2E2E2E2E2E2E2E2E2E2E2E2E2E2E2E2E2E2E2
310
E2E2E2E2E2E2E2E2E2E2E2E2E2E2E2E2E2E2E2E2E2E2E2E2E2E2E2E2E2E2E2E2E2E2E2E2E2E2E2E2E2E2E2E2E2E2E2E2E2E2E2E2E2E2E2E2E2E2E2E2E2E2E2E2E2E2E2E2E2E2E2E2E2E2E2E2E2E2E2E2E2E2E2E2E2E2E2E2E2E2E2E2E2E2E2E2E2E2E2E2E2E2E2E2E2E2E2E2E2E2E2E2E2E2E2E2E2E2E2E2E2E2E2E2E2E2E2
310
E2E2E2E2E2E2E2E2E2E2E2E2E2E2E2E2E2E2E2E2E2E2E2E2E2E2E2E2E2E2E2E2E2E2E2E2E2E2E2E2E2E2E2E2E2E2E2E2E2E2E2E2E2E2E2E2E2E2E2E2E2E2E2E2E2E2E2E2E2E2E2E2E2E2E2E2E2E2E2E2E2E2E2E2E2E2E2E2E2E2E2E2E2E2E2E2E2E2E2E2E2E2E2E2E2E2E2E2E2E2E2E2E2E2E2E2E2E2E2E2E2E2E2E2E2E2E2
310
E2E2E2E2E2E2E2E2E2E2E2E2E2E2E2E2E2E2E2E2E2E2E2E2E2E2E2E2E2E2E2E2E2E2E2E2E2E2E2E2E2E2E2E2E2E2E2E2E2E2E2E2E2E2E2E2E2E2E2E2E2E2E2E2E2E2E2E2E2E2E2E2E2E2E2E2E2E2E2E2E2E2E2E2E2E2E2E2E2E2E2E2E2E2E2E2E2E2E2E2E2E2E2E2E2E2E2E2E2E2E2E2E2E2E2E2E2E2E2E2E2E2E2E2E2E2E2
310
E2E2E2E2E2E2E2E2E2E2E2E2E2E2E2E2E2E2E2E2E2E2E2E2E2E2E2E2E2E2E2E2E2E2E2E2E2E2E2E2E2E2E2E2E2E2E2E2E2E2E2E2E2E2E2E2E2E2E2E2E2E2E2E2E2E2E2E2E2E2E2E2E2E2E2E2E2E2E2E2E2E2E2E2E2E2E2E2E2E2E2E2E2E2E2E2E2E2E2E2E2E2E2E2E2E2E2E2E2E2E2E2E2E2E2E2E2E2E2E2E2E2E2E2E2E2E2
310
E2E2E2E2E2E2E2E2E2E2E2E2E2E2E2E2E2E2E2E2E2E2E2E2E2E2E2E2E2E2E2E2E2E2E2E2E2E2E2E2E2E2E2E2E2E2E2E2E2E2E2E2E2E2E2E2E2E2E2E2E2E2E2E2E2E2E2E2E2E2E2E2E2E2E2E2E2E2E2E2E2E2E2E2E2E2E2E2E2E2E2E2E2E2E2E2E2E2E2E2E2E2E2E2E2E2E2E2E2E2E2E2E2E2E2E2E2E2E2E2E2E2E2E2E2E2E2
310
E2E2E2E2E2E2E2E2E2E2E2E2E2E2E2E2E2E2E2E2E2E2E2E2E2E2E2E2E2E2E2E2E2E2E2E2E2E2E2E2E2E2E2E2E2E2E2E2E2E2E2E2E2E2E2E2E2E2E2E2E2E2E2E2E2E2E2E2E2E2E2E2E2E2E2E2E2E2E2E2E2E2E2E2E2E2E2E2E2E2E2E2E2E2E2E2E2E2E2E2E2E2E2E2E2E2E2E2E2E2E2E2E2E2E2E2E2E2E2E2E2E2E2E2E2E2E2
310
E2E2E2E2E2E2E2E2E2E2E2E2E2E2E2E2E2E2E2E2E2E2E2E2E2E2E2E2E2E2E2E2E2E2E2E2E2E2E2E2E2E2E2E2E2E2E2E2E2E2E2E2E2E2E2E2E2E2E2E2E2E2E2E2E2E2E2E2E2E2E2E2E2E2E2E2E2E2E2E2E2E2E2E2E2E2E2E2E2E2E2E2E2E2E2E2E2E2E2E2E2E2E2E2E2E2E2E2E2E2E2E2E2E2E2E2E2E2E2E2E2E2E2E2E2E2E2
310
E2E2E2E2E2E2E2E2E2E2E2E2E2E2E2E2E2E2E2E2E2E2E2E2E2E2E2E2E2E2E2E2E2E2E2E2E2E2E2E2E2E2E2E2E2E2E2E2E2E2E2E2E2E2E2E2E2E2E2E2E2E2E2E2E2E2E2E2E2E2E2E2E2E2E2E2E2E2E2E2E2E2E2E2E2E2E2E2E2E2E2E2E2E2E2E2E2E2E2E2E2E2E2E2E2E2E2E2E2E2E2E2E2E2E2E2E2E2E2E2E2E2E2E2E2E2E2
310
E2E2E2E2E2E2E2E2E2E2E2E2E2E2E2E2E2E2E2E2E2E2E2E2E2E2E2E2E2E2E2E2E2E2E2E2E2E2E2E2E2E2E2E2E2E2E2E2E2E2E2E2E2E2E2E2E2E2E2E2E2E2E2E2E2E2E2E2E2E2E2E2E2E2E2E2E2E2E2E2E2E2E2E2E2E2E2E2E2E2E2E2E2E2E2E2E2E2E2E2E2E2E2E2E2E2E2E2E2E2E2E2E2E2E2E2E2E2E2E2E2E2E2E2E2E2E2
310
E2E2E2E2E2E2E2E2E2E2E2E2E2E2E2E2E2E2E2E2E2E2E2E2E2E2E2E2E2E2E2E2E2E2E2E2E2E2E2E2E2E2E2E2E2E2E2E2E2E2E2E2E2E2E2E2E2E2E2E2E2E2E2E2E2E2E2E2E2E2E2E2E2E2E2E2E2E2E2E2E2E2E2E2E2E2E2E2E2E2E2E2E2E2E2E2E2E2E2E2E2E2E2E2E2E2E2E2E2E2E2E2E2E2E2E2E2E2E2E2E2E2E2E2E2E2E2
310
E2E2E2E2E2E2E2E2E2E2E2E2E2E2E2E2E2E2E2E2E2E2E2E2E2E2E2E2E2E2E2E2E2E2E2E2E2E2E2E2E2E2E2E2E2E2E2E2E2E2E2E2E2E2E2E2E2E2E2E2E2E2E2E2E2E2E2E2E2E2E2E2E2E2E2E2E2E2E2E2E2E2E2E2E2E2E2E2E2E2E2E2E2E2E2E2E2E2E2E2E2E2E2E2E2E2E2E2E2E2E2E2E2E2E2E2E2E2E2E2E2E2E2E2E2E2E2
310
E2E2E2E2E2E2E2E2E2E2E2E2E2E2E2E2E2E2E2E2E2E2E2E2E2E2E2E2E2E2E2E2E2E2E2E2E2E2E2E2E2E2E2E2E2E2E2E2E2E2E2E2E2E2E2E2E2E2E2E2E2E2E2E2E2E2E2E2E2E2E2E2E2E2E2E2E2E2E2E2E2E2E2E2E2E2E2E2E2E2E2E2E2E2E2E2E2E2E2E2E2E2E2E2E2E2E2E2E2E2E2E2E2E2E2E2E2E2E2E2E2E2E2E2E2E2E2
310
E2E2E2E2E2E2E2E2E2E2E2E2E2E2E2E2E2E2E2E2E2E2E2E2E2E2E2E2E2E2E2E2E2E2E2E2E2E2E2E2E2E2E2E2E2E2E2E2E2E2E2E2E2E2E2E2E2E2E2E2E2E2E2E2E2E2E2E2E2E2E2E2E2E2E2E2E2E2E2E2E2E2E2E2E2E2E2E2E2E2E2E2E2E2E2E2E2E2E2E2E2E2E2E2E2E2E2E2E2E2E2E2E2E2E2E2E2E2E2E2E2E2E2E2E2E2E2
310
E2E2E2E2E2E2E2E2E2E2E2E2E2E2E2E2E2E2E2E2E2E2E2E2E2E2E2E2E2E2E2E2E2E2E2E2E2E2E2E2E2E2E2E2E2E2E2E2E2E2E2E2E2E2E2E2E2E2E2E2E2E2E2E2E2E2E2E2E2E2E2E2E2E2E2E2E2E2E2E2E2E2E2E2E2E2E2E2E2E2E2E2E2E2E2E2E2E2E2E2E2E2E2E2E2E2E2E2E2E2E2E2E2E2E2E2E2E2E2E2E2E2E2E2E2E2E2
310
E2E2E2E2E2E2E2E2E2E2E2E2E2E2E2E2E2E2E2E2E2E2E2E2E2E2E2E2E2E2E2E2E2E2E2E2E2E2E2E2E2E2E2E2E2E2E2E2E2E2E2E2E2E2E2E2E2E2E2E2E2E2E2E2E2E2E2E2E2E2E2E2E2E2E2E2E2E2E2E2E2E2E2E2E2E2E2E2E2E2E2E2E2E2E2E2E2E2E2E2E2E2E2E2E2E2E2E2E2E2E2E2E2E2E2E2E2E2E2E2E2E2E2E2E2E2E2
310
E2E2E2E2E2E2E2E2E2E2E2E2E2E2E2E2E2E2E2E2E2E2E2E2E2E2E2E2E2E2E2E2E2E2E2E2E2E2E2E2E2E2E2E2E2E2E2E2E2E2E2E2E2E2E2E2E2E2E2E2E2E2E2E2E2E2E2E2E2E2E2E2E2E2E2E2E2E2E2E2E2E2E2E2E2E2E2E2E2E2E2E2E2E2E2E2E2E2E2E2E2E2E2E2E2E2E2E2E2E2E2E2E2E2E2E2E2E2E2E2E2E2E2E2E2E2E2
310
E2E2E2E2E2E2E2E2E2E2E2E2E2E2E2E2E2E2E2E2E2E2E2E2E2E2E2E2E2E2E2E2E2E2E2E2E2E2E2E2E2E2E2E2E2E2E2E2E2E2E2E2E2E2E2E2E2E2E2E2E2E2E2E2E2E2E2E2E2E2E2E2E2E2E2E2E2E2E2E2E2E2E2E2E2E2E2E2E2E2E2E2E2E2E2E2E2E2E2E2E2E2E2E2E2E2E2E2E2E2E2E2E2E2E2E2E2E2E2E2E2E2E2E2E2E2E2
310
E2E2E2E2E2E2E2E2E2E2E2E2E2E2E2E2E2E2E2E2E2E2E2E2E2E2E2E2E2E2E2E2E2E2E2E2E2E2E2E2E2E2E2E2E2E2E2E2E2E2E2E2E2E2E2E2E2E2E2E2E2E2E2E2E2E2E2E2E2E2E2E2E2E2E2E2E2E2E2E2E2E2E2E2E2E2E2E2E2E2E2E2E2E2E2E2E2E2E2E2E2E2E2E2E2E2E2E2E2E2E2E2E2E2E2E2E2E2E2E2E2E2E2E2E2E2E2
310
E2E2E2E2E2E2E2E2E2E2E2E2E2E2E2E2E2E2E2E2E2E2E2E2E2E2E2E2E2E2E2E2E2E2E2E2E2E2E2E2E2E2E2E2E2E2E2E2E2E2E2E2E2E2E2E2E2E2E2E2E2E2E2E2E2E2E2E2E2E2E2E2E2E2E2E2E2E2E2E2E2E2E2E2E2E2E2E2E2E2E2E2E2E2E2E2E2E2E2E2E2E2E2E2E2E2E2E2E2E2E2E2E2E2E2E2E2E2E2E2E2E2E2E2E2E2E2
310
E2E2E2E2E2E2E2E2E2E2E2E2E2E2E2E2E2E2E2E2E2E2E2E2E2E2E2E2E2E2E2E2E2E2E2E2E2E2E2E2E2E2E2E2E2E2E2E2E2E2E2E2E2E2E2E2E2E2E2E2E2E2E2E2E2E2E2E2E2E2E2E2E2E2E2E2E2E2E2E2E2E2E2E2E2E2E2E2E2E2E2E2E2E2E2E2E2E2E2E2E2E2E2E2E2E2E2E2E2E2E2E2E2E2E2E2E2E2E2E2E2E2E2E2E2E2E2
310
E2E2E2E2E2E2E2E2E2E2E2E2E2E2E2E2E2E2E2E2E2E2E2E2E2E2E2E2E2E2E2E2E2E2E2E2E2E2E2E2E2E2E2E2E2E2E2E2E2E2E2E2E2E2E2E2E2E2E2E2E2E2E2E2E2E2E2E2E2E2E2E2E2E2E2E2E2E2E2E2E2E2E2E2E2E2E2E2E2E2E2E2E2E2E2E2E2E2E2E2E2E2E2E2E2E2E2E2E2E2E2E2E2E2E2E2E2E2E2E2E2E2E2E2E2E2E2
310
E2E2E2E2E2E2E2E2E2E2E2E2E2E2E2E2E2E2E2E2E2E2E2E2E2E2E2E2E2E2E2E2E2E2E2E2E2E2E2E2E2E2E2E2E2E2E2E2E2E2E2E2E2E2E2E2E2E2E2E2E2E2E2E2E2E2E2E2E2E2E2E2E2E2E2E2E2E2E2E2E2E2E2E2E2E2E2E2E2E2E2E2E2E2E2E2E2E2E2E2E2E2E2E2E2E2E2E2E2E2E2E2E2E2E2E2E2E2E2E2E2E2E2E2E2E2E2
310
E2E2E2E2E2E2E2E2E2E2E2E2E2E2E2E2E2E2E2E2E2E2E2E2E2E2E2E2E2E2E2E2E2E2E2E2E2E2E2E2E2E2E2E2E2E2E2E2E2E2E2E2E2E2E2E2E2E2E2E2E2E2E2E2E2E2E2E2E2E2E2E2E2E2E2E2E2E2E2E2E2E2E2E2E2E2E2E2E2E2E2E2E2E2E2E2E2E2E2E2E2E2E2E2E2E2E2E2E2E2E2E2E2E2E2E2E2E2E2E2E2E2E2E2E2E2E2
310
E2E2E2E2E2E2E2E2E2E2E2E2E2E2E2E2E2E2E2E2E2E2E2E2E2E2E2E2E2E2E2E2E2E2E2E2E2E2E2E2E2E2E2E2E2E2E2E2E2E2E2E2E2E2E2E2E2E2E2E2E2E2E2E2E2E2E2E2E2E2E2E2E2E2E2E2E2E2E2E2E2E2E2E2E2E2E2E2E2E2E2E2E2E2E2E2E2E2E2E2E2E2E2E2E2E2E2E2E2E2E2E2E2E2E2E2E2E2E2E2E2E2E2E2E2E2E2
310
E2E2E2E2E2E2E2E2E2E2E2E2E2E2E2E2E2E2E2E2E2E2E2E2E2E2E2E2E2E2E2E2E2E2E2E2E2E2E2E2E2E2E2E2E2E2E2E2E2E2E2E2E2E2E2E2E2E2E2E2E2E2E2E2E2E2E2E2E2E2E2E2E2E2E2E2E2E2E2E2E2E2E2E2E2E2E2E2E2E2E2E2E2E2E2E2E2E2E2E2E2E2E2E2E2E2E2E2E2E2E2E2E2E2E2E2E2E2E2E2E2E2E2E2E2E2E2
310
E2E2E2E2E2E2E2E2E2E2E2E2E2E2E2E2E2E2E2E2E2E2E2E2E2E2E2E2E2E2E2E2E2E2E2E2E2E2E2E2E2E2E2E2E2E2E2E2E2E2E2E2E2E2E2E2E2E2E2E2E2E2E2E2E2E2E2E2E2E2E2E2E2E2E2E2E2E2E2E2E2E2E2E2E2E2E2E2E2E2E2E2E2E2E2E2E2E2E2E2E2E2E2E2E2E2E2E2E2E2E2E2E2E2E2E2E2E2E2E2E2E2E2E2E2E2E2
310
E2E2E2E2E2E2E2E2E2E2E2E2E2E2E2E2E2E2E2E2E2E2E2E2E2E2E2E2E2E2E2E2E2E2E2E2E2E2E2E2E2E2E2E2E2E2E2E2E2E2E2E2E2E2E2E2E2E2E2E2E2E2E2E2E2E2E2E2E2E2E2E2E2E2E2E2E2E2E2E2E2E2E2E2E2E2E2E2E2E2E2E2E2E2E2E2E2E2E2E2E2E2E2E2E2E2E2E2E2E2E2E2E2E2E2E2E2E2E2E2E2E2E2E2E2E2E2
310
E2E2E2E2E2E2E2E2E2E2E2E2E2E2E2E2E2E2E2E2E2E2E2E2E2E2E2E2E2E2E2E2E2E2E2E2E2E2E2E2E2E2E2E2E2E2E2E2E2E2E2E2E2E2E2E2E2E2E2E2E2E2E2E2E2E2E2E2E2E2E2E2E2E2E2E2E2E2E2E2E2E2E2E2E2E2E2E2E2E2E2E2E2E2E2E2E2E2E2E2E2E2E2E2E2E2E2E2E2E2E2E2E2E2E2E2E2E2E2E2E2E2E2E2E2E2E2
310
E2E2E2E2E2E2E2E2E2E2E2E2E2E2E2E2E2E2E2E2E2E2E2E2E2E2E2E2E2E2E2E2E2E2E2E2E2E2E2E2E2E2E2E2E2E2E2E2E2E2E2E2E2E2E2E2E2E2E2E2E2E2E2E2E2E2E2E2E2E2E2E2E2E2E2E2E2E2E2E2E2E2E2E2E2E2E2E2E2E2E2E2E2E2E2E2E2E2E2E2E2E2E2E2E2E2E2E2E2E2E2E2E2E2E2E2E2E2E2E2E2E2E2E2E2E2E2
310
E2E2E2E2E2E2E2E2E2E2E2E2E2E2E2E2E2E2E2E2E2E2E2E2E2E2E2E2E2E2E2E2E2E2E2E2E2E2E2E2E2E2E2E2E2E2E2E2E2E2E2E2E2E2E2E2E2E2E2E2E2E2E2E2E2E2E2E2E2E2E2E2E2E2E2E2E2E2E2E2E2E2E2E2E2E2E2E2E2E2E2E2E2E2E2E2E2E2E2E2E2E2E2E2E2E2E2E2E2E2E2E2E2E2E2E2E2E2E2E2E2E2E2E2E2E2E2
310
E2E2E2E2E2E2E2E2E2E2E2E2E2E2E2E2E2E2E2E2E2E2E2E2E2E2E2E2E2E2E2E2E2E2E2E2E2E2E2E2E2E2E2E2E2E2E2E2E2E2E2E2E2E2E2E2E2E2E2E2E2E2E2E2E2E2E2E2E2E2E2E2E2E2E2E2E2E2E2E2E2E2E2E2E2E2E2E2E2E2E2E2E2E2E2E2E2E2E2E2E2E2E2E2E2E2E2E2E2E2E2E2E2E2E2E2E2E2E2E2E2E2E2E2E2E2E2
310
E2E2E2E2E2E2E2E2E2E2E2E2E2E2E2E2E2E2E2E2E2E2E2E2E2E2E2E2E2E2E2E2E2E2E2E2E2E2E2E2E2E2E2E2E2E2E2E2E2E2E2E2E2E2E2E2E2E2E2E2E2E2E2E2E2E2E2E2E2E2E2E2E2E2E2E2E2E2E2E2E2E2E2E2E2E2E2E2E2E2E2E2E2E2E2E2E2E2E2E2E2E2E2E2E2E2E2E2E2E2E2E2E2E2E2E2E2E2E2E2E2E2E2E2E2E2E2
310
E2E2E2E2E2E2E2E2E2E2E2E2E2E2E2E2E2E2E2E2E2E2E2E2E2E2E2E2E2E2E2E2E2E2E2E2E2E2E2E2E2E2E2E2E2E2E2E2E2E2E2E2E2E2E2E2E2E2E2E2E2E2E2E2E2E2E2E2E2E2E2E2E2E2E2E2E2E2E2E2E2E2E2E2E2E2E2E2E2E2E2E2E2E2E2E2E2E2E2E2E2E2E2E2E2E2E2E2E2E2E2E2E2E2E2E2E2E2E2E2E2E2E2E2E2E2E2
310
E2E2E2E2E2E2E2E2E2E2E2E2E2E2E2E2E2E2E2E2E2E2E2E2E2E2E2E2E2E2E2E2E2E2E2E2E2E2E2E2E2E2E2E2E2E2E2E2E2E2E2E2E2E2E2E2E2E2E2E2E2E2E2E2E2E2E2E2E2E2E2E2E2E2E2E2E2E2E2E2E2E2E2E2E2E2E2E2E2E2E2E2E2E2E2E2E2E2E2E2E2E2E2E2E2E2E2E2E2E2E2E2E2E2E2E2E2E2E2E2E2E2E2E2E2E2E2
310
E2E2E2E2E2E2E2E2E2E2E2E2E2E2E2E2E2E2E2E2E2E2E2E2E2E2E2E2E2E2E2E2E2E2E2E2E2E2E2E2E2E2E2E2E2E2E2E2E2E2E2E2E2E2E2E2E2E2E2E2E2E2E2E2E2E2E2E2E2E2E2E2E2E2E2E2E2E2E2E2E2E2E2E2E2E2E2E2E2E2E2E2E2E2E2E2E2E2E2E2E2E2E2E2E2E2E2E2E2E2E2E2E2E2E2E2E2E2E2E2E2E2E2E2E2E2E2
310
E2E2E2E2E2E2E2E2E2E2E2E2E2E2E2E2E2E2E2E2E2E2E2E2E2E2E2E2E2E2E2E2E2E2E2E2E2E2E2E2E2E2E2E2E2E2E2E2E2E2E2E2E2E2E2E2E2E2E2E2E2E2E2E2E2E2E2E2E2E2E2E2E2E2E2E2E2E2E2E2E2E2E2E2E2E2E2E2E2E2E2E2E2E2E2E2E2E2E2E2E2E2E2E2E2E2E2E2E2E2E2E2E2E2E2E2E2E2E2E2E2E2E2E2E2E2E2
310
E2E2E2E2E2E2E2E2E2E2E2E2E2E2E2E2E2E2E2E2E2E2E2E2E2E2E2E2E2E2E2E2E2E2E2E2E2E2E2E2E2E2E2E2E2E2E2E2E2E2E2E2E2E2E2E2E2E2E2E2E2E2E2E2E2E2E2E2E2E2E2E2E2E2E2E2E2E2E2E2E2E2E2E2E2E2E2E2E2E2E2E2E2E2E2E2E2E2E2E2E2E2E2E2E2E2E2E2E2E2E2E2E2E2E2E2E2E2E2E2E2E2E2E2E2E2E2
310
E2E2E2E2E2E2E2E2E2E2E2E2E2E2E2E2E2E2E2E2E2E2E2E2E2E2E2E2E2E2E2E2E2E2E2E2E2E2E2E2E2E2E2E2E2E2E2E2E2E2E2E2E2E2E2E2E2E2E2E2E2E2E2E2E2E2E2E2E2E2E2E2E2E2E2E2E2E2E2E2E2E2E2E2E2E2E2E2E2E2E2E2E2E2E2E2E2E2E2E2E2E2E2E2E2E2E2E2E2E2E2E2E2E2E2E2E2E2E2E2E2E2E2E2E2E2E2
310
E2E2E2E2E2E2E2E2E2E2E2E2E2E2E2E2E2E2E2E2E2E2E2E2E2E2E2E2E2E2E2E2E2E2E2E2E2E2E2E2E2E2E2E2E2E2E2E2E2E2E2E2E2E2E2E2E2E2E2E2E2E2E2E2E2E2E2E2E2E2E2E2E2E2E2E2E2E2E2E2E2E2E2E2E2E2E2E2E2E2E2E2E2E2E2E2E2E2E2E2E2E2E2E2E2E2E2E2E2E2E2E2E2E2E2E2E2E2E2E2E2E2E2E2E2E2E2
310
E2E2E2E2E2E2E2E2E2E2E2E2E2E2E2E2E2E2E2E2E2E2E2E2E2E2E2E2E2E2E2E2E2E2E2E2E2E2E2E2E2E2E2E2E2E2E2E2E2E2E2E2E2E2E2E2E2E2E2E2E2E2E2E2E2E2E2E2E2E2E2E2E2E2E2E2E2E2E2E2E2E2E2E2E2E2E2E2E2E2E2E2E2E2E2E2E2E2E2E2E2E2E2E2E2E2E2E2E2E2E2E2E2E2E2E2E2E2E2E2E2E2E2E2E2E2E2
310
E2E2E2E2E2E2E2E2E2E2E2E2E2E2E2E2E2E2E2E2E2E2E2E2E2E2E2E2E2E2E2E2E2E2E2E2E2E2E2E2E2E2E2E2E2E2E2E2E2E2E2E2E2E2E2E2E2E2E2E2E2E2E2E2E2E2E2E2E2E2E2E2E2E2E2E2E2E2E2E2E2E2E2E2E2E2E2E2E2E2E2E2E2E2E2E2E2E2E2E2E2E2E2E2E2E2E2E2E2E2E2E2E2E2E2E2E2E2E2E2E2E2E2E2E2E2E2
310
E2E2E2E2E2E2E2E2E2E2E2E2E2E2E2E2E2E2E2E2E2E2E2E2E2E2E2E2E2E2E2E2E2E2E2E2E2E2E2E2E2E2E2E2E2E2E2E2E2E2E2E2E2E2E2E2E2E2E2E2E2E2E2E2E2E2E2E2E2E2E2E2E2E2E2E2E2E2E2E2E2E2E2E2E2E2E2E2E2E2E2E2E2E2E2E2E2E2E2E2E2E2E2E2E2E2E2E2E2E2E2E2E2E2E2E2E2E2E2E2E2E2E2E2E2E2E2
310
E2E2E2E2E2E2E2E2E2E2E2E2E2E2E2E2E2E2E2E2E2E2E2E2E2E2E2E2E2E2E2E2E2E2E2E2E2E2E2E2E2E2E2E2E2E2E2E2E2E2E2E2E2E2E2E2E2E2E2E2E2E2E2E2E2E2E2E2E2E2E2E2E2E2E2E2E2E2E2E2E2E2E2E2E2E2E2E2E2E2E2E2E2E2E2E2E2E2E2E2E2E2E2E2E2E2E2E2E2E2E2E2E2E2E2E2E2E2E2E2E2E2E2E2E2E2E2
310
E2E2E2E2E2E2E2E2E2E2E2E2E2E2E2E2E2E2E2E2E2E2E2E2E2E2E2E2E2E2E2E2E2E2E2E2E2E2E2E2E2E2E2E2E2E2E2E2E2E2E2E2E2E2E2E2E2E2E2E2E2E2E2E2E2E2E2E2E2E2E2E2E2E2E2E2E2E2E2E2E2E2E2E2E2E2E2E2E2E2E2E2E2E2E2E2E2E2E2E2E2E2E2E2E2E2E2E2E2E2E2E2E2E2E2E2E2E2E2E2E2E2E2E2E2E2E2
310
E2E2E2E2E2E2E2E2E2E2E2E2E2E2E2E2E2E2E2E2E2E2E2E2E2E2E2E2E2E2E2E2E2E2E2E2E2E2E2E2E2E2E2E2E2E2E2E2E2E2E2E2E2E2E2E2E2E2E2E2E2E2E2E2E2E2E2E2E2E2E2E2E2E2E2E2E2E2E2E2E2E2E2E2E2E2E2E2E2E2E2E2E2E2E2E2E2E2E2E2E2E2E2E2E2E2E2E2E2E2E2E2E2E2E2E2E2E2E2E2E2E2E2E2E2E2E2
310
E2E2E2E2E2E2E2E2E2E2E2E2E2E2E2E2E2E2E2E2E2E2E2E2E2E2E2E2E2E2E2E2E2E2E2E2E2E2E2E2E2E2E2E2E2E2E2E2E2E2E2E2E2E2E2E2E2E2E2E2E2E2E2E2E2E2E2E2E2E2E2E2E2E2E2E2E2E2E2E2E2E2E2E2E2E2E2E2E2E2E2E2E2E2E2E2E2E2E2E2E2E2E2E2E2E2E2E2E2E2E2E2E2E2E2E2E2E2E2E2E2E2E2E2E2E2E2
310
E2E2E2E2E2E2E2E2E2E2E2E2E2E2E2E2E2E2E2E2E2E2E2E2E2E2E2E2E2E2E2E2E2E2E2E2E2E2E2E2E2E2E2E2E2E2E2E2E2E2E2E2E2E2E2E2E2E2E2E2E2E2E2E2E2E2E2E2E2E2E2E2E2E2E2E2E2E2E2E2E2E2E2E2E2E2E2E2E2E2E2E2E2E2E2E2E2E2E2E2E2E2E2E2E2E2E2E2E2E2E2E2E2E2E2E2E2E2E2E2E2E2E2E2E2E2E2
310
E2E2E2E2E2E2E2E2E2E2E2E2E2E2E2E2E2E2E2E2E2E2E2E2E2E2E2E2E2E2E2E2E2E2E2E2E2E2E2E2E2E2E2E2E2E2E2E2E2E2E2E2E2E2E2E2E2E2E2E2E2E2E2E2E2E2E2E2E2E2E2E2E2E2E2E2E2E2E2E2E2E2E2E2E2E2E2E2E2E2E2E2E2E2E2E2E2E2E2E2E2E2E2E2E2E2E2E2E2E2E2E2E2E2E2E2E2E2E2E2E2E2E2E2E2E2E2
310
E2E2E2E2E2E2E2E2E2E2E2E2E2E2E2E2E2E2E2E2E2E2E2E2E2E2E2E2E2E2E2E2E2E2E2E2E2E2E2E2E2E2E2E2E2E2E2E2E2E2E2E2E2E2E2E2E2E2E2E2E2E2E2E2E2E2E2E2E2E2E2E2E2E2E2E2E2E2E2E2E2E2E2E2E2E2E2E2E2E2E2E2E2E2E2E2E2E2E2E2E2E2E2E2E2E2E2E2E2E2E2E2E2E2E2E2E2E2E2E2E2E2E2E2E2E2E2
310
E2E2E2E2E2E2E2E2E2E2E2E2E2E2E2E2E2E2E2E2E2E2E2E2E2E2E2E2E2E2E2E2E2E2E2E2E2E2E2E2E2E2E2E2E2E2E2E2E2E2E2E2E2E2E2E2E2E2E2E2E2E2E2E2E2E2E2E2E2E2E2E2E2E2E2E2E2E2E2E2E2E2E2E2E2E2E2E2E2E2E2E2E2E2E2E2E2E2E2E2E2E2E2E2E2E2E2E2E2E2E2E2E2E2E2E2E2E2E2E2E2E2E2E2E2E2E2
310
E2E2E2E2E2E2E2E2E2E2E2E2E2E2E2E2E2E2E2E2E2E2E2E2E2E2E2E2E2E2E2E2E2E2E2E2E2E2E2E2E2E2E2E2E2E2E2E2E2E2E2E2E2E2E2E2E2E2E2E2E2E2E2E2E2E2E2E2E2E2E2E2E2E2E2E2E2E2E2E2E2E2E2E2E2E2E2E2E2E2E2E2E2E2E2E2E2E2E2E2E2E2E2E2E2E2E2E2E2E2E2E2E2E2E2E2E2E2E2E2E2E2E2E2E2E2E2
310
E2E2E2E2E2E2E2E2E2E2E2E2E2E2E2E2E2E2E2E2E2E2E2E2E2E2E2E2E2E2E2E2E2E2E2E2E2E2E2E2E2E2E2E2E2E2E2E2E2E2E2E2E2E2E2E2E2E2E2E2E2E2E2E2E2E2E2E2E2E2E2E2E2E2E2E2E2E2E2E2E2E2E2E2E2E2E2E2E2E2E2E2E2E2E2E2E2E2E2E2E2E2E2E2E2E2E2E2E2E2E2E2E2E2E2E2E2E2E2E2E2E2E2E2E2E2E2
310
E2E2E2E2E2E2E2E2E2E2E2E2E2E2E2E2E2E2E2E2E2E2E2E2E2E2E2E2E2E2E2E2E2E2E2E2E2E2E2E2E2E2E2E2E2E2E2E2E2E2E2E2E2E2E2E2E2E2E2E2E2E2E2E2E2E2E2E2E2E2E2E2E2E2E2E2E2E2E2E2E2E2E2E2E2E2E2E2E2E2E2E2E2E2E2E2E2E2E2E2E2E2E2E2E2E2E2E2E2E2E2E2E2E2E2E2E2E2E2E2E2E2E2E2E2E2E2
310
E2E2E2E2E2E2E2E2E2E2E2E2E2E2E2E2E2E2E2E2E2E2E2E2E2E2E2E2E2E2E2E2E2E2E2E2E2E2E2E2E2E2E2E2E2E2E2E2E2E2E2E2E2E2E2E2E2E2E2E2E2E2E2E2E2E2E2E2E2E2E2E2E2E2E2E2E2E2E2E2E2E2E2E2E2E2E2E2E2E2E2E2E2E2E2E2E2E2E2E2E2E2E2E2E2E2E2E2E2E2E2E2E2E2E2E2E2E2E2E2E2E2E2E2E2E2E2
310
E2E2E2E2E2E2E2E2E2E2E2E2E2E2E2E2E2E2E2E2E2E2E2E2E2E2E2E2E2E2E2E2E2E2E2E2E2E2E2E2E2E2E2E2E2E2E2E2E2E2E2E2E2E2E2E2E2E2E2E2E2E2E2E2E2E2E2E2E2E2E2E2E2E2E2E2E2E2E2E2E2E2E2E2E2E2E2E2E2E2E2E2E2E2E2E2E2E2E2E2E2E2E2E2E2E2E2E2E2E2E2E2E2E2E2E2E2E2E2E2E2E2E2E2E2E2E2
310
E2E2E2E2E2E2E2E2E2E2E2E2E2E2E2E2E2E2E2E2E2E2E2E2E2E2E2E2E2E2E2E2E2E2E2E2E2E2E2E2E2E2E2E2E2E2E2E2E2E2E2E2E2E2E2E2E2E2E2E2E2E2E2E2E2E2E2E2E2E2E2E2E2E2E2E2E2E2E2E2E2E2E2E2E2E2E2E2E2E2E2E2E2E2E2E2E2E2E2E2E2E2E2E2E2E2E2E2E2E2E2E2E2E2E2E2E2E2E2E2E2E2E2E2E2E2E2
310
E2E2E2E2E2E2E2E2E2E2E2E2E2E2E2E2E2E2E2E2E2E2E2E2E2E2E2E2E2E2E2E2E2E2E2E2E2E2E2E2E2E2E2E2E2E2E2E2E2E2E2E2E2E2E2E2E2E2E2E2E2E2E2E2E2E2E2E2E2E2E2E2E2E2E2E2E2E2E2E2E2E2E2E2E2E2E2E2E2E2E2E2E2E2E2E2E2E2E2E2E2E2E2E2E2E2E2E2E2E2E2E2E2E2E2E2E2E2E2E2E2E2E2E2E2E2E2
310
E2E2E2E2E2E2E2E2E2E2E2E2E2E2E2E2E2E2E2E2E2E2E2E2E2E2E2E2E2E2E2E2E2E2E2E2E2E2E2E2E2E2E2E2E2E2E2E2E2E2E2E2E2E2E2E2E2E2E2E2E2E2E2E2E2E2E2E2E2E2E2E2E2E2E2E2E2E2E2E2E2E2E2E2E2E2E2E2E2E2E2E2E2E2E2E2E2E2E2E2E2E2E2E2E2E2E2E2E2E2E2E2E2E2E2E2E2E2E2E2E2E2E2E2E2E2E2
310
E2E2E2E2E2E2E2E2E2E2E2E2E2E2E2E2E2E2E2E2E2E2E2E2E2E2E2E2E2E2E2E2E2E2E2E2E2E2E2E2E2E2E2E2E2E2E2E2E2E2E2E2E2E2E2E2E2E2E2E2E2E2E2E2E2E2E2E2E2E2E2E2E2E2E2E2E2E2E2E2E2E2E2E2E2E2E2E2E2E2E2E2E2E2E2E2E2E2E2E2E2E2E2E2E2E2E2E2E2E2E2E2E2E2E2E2E2E2E2E2E2E2E2E2E2E2E2
310
E2E2E2E2E2E2E2E2E2E2E2E2E2E2E2E2E2E2E2E2E2E2E2E2E2E2E2E2E2E2E2E2E2E2E2E2E2E2E2E2E2E2E2E2E2E2E2E2E2E2E2E2E2E2E2E2E2E2E2E2E2E2E2E2E2E2E2E2E2E2E2E2E2E2E2E2E2E2E2E2E2E2E2E2E2E2E2E2E2E2E2E2E2E2E2E2E2E2E2E2E2E2E2E2E2E2E2E2E2E2E2E2E2E2E2E2E2E2E2E2E2E2E2E2E2E2E2
310
E2E2E2E2E2E2E2E2E2E2E2E2E2E2E2E2E2E2E2E2E2E2E2E2E2E2E2E2E2E2E2E2E2E2E2E2E2E2E2E2E2E2E2E2E2E2E2E2E2E2E2E2E2E2E2E2E2E2E2E2E2E2E2E2E2E2E2E2E2E2E2E2E2E2E2E2E2E2E2E2E2E2E2E2E2E2E2E2E2E2E2E2E2E2E2E2E2E2E2E2E2E2E2E2E2E2E2E2E2E2E2E2E2E2E2E2E2E2E2E2E2E2E2E2E2E2E2
310
E2E2E2E2E2E2E2E2E2E2E2E2E2E2E2E2E2E2E2E2E2E2E2E2E2E2E2E2E2E2E2E2E2E2E2E2E2E2E2E2E2E2E2E2E2E2E2E2E2E2E2E2E2E2E2E2E2E2E2E2E2E2E2E2E2E2E2E2E2E2E2E2E2E2E2E2E2E2E2E2E2E2E2E2E2E2E2E2E2E2E2E2E2E2E2E2E2E2E2E2E2E2E2E2E2E2E2E2E2E2E2E2E2E2E2E2E2E2E2E2E2E2E2E2E2E2E2
310
E2E2E2E2E2E2E2E2E2E2E2E2E2E2E2E2E2E2E2E2E2E2E2E2E2E2E2E2E2E2E2E2E2E2E2E2E2E2E2E2E2E2E2E2E2E2E2E2E2E2E2E2E2E2E2E2E2E2E2E2E2E2E2E2E2E2E2E2E2E2E2E2E2E2E2E2E2E2E2E2E2E2E2E2E2E2E2E2E2E2E2E2E2E2E2E2E2E2E2E2E2E2E2E2E2E2E2E2E2E2E2E2E2E2E2E2E2E2E2E2E2E2E2E2E2E2E2
310
E2E2E2E2E2E2E2E2E2E2E2E2E2E2E2E2E2E2E2E2E2E2E2E2E2E2E2E2E2E2E2E2E2E2E2E2E2E2E2E2E2E2E2E2E2E2E2E2E2E2E2E2E2E2E2E2E2E2E2E2E2E2E2E2E2E2E2E2E2E2E2E2E2E2E2E2E2E2E2E2E2E2E2E2E2E2E2E2E2E2E2E2E2E2E2E2E2E2E2E2E2E2E2E2E2E2E2E2E2E2E2E2E2E2E2E2E2E2E2E2E2E2E2E2E2E2E2
310
E2E2E2E2E2E2E2E2E2E2E2E2E2E2E2E2E2E2E2E2E2E2E2E2E2E2E2E2E2E2E2E2E2E2E2E2E2E2E2E2E2E2E2E2E2E2E2E2E2E2E2E2E2E2E2E2E2E2E2E2E2E2E2E2E2E2E2E2E2E2E2E2E2E2E2E2E2E2E2E2E2E2E2E2E2E2E2E2E2E2E2E2E2E2E2E2E2E2E2E2E2E2E2E2E2E2E2E2E2E2E2E2E2E2E2E2E2E2E2E2E2E2E2E2E2E2E2
310
E2E2E2E2E2E2E2E2E2E2E2E2E2E2E2E2E2E2E2E2E2E2E2E2E2E2E2E2E2E2E2E2E2E2E2E2E2E2E2E2E2E2E2E2E2E2E2E2E2E2E2E2E2E2E2E2E2E2E2E2E2E2E2E2E2E2E2E2E2E2E2E2E2E2E2E2E2E2E2E2E2E2E2E2E2E2E2E2E2E2E2E2E2E2E2E2E2E2E2E2E2E2E2E2E2E2E2E2E2E2E2E2E2E2E2E2E2E2E2E2E2E2E2E2E2E2E2
310
E2E2E2E2E2E2E2E2E2E2E2E2E2E2E2E2E2E2E2E2E2E2E2E2E2E2E2E2E2E2E2E2E2E2E2E2E2E2E2E2E2E2E2E2E2E2E2E2E2E2E2E2E2E2E2E2E2E2E2E2E2E2E2E2E2E2E2E2E2E2E2E2E2E2E2E2E2E2E2E2E2E2E2E2E2E2E2E2E2E2E2E2E2E2E2E2E2E2E2E2E2E2E2E2E2E2E2E2E2E2E2E2E2E2E2E2E2E2E2E2E2E2E2E2E2E2E2
310
E2E2E2E2E2E2E2E2E2E2E2E2E2E2E2E2E2E2E2E2E2E2E2E2E2E2E2E2E2E2E2E2E2E2E2E2E2E2E2E2E2E2E2E2E2E2E2E2E2E2E2E2E2E2E2E2E2E2E2E2E2E2E2E2E2E2E2E2E2E2E2E2E2E2E2E2E2E2E2E2E2E2E2E2E2E2E2E2E2E2E2E2E2E2E2E2E2E2E2E2E2E2E2E2E2E2E2E2E2E2E2E2E2E2E2E2E2E2E2E2E2E2E2E2E2E2E2
310
E2E2E2E2E2E2E2E2E2E2E2E2E2E2E2E2E2E2E2E2E2E2E2E2E2E2E2E2E2E2E2E2E2E2E2E2E2E2E2E2E2E2E2E2E2E2E2E2E2E2E2E2E2E2E2E2E2E2E2E2E2E2E2E2E2E2E2E2E2E2E2E2E2E2E2E2E2E2E2E2E2E2E2E2E2E2E2E2E2E2E2E2E2E2E2E2E2E2E2E2E2E2E2E2E2E2E2E2E2E2E2E2E2E2E2E2E2E2E2E2E2E2E2E2E2E2E2
310
E2E2E2E2E2E2E2E2E2E2E2E2E2E2E2E2E2E2E2E2E2E2E2E2E2E2E2E2E2E2E2E2E2E2E2E2E2E2E2E2E2E2E2E2E2E2E2E2E2E2E2E2E2E2E2E2E2E2E2E2E2E2E2E2E2E2E2E2E2E2E2E2E2E2E2E2E2E2E2E2E2E2E2E2E2E2E2E2E2E2E2E2E2E2E2E2E2E2E2E2E2E2E2E2E2E2E2E2E2E2E2E2E2E2E2E2E2E2E2E2E2E2E2E2E2E2E2
310
E2E2E2E2E2E2E2E2E2E2E2E2E2E2E2E2E2E2E2E2E2E2E2E2E2E2E2E2E2E2E2E2E2E2E2E2E2E2E2E2E2E2E2E2E2E2E2E2E2E2E2E2E2E2E2E2E2E2E2E2E2E2E2E2E2E2E2E2E2E2E2E2E2E2E2E2E2E2E2E2E2E2E2E2E2E2E2E2E2E2E2E2E2E2E2E2E2E2E2E2E2E2E2E2E2E2E2E2E2E2E2E2E2E2E2E2E2E2E2E2E2E2E2E2E2E2E2
310
E2E2E2E2E2E2E2E2E2E2E2E2E2E2E2E2E2E2E2E2E2E2E2E2E2E2E2E2E2E2E2E2E2E2E2E2E2E2E2E2E2E2E2E2E2E2E2E2E2E2E2E2E2E2E2E2E2E2E2E2E2E2E2E2E2E2E2E2E2E2E2E2E2E2E2E2E2E2E2E2E2E2E2E2E2E2E2E2E2E2E2E2E2E2E2E2E2E2E2E2E2E2E2E2E2E2E2E2E2E2E2E2E2E2E2E2E2E2E2E2E2E2E2E2E2E2E2
310
E2E2E2E2E2E2E2E2E2E2E2E2E2E2E2E2E2E2E2E2E2E2E2E2E2E2E2E2E2E2E2E2E2E2E2E2E2E2E2E2E2E2E2E2E2E2E2E2E2E2E2E2E2E2E2E2E2E2E2E2E2E2E2E2E2E2E2E2E2E2E2E2E2E2E2E2E2E2E2E2E2E2E2E2E2E2E2E2E2E2E2E2E2E2E2E2E2E2E2E2E2E2E2E2E2E2E2E2E2E2E2E2E2E2E2E2E2E2E2E2E2E2E2E2E2E2E2
310
E2E2E2E2E2E2E2E2E2E2E2E2E2E2E2E2E2E2E2E2E2E2E2E2E2E2E2E2E2E2E2E2E2E2E2E2E2E2E2E2E2E2E2E2E2E2E2E2E2E2E2E2E2E2E2E2E2E2E2E2E2E2E2E2E2E2E2E2E2E2E2E2E2E2E2E2E2E2E2E2E2E2E2E2E2E2E2E2E2E2E2E2E2E2E2E2E2E2E2E2E2E2E2E2E2E2E2E2E2E2E2E2E2E2E2E2E2E2E2E2E2E2E2E2E2E2E2
310
E2E2E2E2E2E2E2E2E2E2E2E2E2E2E2E2E2E2E2E2E2E2E2E2E2E2E2E2E2E2E2E2E2E2E2E2E2E2E2E2E2E2E2E2E2E2E2E2E2E2E2E2E2E2E2E2E2E2E2E2E2E2E2E2E2E2E2E2E2E2E2E2E2E2E2E2E2E2E2E2E2E2E2E2E2E2E2E2E2E2E2E2E2E2E2E2E2E2E2E2E2E2E2E2E2E2E2E2E2E2E2E2E2E2E2E2E2E2E2E2E2E2E2E2E2E2E2
310
E2E2E2E2E2E2E2E2E2E2E2E2E2E2E2E2E2E2E2E2E2E2E2E2E2E2E2E2E2E2E2E2E2E2E2E2E2E2E2E2E2E2E2E2E2E2E2E2E2E2E2E2E2E2E2E2E2E2E2E2E2E2E2E2E2E2E2E2E2E2E2E2E2E2E2E2E2E2E2E2E2E2E2E2E2E2E2E2E2E2E2E2E2E2E2E2E2E2E2E2E2E2E2E2E2E2E2E2E2E2E2E2E2E2E2E2E2E2E2E2E2E2E2E2E2E2E2
310
E2E2E2E2E2E2E2E2E2E2E2E2E2E2E2E2E2E2E2E2E2E2E2E2E2E2E2E2E2E2E2E2E2E2E2E2E2E2E2E2E2E2E2E2E2E2E2E2E2E2E2E2E2E2E2E2E2E2E2E2E2E2E2E2E2E2E2E2E2E2E2E2E2E2E2E2E2E2E2E2E2E2E2E2E2E2E2E2E2E2E2E2E2E2E2E2E2E2E2E2E2E2E2E2E2E2E2E2E2E2E2E2E2E2E2E2E2E2E2E2E2E2E2E2E2E2E2
310
E2E2E2E2E2E2E2E2E2E2E2E2E2E2E2E2E2E2E2E2E2E2E2E2E2E2E2E2E2E2E2E2E2E2E2E2E2E2E2E2E2E2E2E2E2E2E2E2E2E2E2E2E2E2E2E2E2E2E2E2E2E2E2E2E2E2E2E2E2E2E2E2E2E2E2E2E2E2E2E2E2E2E2E2E2E2E2E2E2E2E2E2E2E2E2E2E2E2E2E2E2E2E2E2E2E2E2E2E2E2E2E2E2E2E2E2E2E2E2E2E2E2E2E2E2E2E2
310
E2E2E2E2E2E2E2E2E2E2E2E2E2E2E2E2E2E2E2E2E2E2E2E2E2E2E2E2E2E2E2E2E2E2E2E2E2E2E2E2E2E2E2E2E2E2E2E2E2E2E2E2E2E2E2E2E2E2E2E2E2E2E2E2E2E2E2E2E2E2E2E2E2E2E2E2E2E2E2E2E2E2E2E2E2E2E2E2E2E2E2E2E2E2E2E2E2E2E2E2E2E2E2E2E2E2E2E2E2E2E2E2E2E2E2E2E2E2E2E2E2E2E2E2E2E2E2
310
E2E2E2E2E2E2E2E2E2E2E2E2E2E2E2E2E2E2E2E2E2E2E2E2E2E2E2E2E2E2E2E2E2E2E2E2E2E2E2E2E2E2E2E2E2E2E2E2E2E2E2E2E2E2E2E2E2E2E2E2E2E2E2E2E2E2E2E2E2E2E2E2E2E2E2E2E2E2E2E2E2E2E2E2E2E2E2E2E2E2E2E2E2E2E2E2E2E2E2E2E2E2E2E2E2E2E2E2E2E2E2E2E2E2E2E2E2E2E2E2E2E2E2E2E2E2E2
310
E2E2E2E2E2E2E2E2E2E2E2E2E2E2E2E2E2E2E2E2E2E2E2E2E2E2E2E2E2E2E2E2E2E2E2E2E2E2E2E2E2E2E2E2E2E2E2E2E2E2E2E2E2E2E2E2E2E2E2E2E2E2E2E2E2E2E2E2E2E2E2E2E2E2E2E2E2E2E2E2E2E2E2E2E2E2E2E2E2E2E2E2E2E2E2E2E2E2E2E2E2E2E2E2E2E2E2E2E2E2E2E2E2E2E2E2E2E2E2E2E2E2E2E2E2E2E2
310
E2E2E2E2E2E2E2E2E2E2E2E2E2E2E2E2E2E2E2E2E2E2E2E2E2E2E2E2E2E2E2E2E2E2E2E2E2E2E2E2E2E2E2E2E2E2E2E2E2E2E2E2E2E2E2E2E2E2E2E2E2E2E2E2E2E2E2E2E2E2E2E2E2E2E2E2E2E2E2E2E2E2E2E2E2E2E2E2E2E2E2E2E2E2E2E2E2E2E2E2E2E2E2E2E2E2E2E2E2E2E2E2E2E2E2E2E2E2E2E2E2E2E2E2E2E2E2
310
E2E2E2E2E2E2E2E2E2E2E2E2E2E2E2E2E2E2E2E2E2E2E2E2E2E2E2E2E2E2E2E2E2E2E2E2E2E2E2E2E2E2E2E2E2E2E2E2E2E2E2E2E2E2E2E2E2E2E2E2E2E2E2E2E2E2E2E2E2E2E2E2E2E2E2E2E2E2E2E2E2E2E2E2E2E2E2E2E2E2E2E2E2E2E2E2E2E2E2E2E2E2E2E2E2E2E2E2E2E2E2E2E2E2E2E2E2E2E2E2E2E2E2E2E2E2E2
310
E2E2E2E2E2E2E2E2E2E2E2E2E2E2E2E2E2E2E2E2E2E2E2E2E2E2E2E2E2E2E2E2E2E2E2E2E2E2E2E2E2E2E2E2E2E2E2E2E2E2E2E2E2E2E2E2E2E2E2E2E2E2E2E2E2E2E2E2E2E2E2E2E2E2E2E2E2E2E2E2E2E2E2E2E2E2E2E2E2E2E2E2E2E2E2E2E2E2E2E2E2E2E2E2E2E2E2E2E2E2E2E2E2E2E2E2E2E2E2E2E2E2E2E2E2E2E2
310
E2E2E2E2E2E2E2E2E2E2E2E2E2E2E2E2E2E2E2E2E2E2E2E2E2E2E2E2E2E2E2E2E2E2E2E2E2E2E2E2E2E2E2E2E2E2E2E2E2E2E2E2E2E2E2E2E2E2E2E2E2E2E2E2E2E2E2E2E2E2E2E2E2E2E2E2E2E2E2E2E2E2E2E2E2E2E2E2E2E2E2E2E2E2E2E2E2E2E2E2E2E2E2E2E2E2E2E2E2E2E2E2E2E2E2E2E2E2E2E2E2E2E2E2E2E2E2
310
E2E2E2E2E2E2E2E2E2E2E2E2E2E2E2E2E2E2E2E2E2E2E2E2E2E2E2E2E2E2E2E2E2E2E2E2E2E2E2E2E2E2E2E2E2E2E2E2E2E2E2E2E2E2E2E2E2E2E2E2E2E2E2E2E2E2E2E2E2E2E2E2E2E2E2E2E2E2E2E2E2E2E2E2E2E2E2E2E2E2E2E2E2E2E2E2E2E2E2E2E2E2E2E2E2E2E2E2E2E2E2E2E2E2E2E2E2E2E2E2E2E2E2E2E2E2E2
310
E2E2E2E2E2E2E2E2E2E2E2E2E2E2E2E2E2E2E2E2E2E2E2E2E2E2E2E2E2E2E2E2E2E2E2E2E2E2E2E2E2E2E2E2E2E2E2E2E2E2E2E2E2E2E2E2E2E2E2E2E2E2E2E2E2E2E2E2E2E2E2E2E2E2E2E2E2E2E2E2E2E2E2E2E2E2E2E2E2E2E2E2E2E2E2E2E2E2E2E2E2E2E2E2E2E2E2E2E2E2E2E2E2E2E2E2E2E2E2E2E2E2E2E2E2E2E2
310
E2E2E2E2E2E2E2E2E2E2E2E2E2E2E2E2E2E2E2E2E2E2E2E2E2E2E2E2E2E2E2E2E2E2E2E2E2E2E2E2E2E2E2E2E2E2E2E2E2E2E2E2E2E2E2E2E2E2E2E2E2E2E2E2E2E2E2E2E2E2E2E2E2E2E2E2E2E2E2E2E2E2E2E2E2E2E2E2E2E2E2E2E2E2E2E2E2E2E2E2E2E2E2E2E2E2E2E2E2E2E2E2E2E2E2E2E2E2E2E2E2E2E2E2E2E2E2
310
E2E2E2E2E2E2E2E2E2E2E2E2E2E2E2E2E2E2E2E2E2E2E2E2E2E2E2E2E2E2E2E2E2E2E2E2E2E2E2E2E2E2E2E2E2E2E2E2E2E2E2E2E2E2E2E2E2E2E2E2E2E2E2E2E2E2E2E2E2E2E2E2E2E2E2E2E2E2E2E2E2E2E2E2E2E2E2E2E2E2E2E2E2E2E2E2E2E2E2E2E2E2E2E2E2E2E2E2E2E2E2E2E2E2E2E2E2E2E2E2E2E2E2E2E2E2E2
310
E2E2E2E2E2E2E2E2E2E2E2E2E2E2E2E2E2E2E2E2E2E2E2E2E2E2E2E2E2E2E2E2E2E2E2E2E2E2E2E2E2E2E2E2E2E2E2E2E2E2E2E2E2E2E2E2E2E2E2E2E2E2E2E2E2E2E2E2E2E2E2E2E2E2E2E2E2E2E2E2E2E2E2E2E2E2E2E2E2E2E2E2E2E2E2E2E2E2E2E2E2E2E2E2E2E2E2E2E2E2E2E2E2E2E2E2E2E2E2E2E2E2E2E2E2E2E2
310
E2E2E2E2E2E2E2E2E2E2E2E2E2E2E2E2E2E2E2E2E2E2E2E2E2E2E2E2E2E2E2E2E2E2E2E2E2E2E2E2E2E2E2E2E2E2E2E2E2E2E2E2E2E2E2E2E2E2E2E2E2E2E2E2E2E2E2E2E2E2E2E2E2E2E2E2E2E2E2E2E2E2E2E2E2E2E2E2E2E2E2E2E2E2E2E2E2E2E2E2E2E2E2E2E2E2E2E2E2E2E2E2E2E2E2E2E2E2E2E2E2E2E2E2E2E2E2
310
E2E2E2E2E2E2E2E2E2E2E2E2E2E2E2E2E2E2E2E2E2E2E2E2E2E2E2E2E2E2E2E2E2E2E2E2E2E2E2E2E2E2E2E2E2E2E2E2E2E2E2E2E2E2E2E2E2E2E2E2E2E2E2E2E2E2E2E2E2E2E2E2E2E2E2E2E2E2E2E2E2E2E2E2E2E2E2E2E2E2E2E2E2E2E2E2E2E2E2E2E2E2E2E2E2E2E2E2E2E2E2E2E2E2E2E2E2E2E2E2E2E2E2E2E2E2E2
310
E2E2E2E2E2E2E2E2E2E2E2E2E2E2E2E2E2E2E2E2E2E2E2E2E2E2E2E2E2E2E2E2E2E2E2E2E2E2E2E2E2E2E2E2E2E2E2E2E2E2E2E2E2E2E2E2E2E2E2E2E2E2E2E2E2E2E2E2E2E2E2E2E2E2E2E2E2E2E2E2E2E2E2E2E2E2E2E2E2E2E2E2E2E2E2E2E2E2E2E2E2E2E2E2E2E2E2E2E2E2E2E2E2E2E2E2E2E2E2E2E2E2E2E2E2E2E2
310
E2E2E2E2E2E2E2E2E2E2E2E2E2E2E2E2E2E2E2E2E2E2E2E2E2E2E2E2E2E2E2E2E2E2E2E2E2E2E2E2E2E2E2E2E2E2E2E2E2E2E2E2E2E2E2E2E2E2E2E2E2E2E2E2E2E2E2E2E2E2E2E2E2E2E2E2E2E2E2E2E2E2E2E2E2E2E2E2E2E2E2E2E2E2E2E2E2E2E2E2E2E2E2E2E2E2E2E2E2E2E2E2E2E2E2E2E2E2E2E2E2E2E2E2E2E2E2
310
E2E2E2E2E2E2E2E2E2E2E2E2E2E2E2E2E2E2E2E2E2E2E2E2E2E2E2E2E2E2E2E2E2E2E2E2E2E2E2E2E2E2E2E2E2E2E2E2E2E2E2E2E2E2E2E2E2E2E2E2E2E2E2E2E2E2E2E2E2E2E2E2E2E2E2E2E2E2E2E2E2E2E2E2E2E2E2E2E2E2E2E2E2E2E2E2E2E2E2E2E2E2E2E2E2E2E2E2E2E2E2E2E2E2E2E2E2E2E2E2E2E2E2E2E2E2E2
310
E2E2E2E2E2E2E2E2E2E2E2E2E2E2E2E2E2E2E2E2E2E2E2E2E2E2E2E2E2E2E2E2E2E2E2E2E2E2E2E2E2E2E2E2E2E2E2E2E2E2E2E2E2E2E2E2E2E2E2E2E2E2E2E2E2E2E2E2E2E2E2E2E2E2E2E2E2E2E2E2E2E2E2E2E2E2E2E2E2E2E2E2E2E2E2E2E2E2E2E2E2E2E2E2E2E2E2E2E2E2E2E2E2E2E2E2E2E2E2E2E2E2E2E2E2E2E2
310
E2E2E2E2E2E2E2E2E2E2E2E2E2E2E2E2E2E2E2E2E2E2E2E2E2E2E2E2E2E2E2E2E2E2E2E2E2E2E2E2E2E2E2E2E2E2E2E2E2E2E2E2E2E2E2E2E2E2E2E2E2E2E2E2E2E2E2E2E2E2E2E2E2E2E2E2E2E2E2E2E2E2E2E2E2E2E2E2E2E2E2E2E2E2E2E2E2E2E2E2E2E2E2E2E2E2E2E2E2E2E2E2E2E2E2E2E2E2E2E2E2E2E2E2E2E2E2
310
E2E2E2E2E2E2E2E2E2E2E2E2E2E2E2E2E2E2E2E2E2E2E2E2E2E2E2E2E2E2E2E2E2E2E2E2E2E2E2E2E2E2E2E2E2E2E2E2E2E2E2E2E2E2E2E2E2E2E2E2E2E2E2E2E2E2E2E2E2E2E2E2E2E2E2E2E2E2E2E2E2E2E2E2E2E2E2E2E2E2E2E2E2E2E2E2E2E2E2E2E2E2E2E2E2E2E2E2E2E2E2E2E2E2E2E2E2E2E2E2E2E2E2E2E2E2E2
310
E2E2E2E2E2E2E2E2E2E2E2E2E2E2E2E2E2E2E2E2E2E2E2E2E2E2E2E2E2E2E2E2E2E2E2E2E2E2E2E2E2E2E2E2E2E2E2E2E2E2E2E2E2E2E2E2E2E2E2E2E2E2E2E2E2E2E2E2E2E2E2E2E2E2E2E2E2E2E2E2E2E2E2E2E2E2E2E2E2E2E2E2E2E2E2E2E2E2E2E2E2E2E2E2E2E2E2E2E2E2E2E2E2E2E2E2E2E2E2E2E2E2E2E2E2E2E2
310
E2E2E2E2E2E2E2E2E2E2E2E2E2E2E2E2E2E2E2E2E2E2E2E2E2E2E2E2E2E2E2E2E2E2E2E2E2E2E2E2E2E2E2E2E2E2E2E2E2E2E2E2E2E2E2E2E2E2E2E2E2E2E2E2E2E2E2E2E2E2E2E2E2E2E2E2E2E2E2E2E2E2E2E2E2E2E2E2E2E2E2E2E2E2E2E2E2E2E2E2E2E2E2E2E2E2E2E2E2E2E2E2E2E2E2E2E2E2E2E2E2E2E2E2E2E2E2
310
E2E2E2E2E2E2E2E2E2E2E2E2E2E2E2E2E2E2E2E2E2E2E2E2E2E2E2E2E2E2E2E2E2E2E2E2E2E2E2E2E2E2E2E2E2E2E2E2E2E2E2E2E2E2E2E2E2E2E2E2E2E2E2E2E2E2E2E2E2E2E2E2E2E2E2E2E2E2E2E2E2E2E2E2E2E2E2E2E2E2E2E2E2E2E2E2E2E2E2E2E2E2E2E2E2E2E2E2E2E2E2E2E2E2E2E2E2E2E2E2E2E2E2E2E2E2E2
310
E2E2E2E2E2E2E2E2E2E2E2E2E2E2E2E2E2E2E2E2E2E2E2E2E2E2E2E2E2E2E2E2E2E2E2E2E2E2E2E2E2E2E2E2E2E2E2E2E2E2E2E2E2E2E2E2E2E2E2E2E2E2E2E2E2E2E2E2E2E2E2E2E2E2E2E2E2E2E2E2E2E2E2E2E2E2E2E2E2E2E2E2E2E2E2E2E2E2E2E2E2E2E2E2E2E2E2E2E2E2E2E2E2E2E2E2E2E2E2E2E2E2E2E2E2E2E2
310
E2E2E2E2E2E2E2E2E2E2E2E2E2E2E2E2E2E2E2E2E2E2E2E2E2E2E2E2E2E2E2E2E2E2E2E2E2E2E2E2E2E2E2E2E2E2E2E2E2E2E2E2E2E2E2E2E2E2E2E2E2E2E2E2E2E2E2E2E2E2E2E2E2E2E2E2E2E2E2E2E2E2E2E2E2E2E2E2E2E2E2E2E2E2E2E2E2E2E2E2E2E2E2E2E2E2E2E2E2E2E2E2E2E2E2E2E2E2E2E2E2E2E2E2E2E2E2
310
E2E2E2E2E2E2E2E2E2E2E2E2E2E2E2E2E2E2E2E2E2E2E2E2E2E2E2E2E2E2E2E2E2E2E2E2E2E2E2E2E2E2E2E2E2E2E2E2E2E2E2E2E2E2E2E2E2E2E2E2E2E2E2E2E2E2E2E2E2E2E2E2E2E2E2E2E2E2E2E2E2E2E2E2E2E2E2E2E2E2E2E2E2E2E2E2E2E2E2E2E2E2E2E2E2E2E2E2E2E2E2E2E2E2E2E2E2E2E2E2E2E2E2E2E2E2E2
310
E2E2E2E2E2E2E2E2E2E2E2E2E2E2E2E2E2E2E2E2E2E2E2E2E2E2E2E2E2E2E2E2E2E2E2E2E2E2E2E2E2E2E2E2E2E2E2E2E2E2E2E2E2E2E2E2E2E2E2E2E2E2E2E2E2E2E2E2E2E2E2E2E2E2E2E2E2E2E2E2E2E2E2E2E2E2E2E2E2E2E2E2E2E2E2E2E2E2E2E2E2E2E2E2E2E2E2E2E2E2E2E2E2E2E2E2E2E2E2E2E2E2E2E2E2E2E2
310
E2E2E2E2E2E2E2E2E2E2E2E2E2E2E2E2E2E2E2E2E2E2E2E2E2E2E2E2E2E2E2E2E2E2E2E2E2E2E2E2E2E2E2E2E2E2E2E2E2E2E2E2E2E2E2E2E2E2E2E2E2E2E2E2E2E2E2E2E2E2E2E2E2E2E2E2E2E2E2E2E2E2E2E2E2E2E2E2E2E2E2E2E2E2E2E2E2E2E2E2E2E2E2E2E2E2E2E2E2E2E2E2E2E2E2E2E2E2E2E2E2E2E2E2E2E2E2
310
E2E2E2E2E2E2E2E2E2E2E2E2E2E2E2E2E2E2E2E2E2E2E2E2E2E2E2E2E2E2E2E2E2E2E2E2E2E2E2E2E2E2E2E2E2E2E2E2E2E2E2E2E2E2E2E2E2E2E2E2E2E2E2E2E2E2E2E2E2E2E2E2E2E2E2E2E2E2E2E2E2E2E2E2E2E2E2E2E2E2E2E2E2E2E2E2E2E2E2E2E2E2E2E2E2E2E2E2E2E2E2E2E2E2E2E2E2E2E2E2E2E2E2E2E2E2E2
310
E2E2E2E2E2E2E2E2E2E2E2E2E2E2E2E2E2E2E2E2E2E2E2E2E2E2E2E2E2E2E2E2E2E2E2E2E2E2E2E2E2E2E2E2E2E2E2E2E2E2E2E2E2E2E2E2E2E2E2E2E2E2E2E2E2E2E2E2E2E2E2E2E2E2E2E2E2E2E2E2E2E2E2E2E2E2E2E2E2E2E2E2E2E2E2E2E2E2E2E2E2E2E2E2E2E2E2E2E2E2E2E2E2E2E2E2E2E2E2E2E2E2E2E2E2E2E2
310
E2E2E2E2E2E2E2E2E2E2E2E2E2E2E2E2E2E2E2E2E2E2E2E2E2E2E2E2E2E2E2E2E2E2E2E2E2E2E2E2E2E2E2E2E2E2E2E2E2E2E2E2E2E2E2E2E2E2E2E2E2E2E2E2E2E2E2E2E2E2E2E2E2E2E2E2E2E2E2E2E2E2E2E2E2E2E2E2E2E2E2E2E2E2E2E2E2E2E2E2E2E2E2E2E2E2E2E2E2E2E2E2E2E2E2E2E2E2E2E2E2E2E2E2E2E2E2
310
E2E2E2E2E2E2E2E2E2E2E2E2E2E2E2E2E2E2E2E2E2E2E2E2E2E2E2E2E2E2E2E2E2E2E2E2E2E2E2E2E2E2E2E2E2E2E2E2E2E2E2E2E2E2E2E2E2E2E2E2E2E2E2E2E2E2E2E2E2E2E2E2E2E2E2E2E2E2E2E2E2E2E2E2E2E2E2E2E2E2E2E2E2E2E2E2E2E2E2E2E2E2E2E2E2E2E2E2E2E2E2E2E2E2E2E2E2E2E2E2E2E2E2E2E2E2E2
310
E2E2E2E2E2E2E2E2E2E2E2E2E2E2E2E2E2E2E2E2E2E2E2E2E2E2E2E2E2E2E2E2E2E2E2E2E2E2E2E2E2E2E2E2E2E2E2E2E2E2E2E2E2E2E2E2E2E2E2E2E2E2E2E2E2E2E2E2E2E2E2E2E2E2E2E2E2E2E2E2E2E2E2E2E2E2E2E2E2E2E2E2E2E2E2E2E2E2E2E2E2E2E2E2E2E2E2E2E2E2E2E2E2E2E2E2E2E2E2E2E2E2E2E2E2E2E2
310
E2E2E2E2E2E2E2E2E2E2E2E2E2E2E2E2E2E2E2E2E2E2E2E2E2E2E2E2E2E2E2E2E2E2E2E2E2E2E2E2E2E2E2E2E2E2E2E2E2E2E2E2E2E2E2E2E2E2E2E2E2E2E2E2E2E2E2E2E2E2E2E2E2E2E2E2E2E2E2E2E2E2E2E2E2E2E2E2E2E2E2E2E2E2E2E2E2E2E2E2E2E2E2E2E2E2E2E2E2E2E2E2E2E2E2E2E2E2E2E2E2E2E2E2E2E2E2
310
E2E2E2E2E2E2E2E2E2E2E2E2E2E2E2E2E2E2E2E2E2E2E2E2E2E2E2E2E2E2E2E2E2E2E2E2E2E2E2E2E2E2E2E2E2E2E2E2E2E2E2E2E2E2E2E2E2E2E2E2E2E2E2E2E2E2E2E2E2E2E2E2E2E2E2E2E2E2E2E2E2E2E2E2E2E2E2E2E2E2E2E2E2E2E2E2E2E2E2E2E2E2E2E2E2E2E2E2E2E2E2E2E2E2E2E2E2E2E2E2E2E2E2E2E2E2E2
310
E2E2E2E2E2E2E2E2E2E2E2E2E2E2E2E2E2E2E2E2E2E2E2E2E2E2E2E2E2E2E2E2E2E2E2E2E2E2E2E2E2E2E2E2E2E2E2E2E2E2E2E2E2E2E2E2E2E2E2E2E2E2E2E2E2E2E2E2E2E2E2E2E2E2E2E2E2E2E2E2E2E2E2E2E2E2E2E2E2E2E2E2E2E2E2E2E2E2E2E2E2E2E2E2E2E2E2E2E2E2E2E2E2E2E2E2E2E2E2E2E2E2E2E2E2E2E2
310
E2E2E2E2E2E2E2E2E2E2E2E2E2E2E2E2E2E2E2E2E2E2E2E2E2E2E2E2E2E2E2E2E2E2E2E2E2E2E2E2E2E2E2E2E2E2E2E2E2E2E2E2E2E2E2E2E2E2E2E2E2E2E2E2E2E2E2E2E2E2E2E2E2E2E2E2E2E2E2E2E2E2E2E2E2E2E2E2E2E2E2E2E2E2E2E2E2E2E2E2E2E2E2E2E2E2E2E2E2E2E2E2E2E2E2E2E2E2E2E2E2E2E2E2E2E2E2
310
E2E2E2E2E2E2E2E2E2E2E2E2E2E2E2E2E2E2E2E2E2E2E2E2E2E2E2E2E2E2E2E2E2E2E2E2E2E2E2E2E2E2E2E2E2E2E2E2E2E2E2E2E2E2E2E2E2E2E2E2E2E2E2E2E2E2E2E2E2E2E2E2E2E2E2E2E2E2E2E2E2E2E2E2E2E2E2E2E2E2E2E2E2E2E2E2E2E2E2E2E2E2E2E2E2E2E2E2E2E2E2E2E2E2E2E2E2E2E2E2E2E2E2E2E2E2E2
310
E2E2E2E2E2E2E2E2E2E2E2E2E2E2E2E2E2E2E2E2E2E2E2E2E2E2E2E2E2E2E2E2E2E2E2E2E2E2E2E2E2E2E2E2E2E2E2E2E2E2E2E2E2E2E2E2E2E2E2E2E2E2E2E2E2E2E2E2E2E2E2E2E2E2E2E2E2E2E2E2E2E2E2E2E2E2E2E2E2E2E2E2E2E2E2E2E2E2E2E2E2E2E2E2E2E2E2E2E2E2E2E2E2E2E2E2E2E2E2E2E2E2E2E2E2E2E2
310
E2E2E2E2E2E2E2E2E2E2E2E2E2E2E2E2E2E2E2E2E2E2E2E2E2E2E2E2E2E2E2E2E2E2E2E2E2E2E2E2E2E2E2E2E2E2E2E2E2E2E2E2E2E2E2E2E2E2E2E2E2E2E2E2E2E2E2E2E2E2E2E2E2E2E2E2E2E2E2E2E2E2E2E2E2E2E2E2E2E2E2E2E2E2E2E2E2E2E2E2E2E2E2E2E2E2E2E2E2E2E2E2E2E2E2E2E2E2E2E2E2E2E2E2E2E2E2
310
E2E2E2E2E2E2E2E2E2E2E2E2E2E2E2E2E2E2E2E2E2E2E2E2E2E2E2E2E2E2E2E2E2E2E2E2E2E2E2E2E2E2E2E2E2E2E2E2E2E2E2E2E2E2E2E2E2E2E2E2E2E2E2E2E2E2E2E2E2E2E2E2E2E2E2E2E2E2E2E2E2E2E2E2E2E2E2E2E2E2E2E2E2E2E2E2E2E2E2E2E2E2E2E2E2E2E2E2E2E2E2E2E2E2E2E2E2E2E2E2E2E2E2E2E2E2E2
310
E2E2E2E2E2E2E2E2E2E2E2E2E2E2E2E2E2E2E2E2E2E2E2E2E2E2E2E2E2E2E2E2E2E2E2E2E2E2E2E2E2E2E2E2E2E2E2E2E2E2E2E2E2E2E2E2E2E2E2E2E2E2E2E2E2E2E2E2E2E2E2E2E2E2E2E2E2E2E2E2E2E2E2E2E2E2E2E2E2E2E2E2E2E2E2E2E2E2E2E2E2E2E2E2E2E2E2E2E2E2E2E2E2E2E2E2E2E2E2E2E2E2E2E2E2E2E2
310
E2E2E2E2E2E2E2E2E2E2E2E2E2E2E2E2E2E2E2E2E2E2E2E2E2E2E2E2E2E2E2E2E2E2E2E2E2E2E2E2E2E2E2E2E2E2E2E2E2E2E2E2E2E2E2E2E2E2E2E2E2E2E2E2E2E2E2E2E2E2E2E2E2E2E2E2E2E2E2E2E2E2E2E2E2E2E2E2E2E2E2E2E2E2E2E2E2E2E2E2E2E2E2E2E2E2E2E2E2E2E2E2E2E2E2E2E2E2E2E2E2E2E2E2E2E2E2
310
E2E2E2E2E2E2E2E2E2E2E2E2E2E2E2E2E2E2E2E2E2E2E2E2E2E2E2E2E2E2E2E2E2E2E2E2E2E2E2E2E2E2E2E2E2E2E2E2E2E2E2E2E2E2E2E2E2E2E2E2E2E2E2E2E2E2E2E2E2E2E2E2E2E2E2E2E2E2E2E2E2E2E2E2E2E2E2E2E2E2E2E2E2E2E2E2E2E2E2E2E2E2E2E2E2E2E2E2E2E2E2E2E2E2E2E2E2E2E2E2E2E2E2E2E2E2E2
310
E2E2E2E2E2E2E2E2E2E2E2E2E2E2E2E2E2E2E2E2E2E2E2E2E2E2E2E2E2E2E2E2E2E2E2E2E2E2E2E2E2E2E2E2E2E2E2E2E2E2E2E2E2E2E2E2E2E2E2E2E2E2E2E2E2E2E2E2E2E2E2E2E2E2E2E2E2E2E2E2E2E2E2E2E2E2E2E2E2E2E2E2E2E2E2E2E2E2E2E2E2E2E2E2E2E2E2E2E2E2E2E2E2E2E2E2E2E2E2E2E2E2E2E2E2E2E2
310
E2E2E2E2E2E2E2E2E2E2E2E2E2E2E2E2E2E2E2E2E2E2E2E2E2E2E2E2E2E2E2E2E2E2E2E2E2E2E2E2E2E2E2E2E2E2E2E2E2E2E2E2E2E2E2E2E2E2E2E2E2E2E2E2E2E2E2E2E2E2E2E2E2E2E2E2E2E2E2E2E2E2E2E2E2E2E2E2E2E2E2E2E2E2E2E2E2E2E2E2E2E2E2E2E2E2E2E2E2E2E2E2E2E2E2E2E2E2E2E2E2E2E2E2E2E2E2
310
E2E2E2E2E2E2E2E2E2E2E2E2E2E2E2E2E2E2E2E2E2E2E2E2E2E2E2E2E2E2E2E2E2E2E2E2E2E2E2E2E2E2E2E2E2E2E2E2E2E2E2E2E2E2E2E2E2E2E2E2E2E2E2E2E2E2E2E2E2E2E2E2E2E2E2E2E2E2E2E2E2E2E2E2E2E2E2E2E2E2E2E2E2E2E2E2E2E2E2E2E2E2E2E2E2E2E2E2E2E2E2E2E2E2E2E2E2E2E2E2E2E2E2E2E2E2E2
310
E2E2E2E2E2E2E2E2E2E2E2E2E2E2E2E2E2E2E2E2E2E2E2E2E2E2E2E2E2E2E2E2E2E2E2E2E2E2E2E2E2E2E2E2E2E2E2E2E2E2E2E2E2E2E2E2E2E2E2E2E2E2E2E2E2E2E2E2E2E2E2E2E2E2E2E2E2E2E2E2E2E2E2E2E2E2E2E2E2E2E2E2E2E2E2E2E2E2E2E2E2E2E2E2E2E2E2E2E2E2E2E2E2E2E2E2E2E2E2E2E2E2E2E2E2E2E2
310
E2E2E2E2E2E2E2E2E2E2E2E2E2E2E2E2E2E2E2E2E2E2E2E2E2E2E2E2E2E2E2E2E2E2E2E2E2E2E2E2E2E2E2E2E2E2E2E2E2E2E2E2E2E2E2E2E2E2E2E2E2E2E2E2E2E2E2E2E2E2E2E2E2E2E2E2E2E2E2E2E2E2E2E2E2E2E2E2E2E2E2E2E2E2E2E2E2E2E2E2E2E2E2E2E2E2E2E2E2E2E2E2E2E2E2E2E2E2E2E2E2E2E2E2E2E2E2
310
E2E2E2E2E2E2E2E2E2E2E2E2E2E2E2E2E2E2E2E2E2E2E2E2E2E2E2E2E2E2E2E2E2E2E2E2E2E2E2E2E2E2E2E2E2E2E2E2E2E2E2E2E2E2E2E2E2E2E2E2E2E2E2E2E2E2E2E2E2E2E2E2E2E2E2E2E2E2E2E2E2E2E2E2E2E2E2E2E2E2E2E2E2E2E2E2E2E2E2E2E2E2E2E2E2E2E2E2E2E2E2E2E2E2E2E2E2E2E2E2E2E2E2E2E2E2E2
310
E2E2E2E2E2E2E2E2E2E2E2E2E2E2E2E2E2E2E2E2E2E2E2E2E2E2E2E2E2E2E2E2E2E2E2E2E2E2E2E2E2E2E2E2E2E2E2E2E2E2E2E2E2E2E2E2E2E2E2E2E2E2E2E2E2E2E2E2E2E2E2E2E2E2E2E2E2E2E2E2E2E2E2E2E2E2E2E2E2E2E2E2E2E2E2E2E2E2E2E2E2E2E2E2E2E2E2E2E2E2E2E2E2E2E2E2E2E2E2E2E2E2E2E2E2E2E2
310
E2E2E2E2E2E2E2E2E2E2E2E2E2E2E2E2E2E2E2E2E2E2E2E2E2E2E2E2E2E2E2E2E2E2E2E2E2E2E2E2E2E2E2E2E2E2E2E2E2E2E2E2E2E2E2E2E2E2E2E2E2E2E2E2E2E2E2E2E2E2E2E2E2E2E2E2E2E2E2E2E2E2E2E2E2E2E2E2E2E2E2E2E2E2E2E2E2E2E2E2E2E2E2E2E2E2E2E2E2E2E2E2E2E2E2E2E2E2E2E2E2E2E2E2E2E2E2
310
E2E2E2E2E2E2E2E2E2E2E2E2E2E2E2E2E2E2E2E2E2E2E2E2E2E2E2E2E2E2E2E2E2E2E2E2E2E2E2E2E2E2E2E2E2E2E2E2E2E2E2E2E2E2E2E2E2E2E2E2E2E2E2E2E2E2E2E2E2E2E2E2E2E2E2E2E2E2E2E2E2E2E2E2E2E2E2E2E2E2E2E2E2E2E2E2E2E2E2E2E2E2E2E2E2E2E2E2E2E2E2E2E2E2E2E2E2E2E2E2E2E2E2E2E2E2E2
310
E2E2E2E2E2E2E2E2E2E2E2E2E2E2E2E2E2E2E2E2E2E2E2E2E2E2E2E2E2E2E2E2E2E2E2E2E2E2E2E2E2E2E2E2E2E2E2E2E2E2E2E2E2E2E2E2E2E2E2E2E2E2E2E2E2E2E2E2E2E2E2E2E2E2E2E2E2E2E2E2E2E2E2E2E2E2E2E2E2E2E2E2E2E2E2E2E2E2E2E2E2E2E2E2E2E2E2E2E2E2E2E2E2E2E2E2E2E2E2E2E2E2E2E2E2E2E2
310
E2E2E2E2E2E2E2E2E2E2E2E2E2E2E2E2E2E2E2E2E2E2E2E2E2E2E2E2E2E2E2E2E2E2E2E2E2E2E2E2E2E2E2E2E2E2E2E2E2E2E2E2E2E2E2E2E2E2E2E2E2E2E2E2E2E2E2E2E2E2E2E2E2E2E2E2E2E2E2E2E2E2E2E2E2E2E2E2E2E2E2E2E2E2E2E2E2E2E2E2E2E2E2E2E2E2E2E2E2E2E2E2E2E2E2E2E2E2E2E2E2E2E2E2E2E2E2
310
E2E2E2E2E2E2E2E2E2E2E2E2E2E2E2E2E2E2E2E2E2E2E2E2E2E2E2E2E2E2E2E2E2E2E2E2E2E2E2E2E2E2E2E2E2E2E2E2E2E2E2E2E2E2E2E2E2E2E2E2E2E2E2E2E2E2E2E2E2E2E2E2E2E2E2E2E2E2E2E2E2E2E2E2E2E2E2E2E2E2E2E2E2E2E2E2E2E2E2E2E2E2E2E2E2E2E2E2E2E2E2E2E2E2E2E2E2E2E2E2E2E2E2E2E2E2E2
310
E2E2E2E2E2E2E2E2E2E2E2E2E2E2E2E2E2E2E2E2E2E2E2E2E2E2E2E2E2E2E2E2E2E2E2E2E2E2E2E2E2E2E2E2E2E2E2E2E2E2E2E2E2E2E2E2E2E2E2E2E2E2E2E2E2E2E2E2E2E2E2E2E2E2E2E2E2E2E2E2E2E2E2E2E2E2E2E2E2E2E2E2E2E2E2E2E2E2E2E2E2E2E2E2E2E2E2E2E2E2E2E2E2E2E2E2E2E2E2E2E2E2E2E2E2E2E2
310
E2E2E2E2E2E2E2E2E2E2E2E2E2E2E2E2E2E2E2E2E2E2E2E2E2E2E2E2E2E2E2E2E2E2E2E2E2E2E2E2E2E2E2E2E2E2E2E2E2E2E2E2E2E2E2E2E2E2E2E2E2E2E2E2E2E2E2E2E2E2E2E2E2E2E2E2E2E2E2E2E2E2E2E2E2E2E2E2E2E2E2E2E2E2E2E2E2E2E2E2E2E2E2E2E2E2E2E2E2E2E2E2E2E2E2E2E2E2E2E2E2E2E2E2E2E2E2
310
E2E2E2E2E2E2E2E2E2E2E2E2E2E2E2E2E2E2E2E2E2E2E2E2E2E2E2E2E2E2E2E2E2E2E2E2E2E2E2E2E2E2E2E2E2E2E2E2E2E2E2E2E2E2E2E2E2E2E2E2E2E2E2E2E2E2E2E2E2E2E2E2E2E2E2E2E2E2E2E2E2E2E2E2E2E2E2E2E2E2E2E2E2E2E2E2E2E2E2E2E2E2E2E2E2E2E2E2E2E2E2E2E2E2E2E2E2E2E2E2E2E2E2E2E2E2E2
310
E2E2E2E2E2E2E2E2E2E2E2E2E2E2E2E2E2E2E2E2E2E2E2E2E2E2E2E2E2E2E2E2E2E2E2E2E2E2E2E2E2E2E2E2E2E2E2E2E2E2E2E2E2E2E2E2E2E2E2E2E2E2E2E2E2E2E2E2E2E2E2E2E2E2E2E2E2E2E2E2E2E2E2E2E2E2E2E2E2E2E2E2E2E2E2E2E2E2E2E2E2E2E2E2E2E2E2E2E2E2E2E2E2E2E2E2E2E2E2E2E2E2E2E2E2E2E2
310
E2E2E2E2E2E2E2E2E2E2E2E2E2E2E2E2E2E2E2E2E2E2E2E2E2E2E2E2E2E2E2E2E2E2E2E2E2E2E2E2E2E2E2E2E2E2E2E2E2E2E2E2E2E2E2E2E2E2E2E2E2E2E2E2E2E2E2E2E2E2E2E2E2E2E2E2E2E2E2E2E2E2E2E2E2E2E2E2E2E2E2E2E2E2E2E2E2E2E2E2E2E2E2E2E2E2E2E2E2E2E2E2E2E2E2E2E2E2E2E2E2E2E2E2E2E2E2
310
E2E2E2E2E2E2E2E2E2E2E2E2E2E2E2E2E2E2E2E2E2E2E2E2E2E2E2E2E2E2E2E2E2E2E2E2E2E2E2E2E2E2E2E2E2E2E2E2E2E2E2E2E2E2E2E2E2E2E2E2E2E2E2E2E2E2E2E2E2E2E2E2E2E2E2E2E2E2E2E2E2E2E2E2E2E2E2E2E2E2E2E2E2E2E2E2E2E2E2E2E2E2E2E2E2E2E2E2E2E2E2E2E2E2E2E2E2E2E2E2E2E2E2E2E2E2E2
310
E2E2E2E2E2E2E2E2E2E2E2E2E2E2E2E2E2E2E2E2E2E2E2E2E2E2E2E2E2E2E2E2E2E2E2E2E2E2E2E2E2E2E2E2E2E2E2E2E2E2E2E2E2E2E2E2E2E2E2E2E2E2E2E2E2E2E2E2E2E2E2E2E2E2E2E2E2E2E2E2E2E2E2E2E2E2E2E2E2E2E2E2E2E2E2E2E2E2E2E2E2E2E2E2E2E2E2E2E2E2E2E2E2E2E2E2E2E2E2E2E2E2E2E2E2E2E2
310
E2E2E2E2E2E2E2E2E2E2E2E2E2E2E2E2E2E2E2E2E2E2E2E2E2E2E2E2E2E2E2E2E2E2E2E2E2E2E2E2E2E2E2E2E2E2E2E2E2E2E2E2E2E2E2E2E2E2E2E2E2E2E2E2E2E2E2E2E2E2E2E2E2E2E2E2E2E2E2E2E2E2E2E2E2E2E2E2E2E2E2E2E2E2E2E2E2E2E2E2E2E2E2E2E2E2E2E2E2E2E2E2E2E2E2E2E2E2E2E2E2E2E2E2E2E2E2
310
E2E2E2E2E2E2E2E2E2E2E2E2E2E2E2E2E2E2E2E2E2E2E2E2E2E2E2E2E2E2E2E2E2E2E2E2E2E2E2E2E2E2E2E2E2E2E2E2E2E2E2E2E2E2E2E2E2E2E2E2E2E2E2E2E2E2E2E2E2E2E2E2E2E2E2E2E2E2E2E2E2E2E2E2E2E2E2E2E2E2E2E2E2E2E2E2E2E2E2E2E2E2E2E2E2E2E2E2E2E2E2E2E2E2E2E2E2E2E2E2E2E2E2E2E2E2E2
310
E2E2E2E2E2E2E2E2E2E2E2E2E2E2E2E2E2E2E2E2E2E2E2E2E2E2E2E2E2E2E2E2E2E2E2E2E2E2E2E2E2E2E2E2E2E2E2E2E2E2E2E2E2E2E2E2E2E2E2E2E2E2E2E2E2E2E2E2E2E2E2E2E2E2E2E2E2E2E2E2E2E2E2E2E2E2E2E2E2E2E2E2E2E2E2E2E2E2E2E2E2E2E2E2E2E2E2E2E2E2E2E2E2E2E2E2E2E2E2E2E2E2E2E2E2E2E2
310
E2E2E2E2E2E2E2E2E2E2E2E2E2E2E2E2E2E2E2E2E2E2E2E2E2E2E2E2E2E2E2E2E2E2E2E2E2E2E2E2E2E2E2E2E2E2E2E2E2E2E2E2E2E2E2E2E2E2E2E2E2E2E2E2E2E2E2E2E2E2E2E2E2E2E2E2E2E2E2E2E2E2E2E2E2E2E2E2E2E2E2E2E2E2E2E2E2E2E2E2E2E2E2E2E2E2E2E2E2E2E2E2E2E2E2E2E2E2E2E2E2E2E2E2E2E2E2
310
E2E2E2E2E2E2E2E2E2E2E2E2E2E2E2E2E2E2E2E2E2E2E2E2E2E2E2E2E2E2E2E2E2E2E2E2E2E2E2E2E2E2E2E2E2E2E2E2E2E2E2E2E2E2E2E2E2E2E2E2E2E2E2E2E2E2E2E2E2E2E2E2E2E2E2E2E2E2E2E2E2E2E2E2E2E2E2E2E2E2E2E2E2E2E2E2E2E2E2E2E2E2E2E2E2E2E2E2E2E2E2E2E2E2E2E2E2E2E2E2E2E2E2E2E2E2E2
310
E2E2E2E2E2E2E2E2E2E2E2E2E2E2E2E2E2E2E2E2E2E2E2E2E2E2E2E2E2E2E2E2E2E2E2E2E2E2E2E2E2E2E2E2E2E2E2E2E2E2E2E2E2E2E2E2E2E2E2E2E2E2E2E2E2E2E2E2E2E2E2E2E2E2E2E2E2E2E2E2E2E2E2E2E2E2E2E2E2E2E2E2E2E2E2E2E2E2E2E2E2E2E2E2E2E2E2E2E2E2E2E2E2E2E2E2E2E2E2E2E2E2E2E2E2E2E2
310
E2E2E2E2E2E2E2E2E2E2E2E2E2E2E2E2E2E2E2E2E2E2E2E2E2E2E2E2E2E2E2E2E2E2E2E2E2E2E2E2E2E2E2E2E2E2E2E2E2E2E2E2E2E2E2E2E2E2E2E2E2E2E2E2E2E2E2E2E2E2E2E2E2E2E2E2E2E2E2E2E2E2E2E2E2E2E2E2E2E2E2E2E2E2E2E2E2E2E2E2E2E2E2E2E2E2E2E2E2E2E2E2E2E2E2E2E2E2E2E2E2E2E2E2E2E2E2
310
E2E2E2E2E2E2E2E2E2E2E2E2E2E2E2E2E2E2E2E2E2E2E2E2E2E2E2E2E2E2E2E2E2E2E2E2E2E2E2E2E2E2E2E2E2E2E2E2E2E2E2E2E2E2E2E2E2E2E2E2E2E2E2E2E2E2E2E2E2E2E2E2E2E2E2E2E2E2E2E2E2E2E2E2E2E2E2E2E2E2E2E2E2E2E2E2E2E2E2E2E2E2E2E2E2E2E2E2E2E2E2E2E2E2E2E2E2E2E2E2E2E2E2E2E2E2E2
310
E2E2E2E2E2E2E2E2E2E2E2E2E2E2E2E2E2E2E2E2E2E2E2E2E2E2E2E2E2E2E2E2E2E2E2E2E2E2E2E2E2E2E2E2E2E2E2E2E2E2E2E2E2E2E2E2E2E2E2E2E2E2E2E2E2E2E2E2E2E2E2E2E2E2E2E2E2E2E2E2E2E2E2E2E2E2E2E2E2E2E2E2E2E2E2E2E2E2E2E2E2E2E2E2E2E2E2E2E2E2E2E2E2E2E2E2E2E2E2E2E2E2E2E2E2E2E2
310
E2E2E2E2E2E2E2E2E2E2E2E2E2E2E2E2E2E2E2E2E2E2E2E2E2E2E2E2E2E2E2E2E2E2E2E2E2E2E2E2E2E2E2E2E2E2E2E2E2E2E2E2E2E2E2E2E2E2E2E2E2E2E2E2E2E2E2E2E2E2E2E2E2E2E2E2E2E2E2E2E2E2E2E2E2E2E2E2E2E2E2E2E2E2E2E2E2E2E2E2E2E2E2E2E2E2E2E2E2E2E2E2E2E2E2E2E2E2E2E2E2E2E2E2E2E2E2
310
E2E2E2E2E2E2E2E2E2E2E2E2E2E2E2E2E2E2E2E2E2E2E2E2E2E2E2E2E2E2E2E2E2E2E2E2E2E2E2E2E2E2E2E2E2E2E2E2E2E2E2E2E2E2E2E2E2E2E2E2E2E2E2E2E2E2E2E2E2E2E2E2E2E2E2E2E2E2E2E2E2E2E2E2E2E2E2E2E2E2E2E2E2E2E2E2E2E2E2E2E2E2E2E2E2E2E2E2E2E2E2E2E2E2E2E2E2E2E2E2E2E2E2E2E2E2E2
310
E2E2E2E2E2E2E2E2E2E2E2E2E2E2E2E2E2E2E2E2E2E2E2E2E2E2E2E2E2E2E2E2E2E2E2E2E2E2E2E2E2E2E2E2E2E2E2E2E2E2E2E2E2E2E2E2E2E2E2E2E2E2E2E2E2E2E2E2E2E2E2E2E2E2E2E2E2E2E2E2E2E2E2E2E2E2E2E2E2E2E2E2E2E2E2E2E2E2E2E2E2E2E2E2E2E2E2E2E2E2E2E2E2E2E2E2E2E2E2E2E2E2E2E2E2E2E2
310
E2E2E2E2E2E2E2E2E2E2E2E2E2E2E2E2E2E2E2E2E2E2E2E2E2E2E2E2E2E2E2E2E2E2E2E2E2E2E2E2E2E2E2E2E2E2E2E2E2E2E2E2E2E2E2E2E2E2E2E2E2E2E2E2E2E2E2E2E2E2E2E2E2E2E2E2E2E2E2E2E2E2E2E2E2E2E2E2E2E2E2E2E2E2E2E2E2E2E2E2E2E2E2E2E2E2E2E2E2E2E2E2E2E2E2E2E2E2E2E2E2E2E2E2E2E2E2
310
E2E2E2E2E2E2E2E2E2E2E2E2E2E2E2E2E2E2E2E2E2E2E2E2E2E2E2E2E2E2E2E2E2E2E2E2E2E2E2E2E2E2E2E2E2E2E2E2E2E2E2E2E2E2E2E2E2E2E2E2E2E2E2E2E2E2E2E2E2E2E2E2E2E2E2E2E2E2E2E2E2E2E2E2E2E2E2E2E2E2E2E2E2E2E2E2E2E2E2E2E2E2E2E2E2E2E2E2E2E2E2E2E2E2E2E2E2E2E2E2E2E2E2E2E2E2E2
310
E2E2E2E2E2E2E2E2E2E2E2E2E2E2E2E2E2E2E2E2E2E2E2E2E2E2E2E2E2E2E2E2E2E2E2E2E2E2E2E2E2E2E2E2E2E2E2E2E2E2E2E2E2E2E2E2E2E2E2E2E2E2E2E2E2E2E2E2E2E2E2E2E2E2E2E2E2E2E2E2E2E2E2E2E2E2E2E2E2E2E2E2E2E2E2E2E2E2E2E2E2E2E2E2E2E2E2E2E2E2E2E2E2E2E2E2E2E2E2E2E2E2E2E2E2E2E2
310
E2E2E2E2E2E2E2E2E2E2E2E2E2E2E2E2E2E2E2E2E2E2E2E2E2E2E2E2E2E2E2E2E2E2E2E2E2E2E2E2E2E2E2E2E2E2E2E2E2E2E2E2E2E2E2E2E2E2E2E2E2E2E2E2E2E2E2E2E2E2E2E2E2E2E2E2E2E2E2E2E2E2E2E2E2E2E2E2E2E2E2E2E2E2E2E2E2E2E2E2E2E2E2E2E2E2E2E2E2E2E2E2E2E2E2E2E2E2E2E2E2E2E2E2E2E2E2
310
E2E2E2E2E2E2E2E2E2E2E2E2E2E2E2E2E2E2E2E2E2E2E2E2E2E2E2E2E2E2E2E2E2E2E2E2E2E2E2E2E2E2E2E2E2E2E2E2E2E2E2E2E2E2E2E2E2E2E2E2E2E2E2E2E2E2E2E2E2E2E2E2E2E2E2E2E2E2E2E2E2E2E2E2E2E2E2E2E2E2E2E2E2E2E2E2E2E2E2E2E2E2E2E2E2E2E2E2E2E2E2E2E2E2E2E2E2E2E2E2E2E2E2E2E2E2E2
310
E2E2E2E2E2E2E2E2E2E2E2E2E2E2E2E2E2E2E2E2E2E2E2E2E2E2E2E2E2E2E2E2E2E2E2E2E2E2E2E2E2E2E2E2E2E2E2E2E2E2E2E2E2E2E2E2E2E2E2E2E2E2E2E2E2E2E2E2E2E2E2E2E2E2E2E2E2E2E2E2E2E2E2E2E2E2E2E2E2E2E2E2E2E2E2E2E2E2E2E2E2E2E2E2E2E2E2E2E2E2E2E2E2E2E2E2E2E2E2E2E2E2E2E2E2E2E2
310
E2E2E2E2E2E2E2E2E2E2E2E2E2E2E2E2E2E2E2E2E2E2E2E2E2E2E2E2E2E2E2E2E2E2E2E2E2E2E2E2E2E2E2E2E2E2E2E2E2E2E2E2E2E2E2E2E2E2E2E2E2E2E2E2E2E2E2E2E2E2E2E2E2E2E2E2E2E2E2E2E2E2E2E2E2E2E2E2E2E2E2E2E2E2E2E2E2E2E2E2E2E2E2E2E2E2E2E2E2E2E2E2E2E2E2E2E2E2E2E2E2E2E2E2E2E2E2
310
E2E2E2E2E2E2E2E2E2E2E2E2E2E2E2E2E2E2E2E2E2E2E2E2E2E2E2E2E2E2E2E2E2E2E2E2E2E2E2E2E2E2E2E2E2E2E2E2E2E2E2E2E2E2E2E2E2E2E2E2E2E2E2E2E2E2E2E2E2E2E2E2E2E2E2E2E2E2E2E2E2E2E2E2E2E2E2E2E2E2E2E2E2E2E2E2E2E2E2E2E2E2E2E2E2E2E2E2E2E2E2E2E2E2E2E2E2E2E2E2E2E2E2E2E2E2E2
310
E2E2E2E2E2E2E2E2E2E2E2E2E2E2E2E2E2E2E2E2E2E2E2E2E2E2E2E2E2E2E2E2E2E2E2E2E2E2E2E2E2E2E2E2E2E2E2E2E2E2E2E2E2E2E2E2E2E2E2E2E2E2E2E2E2E2E2E2E2E2E2E2E2E2E2E2E2E2E2E2E2E2E2E2E2E2E2E2E2E2E2E2E2E2E2E2E2E2E2E2E2E2E2E2E2E2E2E2E2E2E2E2E2E2E2E2E2E2E2E2E2E2E2E2E2E2E2
310
E2E2E2E2E2E2E2E2E2E2E2E2E2E2E2E2E2E2E2E2E2E2E2E2E2E2E2E2E2E2E2E2E2E2E2E2E2E2E2E2E2E2E2E2E2E2E2E2E2E2E2E2E2E2E2E2E2E2E2E2E2E2E2E2E2E2E2E2E2E2E2E2E2E2E2E2E2E2E2E2E2E2E2E2E2E2E2E2E2E2E2E2E2E2E2E2E2E2E2E2E2E2E2E2E2E2E2E2E2E2E2E2E2E2E2E2E2E2E2E2E2E2E2E2E2E2E2
310
E2E2E2E2E2E2E2E2E2E2E2E2E2E2E2E2E2E2E2E2E2E2E2E2E2E2E2E2E2E2E2E2E2E2E2E2E2E2E2E2E2E2E2E2E2E2E2E2E2E2E2E2E2E2E2E2E2E2E2E2E2E2E2E2E2E2E2E2E2E2E2E2E2E2E2E2E2E2E2E2E2E2E2E2E2E2E2E2E2E2E2E2E2E2E2E2E2E2E2E2E2E2E2E2E2E2E2E2E2E2E2E2E2E2E2E2E2E2E2E2E2E2E2E2E2E2E2
310
E2E2E2E2E2E2E2E2E2E2E2E2E2E2E2E2E2E2E2E2E2E2E2E2E2E2E2E2E2E2E2E2E2E2E2E2E2E2E2E2E2E2E2E2E2E2E2E2E2E2E2E2E2E2E2E2E2E2E2E2E2E2E2E2E2E2E2E2E2E2E2E2E2E2E2E2E2E2E2E2E2E2E2E2E2E2E2E2E2E2E2E2E2E2E2E2E2E2E2E2E2E2E2E2E2E2E2E2E2E2E2E2E2E2E2E2E2E2E2E2E2E2E2E2E2E2E2
310
E2E2E2E2E2E2E2E2E2E2E2E2E2E2E2E2E2E2E2E2E2E2E2E2E2E2E2E2E2E2E2E2E2E2E2E2E2E2E2E2E2E2E2E2E2E2E2E2E2E2E2E2E2E2E2E2E2E2E2E2E2E2E2E2E2E2E2E2E2E2E2E2E2E2E2E2E2E2E2E2E2E2E2E2E2E2E2E2E2E2E2E2E2E2E2E2E2E2E2E2E2E2E2E2E2E2E2E2E2E2E2E2E2E2E2E2E2E2E2E2E2E2E2E2E2E2E2
310
E2E2E2E2E2E2E2E2E2E2E2E2E2E2E2E2E2E2E2E2E2E2E2E2E2E2E2E2E2E2E2E2E2E2E2E2E2E2E2E2E2E2E2E2E2E2E2E2
  0
XRECORD
  5
BBC
102
{ACAD_REACTORS
330
BBB
102
}
330
BBB
100
AcDbXrecord
280
     1
102
SHADEPLOT
 70
     0
102
SHADEPLOTRESLEVEL
 70
     2
102
SHADEPLOTCUSTOMDPI
 70
   300
  0
XRECORD
  5
BC5
102
{ACAD_REACTORS
330
BC4
102
}
330
BC4
100
AcDbXrecord
280
     1
102
MATERIAL
148
0.0
149
0.0
149
0.0
 93
        0
 94
       63
282
     0
 72
     1
 77
     1
171
     1
175
     1
179
     1
273
     0
  0
XRECORD
  5
BC3
102
{ACAD_REACTORS
330
BC2
102
}
330
BC2
100
AcDbXrecord
280
     1
102
MATERIAL
148
0.0
149
0.0
149
0.0
 93
        0
 94
       63
282
     0
 72
     1
 77
     1
171
     1
175
     1
179
     1
273
     0
  0
XRECORD
  5
BC7
102
{ACAD_REACTORS
330
BC6
102
}
330
BC6
100
AcDbXrecord
280
     1
102
MATERIAL
148
0.0
149
0.0
149
0.0
 93
        0
 94
       63
282
     0
 72
     1
 77
     1
171
     1
175
     1
179
     1
273
     0
  0
XRECORD
  5
BBA
102
{ACAD_REACTORS
330
BB9
102
}
330
BB9
100
AcDbXrecord
280
     1
102
ACAD_ROUNDTRIP_PRE2007_TABLESTYLE
 90
        4
 91
        0
  1

 92
        4
 93
        0
  2

 94
        4
 95
        0
  3

  0
ENDSEC
  0
EOF
