  0
SECTION
  2
HEADER
  9
$ACADVER
  1
AC1015
  9
$ACADMAINTVER
 70
    20
  9
$DWGCODEPAGE
  3
ANSI_1252
  9
$INSBASE
 10
0.0
 20
0.0
 30
0.0
  9
$EXTMIN
 10
34.37552046830751
 20
130.321113059392
 30
0.0
  9
$EXTMAX
 10
70.37552046830751
 20
155.9581460851497
 30
0.0
  9
$LIMMIN
 10
0.0
 20
0.0
  9
$LIMMAX
 10
100.0
 20
100.0
  9
$ORTHOMODE
 70
     1
  9
$REGENMODE
 70
     1
  9
$FILLMODE
 70
     1
  9
$QTEXTMODE
 70
     0
  9
$MIRRTEXT
 70
     1
  9
$LTSCALE
 40
0.1
  9
$ATTMODE
 70
     1
  9
$TEXTSIZE
 40
2.0
  9
$TRACEWID
 40
1.0
  9
$TEXTSTYLE
  7
STANDARD
  9
$CLAYER
  8
0
  9
$CELTYPE
  6
BYLAYER
  9
$CECOLOR
 62
    30
  9
$CELTSCALE
 40
1.0
  9
$DISPSILH
 70
     0
  9
$DIMSCALE
 40
1.0
  9
$DIMASZ
 40
0.18
  9
$DIMEXO
 40
0.1
  9
$DIMDLI
 40
0.38
  9
$DIMRND
 40
0.0
  9
$DIMDLE
 40
0.0
  9
$DIMEXE
 40
0.1
  9
$DIMTP
 40
0.0
  9
$DIMTM
 40
0.0
  9
$DIMTXT
 40
0.5
  9
$DIMCEN
 40
0.09
  9
$DIMTSZ
 40
0.0
  9
$DIMTOL
 70
     0
  9
$DIMLIM
 70
     0
  9
$DIMTIH
 70
     1
  9
$DIMTOH
 70
     1
  9
$DIMSE1
 70
     0
  9
$DIMSE2
 70
     0
  9
$DIMTAD
 70
     0
  9
$DIMZIN
 70
     0
  9
$DIMBLK
  1

  9
$DIMASO
 70
     1
  9
$DIMSHO
 70
     1
  9
$DIMPOST
  1

  9
$DIMAPOST
  1

  9
$DIMALT
 70
     0
  9
$DIMALTD
 70
     2
  9
$DIMALTF
 40
25.4
  9
$DIMLFAC
 40
1.0
  9
$DIMTOFL
 70
     0
  9
$DIMTVP
 40
0.0
  9
$DIMTIX
 70
     0
  9
$DIMSOXD
 70
     1
  9
$DIMSAH
 70
     0
  9
$DIMBLK1
  1

  9
$DIMBLK2
  1

  9
$DIMSTYLE
  2
STANDARD
  9
$DIMCLRD
 70
     0
  9
$DIMCLRE
 70
     0
  9
$DIMCLRT
 70
     0
  9
$DIMTFAC
 40
1.0
  9
$DIMGAP
 40
0.09
  9
$DIMJUST
 70
     0
  9
$DIMSD1
 70
     0
  9
$DIMSD2
 70
     0
  9
$DIMTOLJ
 70
     1
  9
$DIMTZIN
 70
     0
  9
$DIMALTZ
 70
     0
  9
$DIMALTTZ
 70
     0
  9
$DIMUPT
 70
     1
  9
$DIMDEC
 70
     3
  9
$DIMTDEC
 70
     3
  9
$DIMALTU
 70
     2
  9
$DIMALTTD
 70
     2
  9
$DIMTXSTY
  7
STANDARD
  9
$DIMAUNIT
 70
     0
  9
$DIMADEC
 70
     0
  9
$DIMALTRND
 40
0.0
  9
$DIMAZIN
 70
     0
  9
$DIMDSEP
 70
    46
  9
$DIMATFIT
 70
     3
  9
$DIMFRAC
 70
     0
  9
$DIMLDRBLK
  1

  9
$DIMLUNIT
 70
     2
  9
$DIMLWD
 70
    -2
  9
$DIMLWE
 70
    -2
  9
$DIMTMOVE
 70
     0
  9
$LUNITS
 70
     2
  9
$LUPREC
 70
     3
  9
$SKETCHINC
 40
1.0
  9
$FILLETRAD
 40
1.0
  9
$AUNITS
 70
     0
  9
$AUPREC
 70
     0
  9
$MENU
  1
.
  9
$ELEVATION
 40
0.0
  9
$PELEVATION
 40
0.0
  9
$THICKNESS
 40
0.0
  9
$LIMCHECK
 70
     0
  9
$CHAMFERA
 40
10.0
  9
$CHAMFERB
 40
10.0
  9
$CHAMFERC
 40
20.0
  9
$CHAMFERD
 40
0.0
  9
$SKPOLY
 70
     0
  9
$TDCREATE
 40
2452880.591628472
  9
$TDUCREATE
 40
2452880.883295139
  9
$TDUPDATE
 40
2454918.451459190
  9
$TDUUPDATE
 40
2454918.743125857
  9
$TDINDWG
 40
2.4791737384
  9
$TDUSRTIMER
 40
2.4791721065
  9
$USRTIMER
 70
     1
  9
$ANGBASE
 50
0.0
  9
$ANGDIR
 70
     0
  9
$PDMODE
 70
     0
  9
$PDSIZE
 40
0.0
  9
$PLINEWID
 40
0.0
  9
$SPLFRAME
 70
     0
  9
$SPLINETYPE
 70
     6
  9
$SPLINESEGS
 70
     8
  9
$HANDSEED
  5
7FA1
  9
$SURFTAB1
 70
     6
  9
$SURFTAB2
 70
     6
  9
$SURFTYPE
 70
     6
  9
$SURFU
 70
     6
  9
$SURFV
 70
     6
  9
$UCSBASE
  2

  9
$UCSNAME
  2

  9
$UCSORG
 10
0.0
 20
0.0
 30
0.0
  9
$UCSXDIR
 10
1.0
 20
0.0
 30
0.0
  9
$UCSYDIR
 10
0.0
 20
1.0
 30
0.0
  9
$UCSORTHOREF
  2

  9
$UCSORTHOVIEW
 70
     0
  9
$UCSORGTOP
 10
0.0
 20
0.0
 30
0.0
  9
$UCSORGBOTTOM
 10
0.0
 20
0.0
 30
0.0
  9
$UCSORGLEFT
 10
0.0
 20
0.0
 30
0.0
  9
$UCSORGRIGHT
 10
0.0
 20
0.0
 30
0.0
  9
$UCSORGFRONT
 10
0.0
 20
0.0
 30
0.0
  9
$UCSORGBACK
 10
0.0
 20
0.0
 30
0.0
  9
$PUCSBASE
  2

  9
$PUCSNAME
  2

  9
$PUCSORG
 10
0.0
 20
0.0
 30
0.0
  9
$PUCSXDIR
 10
1.0
 20
0.0
 30
0.0
  9
$PUCSYDIR
 10
0.0
 20
1.0
 30
0.0
  9
$PUCSORTHOREF
  2

  9
$PUCSORTHOVIEW
 70
     0
  9
$PUCSORGTOP
 10
0.0
 20
0.0
 30
0.0
  9
$PUCSORGBOTTOM
 10
0.0
 20
0.0
 30
0.0
  9
$PUCSORGLEFT
 10
0.0
 20
0.0
 30
0.0
  9
$PUCSORGRIGHT
 10
0.0
 20
0.0
 30
0.0
  9
$PUCSORGFRONT
 10
0.0
 20
0.0
 30
0.0
  9
$PUCSORGBACK
 10
0.0
 20
0.0
 30
0.0
  9
$USERI1
 70
     0
  9
$USERI2
 70
     0
  9
$USERI3
 70
     0
  9
$USERI4
 70
     0
  9
$USERI5
 70
     0
  9
$USERR1
 40
0.0
  9
$USERR2
 40
0.0
  9
$USERR3
 40
0.0
  9
$USERR4
 40
0.0
  9
$USERR5
 40
0.0
  9
$WORLDVIEW
 70
     1
  9
$SHADEDGE
 70
     3
  9
$SHADEDIF
 70
    70
  9
$TILEMODE
 70
     1
  9
$MAXACTVP
 70
    64
  9
$PINSBASE
 10
0.0
 20
0.0
 30
0.0
  9
$PLIMCHECK
 70
     0
  9
$PEXTMIN
 10
1.000000000000000E+20
 20
1.000000000000000E+20
 30
1.000000000000000E+20
  9
$PEXTMAX
 10
-1.000000000000000E+20
 20
-1.000000000000000E+20
 30
-1.000000000000000E+20
  9
$PLIMMIN
 10
0.0
 20
0.0
  9
$PLIMMAX
 10
420.0
 20
297.0
  9
$UNITMODE
 70
     0
  9
$VISRETAIN
 70
     1
  9
$PLINEGEN
 70
     0
  9
$PSLTSCALE
 70
     1
  9
$TREEDEPTH
 70
  3020
  9
$CMLSTYLE
  2
STANDARD
  9
$CMLJUST
 70
     0
  9
$CMLSCALE
 40
20.0
  9
$PROXYGRAPHICS
 70
     1
  9
$MEASUREMENT
 70
     0
  9
$CELWEIGHT
370
    -1
  9
$ENDCAPS
280
     0
  9
$JOINSTYLE
280
     0
  9
$LWDISPLAY
290
     0
  9
$INSUNITS
 70
     1
  9
$HYPERLINKBASE
  1

  9
$STYLESHEET
  1
monochrome.ctb
  9
$XEDIT
290
     1
  9
$CEPSNTYPE
380
     0
  9
$PSTYLEMODE
290
     1
  9
$FINGERPRINTGUID
  2
{19466902-D943-11D7-A6FC-9325B794187F}
  9
$VERSIONGUID
  2
{9DD0FE1E-D853-4587-92A8-285D457D7DA2}
  9
$EXTNAMES
290
     1
  9
$PSVPSCALE
 40
0.0
  9
$OLESTARTUP
290
     0
  0
ENDSEC
  0
SECTION
  2
CLASSES
  0
CLASS
  1
ACDBDICTIONARYWDFLT
  2
AcDbDictionaryWithDefault
  3
ObjectDBX Classes
 90
        0
280
     0
281
     0
  0
CLASS
  1
ACDBPLACEHOLDER
  2
AcDbPlaceHolder
  3
ObjectDBX Classes
 90
        0
280
     0
281
     0
  0
CLASS
  1
LAYOUT
  2
AcDbLayout
  3
ObjectDBX Classes
 90
        0
280
     0
281
     0
  0
CLASS
  1
DICTIONARYVAR
  2
AcDbDictionaryVar
  3
ObjectDBX Classes
 90
        0
280
     0
281
     0
  0
CLASS
  1
TABLESTYLE
  2
AcDbTableStyle
  3
ObjectDBX Classes
 90
     4095
280
     0
281
     0
  0
CLASS
  1
DIMASSOC
  2
AcDbDimAssoc
  3
"AcDbDimAssoc|Product Desc:     AcDim ARX App For Dimension|Company:          Autodesk, Inc.|WEB Address:      www.autodesk.com"
 90
    32768
280
     0
281
     0
  0
CLASS
  1
SORTENTSTABLE
  2
AcDbSortentsTable
  3
ObjectDBX Classes
 90
        0
280
     0
281
     0
  0
CLASS
  1
MATERIAL
  2
AcDbMaterial
  3
ObjectDBX Classes
 90
     1024
280
     0
281
     0
  0
CLASS
  1
VISUALSTYLE
  2
AcDbVisualStyle
  3
ObjectDBX Classes
 90
     4095
280
     0
281
     0
  0
ENDSEC
  0
SECTION
  2
TABLES
  0
TABLE
  2
VPORT
  5
8
330
0
100
AcDbSymbolTable
 70
     1
  0
VPORT
  5
7F7A
330
8
100
AcDbSymbolTableRecord
100
AcDbViewportTableRecord
  2
*Active
 70
     0
 10
0.0
 20
0.0
 11
1.0
 21
1.0
 12
55.42388273977689
 22
143.1361480636291
 13
0.0
 23
0.0
 14
10.0
 24
10.0
 15
10.0
 25
10.0
 16
0.0
 26
0.0
 36
1.0
 17
0.0
 27
0.0
 37
0.0
 40
25.99404909333953
 41
1.644662921348314
 42
50.0
 43
0.0
 44
0.0
 50
0.0
 51
0.0
 71
     0
 72
   100
 73
     1
 74
     1
 75
     0
 76
     0
 77
     0
 78
     0
281
     0
 65
     1
110
0.0
120
0.0
130
0.0
111
1.0
121
0.0
131
0.0
112
0.0
122
1.0
132
0.0
 79
     0
146
0.0
  0
ENDTAB
  0
TABLE
  2
LTYPE
  5
5
330
0
100
AcDbSymbolTable
 70
     5
  0
LTYPE
  5
14
330
5
100
AcDbSymbolTableRecord
100
AcDbLinetypeTableRecord
  2
BYBLOCK
 70
     0
  3

 72
    65
 73
     0
 40
0.0
  0
LTYPE
  5
15
330
5
100
AcDbSymbolTableRecord
100
AcDbLinetypeTableRecord
  2
BYLAYER
 70
     0
  3

 72
    65
 73
     0
 40
0.0
  0
LTYPE
  5
16
330
5
100
AcDbSymbolTableRecord
100
AcDbLinetypeTableRecord
  2
CONTINUOUS
 70
     0
  3
Solid line
 72
    65
 73
     0
 40
0.0
  0
LTYPE
  5
7E2F
330
5
100
AcDbSymbolTableRecord
100
AcDbLinetypeTableRecord
  2
CENTER
 70
     0
  3
Center ____ _ ____ _ ____ _ ____ _ ____ _ ____
 72
    65
 73
     4
 40
2.0
 49
1.25
 74
     0
 49
-0.25
 74
     0
 49
0.25
 74
     0
 49
-0.25
 74
     0
  0
LTYPE
  5
7E30
330
5
100
AcDbSymbolTableRecord
100
AcDbLinetypeTableRecord
  2
HIDDEN
 70
     0
  3
Hidden __ __ __ __ __ __ __ __ __ __ __ __ __ __
 72
    65
 73
     2
 40
1.905
 49
1.27
 74
     0
 49
-0.635
 74
     0
  0
LTYPE
  5
7E31
330
5
100
AcDbSymbolTableRecord
100
AcDbLinetypeTableRecord
  2
CENTERX2
 70
     0
  3
Center (2x) ________  __  ________  __  _____
 72
    65
 73
     4
 40
20.32
 49
12.7
 74
     0
 49
-2.54
 74
     0
 49
2.54
 74
     0
 49
-2.54
 74
     0
  0
LTYPE
  5
7E32
330
5
100
AcDbSymbolTableRecord
100
AcDbLinetypeTableRecord
  2
PHANTOM
 70
     0
  3
Phantom ______  __  __  ______  __  __  ______
 72
    65
 73
     6
 40
2.5
 49
1.25
 74
     0
 49
-0.25
 74
     0
 49
0.25
 74
     0
 49
-0.25
 74
     0
 49
0.25
 74
     0
 49
-0.25
 74
     0
  0
ENDTAB
  0
TABLE
  2
LAYER
  5
2
102
{ACAD_XDICTIONARY
360
A7F
102
}
330
0
100
AcDbSymbolTable
 70
     7
  0
LAYER
  5
10
330
2
100
AcDbSymbolTableRecord
100
AcDbLayerTableRecord
  2
0
 70
     0
 62
     7
  6
CONTINUOUS
370
    -3
390
F
  0
LAYER
  5
7D
330
2
100
AcDbSymbolTableRecord
100
AcDbLayerTableRecord
  2
DEFPOINTS
 70
     0
 62
     7
  6
CONTINUOUS
290
     0
370
    -3
390
F
  0
LAYER
  5
7E33
330
2
100
AcDbSymbolTableRecord
100
AcDbLayerTableRecord
  2
GRS_GAMBAR
 70
     0
 62
     7
  6
CONTINUOUS
370
    -3
390
F
  0
LAYER
  5
7E34
330
2
100
AcDbSymbolTableRecord
100
AcDbLayerTableRecord
  2
DIM
 70
     0
 62
     7
  6
CONTINUOUS
370
    -3
390
F
  0
LAYER
  5
7F4E
330
2
100
AcDbSymbolTableRecord
100
AcDbLayerTableRecord
  2
LAYER1
 70
     0
 62
    20
  6
CENTER
370
    -3
390
F
  0
LAYER
  5
7F4F
330
2
100
AcDbSymbolTableRecord
100
AcDbLayerTableRecord
  2
LAYER3
 70
     0
 62
     3
  6
CONTINUOUS
370
    -3
390
F
  0
LAYER
  5
7F50
330
2
100
AcDbSymbolTableRecord
100
AcDbLayerTableRecord
  2
TEXTOS
 70
     0
 62
     7
  6
CONTINUOUS
370
    -3
390
F
  0
ENDTAB
  0
TABLE
  2
STYLE
  5
3
330
0
100
AcDbSymbolTable
 70
     2
  0
STYLE
  5
11
330
3
100
AcDbSymbolTableRecord
100
AcDbTextStyleTableRecord
  2
STANDARD
 70
     0
 40
0.0
 41
1.0
 50
0.0
 71
     0
 42
2.0
  3
simplex.shx
  4

  0
STYLE
  5
7E35
330
3
100
AcDbSymbolTableRecord
100
AcDbTextStyleTableRecord
  2
BLACK
 70
     0
 40
0.4
 41
1.0
 50
0.0
 71
     0
 42
0.4
  3
ARIAL.TTF
  4

1001
ACAD
1000
Arial
1071
       34
  0
ENDTAB
  0
TABLE
  2
VIEW
  5
6
330
0
100
AcDbSymbolTable
 70
     0
  0
ENDTAB
  0
TABLE
  2
UCS
  5
7
330
0
100
AcDbSymbolTable
 70
     0
  0
ENDTAB
  0
TABLE
  2
APPID
  5
9
330
0
100
AcDbSymbolTable
 70
     9
  0
APPID
  5
12
330
9
100
AcDbSymbolTableRecord
100
AcDbRegAppTableRecord
  2
ACAD
 70
     0
  0
APPID
  5
38C8
330
9
100
AcDbSymbolTableRecord
100
AcDbRegAppTableRecord
  2
CONTENTBLOCKICON
 70
     0
  0
APPID
  5
3B71
330
9
100
AcDbSymbolTableRecord
100
AcDbRegAppTableRecord
  2
DCO15
 70
     0
  0
APPID
  5
7E37
330
9
100
AcDbSymbolTableRecord
100
AcDbRegAppTableRecord
  2
ACAD_PSEXT
 70
     0
  0
APPID
  5
7E38
330
9
100
AcDbSymbolTableRecord
100
AcDbRegAppTableRecord
  2
ACAD_DSTYLE_DIMEXT_LENGTH
 70
     0
  0
APPID
  5
7E39
330
9
100
AcDbSymbolTableRecord
100
AcDbRegAppTableRecord
  2
ACAD_DSTYLE_DIMEXT_ENABLED
 70
     0
  0
APPID
  5
7E3A
330
9
100
AcDbSymbolTableRecord
100
AcDbRegAppTableRecord
  2
ACAD_DSTYLE_DIMJOGGED_JOGANGLE_SYMBOL
 70
     0
  0
APPID
  5
7E3B
330
9
100
AcDbSymbolTableRecord
100
AcDbRegAppTableRecord
  2
ACAD_DSTYLE_DIMARC_LENGTH_SYMBOL
 70
     0
  0
APPID
  5
7F28
330
9
100
AcDbSymbolTableRecord
100
AcDbRegAppTableRecord
  2
ACAD_EXEMPT_FROM_CAD_STANDARDS
 70
     0
  0
ENDTAB
  0
TABLE
  2
DIMSTYLE
  5
A
330
0
100
AcDbSymbolTable
 70
     3
100
AcDbDimStyleTable
 71
     1
340
3D
  0
DIMSTYLE
105
3D
330
A
100
AcDbSymbolTableRecord
100
AcDbDimStyleTableRecord
  2
STANDARD
 70
     0
 42
0.1
 44
0.1
140
0.5
175
     1
271
     3
272
     3
288
     1
340
11
  0
DIMSTYLE
105
7E36
330
A
100
AcDbSymbolTableRecord
100
AcDbDimStyleTableRecord
  2
COPY_OF_STANDARD
 70
     0
  3
mm
  4
"
 41
3.0
 42
2.0
 43
9.5
 44
1.0
 73
     0
 74
     0
 77
     1
140
3.0
141
2.0
143
0.03937
144
6.0
170
     1
171
     3
271
     0
272
     0
273
     7
274
     3
340
11
  0
DIMSTYLE
105
7F51
330
A
100
AcDbSymbolTableRecord
100
AcDbDimStyleTableRecord
  2
ISO-25
 70
     0
  3
"
 41
2.5
 42
0.625
 43
3.75
 44
1.25
 73
     0
 74
     0
 77
     1
 78
     8
140
2.5
141
2.5
143
0.03937007874016
147
0.625
171
     3
172
     1
271
     5
272
     5
274
     3
283
     0
284
     8
340
11
  0
ENDTAB
  0
TABLE
  2
BLOCK_RECORD
  5
1
330
0
100
AcDbSymbolTable
 70
     3
  0
BLOCK_RECORD
  5
1F
102
{ACAD_XDICTIONARY
360
3823
102
}
330
1
100
AcDbSymbolTableRecord
100
AcDbBlockTableRecord
  2
*MODEL_SPACE
340
3B6A
  0
BLOCK_RECORD
  5
1B
102
{ACAD_XDICTIONARY
360
3821
102
}
330
1
100
AcDbSymbolTableRecord
100
AcDbBlockTableRecord
  2
*PAPER_SPACE
340
3B6B
  0
BLOCK_RECORD
  5
3E
330
1
100
AcDbSymbolTableRecord
100
AcDbBlockTableRecord
  2
MYPROTNEW
340
0
102
{BLKREFS
331
43
102
}
  0
BLOCK_RECORD
  5
7F38
102
{ACAD_XDICTIONARY
360
7F49
102
}
330
1
100
AcDbSymbolTableRecord
100
AcDbBlockTableRecord
  2
A$C28AA30B8
340
0
1001
ACAD
1000
DesignCenter Data
1002
{
1070
     1
1070
     1
1002
}
  0
BLOCK_RECORD
  5
7F52
102
{ACAD_XDICTIONARY
360
7F6B
102
}
330
1
100
AcDbSymbolTableRecord
100
AcDbBlockTableRecord
  2
A$C48C256DD
340
0
1001
ACAD
1000
DesignCenter Data
1002
{
1070
     1
1070
     1
1002
}
  0
ENDTAB
  0
ENDSEC
  0
SECTION
  2
BLOCKS
  0
BLOCK
  5
20
330
1F
100
AcDbEntity
  8
0
100
AcDbBlockBegin
  2
*MODEL_SPACE
 70
     0
 10
0.0
 20
0.0
 30
0.0
  3
*MODEL_SPACE
  1

  0
ENDBLK
  5
21
330
1F
100
AcDbEntity
  8
0
100
AcDbBlockEnd
  0
BLOCK
  5
1C
330
1B
100
AcDbEntity
 67
     1
  8
0
100
AcDbBlockBegin
  2
*PAPER_SPACE
 70
     0
 10
0.0
 20
0.0
 30
0.0
  3
*PAPER_SPACE
  1

  0
ENDBLK
  5
1D
330
1B
100
AcDbEntity
 67
     1
  8
0
100
AcDbBlockEnd
  0
BLOCK
  5
3F
330
3E
100
AcDbEntity
  8
0
100
AcDbBlockBegin
  2
MYPROTNEW
 70
     0
 10
0.0
 20
0.0
 30
0.0
  3
MYPROTNEW
  1

  0
ENDBLK
  5
40
330
3E
100
AcDbEntity
  8
0
100
AcDbBlockEnd
  0
BLOCK
  5
7F4B
330
7F38
100
AcDbEntity
  8
0
 62
    30
100
AcDbBlockBegin
  2
A$C28AA30B8
 70
     0
 10
0.0
 20
0.0
 30
0.0
  3
A$C28AA30B8
  1

  0
LINE
  5
7F39
330
7F38
100
AcDbEntity
  8
0
  6
CENTER
 48
12.0
100
AcDbLine
 10
0.0
 20
2.221716764318784
 30
0.0
 11
0.0
 21
-2.572127859874797
 31
0.0
  0
ARC
  5
7F3A
330
7F38
100
AcDbEntity
  8
0
  6
PHANTOM
 48
12.0
100
AcDbCircle
 10
-2.375
 20
-1.9375
 30
0.0
 40
7.8125
100
AcDbArc
 50
140.6923518838926
 51
224.3326916441641
  0
ARC
  5
7F3B
330
7F38
100
AcDbEntity
  8
0
  6
HIDDEN
 62
     6
 48
12.0
100
AcDbCircle
 10
-2.375
 20
-1.9375
 30
0.0
 40
7.3125
100
AcDbArc
 50
140.6923518838926
 51
224.3326916441641
  0
ARC
  5
7F3C
330
7F38
100
AcDbEntity
  8
0
  6
PHANTOM
 48
12.0
100
AcDbCircle
 10
2.375
 20
-1.9375
 30
0.0
 40
7.8125
100
AcDbArc
 50
315.6673083558356
 51
39.30764811610712
  0
ARC
  5
7F3D
330
7F38
100
AcDbEntity
  8
0
  6
HIDDEN
 62
     6
 48
12.0
100
AcDbCircle
 10
2.375
 20
-1.9375
 30
0.0
 40
7.3125
100
AcDbArc
 50
315.6673083558356
 51
39.30764811610712
  0
ARC
  5
7F3E
330
7F38
100
AcDbEntity
  8
0
  6
PHANTOM
 48
12.0
100
AcDbCircle
 10
0.0
 20
-3.881944444444457
 30
0.0
 40
10.88194444444444
100
AcDbArc
 50
39.30764811610712
 51
140.6923518838926
  0
ARC
  5
7F3F
330
7F38
100
AcDbEntity
  8
0
  6
HIDDEN
 62
     6
 48
12.0
100
AcDbCircle
 10
0.0
 20
-3.881944444444457
 30
0.0
 40
10.38194444444444
100
AcDbArc
 50
39.30764811610712
 51
140.6923518838926
  0
ARC
  5
7F40
330
7F38
100
AcDbEntity
  8
0
  6
PHANTOM
 48
12.0
100
AcDbCircle
 10
0.0
 20
0.3828125
 30
0.0
 40
11.13281249999999
100
AcDbArc
 50
224.3326916441641
 51
315.6673083558356
  0
ARC
  5
7F41
330
7F38
100
AcDbEntity
  8
0
  6
HIDDEN
 62
     6
 48
12.0
100
AcDbCircle
 10
0.0
 20
0.3828125
 30
0.0
 40
10.63281249999999
100
AcDbArc
 50
224.3326916441641
 51
315.6673083558356
  0
CIRCLE
  5
7F42
330
7F38
100
AcDbEntity
  8
0
100
AcDbCircle
 10
0.0
 20
0.0
 30
0.0
 40
0.875
  0
CIRCLE
  5
7F43
330
7F38
100
AcDbEntity
  8
0
100
AcDbCircle
 10
0.0
 20
0.0
 30
0.0
 40
1.25
  0
LINE
  5
7F44
330
7F38
100
AcDbEntity
  8
0
  6
CENTER
 48
12.0
100
AcDbLine
 10
-2.06758442743893
 20
0.0
 30
0.0
 11
2.06758442743893
 21
0.0
 31
0.0
  0
LEADER
  5
7F45
330
7F38
100
AcDbEntity
  8
0
  6
Continuous
 62
     7
100
AcDbLeader
  3
STANDARD
 40
0.511811014
 41
1.766029213142856
 76
     3
 10
9.809950285958535
 20
0.4293431064219533
 30
0.0
 10
7.668776228377538
 20
-2.740272609302138
 30
0.0
 10
6.993383265279817
 20
-2.740272609302138
 30
0.0
213
0.0
223
0.059055117
233
0.0
1001
ACAD
1000
DSTYLE
1002
{
1070
   147
1040
0.6
1070
    77
1070
     0
1002
}
  0
MTEXT
  5
7F46
330
7F38
100
AcDbEntity
  8
0
 62
     7
100
AcDbMText
 10
6.916966706372903
 20
-2.886197415886698
 30
0.0
 40
0.19685039
 41
5.218993890951871
 71
     6
 72
     5
  1
RIM OF LAVATORY\PBORDE DEL LAVABO\PREBORDE DE LAVABO
 73
     1
 44
1.0
1001
ACAD
1000
MTEXTBEGIN
1070
    73
1070
     1
1070
    44
1040
1.0
1070
    74
1070
     0
1000
MTEXTEND
  0
MTEXT
  5
7F47
330
7F38
100
AcDbEntity
  8
0
 62
     7
100
AcDbMText
 10
-1.140588793669905
 20
-8.226089154878536
 30
0.0
 40
0.19685039
 41
5.431524892030432
 71
     6
 72
     5
  1
CUT ALONG THIS LINE\PCORTE A LO LARGO DE ESTA LINEA\PDECOUPER AU LONG DE CETTE LIGNE
 73
     1
 44
1.0
1001
ACAD
1000
MTEXTBEGIN
1070
    73
1070
     1
1070
    44
1040
1.0
1070
    74
1070
     0
1000
MTEXTEND
1000
ACAD_MTEXT_DEFINED_HEIGHT_BEGIN
1070
    46
1040
1.895578545603916
1000
ACAD_MTEXT_DEFINED_HEIGHT_END
  0
LEADER
  5
7F48
330
7F38
100
AcDbEntity
  8
0
  6
Continuous
 62
     7
100
AcDbLeader
  3
STANDARD
 40
0.511811014
 41
1.766029213142856
 76
     3
 10
2.163866813323693
 20
-9.887363593270492
 30
0.0
 10
-0.2446468438603517
 20
-8.469803880563404
 30
0.0
 10
-0.9200398069580444
 20
-8.469803880563404
 30
0.0
213
0.0
223
0.059055117
233
0.0
1001
ACAD
1000
DSTYLE
1002
{
1070
   147
1040
0.6
1070
    77
1070
     0
1002
}
  0
ENDBLK
  5
7F4C
330
7F38
100
AcDbEntity
  8
0
 62
    30
100
AcDbBlockEnd
  0
BLOCK
  5
7F6C
330
7F52
100
AcDbEntity
  8
0
 62
    30
100
AcDbBlockBegin
  2
A$C48C256DD
 70
     0
 10
0.0
 20
0.0
 30
0.0
  3
A$C48C256DD
  1

  0
ELLIPSE
  5
7F53
330
7F52
100
AcDbEntity
  8
LAYER3
100
AcDbEllipse
 10
-1.125
 20
-9.098869696896414
 30
0.0
 11
-0.3125
 21
0.0
 31
0.0
210
0.0
220
0.0
230
1.0
 40
0.6858712836823543
 41
3.665191429188088
 42
5.759586531581289
  0
ELLIPSE
  5
7F54
330
7F52
100
AcDbEntity
  8
LAYER3
100
AcDbEllipse
 10
-1.125
 20
-8.884534920745693
 30
0.0
 11
-0.3125
 21
0.0
 31
0.0
210
0.0
220
0.0
230
1.0
 40
0.6858712836823543
 41
0.0
 42
6.283185307179585
  0
ELLIPSE
  5
7F55
330
7F52
100
AcDbEntity
  8
LAYER3
100
AcDbEllipse
 10
0.0
 20
-8.893381426577022
 30
0.0
 11
-0.3125
 21
0.0
 31
0.0
210
0.0
220
0.0
230
1.0
 40
0.6858712836823543
 41
0.0
 42
6.283185307179585
  0
ELLIPSE
  5
7F56
330
7F52
100
AcDbEntity
  8
LAYER3
100
AcDbEllipse
 10
0.0
 20
-9.107716202727772
 30
0.0
 11
-0.3125
 21
0.0
 31
0.0
210
0.0
220
0.0
230
1.0
 40
0.6858712836823543
 41
3.665191429188088
 42
5.759586531581289
  0
ELLIPSE
  5
7F57
330
7F52
100
AcDbEntity
  8
LAYER3
100
AcDbEllipse
 10
1.125
 20
-9.098869696896414
 30
0.0
 11
-0.3125
 21
0.0
 31
0.0
210
0.0
220
0.0
230
1.0
 40
0.6858712836823543
 41
3.665191429188088
 42
5.759586531581289
  0
ELLIPSE
  5
7F58
330
7F52
100
AcDbEntity
  8
LAYER3
100
AcDbEllipse
 10
1.125
 20
-8.884534920745693
 30
0.0
 11
-0.3125
 21
0.0
 31
0.0
210
0.0
220
0.0
230
1.0
 40
0.6858712836823543
 41
0.0
 42
6.283185307179585
  0
ARC
  5
7F59
330
7F52
100
AcDbEntity
  8
LAYER3
100
AcDbCircle
 10
-1.5625
 20
-3.437497847591814
 30
0.0
 40
5.6875
100
AcDbArc
 50
108.1806969940291
 51
218.7178223964922
  0
ARC
  5
7F5A
330
7F52
100
AcDbEntity
  8
LAYER3
100
AcDbCircle
 10
0.0
 20
-8.195270247188076
 30
0.0
 40
10.69527440150411
100
AcDbArc
 50
71.81930300597089
 51
108.1806969940291
  0
ARC
  5
7F5B
330
7F52
100
AcDbEntity
  8
LAYER3
100
AcDbCircle
 10
1.5625
 20
-3.437497847591814
 30
0.0
 40
5.6875
100
AcDbArc
 50
321.2821776035078
 51
71.81930300597089
  0
ARC
  5
7F5C
330
7F52
100
AcDbEntity
  8
LAYER3
100
AcDbCircle
 10
0.0
 20
-9.001290388555808
 30
0.0
 40
11.50129440257648
100
AcDbArc
 50
53.60162769853951
 51
126.3983723014605
  0
LINE
  5
7F5D
330
7F52
100
AcDbEntity
  8
LAYER1
100
AcDbLine
 10
0.0
 20
5.675191586391349
 30
0.0
 11
-0.0000000000001137
 21
-11.9703934026944
 31
0.0
  0
ARC
  5
7F5E
330
7F52
100
AcDbEntity
  8
LAYER3
100
AcDbCircle
 10
0.0
 20
-2.184901115166141
 30
0.0
 40
7.690099516649161
100
AcDbArc
 50
218.7178223964922
 51
321.2821776035078
  0
ARC
  5
7F5F
330
7F52
100
AcDbEntity
  8
LAYER3
100
AcDbCircle
 10
0.0014251850283245
 20
-2.221880644237572
 30
0.0
 40
8.528118739489077
100
AcDbArc
 50
231.7789776377642
 51
308.2090968313027
  0
ARC
  5
7F60
330
7F52
100
AcDbEntity
  8
LAYER3
100
AcDbCircle
 10
-0.3125
 20
-2.562497847591814
 30
0.0
 40
8.066375037772543
100
AcDbArc
 50
184.956877073501
 51
232.0339086037816
  0
ARC
  5
7F61
330
7F52
100
AcDbEntity
  8
LAYER3
100
AcDbCircle
 10
-4.5625
 20
-2.812497847591814
 30
0.0
 40
3.8125
100
AcDbArc
 50
126.3983723014605
 51
186.7329213268595
  0
CIRCLE
  5
7F62
330
7F52
100
AcDbEntity
  8
LAYER3
100
AcDbCircle
 10
0.0
 20
0.0
 30
0.0
 40
1.25
  0
LINE
  5
7F63
330
7F52
100
AcDbEntity
  8
LAYER1
100
AcDbLine
 10
-1.906756247916064
 20
0.0
 30
0.0
 11
1.906756247916064
 21
0.0
 31
0.0
  0
CIRCLE
  5
7F64
330
7F52
100
AcDbEntity
  8
LAYER3
100
AcDbCircle
 10
0.0
 20
0.0
 30
0.0
 40
0.875
  0
ARC
  5
7F65
330
7F52
100
AcDbEntity
  8
LAYER3
100
AcDbCircle
 10
0.3149143468690454
 20
-2.562847990633173
 30
0.0
 40
8.066375037772543
100
AcDbArc
 50
307.9574550382434
 51
357.5075405256995
  0
ARC
  5
7F66
330
7F52
100
AcDbEntity
  8
LAYER3
100
AcDbCircle
 10
4.5625
 20
-2.812497847591814
 30
0.0
 40
3.8125
100
AcDbArc
 50
354.7928233476977
 51
53.60162769853951
  0
CIRCLE
  5
7F67
330
7F52
100
AcDbEntity
  8
LAYER3
100
AcDbCircle
 10
0.0
 20
4.5
 30
0.0
 40
0.625
  0
ARC
  5
7F68
330
7F52
100
AcDbEntity
  8
LAYER3
100
AcDbCircle
 10
0.0
 20
-2.886206982079002
 30
0.0
 40
9.885880846754018
100
AcDbArc
 50
357.3115551432881
 51
182.6884448567119
  0
ARC
  5
7F69
330
7F52
100
AcDbEntity
  8
LAYER3
100
AcDbCircle
 10
-0.0000000000000568
 20
-2.03864877637423
 30
0.0
 40
9.961677358950772
100
AcDbArc
 50
187.5637930116058
 51
352.4362069884002
  0
LINE
  5
7F6A
330
7F52
100
AcDbEntity
  8
LAYER1
100
AcDbLine
 10
9.874999999999943
 20
-3.349904206804282
 30
0.0
 11
-10.81071760504306
 21
-3.349904206804311
 31
0.0
  0
ENDBLK
  5
7F6D
330
7F52
100
AcDbEntity
  8
0
 62
    30
100
AcDbBlockEnd
  0
ENDSEC
  0
SECTION
  2
ENTITIES
  0
INSERT
  5
43
330
1F
100
AcDbEntity
  8
0
100
AcDbBlockReference
  2
MYPROTNEW
 10
0.0
 20
0.0
 30
0.0
  0
LINE
  5
258D
330
1F
100
AcDbEntity
  8
0
  6
CENTER
 48
12.0
100
AcDbLine
 10
51.09847002135831
 20
148.3596455617981
 30
0.0
 11
51.09847002135819
 21
142.1901979988061
 31
0.0
  0
CIRCLE
  5
2595
330
1F
100
AcDbEntity
  8
0
100
AcDbCircle
 10
51.09847002135831
 20
146.0879682063399
 30
0.0
 40
1.25
  0
LINE
  5
2596
330
1F
100
AcDbEntity
  8
0
100
AcDbLine
 10
49.19171377344224
 20
146.0879682063399
 30
0.0
 11
53.00522626927437
 21
146.0879682063399
 31
0.0
  0
CIRCLE
  5
2598
330
1F
100
AcDbEntity
  8
0
100
AcDbCircle
 10
51.09847002135831
 20
146.0879682063399
 30
0.0
 40
0.875
  0
ARC
  5
25A1
330
1F
100
AcDbEntity
  8
0
  6
PHANTOM
 48
12.0
100
AcDbCircle
 10
51.09847002135831
 20
143.2017612242609
 30
0.0
 40
9.885880846754018
100
AcDbArc
 50
357.3115551432877
 51
182.6884448567123
  0
ARC
  5
25A2
330
1F
100
AcDbEntity
  8
0
  6
PHANTOM
 48
12.0
100
AcDbCircle
 10
51.09847002135825
 20
144.0493194299657
 30
0.0
 40
9.961677358950772
100
AcDbArc
 50
187.5637930116054
 51
352.4362069884003
  0
HATCH
  5
7E8B
330
1F
100
AcDbEntity
  8
0
 62
     7
100
AcDbHatch
 10
0.0
 20
0.0
 30
0.0
210
0.0
220
0.0
230
1.0
  2
SOLID
 70
     1
 71
     0
 91
       10
 92
        7
 72
     1
 73
     1
 93
       20
 10
39.13508359919632
 20
155.1347250097801
 42
0.0
 10
39.20672558111951
 20
155.1347250097801
 42
-0.4142752124674323
 10
39.36695364054003
 20
154.9744632216873
 42
0.0
 10
39.36694455824593
 20
154.9313132420629
 42
0.0
 10
39.46188578371886
 20
154.9313132420629
 42
0.0
 10
39.46194858165424
 20
155.22966623315
 42
0.0
 10
38.61564000461541
 20
155.22966623315
 42
0.0
 10
38.61563382349965
 20
154.9313132420629
 42
0.0
 10
38.71055616448791
 20
154.9313132420629
 42
0.0
 10
38.71056526097914
 20
154.9745306719331
 42
-0.4141519149660894
 10
38.87079332039974
 20
155.1347250097801
 42
0.0
 10
38.94250708252244
 20
155.1347250097801
 42
0.0
 10
38.94239014486803
 20
154.5976687648021
 42
-0.4141497897727592
 10
38.88270774923893
 20
154.537999362895
 42
0.0
 10
38.78098886783235
 20
154.537999362895
 42
0.0
 10
38.78096819550234
 20
154.4430581395252
 42
0.0
 10
39.29632128163243
 20
154.4430581395252
 42
0.0
 10
39.29634195396253
 20
154.537999362895
 42
0.0
 10
39.19464906283002
 20
154.537999362895
 42
-0.4142773378492039
 10
39.13496666720102
 20
154.5976947550756
 42
0.0
 97
        0
 92
        7
 72
     1
 73
     1
 93
       20
 10
41.16430805345624
 20
155.1347250097801
 42
0.0
 10
41.23595003537935
 20
155.1347250097801
 42
-0.4142752124674332
 10
41.39617809479992
 20
154.9744632216873
 42
0.0
 10
41.39616901250573
 20
154.9313132420629
 42
0.0
 10
41.49111023797871
 20
154.9313132420629
 42
0.0
 10
41.49117303591412
 20
155.22966623315
 42
0.0
 10
40.64486445887533
 20
155.22966623315
 42
0.0
 10
40.64485827775939
 20
154.9313132420629
 42
0.0
 10
40.73978061874771
 20
154.9313132420629
 42
0.0
 10
40.73978971523899
 20
154.9745306719331
 42
-0.414151914966089
 10
40.90001777465952
 20
155.1347250097801
 42
0.0
 10
40.97173153678229
 20
155.1347250097801
 42
0.0
 10
40.97161459912792
 20
154.5976687648021
 42
-0.41414978977276
 10
40.91193220349881
 20
154.537999362895
 42
0.0
 10
40.8102133220922
 20
154.537999362895
 42
0.0
 10
40.81019264976212
 20
154.4430581395252
 42
0.0
 10
41.32554573589234
 20
154.4430581395252
 42
0.0
 10
41.32556640822244
 20
154.537999362895
 42
0.0
 10
41.22387351708994
 20
154.537999362895
 42
-0.4142773378492051
 10
41.16419112146092
 20
154.5976947550756
 42
0.0
 97
        0
 92
       16
 93
        4
 72
     2
 10
40.05333258979223
 20
154.7303992004227
 40
0.2195174638079878
 50
199.1202649999999
 51
340.867675
 73
     1
 72
     2
 10
39.74821794409201
 20
154.8362474220885
 40
0.5424707136112205
 50
340.867675
 51
379.193527
 73
     1
 72
     2
 10
40.05335490016949
 20
154.9424686979275
 40
0.2193739318455655
 50
19.193527
 51
160.7944129999999
 73
     1
 72
     2
 10
40.3584694898135
 20
154.8361832096835
 40
0.5424707136112205
 50
160.7944129999999
 51
199.1202649999999
 73
     1
 97
        0
 92
        1
 93
        4
 72
     2
 10
40.00316751026502
 20
154.8362205991852
 40
0.406862859061731
 50
142.997119
 51
216.4375859999999
 73
     1
 72
     2
 10
40.0533566098843
 20
154.904175934322
 40
0.4882354476909442
 50
219.356321
 51
320.61032
 73
     1
 72
     2
 10
40.10351995166852
 20
154.8362100325869
 40
0.406862859061731
 50
323.5257889999999
 51
396.965523
 73
     1
 72
     2
 10
40.0533308800774
 20
154.7685484320658
 40
0.4882354476909442
 50
39.769149
 51
140.196876
 73
     1
 97
        0
 92
        1
 93
        4
 72
     2
 10
42.03235423062094
 20
154.8362205991852
 40
0.406862859061731
 50
142.997119
 51
216.4375859999999
 73
     1
 72
     2
 10
42.08254333024015
 20
154.904175934322
 40
0.4882354476909442
 50
219.356321
 51
320.61032
 73
     1
 72
     2
 10
42.13270667202443
 20
154.8362100325869
 40
0.406862859061731
 50
323.5257889999999
 51
396.965523
 73
     1
 72
     2
 10
42.08251760043324
 20
154.7685484320658
 40
0.4882354476909442
 50
39.769149
 51
140.196876
 73
     1
 97
        0
 92
       16
 93
        4
 72
     2
 10
42.08251931014802
 20
154.7303992004227
 40
0.2195174638079878
 50
199.1202649999999
 51
340.867675
 73
     1
 72
     2
 10
41.77740466444783
 20
154.8362474220885
 40
0.5424707136112205
 50
340.867675
 51
379.193527
 73
     1
 72
     2
 10
42.0825416205254
 20
154.9424686979275
 40
0.2193739318455655
 50
19.193527
 51
160.7944129999999
 73
     1
 72
     2
 10
42.38765621016935
 20
154.8361832096835
 40
0.5424707136112205
 50
160.7944129999999
 51
199.1202649999999
 73
     1
 97
        0
 92
        0
 93
       67
 72
     1
 10
42.66864868535543
 20
155.1992805639855
 11
42.66928492350174
 21
155.1992718472426
 72
     1
 10
42.66928492350174
 20
155.1992718472426
 11
42.67059229479395
 21
155.1992282635282
 72
     1
 10
42.67059229479383
 20
155.1992282635282
 11
42.67185608237165
 21
155.1991324073846
 72
     1
 10
42.67185608237165
 20
155.1991324073846
 11
42.67309369169263
 21
155.1989929394984
 72
     1
 10
42.67309369169263
 20
155.1989929394984
 11
42.67428774532723
 21
155.1988011991831
 72
     1
 10
42.67428774532723
 20
155.1988011991831
 11
42.6754556767614
 21
155.1985571584105
 72
     1
 10
42.6754556767614
 20
155.1985571584104
 11
42.67658871319591
 21
155.1982782506662
 72
     1
 10
42.67658871319579
 20
155.1982782506662
 11
42.67767816591592
 21
155.1979383257218
 72
     1
 10
42.67767816591592
 20
155.1979383257219
 11
42.67874149643541
 21
155.1975548450912
 72
     1
 10
42.67874149643541
 20
155.1975548450912
 11
42.67976995998333
 21
155.1971277807461
 72
     1
 10
42.67976995998333
 20
155.1971277807461
 11
42.68076355655984
 21
155.1966484159436
 72
     1
 10
42.68076355655984
 20
155.1966484159436
 11
42.68172228616475
 21
155.1961254674266
 72
     1
 10
42.68172228616475
 20
155.1961254674266
 11
42.68263743205515
 21
155.1955502184526
 72
     1
 10
42.68263743205515
 20
155.1955502184526
 11
42.68352642771691
 21
155.194931413792
 72
     1
 10
42.68352642771691
 20
155.194931413792
 11
42.68438058443533
 21
155.1942603086742
 72
     1
 10
42.68438058443533
 20
155.1942603086742
 11
42.68509527326753
 21
155.193615325757
 72
     1
 10
42.68509527326753
 20
155.193615325757
 11
42.68588838475761
 21
155.192813497524
 72
     1
 10
42.68588838475761
 20
155.192813497524
 11
42.68661179033273
 21
155.1919680575486
 72
     1
 10
42.68661179033273
 20
155.1919680575486
 11
42.68727420673573
 21
155.1910877786297
 72
     1
 10
42.68727420673573
 20
155.1910877786297
 11
42.68787557791043
 21
155.1901639159964
 72
     1
 10
42.68787557791043
 20
155.1901639159962
 11
42.68841595991315
 21
155.1892051863914
 72
     1
 10
42.68841595991315
 20
155.1892051863914
 11
42.68888660797265
 21
155.188202873072
 72
     1
 10
42.68888660797265
 20
155.188202873072
 11
42.68929623883201
 21
155.1871569760383
 72
     1
 10
42.6892962388319
 20
155.1871569760383
 11
42.68964488051935
 21
155.1860762400611
 72
     1
 10
42.68964488051935
 20
155.1860762400612
 11
42.68992378826351
 21
155.1849606090843
 72
     1
 10
42.68992378826351
 20
155.1849606090844
 11
42.69015039555043
 21
155.1837927056784
 72
     1
 10
42.69015039555043
 20
155.1837927056784
 11
42.69030726889423
 21
155.1825986520438
 72
     1
 10
42.69030726889423
 20
155.1825986520438
 11
42.69040315306591
 21
155.1813522979518
 72
     1
 10
42.69040315306591
 20
155.1813522979518
 11
42.6904293032945
 21
155.1800711049164
 72
     1
 10
42.69042930329464
 20
155.1800711049164
 11
42.69042058655173
 21
155.179138497512
 72
     1
 10
42.69042058655173
 20
155.179138497512
 11
42.69038571958012
 21
155.1777962872764
 72
     1
 10
42.69038571958012
 20
155.1777962872764
 11
42.69030726889423
 21
155.1764976327272
 72
     1
 10
42.69030726889423
 20
155.1764976327272
 11
42.69018526252191
 21
155.1752425899203
 72
     1
 10
42.69018526252191
 20
155.1752425899203
 11
42.69003707789292
 21
155.174022386057
 72
     1
 10
42.69003707789292
 20
155.174022386057
 11
42.68985405432042
 21
155.1728370491652
 72
     1
 10
42.68985405432042
 20
155.1728370491652
 11
42.6896274470335
 21
155.1717039847027
 72
     1
 10
42.6896274470335
 20
155.1717039847027
 11
42.68937468951802
 21
155.1705970984969
 72
     1
 10
42.6893746895179
 20
155.1705970984969
 11
42.68907834828792
 21
155.1695424847203
 72
     1
 10
42.68907834828801
 20
155.1695424847203
 11
42.68874716811464
 21
155.1685227379152
 72
     1
 10
42.68874716811464
 20
155.1685227379151
 11
42.68838109294151
 21
155.1675378580816
 72
     1
 10
42.68838109294151
 20
155.1675378580817
 11
42.687980178825
 21
155.1666052787054
 72
     1
 10
42.687980178825
 20
155.1666052787054
 11
42.68754439773701
 21
155.1656988495579
 72
     1
 10
42.68754439773701
 20
155.1656988495579
 11
42.68706500490651
 21
155.1648447208675
 72
     1
 10
42.68706500490651
 20
155.1648447208675
 11
42.68655951790353
 21
155.1640254311207
 72
     1
 10
42.68655951790353
 20
155.1640254311207
 11
42.68601041915803
 21
155.1632410083454
 72
     1
 10
42.68601041915803
 20
155.1632410083454
 11
42.68543517018383
 21
155.1625001692845
 72
     1
 10
42.68543517018383
 20
155.1625001692845
 11
42.68481636552332
 21
155.1618029139381
 72
     1
 10
42.68481636552332
 20
155.1618029139381
 11
42.68416269389135
 21
155.161149242306
 72
     1
 10
42.68416269389135
 20
155.161149242306
 11
42.68347412725964
 21
155.1605217209027
 72
     1
 10
42.68347412725964
 20
155.1605217209027
 11
42.68275072168449
 21
155.1599464719285
 72
     1
 10
42.68275072168449
 20
155.1599464719285
 11
42.68198376042312
 21
155.1594060899259
 72
     1
 10
42.68198376042312
 20
155.1594060899259
 11
42.68119062090494
 21
155.1589092916377
 72
     1
 10
42.68119062090494
 20
155.1589092916377
 11
42.68035389767232
 21
155.158447360321
 72
     1
 10
42.68035389767232
 20
155.158447360321
 11
42.67949105223922
 21
155.1580290127188
 72
     1
 10
42.67949105223922
 20
155.1580290127188
 11
42.67858462309163
 21
155.15764550406
 72
     1
 10
42.67858462309163
 20
155.15764550406
 11
42.67764332697251
 21
155.1573056071437
 72
     1
 10
42.67764332697242
 20
155.1573056071437
 11
42.67666716388186
 21
155.1570092659136
 72
     1
 10
42.67666716388186
 20
155.1570092659136
 11
42.67565613381961
 21
155.1567477916553
 72
     1
 10
42.67565613381961
 20
155.1567477916553
 11
42.67460152004301
 21
155.1565299011113
 72
     1
 10
42.67460152004301
 20
155.1565299011113
 11
42.67352078406583
 21
155.1563468775387
 72
     1
 10
42.67352078406583
 20
155.1563468775387
 11
42.67239643634613
 21
155.1562074096526
 72
     1
 10
42.67239643634613
 20
155.1562074096526
 11
42.67124596642591
 21
155.156111553509
 72
     1
 10
42.67124596642591
 20
155.1561115535091
 11
42.67005191279122
 21
155.1560505363088
 72
     1
 10
42.67005191279122
 20
155.1560505363088
 11
42.66882299218503
 21
155.1560243860801
 72
     1
 10
42.66882299218503
 20
155.1560243860801
 11
42.62647327145532
 21
155.1560243860801
 72
     1
 10
42.62647327145532
 20
155.1560243860801
 11
42.62647327145532
 21
155.1992805639855
 72
     1
 10
42.62647327145532
 20
155.1992805639855
 11
42.66864868535543
 21
155.1992805639855
 97
        0
 92
        0
 93
      207
 72
     1
 10
42.69396788048413
 20
155.1471430621206
 11
42.692808693821
 21
155.1480059075539
 72
     1
 10
42.692808693821
 20
155.1480059075537
 11
42.6915710564719
 21
155.1488949312437
 72
     1
 10
42.6915710564719
 20
155.1488949312437
 11
42.69026368517984
 21
155.1498013603914
 72
     1
 10
42.69026368517972
 20
155.1498013603914
 11
42.69103067446934
 21
155.1503591758797
 72
     1
 10
42.69103067446934
 20
155.1503591758797
 11
42.69209400498882
 21
155.1511697208556
 72
     1
 10
42.69209400498882
 20
155.1511697208556
 11
42.69311372376583
 21
155.1519802938595
 72
     1
 10
42.69311372376583
 20
155.1519802938595
 11
42.69409860359931
 21
155.1528083003492
 72
     1
 10
42.69409860359931
 20
155.1528083003492
 11
42.69504861646135
 21
155.1536449955537
 72
     1
 10
42.69504861646135
 20
155.1536449955538
 11
42.69596379037992
 21
155.1544904355293
 72
     1
 10
42.69596379037992
 20
155.1544904355293
 11
42.69683535255592
 21
155.1553445642195
 72
     1
 10
42.69683535255592
 20
155.1553445642194
 11
42.69767207578851
 21
155.1562161263954
 72
     1
 10
42.69767207578851
 20
155.1562161263954
 11
42.6984739040215
 21
155.1570964333425
 72
     1
 10
42.6984739040215
 20
155.1570964333425
 11
42.69924089331101
 21
155.1579854290044
 72
     1
 10
42.69924089331101
 20
155.1579854290044
 11
42.69996429888616
 21
155.1588831414091
 72
     1
 10
42.69996429888616
 20
155.158883141409
 11
42.70065283748974
 21
155.1597983153277
 72
     1
 10
42.70065283748974
 20
155.1597983153276
 11
42.70130650912176
 21
155.1607134612181
 72
     1
 10
42.70130650912176
 20
155.160713461218
 11
42.70191662506741
 21
155.1616460405943
 72
     1
 10
42.70191662506741
 20
155.1616460405942
 11
42.70249187404163
 21
155.1625873367134
 72
     1
 10
42.70249187404163
 20
155.1625873367134
 11
42.70303222801612
 21
155.1635460663183
 72
     1
 10
42.70303222801612
 20
155.1635460663183
 11
42.70353774304723
 21
155.1645047959231
 72
     1
 10
42.70353774304723
 20
155.1645047959231
 11
42.70399967436389
 21
155.1654809590139
 72
     1
 10
42.70399967436389
 20
155.1654809590139
 11
42.70442676673716
 21
155.1664658388474
 72
     1
 10
42.70442676673716
 20
155.1664658388474
 11
42.70481896411072
 21
155.1674594354239
 72
     1
 10
42.70481896411072
 20
155.1674594354238
 11
42.70517629451282
 21
155.168470465486
 72
     1
 10
42.70517629451282
 20
155.168470465486
 11
42.70549006922851
 21
155.16948146752
 72
     1
 10
42.70549006922851
 20
155.16948146752
 11
42.70576897697273
 21
155.170509931068
 72
     1
 10
42.70576897697273
 20
155.170509931068
 11
42.70601301774542
 21
155.1715471113588
 72
     1
 10
42.70601301774542
 20
155.1715471113588
 11
42.70621347480363
 21
155.1726017251355
 72
     1
 10
42.70621347480363
 20
155.1726017251355
 11
42.70638778163323
 21
155.173656310884
 72
     1
 10
42.70638778163323
 20
155.173656310884
 11
42.70650981603364
 21
155.1747283581464
 72
     1
 10
42.70650981603364
 20
155.1747283581463
 11
42.70660567217726
 21
155.1758090941235
 72
     1
 10
42.70660567217726
 20
155.1758090941235
 11
42.70666668937741
 21
155.1768985748716
 72
     1
 10
42.70666668937741
 20
155.1768985748716
 11
42.70668412286323
 21
155.1779967443347
 72
     1
 10
42.70668412286323
 20
155.1779967443347
 11
42.7066754061203
 21
155.1790252078827
 72
     1
 10
42.7066754061203
 20
155.1790252078827
 11
42.70664053914885
 21
155.1804458688042
 72
     1
 10
42.70664053914885
 20
155.1804458688042
 11
42.70657954997673
 21
155.181840379497
 72
     1
 10
42.70657954997673
 20
155.181840379497
 11
42.70649238254785
 21
155.1831913345037
 72
     1
 10
42.70649238254785
 20
155.1831913345037
 11
42.70637906489034
 21
155.1845248279964
 72
     1
 10
42.70637906489034
 20
155.1845248279964
 11
42.70623090828943
 21
155.1858147658028
 72
     1
 10
42.70623090828943
 20
155.1858147658028
 11
42.70605660145981
 21
155.1870872420953
 72
     1
 10
42.70605660145981
 20
155.1870872420953
 11
42.70585614440162
 21
155.1883161627015
 72
     1
 10
42.70585614440162
 20
155.1883161627015
 11
42.70562953711473
 21
155.189518933079
 72
     1
 10
42.70562953711473
 20
155.189518933079
 11
42.70537677959914
 21
155.1906868645131
 72
     1
 10
42.70537677959914
 20
155.1906868645131
 11
42.70509787185491
 21
155.1918286176904
 72
     1
 10
42.70509787185491
 20
155.1918286176904
 11
42.70478409713923
 21
155.1929355038963
 72
     1
 10
42.70478409713923
 20
155.1929355038963
 11
42.70444417219482
 21
155.1940075511587
 72
     1
 10
42.70444417219482
 20
155.1940075511588
 11
42.7040781250499
 21
155.1950534201644
 72
     1
 10
42.7040781250499
 20
155.1950534201644
 11
42.70368592767633
 21
155.1960731669695
 72
     1
 10
42.70368592767633
 20
155.1960731669695
 11
42.7032675520459
 21
155.1970493300601
 72
     1
 10
42.7032675520459
 20
155.19704933006
 11
42.70281433747212
 21
155.197999342922
 72
     1
 10
42.70281433747212
 20
155.197999342922
 11
42.70234368941252
 21
155.1989232055553
 72
     1
 10
42.70234368941252
 20
155.1989232055554
 11
42.7018381743814
 21
155.1998122292453
 72
     1
 10
42.7018381743814
 20
155.1998122292453
 11
42.70130650912176
 21
155.2006663579357
 72
     1
 10
42.70130650912176
 20
155.2006663579355
 11
42.70074872166143
 21
155.2014943644253
 72
     1
 10
42.70074872166143
 20
155.2014943644253
 11
42.70015603920152
 21
155.2022874759154
 72
     1
 10
42.70015603920152
 20
155.2022874759154
 11
42.69954595128391
 21
155.2030457484621
 72
     1
 10
42.69954595128391
 20
155.203045748462
 11
42.69890096836664
 21
155.20377787078
 72
     1
 10
42.69890096836664
 20
155.20377787078
 11
42.69832574742051
 21
155.2043792699829
 72
     1
 10
42.69832574742051
 20
155.2043792699829
 11
42.69764592555993
 21
155.205024224872
 72
     1
 10
42.69764592555981
 20
155.205024224872
 11
42.69693995347052
 21
155.2056517743034
 72
     1
 10
42.69693995347052
 20
155.2056517743034
 11
42.69620783115249
 21
155.2062531454782
 72
     1
 10
42.69620783115249
 20
155.2062531454781
 11
42.69544084186302
 21
155.2068283944523
 72
     1
 10
42.69544084186302
 20
155.2068283944523
 11
42.69463898560192
 21
155.2073861819127
 72
     1
 10
42.69463898560192
 20
155.2073861819127
 11
42.6938110071403
 21
155.2079178471724
 72
     1
 10
42.6938110071403
 20
155.2079178471724
 11
42.69295685042203
 21
155.2084233622036
 72
     1
 10
42.69295685042203
 20
155.2084233622034
 11
42.69206785476015
 21
155.2089114437489
 72
     1
 10
42.69206785476015
 20
155.2089114437489
 11
42.69115270886965
 21
155.2093733750656
 72
     1
 10
42.69115270886977
 20
155.2093733750656
 11
42.69020266797963
 21
155.2098091561535
 72
     1
 10
42.69020266797963
 20
155.2098091561535
 11
42.68922653291702
 21
155.2102275317838
 72
     1
 10
42.68922653291702
 20
155.2102275317839
 11
42.6882155028548
 21
155.2106110124146
 72
     1
 10
42.6882155028548
 20
155.2106110124146
 11
42.68717832256402
 21
155.2109770595596
 72
     1
 10
42.68717832256402
 20
155.2109770595596
 11
42.68610627530162
 21
155.2113257012469
 72
     1
 10
42.68610627530162
 20
155.2113257012469
 11
42.68500810583873
 21
155.2116394759626
 72
     1
 10
42.68500810583873
 20
155.2116394759625
 11
42.68387506940422
 21
155.2119357891644
 72
     1
 10
42.68387506940422
 20
155.2119357891645
 11
42.68271588274115
 21
155.2122059801658
 72
     1
 10
42.68271588274115
 20
155.2122059801658
 11
42.68153051782124
 21
155.2124587376813
 72
     1
 10
42.68153051782124
 20
155.2124587376812
 11
42.68030162524314
 21
155.2126766282253
 72
     1
 10
42.68030162524314
 20
155.2126766282253
 11
42.67905527115113
 21
155.2128858300545
 72
     1
 10
42.67905527115113
 20
155.2128858300545
 11
42.67777405008764
 21
155.2130601368841
 72
     1
 10
42.67777405008764
 20
155.2130601368841
 11
42.67646667879541
 21
155.2132082934851
 72
     1
 10
42.67646667879541
 20
155.2132082934851
 11
42.67512446855985
 21
155.2133390446284
 72
     1
 10
42.67512446855985
 20
155.2133390446284
 11
42.67374739135274
 21
155.2134523342577
 72
     1
 10
42.67374739135274
 20
155.2134523342577
 11
42.67234416391693
 21
155.2135307849436
 72
     1
 10
42.67234416391693
 20
155.2135307849436
 11
42.67091475822442
 21
155.2135918021438
 72
     1
 10
42.67091475822442
 20
155.2135918021438
 11
42.66945051358843
 21
155.2136266410873
 72
     1
 10
42.66945051358843
 20
155.2136266410873
 11
42.66796014675191
 21
155.2136353578302
 72
     1
 10
42.66796014675182
 20
155.2136353578302
 11
42.61022714060152
 21
155.2136353578302
 72
     1
 10
42.61022714060152
 20
155.2136353578302
 11
42.61022714060152
 21
155.0875187469892
 72
     1
 10
42.61022714060152
 20
155.0875187469891
 11
42.62647327145532
 21
155.0875187469891
 72
     1
 10
42.62647327145532
 20
155.0875187469891
 11
42.62647327145532
 21
155.1416695922355
 72
     1
 10
42.62647327145532
 20
155.1416695922355
 11
42.66882299218503
 21
155.1416695922355
 72
     1
 10
42.66882299218503
 20
155.1416695922355
 11
42.66978172178991
 21
155.1416521587498
 72
     1
 10
42.66978172178991
 20
155.1416521587498
 11
42.67091475822442
 21
155.1415911415495
 72
     1
 10
42.67091475822442
 20
155.1415911415495
 11
42.67202167245833
 21
155.1414865406349
 72
     1
 10
42.67202167245833
 20
155.1414865406349
 11
42.67308497494974
 21
155.141338384034
 72
     1
 10
42.67308497494974
 20
155.141338384034
 11
42.67411343849764
 21
155.1411466437187
 72
     1
 10
42.67411343849764
 20
155.1411466437187
 11
42.67510703507412
 21
155.1409026029461
 72
     1
 10
42.67510703507412
 20
155.1409026029461
 11
42.676065764679
 21
155.1406236952019
 72
     1
 10
42.676065764679
 20
155.1406236952019
 11
42.67698962731233
 21
155.1402924870004
 72
     1
 10
42.67698962731233
 20
155.1402924870003
 11
42.67787865100223
 21
155.1399177231125
 72
     1
 10
42.67787865100223
 20
155.1399177231125
 11
42.67872406294964
 21
155.1394906587674
 72
     1
 10
42.67872406294964
 20
155.1394906587674
 11
42.67954335269649
 21
155.1390287274506
 72
     1
 10
42.67954335269649
 20
155.1390287274506
 11
42.68031903070073
 21
155.1385144956767
 72
     1
 10
42.68031903070084
 20
155.1385144956767
 11
42.68105986976164
 21
155.1379653969312
 72
     1
 10
42.68105986976164
 20
155.1379653969312
 11
42.68176584185101
 21
155.1373640257565
 72
     1
 10
42.68176584185101
 20
155.1373640257565
 11
42.68243697499693
 21
155.1367190428392
 72
     1
 10
42.68243697499693
 20
155.1367190428392
 11
42.68307321314313
 21
155.1360217874927
 72
     1
 10
42.68307321314313
 20
155.1360217874927
 11
42.68367461234601
 21
155.1352896651748
 72
     1
 10
42.68367461234601
 20
155.1352896651747
 11
42.68423239980623
 21
155.1345052423994
 72
     1
 10
42.68423239980623
 20
155.1345052423995
 11
42.68476406506599
 21
155.1336772639379
 72
     1
 10
42.68476406506599
 20
155.1336772639379
 11
42.68525214661133
 21
155.1328056737337
 72
     1
 10
42.68525214661133
 20
155.1328056737337
 11
42.68571407792802
 21
155.1318905278432
 72
     1
 10
42.68571407792802
 20
155.1318905278432
 11
42.68613242553032
 21
155.1309317982383
 72
     1
 10
42.68613242553032
 20
155.1309317982384
 11
42.68651593418915
 21
155.1299207681761
 72
     1
 10
42.68651593418915
 20
155.1299207681761
 11
42.68686454784824
 21
155.1288748991705
 72
     1
 10
42.68686454784824
 20
155.1288748991705
 11
42.68717832256402
 21
155.1277767016794
 72
     1
 10
42.68717832256402
 20
155.1277767016794
 11
42.68744851356532
 21
155.1266349485021
 72
     1
 10
42.68744851356532
 20
155.1266349485021
 11
42.68769255433793
 21
155.1254408948674
 72
     1
 10
42.68769255433793
 20
155.1254408948675
 11
42.68789301139622
 21
155.1242119742612
 72
     1
 10
42.68789301139622
 20
155.1242119742612
 11
42.68806731822581
 21
155.1229307531978
 72
     1
 10
42.68806731822581
 20
155.1229307531978
 11
42.68819806936912
 21
155.1216146931909
 72
     1
 10
42.688198069369
 20
155.1216146931909
 11
42.68829392551274
 21
155.1202463327265
 72
     1
 10
42.68829392551274
 20
155.1202463327265
 11
42.68835494271292
 21
155.1188343605199
 72
     1
 10
42.68835494271292
 20
155.1188343605199
 11
42.68832007574144
 21
155.1180499657727
 72
     1
 10
42.68832007574133
 20
155.1180499657727
 11
42.68825036982639
 21
155.1165595709079
 72
     1
 10
42.68825036982639
 20
155.1165595709079
 11
42.68818935262624
 21
155.1151127597577
 72
     1
 10
42.68818935262624
 20
155.1151127597577
 11
42.68814576891182
 21
155.113709532322
 72
     1
 10
42.68814576891176
 20
155.113709532322
 11
42.68811961868315
 21
155.1123498605725
 72
     1
 10
42.68811961868315
 20
155.1123498605725
 11
42.68811090194023
 21
155.1110338005655
 72
     1
 10
42.68811090194023
 20
155.1110338005655
 11
42.68811090194023
 21
155.1097525795021
 72
     1
 10
42.68811090194023
 20
155.1097525795021
 11
42.68811961868315
 21
155.1085149421529
 72
     1
 10
42.68811961868315
 20
155.1085149421529
 11
42.68815448565464
 21
155.1073208885184
 72
     1
 10
42.68815448565464
 20
155.1073208885184
 11
42.68818935262612
 21
155.1061704185981
 72
     1
 10
42.68818935262624
 20
155.1061704185981
 11
42.68825036982639
 21
155.1050635043642
 72
     1
 10
42.68825036982639
 20
155.1050635043642
 11
42.68832007574133
 21
155.1039914851298
 72
     1
 10
42.68832007574133
 20
155.1039914851298
 11
42.6883985264273
 21
155.1029717383247
 72
     1
 10
42.6883985264273
 20
155.1029717383247
 11
42.68850312734193
 21
155.1019868584912
 72
     1
 10
42.68850312734193
 20
155.1019868584913
 11
42.68860770022842
 21
155.1010455623722
 72
     1
 10
42.68860770022842
 20
155.1010455623722
 11
42.68873845137173
 21
155.1001391332245
 72
     1
 10
42.68873845137173
 20
155.1001391332245
 11
42.68887789122982
 21
155.0992849765061
 72
     1
 10
42.6888778912297
 20
155.0992849765061
 11
42.68893019168703
 21
155.0989537963327
 72
     1
 10
42.68893019168703
 20
155.0989537963327
 11
42.68914808223115
 21
155.0977510259552
 72
     1
 10
42.68914808223115
 20
155.0977510259552
 11
42.68938340626085
 21
155.0965656890635
 72
     1
 10
42.68938340626085
 20
155.0965656890635
 11
42.68964488051935
 21
155.0953890689146
 72
     1
 10
42.68964488051935
 20
155.0953890689145
 11
42.68991507152063
 21
155.0942211374804
 72
     1
 10
42.68991507152063
 20
155.0942211374804
 11
42.6902113847224
 21
155.0930706675602
 72
     1
 10
42.6902113847224
 20
155.0930706675601
 11
42.69053387618114
 21
155.0919376311258
 72
     1
 10
42.69053387618114
 20
155.0919376311258
 11
42.69086508438263
 21
155.0908133114341
 72
     1
 10
42.69086508438263
 20
155.0908133114341
 11
42.69122241478462
 21
155.0896976804573
 72
     1
 10
42.69122241478462
 20
155.0896976804574
 11
42.69159720670063
 21
155.0885995109944
 72
     1
 10
42.69159720670052
 20
155.0885995109944
 11
42.69198940407415
 21
155.0875187469891
 72
     1
 10
42.6919894040742
 20
155.0875187469891
 11
42.71152135460212
 21
155.0875187469891
 72
     1
 10
42.71152135460201
 20
155.0875187469891
 11
42.71152135460201
 21
155.0916674401245
 72
     1
 10
42.71152135460201
 20
155.0916674401245
 11
42.7107282150838
 21
155.0923472619852
 72
     1
 10
42.7107282150838
 20
155.0923472619851
 11
42.70987408639363
 21
155.093166551732
 72
     1
 10
42.70987408639363
 20
155.093166551732
 11
42.70909838036121
 21
155.094029397165
 72
     1
 10
42.70909838036115
 20
155.094029397165
 11
42.70840112501474
 21
155.0949271095698
 72
     1
 10
42.70840112501474
 20
155.0949271095698
 11
42.70778232035425
 21
155.0958771504598
 72
     1
 10
42.70778232035425
 20
155.0958771504598
 11
42.70723322160873
 21
155.0968620022653
 72
     1
 10
42.70723322160873
 20
155.0968620022653
 11
42.70676257354913
 21
155.0978817490704
 72
     1
 10
42.70676257354913
 20
155.0978817490704
 11
42.70637034814742
 21
155.0989537963328
 72
     1
 10
42.70637034814742
 20
155.0989537963327
 11
42.70604788471692
 21
155.1000606825385
 72
     1
 10
42.70604788471692
 20
155.1000606825385
 11
42.70581256068723
 21
155.101202435716
 72
     1
 10
42.70581256068723
 20
155.101202435716
 11
42.7056469425724
 21
155.1023964893505
 72
     1
 10
42.7056469425724
 20
155.1023964893505
 11
42.70562953711473
 21
155.1026492468662
 72
     1
 10
42.70562953711473
 20
155.1026492468662
 11
42.70552493620016
 21
155.104279109617
 72
     1
 10
42.70552493620016
 20
155.104279109617
 11
42.70542033528542
 21
155.1058653606252
 72
     1
 10
42.70542033528542
 20
155.1058653606252
 11
42.7053244791418
 21
155.1074080559472
 72
     1
 10
42.7053244791418
 20
155.1074080559472
 11
42.70522859497015
 21
155.1089071675547
 72
     1
 10
42.70522859497015
 20
155.1089071675546
 11
42.70514145556941
 21
155.1103713841625
 72
     1
 10
42.7051414555693
 20
155.1103713841626
 11
42.7050542881405
 21
155.1117833563694
 72
     1
 10
42.7050542881405
 20
155.1117833563693
 11
42.70496712071173
 21
155.1131604335765
 72
     1
 10
42.70496712071173
 20
155.1131604335765
 11
42.70489741479673
 21
155.1144939270692
 72
     1
 10
42.70489741479673
 20
155.1144939270692
 11
42.70481896411072
 21
155.1157838648755
 72
     1
 10
42.70481896411072
 20
155.1157838648755
 11
42.70474923016763
 21
155.1170302189675
 72
     1
 10
42.70474923016775
 20
155.1170302189675
 11
42.70468821296751
 21
155.1182329893451
 72
     1
 10
42.70468821296742
 20
155.1182329893451
 11
42.70462722379534
 21
155.1193921760083
 72
     1
 10
42.7046272237954
 20
155.1193921760082
 11
42.70457492333813
 21
155.1205164956997
 72
     1
 10
42.70457492333813
 20
155.1205164956997
 11
42.70452262288083
 21
155.1215885429622
 72
     1
 10
42.70452262288083
 20
155.1215885429622
 11
42.70447032242353
 21
155.122625723253
 72
     1
 10
42.70447032242353
 20
155.122625723253
 11
42.70443545545194
 21
155.1236193198294
 72
     1
 10
42.70443545545194
 20
155.1236193198294
 11
42.70439189976563
 21
155.1245693326914
 72
     1
 10
42.70439189976563
 20
155.1245693326914
 11
42.70435703279412
 21
155.1254844785819
 72
     1
 10
42.704357032794
 20
155.1254844785819
 11
42.70433088256544
 21
155.126347324015
 72
     1
 10
42.70433088256544
 20
155.126347324015
 11
42.70430473233682
 21
155.1271753305047
 72
     1
 10
42.70430473233673
 20
155.1271753305047
 11
42.70427858210811
 21
155.1279510365372
 72
     1
 10
42.70427858210811
 20
155.1279510365372
 11
42.70426114862232
 21
155.128691875598
 72
     1
 10
42.70426114862232
 20
155.128691875598
 11
42.704147858993
 21
155.1298859292327
 72
     1
 10
42.70414785899293
 20
155.1298859292327
 11
42.70396480739231
 21
155.1313588625836
 72
     1
 10
42.70396480739231
 20
155.1313588625836
 11
42.70375563359124
 21
155.1327359678187
 72
     1
 10
42.70375563359124
 20
155.1327359678187
 11
42.70352030956144
 21
155.134025877597
 72
     1
 10
42.70352030956144
 20
155.134025877597
 11
42.70325883530301
 21
155.1352199312317
 72
     1
 10
42.70325883530301
 20
155.1352199312317
 11
42.70296252210113
 21
155.1363181287228
 72
     1
 10
42.70296252210122
 20
155.1363181287228
 11
42.70264003064252
 21
155.137320442042
 72
     1
 10
42.70264003064252
 20
155.137320442042
 11
42.70229138895524
 21
155.1382268711896
 72
     1
 10
42.70229138895524
 20
155.1382268711897
 11
42.70190790832453
 21
155.1390461609365
 72
     1
 10
42.70190790832453
 20
155.1390461609365
 11
42.70149827746521
 21
155.1397608497686
 72
     1
 10
42.70149827746513
 20
155.1397608497686
 11
42.70113220229214
 21
155.1403186372289
 72
     1
 10
42.70113220229214
 20
155.1403186372289
 11
42.700626687261
 21
155.1409897703749
 72
     1
 10
42.700626687261
 20
155.1409897703749
 11
42.70005146631501
 21
155.1416870257213
 72
     1
 10
42.70005146631492
 20
155.1416870257213
 11
42.69940648339772
 21
155.1424017145535
 72
     1
 10
42.69940648339772
 20
155.1424017145535
 11
42.69868307782267
 21
155.1431425536145
 72
     1
 10
42.69868307782267
 20
155.1431425536145
 11
42.69788996633252
 21
155.1439007981329
 72
     1
 10
42.69788996633252
 20
155.1439007981329
 11
42.69701837612831
 21
155.1446765041653
 72
     1
 10
42.69701837612842
 20
155.1446765041653
 11
42.69607708000925
 21
155.1454783604264
 72
     1
 10
42.69607708000925
 20
155.1454783604264
 11
42.69505733320423
 21
155.146306338888
 72
     1
 10
42.69505733320423
 20
155.146306338888
 11
42.69396788048413
 21
155.1471430621206
 97
        0
 92
       16
 93
        1
 72
     2
 10
42.6516819797658
 20
155.1446714310771
 40
0.0980983925947266
 50
0.0
 51
360.0
 73
     1
 97
        0
 92
        1
 93
        1
 72
     2
 10
42.6516819797658
 20
155.1446714310771
 40
0.1121124486796875
 50
0.0
 51
360.0
 73
     1
 97
        0
 75
     0
 76
     1
 47
0.5016490000000001
 98
        2
 10
39.01813041098873
 20
154.8238396290839
 10
41.11507055196122
 20
154.8660204804379
  0
TEXT
  5
7E91
330
1F
100
AcDbEntity
  8
0
  6
Continuous
 62
     7
100
AcDbText
 10
61.52238392336224
 20
135.4098562902873
 30
0.0
 40
0.19685039
  1
0GU151
  7
BLACK
100
AcDbText
  0
TEXT
  5
7E92
330
1F
100
AcDbEntity
  8
0
  6
Continuous
 62
     7
100
AcDbText
 10
61.55015706691003
 20
135.0819328088338
 30
0.0
 40
0.19685039
  1
REV: AUG 2008
  7
BLACK
100
AcDbText
  0
TEXT
  5
7EC2
330
1F
100
AcDbEntity
  8
0
  6
Continuous
 62
     7
100
AcDbText
 10
61.52238392336224
 20
135.7829724008406
 30
0.0
 40
0.19685039
  1
LT402 
  7
BLACK
100
AcDbText
  0
LWPOLYLINE
  5
7EC3
330
1F
100
AcDbEntity
  8
0
 62
     7
 48
10.0
100
AcDbPolyline
 90
        4
 70
     1
 43
0.0
 10
34.37552046830751
 20
155.9581460851497
 10
34.37552046830751
 20
131.9581460851497
 10
70.37552046830751
 20
131.9581460851497
 10
70.37552046830751
 20
155.9581460851497
  0
TEXT
  5
7EC4
330
1F
100
AcDbEntity
  8
DIM
  6
Continuous
 62
     7
100
AcDbText
 10
63.31681348307174
 20
130.8161955907363
 30
0.0
 40
0.23622
  1
70# OFFSET UNCOATED SHEET
  7
BLACK
100
AcDbText
  0
TEXT
  5
7EC5
330
1F
100
AcDbEntity
  8
DIM
  6
Continuous
 62
     7
100
AcDbText
 10
63.31681348307174
 20
130.3910444918613
 30
0.0
 40
0.23622
  1
BRIGHTNESS FACTOR- 86%%% OR HIGHER
  7
BLACK
100
AcDbText
  0
TEXT
  5
7EC6
330
1F
100
AcDbEntity
  8
DIM
  6
Continuous
 62
     7
100
AcDbText
 10
63.31681348307174
 20
131.2882346012473
 30
0.0
 40
0.23622
  1
SHT. 900mm x 600mm (36inX24in)
  7
BLACK
100
AcDbText
  0
LEADER
  5
7F1C
330
1F
100
AcDbEntity
  8
0
  6
Continuous
 62
     7
100
AcDbLeader
  3
STANDARD
 40
0.511811014
 41
1.766029213142856
 76
     3
 10
59.76605833467667
 20
147.7039876052854
 30
0.0
 10
57.62488427709567
 20
144.5343718895613
 30
0.0
 10
56.94949131399795
 20
144.5343718895613
 30
0.0
213
0.0
223
0.059055117
233
0.0
1001
ACAD
1000
DSTYLE
1002
{
1070
   147
1040
0.6
1070
    77
1070
     0
1002
}
  0
MTEXT
  5
7F1D
330
1F
100
AcDbEntity
  8
0
 62
     7
100
AcDbMText
 10
56.87307475509104
 20
144.3884470829767
 30
0.0
 40
0.19685039
 41
5.218993890951871
 71
     6
 72
     5
  1
RIM OF LAVATORY\PBORDE DEL LAVABO\PBORD DU LAVABO
 73
     1
 44
1.0
1001
ACAD
1000
MTEXTBEGIN
1070
    73
1070
     1
1070
    44
1040
1.0
1070
    74
1070
     0
1000
MTEXTEND
  0
MTEXT
  5
7F1E
330
1F
100
AcDbEntity
  8
0
 62
     7
100
AcDbMText
 10
50.72723154832854
 20
136.9181830444174
 30
0.0
 40
0.19685039
 41
5.431524892030432
 71
     6
 72
     5
  1
CUT ALONG THIS LINE\PCORTE A LO LARGO DE ESTA LINEA\PDECOUPER AU LONG DE CETTE LIGNE
 73
     1
 44
1.0
1001
ACAD
1000
MTEXTBEGIN
1070
    73
1070
     1
1070
    44
1040
1.0
1070
    74
1070
     0
1000
MTEXTEND
1000
ACAD_MTEXT_DEFINED_HEIGHT_BEGIN
1070
    46
1040
1.895578545603916
1000
ACAD_MTEXT_DEFINED_HEIGHT_END
  0
LEADER
  5
7F1F
330
1F
100
AcDbEntity
  8
0
  6
Continuous
 62
     7
100
AcDbLeader
  3
STANDARD
 40
0.511811014
 41
1.766029213142856
 76
     3
 10
54.03168715532214
 20
135.2569086060255
 30
0.0
 10
51.6231734981381
 20
136.6744683187326
 30
0.0
 10
50.94778053504041
 20
136.6744683187326
 30
0.0
213
0.0
223
0.059055117
233
0.0
1001
ACAD
1000
DSTYLE
1002
{
1070
   147
1040
0.6
1070
    77
1070
     0
1002
}
  0
ARC
  5
7F23
330
1F
100
AcDbEntity
  8
0
  6
HIDDEN
 62
     6
 48
12.0
100
AcDbCircle
 10
51.09847002135831
 20
143.2017612242609
 30
0.0
 40
9.385880846754018
100
AcDbArc
 50
357.3115551432877
 51
182.6884448567123
  0
ARC
  5
7F24
330
1F
100
AcDbEntity
  8
0
  6
HIDDEN
 62
     6
 48
12.0
100
AcDbCircle
 10
51.09847002135825
 20
144.0493194299657
 30
0.0
 40
9.461677358950772
100
AcDbArc
 50
187.5637930116054
 51
352.4362069884003
  0
ENDSEC
  0
SECTION
  2
OBJECTS
  0
DICTIONARY
  5
C
330
0
100
AcDbDictionary
281
     1
  3
ACAD_COLOR
350
7DC3
  3
ACAD_GROUP
350
D
  3
ACAD_LAYOUT
350
1A
  3
ACAD_MATERIAL
350
7DC2
  3
ACAD_MLINESTYLE
350
17
  3
ACAD_PLOTSETTINGS
350
19
  3
ACAD_PLOTSTYLENAME
350
E
  3
ACAD_TABLESTYLE
350
7DC4
  3
ACAD_VISUALSTYLE
350
7F7F
  3
AcadDim
350
6F32
  3
ACDBVARIABLEDICTIONARY
350
2E9
  3
ASE_INDEX_DICTIONARY
350
7F6F
  3
DWGPROPS
350
7F94
  0
DICTIONARY
  5
A7F
330
2
100
AcDbDictionary
280
     1
281
     1
  3
ACAD_LAYERFILTERS
360
A80
  3
ACAD_LAYERSTATES
360
7E3C
  0
DICTIONARY
  5
3823
330
1F
100
AcDbDictionary
280
     1
281
     1
  3
ACAD_LAYOUTSELFREF
360
3824
  3
ACAD_SORTENTS
360
7EFC
  0
DICTIONARY
  5
3821
330
1B
100
AcDbDictionary
280
     1
281
     1
  3
ACAD_LAYOUTSELFREF
360
3822
  0
DICTIONARY
  5
7F49
330
7F38
100
AcDbDictionary
280
     1
281
     1
  3
ACAD_SORTENTS
360
7F4A
  0
DICTIONARY
  5
7F6B
330
7F52
100
AcDbDictionary
280
     1
281
     1
  0
DICTIONARY
  5
7DC3
102
{ACAD_REACTORS
330
C
102
}
330
C
100
AcDbDictionary
281
     1
  0
DICTIONARY
  5
D
102
{ACAD_REACTORS
330
C
102
}
330
C
100
AcDbDictionary
281
     1
  0
DICTIONARY
  5
1A
102
{ACAD_REACTORS
330
C
102
}
330
C
100
AcDbDictionary
281
     1
  3
Layout1
350
3B6B
  3
Model
350
3B6A
  0
DICTIONARY
  5
7DC2
102
{ACAD_REACTORS
330
C
102
}
330
C
100
AcDbDictionary
281
     1
  3
ByBlock
350
7F7D
  3
ByLayer
350
7F7C
  3
Global
350
7F7E
  0
DICTIONARY
  5
17
102
{ACAD_REACTORS
330
C
102
}
330
C
100
AcDbDictionary
281
     1
  3
STANDARD
350
18
  0
DICTIONARY
  5
19
102
{ACAD_REACTORS
330
C
102
}
330
C
100
AcDbDictionary
281
     1
  0
ACDBDICTIONARYWDFLT
  5
E
102
{ACAD_REACTORS
330
C
102
}
330
C
100
AcDbDictionary
281
     1
  3
Normal
350
F
100
AcDbDictionaryWithDefault
340
F
  0
DICTIONARY
  5
7DC4
102
{ACAD_REACTORS
330
C
102
}
330
C
100
AcDbDictionary
281
     1
  3
Standard
350
7DC5
  0
DICTIONARY
  5
7F7F
102
{ACAD_REACTORS
330
C
102
}
330
C
100
AcDbDictionary
281
     1
  3
2dWireframe
350
7F85
  3
3D Hidden
350
7F87
  3
3dWireframe
350
7F86
  3
Basic
350
7F84
  3
Brighten
350
7F8B
  3
ColorChange
350
7F8F
  3
Conceptual
350
7F88
  3
Dim
350
7F8A
  3
Facepattern
350
7F8E
  3
Flat
350
7F80
  3
FlatWithEdges
350
7F81
  3
Gouraud
350
7F82
  3
GouraudWithEdges
350
7F83
  3
Linepattern
350
7F8D
  3
Realistic
350
7F89
  3
Thicken
350
7F8C
  0
XRECORD
  5
6F32
102
{ACAD_REACTORS
330
C
102
}
330
C
100
AcDbXrecord
280
     1
 90
   990106
  3

 60
     0
 61
     0
 62
     1
 63
     3
 64
     0
 65
     0
 66
     0
 67
     3
 68
     1
 69
     0
 70
     0
 71
     0
 72
     0
 40
0.0
170
     0
  0
DICTIONARY
  5
2E9
102
{ACAD_REACTORS
330
C
102
}
330
C
100
AcDbDictionary
281
     1
  3
CTABLESTYLE
350
7DCF
  3
DIMASSOC
350
37F0
  3
INDEXCTL
350
7F93
  3
SORTENTS
350
2EA
  0
DICTIONARY
  5
7F6F
102
{ACAD_REACTORS
330
C
102
}
330
C
100
AcDbDictionary
281
     1
  3
ASEBlockHierarchyIndexRecord
350
7F70
1001
DCO15
1040
1651556702.074
  0
XRECORD
  5
7F94
102
{ACAD_REACTORS
330
C
102
}
330
C
100
AcDbXrecord
280
     1
  1
DWGPROPS COOKIE
  2

  3

  4

  6

  7

  8
nnguyen
  9

300
=
301
=
302
=
303
=
304
=
305
=
306
=
307
=
308
=
309
=
 40
2.47917355324074
 41
2452880.591628472
 42
2454918.45145919
  1

 90
        0
  0
DICTIONARY
  5
A80
102
{ACAD_REACTORS
330
A7F
102
}
330
A7F
100
AcDbDictionary
280
     1
281
     1
  3
CESAR
360
A81
  0
DICTIONARY
  5
7E3C
102
{ACAD_REACTORS
330
A7F
102
}
330
A7F
100
AcDbDictionary
281
     1
  0
XRECORD
  5
3824
102
{ACAD_REACTORS
330
3823
102
}
330
3823
100
AcDbXrecord
280
     1
340
1F
  0
SORTENTSTABLE
  5
7EFC
102
{ACAD_REACTORS
330
3823
102
}
330
3823
100
AcDbSortentsTable
330
1F
331
7F1C
  5
7F1E
331
7F24
  5
7785
331
7EC6
  5
7EFB
331
7E91
  5
7E93
331
7F1F
  5
7F24
331
258D
  5
258D
331
2596
  5
2596
331
7E8B
  5
7E8D
331
7EC4
  5
7EC6
331
7F1D
  5
7F1F
331
25A1
  5
25A1
331
7E92
  5
7E94
331
7EC2
  5
7EC4
331
43
  5
43
331
7F23
  5
25A2
331
7EC5
  5
7EF9
331
25A2
  5
7784
331
7F1E
  5
7F23
331
2595
  5
2595
331
7EC3
  5
7EC5
331
2598
  5
2598
  0
XRECORD
  5
3822
102
{ACAD_REACTORS
330
3821
102
}
330
3821
100
AcDbXrecord
280
     1
340
1B
  0
SORTENTSTABLE
  5
7F4A
102
{ACAD_REACTORS
330
7F49
102
}
330
7F49
100
AcDbSortentsTable
330
7F38
  0
LAYOUT
  5
3B6B
102
{ACAD_XDICTIONARY
360
7F97
102
}
102
{ACAD_REACTORS
330
1A
102
}
330
1A
100
AcDbPlotSettings
  1

  2
Symantec Fax Starter Edition
  4

  6

 40
0.0
 41
0.0
 42
0.0
 43
0.0
 44
0.0
 45
0.0
 46
0.0
 47
0.0
 48
0.0
 49
0.0
140
0.0
141
0.0
142
1.0
143
1.0
 70
   688
 72
     0
 73
     0
 74
     5
  7
monochrome.ctb
 75
    16
147
1.0
148
0.0
149
0.0
100
AcDbLayout
  1
Layout1
 70
     1
 71
     1
 10
0.0
 20
0.0
 11
420.0
 21
297.0
 12
0.0
 22
0.0
 32
0.0
 14
1.000000000000000E+20
 24
1.000000000000000E+20
 34
1.000000000000000E+20
 15
-1.000000000000000E+20
 25
-1.000000000000000E+20
 35
-1.000000000000000E+20
146
0.0
 13
0.0
 23
0.0
 33
0.0
 16
1.0
 26
0.0
 36
0.0
 17
0.0
 27
1.0
 37
0.0
 76
     0
330
1B
  0
LAYOUT
  5
3B6A
102
{ACAD_XDICTIONARY
360
7F95
102
}
102
{ACAD_REACTORS
330
1A
102
}
330
1A
100
AcDbPlotSettings
  1

  2
\\totosrv3\RD-01-HPLJ4050
  4
Letter
  6

 40
4.233333110809326
 41
4.233341693878173
 42
4.233322143554687
 43
4.23333740234375
 44
215.8999938964844
 45
279.3999938964844
 46
0.0
 47
0.0
 48
0.0
 49
0.0
140
0.0
141
0.0
142
1.0
143
19.93711676147346
 70
 11952
 72
     0
 73
     1
 74
     1
  7
monochrome.ctb
 75
     0
147
0.0501577039430497
148
817.8446991307868
149
789.0044425991593
100
AcDbLayout
  1
Model
 70
     1
 71
     0
 10
0.0
 20
0.0
 11
12.0
 21
9.0
 12
0.0
 22
0.0
 32
0.0
 14
0.0
 24
0.0
 34
0.0
 15
0.0
 25
0.0
 35
0.0
146
0.0
 13
0.0
 23
0.0
 33
0.0
 16
1.0
 26
0.0
 36
0.0
 17
0.0
 27
1.0
 37
0.0
 76
     0
330
1F
331
7F7A
  0
MATERIAL
  5
7F7D
102
{ACAD_XDICTIONARY
360
7F9D
102
}
102
{ACAD_REACTORS
330
7DC2
102
}
330
7DC2
100
AcDbMaterial
  1
ByBlock
  0
MATERIAL
  5
7F7C
102
{ACAD_XDICTIONARY
360
7F9B
102
}
102
{ACAD_REACTORS
330
7DC2
102
}
330
7DC2
100
AcDbMaterial
  1
ByLayer
  0
MATERIAL
  5
7F7E
102
{ACAD_XDICTIONARY
360
7F9F
102
}
102
{ACAD_REACTORS
330
7DC2
102
}
330
7DC2
100
AcDbMaterial
  1
Global
  0
MLINESTYLE
  5
18
102
{ACAD_REACTORS
330
17
102
}
330
17
100
AcDbMlineStyle
  2
STANDARD
 70
     0
  3

 62
   256
 51
90.0
 52
90.0
 71
     2
 49
0.5
 62
   256
  6
BYLAYER
 49
-0.5
 62
   256
  6
BYLAYER
  0
ACDBPLACEHOLDER
  5
F
102
{ACAD_REACTORS
330
E
102
}
330
E
  0
TABLESTYLE
  5
7DC5
102
{ACAD_XDICTIONARY
360
7F99
102
}
102
{ACAD_REACTORS
330
7DC4
102
}
330
7DC4
100
AcDbTableStyle
  3
Standard
 70
     0
 71
     0
 40
0.06
 41
0.06
280
     0
281
     0
  7
STANDARD
140
0.18
170
     2
 62
     0
 63
     7
283
     0
274
    -2
284
     1
 64
     0
275
    -2
285
     1
 65
     0
276
    -2
286
     1
 66
     0
277
    -2
287
     1
 67
     0
278
    -2
288
     1
 68
     0
279
    -2
289
     1
 69
     0
  7
STANDARD
140
0.25
170
     5
 62
     0
 63
     7
283
     0
274
    -2
284
     1
 64
     0
275
    -2
285
     1
 65
     0
276
    -2
286
     1
 66
     0
277
    -2
287
     1
 67
     0
278
    -2
288
     1
 68
     0
279
    -2
289
     1
 69
     0
  7
STANDARD
140
0.18
170
     5
 62
     0
 63
     7
283
     0
274
    -2
284
     1
 64
     0
275
    -2
285
     1
 65
     0
276
    -2
286
     1
 66
     0
277
    -2
287
     1
 67
     0
278
    -2
288
     1
 68
     0
279
    -2
289
     1
 69
     0
  0
VISUALSTYLE
  5
7F85
102
{ACAD_REACTORS
330
7F7F
102
}
330
7F7F
100
AcDbVisualStyle
  2
2dWireframe
 70
     4
 71
     0
 72
     2
 73
     0
 90
        0
 40
-0.6
 41
-30.0
 62
     5
 63
     7
 74
     1
 91
        4
 64
     7
 65
   257
 75
     1
175
     1
 42
1.0
 92
        0
 66
   257
 43
1.0
 76
     1
 77
     6
 78
     2
 67
     7
 79
     5
170
     0
171
     0
290
     0
174
     0
 93
        1
 44
0.0
173
     0
291
     0
 45
0.0
1001
ACAD
1000
AcDbSavedByObjectVersion
1070
     0
  0
VISUALSTYLE
  5
7F87
102
{ACAD_REACTORS
330
7F7F
102
}
330
7F7F
100
AcDbVisualStyle
  2
3D Hidden
 70
     6
 71
     1
 72
     2
 73
     2
 90
        0
 40
-0.6
 41
-30.0
 62
     5
 63
     7
 74
     2
 91
        2
 64
     7
 65
   257
 75
     2
175
     1
 42
40.0
 92
        0
 66
   257
 43
1.0
 76
     1
 77
     6
 78
     2
 67
     7
 79
     3
170
     0
171
     0
290
     0
174
     0
 93
        1
 44
0.0
173
     0
291
     0
 45
0.0
1001
ACAD
1000
AcDbSavedByObjectVersion
1070
     0
  0
VISUALSTYLE
  5
7F86
102
{ACAD_REACTORS
330
7F7F
102
}
330
7F7F
100
AcDbVisualStyle
  2
3dWireframe
 70
     5
 71
     0
 72
     2
 73
     0
 90
        0
 40
-0.6
 41
-30.0
 62
     5
 63
     7
 74
     1
 91
        4
 64
     7
 65
   257
 75
     1
175
     1
 42
1.0
 92
        0
 66
   257
 43
1.0
 76
     1
 77
     6
 78
     2
 67
     7
 79
     5
170
     0
171
     0
290
     0
174
     0
 93
        1
 44
0.0
173
     0
291
     0
 45
0.0
1001
ACAD
1000
AcDbSavedByObjectVersion
1070
     0
  0
VISUALSTYLE
  5
7F84
102
{ACAD_REACTORS
330
7F7F
102
}
330
7F7F
100
AcDbVisualStyle
  2
Basic
 70
     7
 71
     1
 72
     0
 73
     1
 90
        0
 40
-0.6
 41
-30.0
 62
     5
 63
     7
 74
     0
 91
        4
 64
     7
 65
   257
 75
     1
175
     1
 42
1.0
 92
        8
 66
     7
 43
1.0
 76
     1
 77
     6
 78
     2
 67
     7
 79
     5
170
     0
171
     0
290
     0
174
     0
 93
        1
 44
0.0
173
     0
291
     1
 45
0.0
1001
ACAD
1000
AcDbSavedByObjectVersion
1070
     0
  0
VISUALSTYLE
  5
7F8B
102
{ACAD_REACTORS
330
7F7F
102
}
330
7F7F
100
AcDbVisualStyle
  2
Brighten
 70
    12
 71
     2
 72
     2
 73
     0
 90
        0
 40
-0.6
 41
-30.0
 62
     5
 63
     7
 74
     1
 91
        4
 64
     7
 65
   257
 75
     1
175
     1
 42
1.0
 92
        8
 66
     7
 43
1.0
 76
     1
 77
     6
 78
     2
 67
     7
 79
     5
170
     0
171
     0
290
     0
174
     0
 93
        1
 44
50.0
173
     0
291
     1
 45
0.0
1001
ACAD
1000
AcDbSavedByObjectVersion
1070
     0
  0
VISUALSTYLE
  5
7F8F
102
{ACAD_REACTORS
330
7F7F
102
}
330
7F7F
100
AcDbVisualStyle
  2
ColorChange
 70
    16
 71
     2
 72
     2
 73
     3
 90
        0
 40
-0.6
 41
-30.0
 62
     5
 63
     8
 74
     1
 91
        4
 64
     7
 65
   257
 75
     1
175
     1
 42
1.0
 92
        8
 66
     8
 43
1.0
 76
     1
 77
     6
 78
     2
 67
     7
 79
     5
170
     0
171
     0
290
     0
174
     0
 93
        1
 44
0.0
173
     0
291
     1
 45
0.0
1001
ACAD
1000
AcDbSavedByObjectVersion
1070
     0
  0
VISUALSTYLE
  5
7F88
102
{ACAD_REACTORS
330
7F7F
102
}
330
7F7F
100
AcDbVisualStyle
  2
Conceptual
 70
     9
 71
     3
 72
     2
 73
     0
 90
        0
 40
-0.6
 41
-30.0
 62
     5
 63
     7
 74
     2
 91
        2
 64
     7
 65
   257
 75
     1
175
     1
 42
40.0
 92
        8
 66
     7
 43
1.0
 76
     1
 77
     6
 78
     2
 67
     7
 79
     3
170
     0
171
     0
290
     0
174
     0
 93
        1
 44
0.0
173
     0
291
     0
 45
0.0
1001
ACAD
1000
AcDbSavedByObjectVersion
1070
     0
  0
VISUALSTYLE
  5
7F8A
102
{ACAD_REACTORS
330
7F7F
102
}
330
7F7F
100
AcDbVisualStyle
  2
Dim
 70
    11
 71
     2
 72
     2
 73
     0
 90
        0
 40
-0.6
 41
-30.0
 62
     5
 63
     7
 74
     1
 91
        4
 64
     7
 65
   257
 75
     1
175
     1
 42
1.0
 92
        8
 66
     7
 43
1.0
 76
     1
 77
     6
 78
     2
 67
     7
 79
     5
170
     0
171
     0
290
     0
174
     0
 93
        1
 44
-50.0
173
     0
291
     1
 45
0.0
1001
ACAD
1000
AcDbSavedByObjectVersion
1070
     0
  0
VISUALSTYLE
  5
7F8E
102
{ACAD_REACTORS
330
7F7F
102
}
330
7F7F
100
AcDbVisualStyle
  2
Facepattern
 70
    15
 71
     2
 72
     2
 73
     0
 90
        0
 40
-0.6
 41
-30.0
 62
     5
 63
     7
 74
     1
 91
        4
 64
     7
 65
   257
 75
     1
175
     1
 42
1.0
 92
        8
 66
     7
 43
1.0
 76
     1
 77
     6
 78
     2
 67
     7
 79
     5
170
     0
171
     0
290
     0
174
     0
 93
        1
 44
0.0
173
     0
291
     1
 45
0.0
1001
ACAD
1000
AcDbSavedByObjectVersion
1070
     0
  0
VISUALSTYLE
  5
7F80
102
{ACAD_REACTORS
330
7F7F
102
}
330
7F7F
100
AcDbVisualStyle
  2
Flat
 70
     0
 71
     2
 72
     1
 73
     1
 90
        2
 40
-0.6
 41
30.0
 62
     5
 63
     7
 74
     0
 91
        4
 64
     7
 65
   257
 75
     1
175
     1
 42
1.0
 92
        8
 66
     7
 43
1.0
 76
     1
 77
     6
 78
     2
 67
     7
 79
     5
170
     0
171
     0
290
     0
174
     0
 93
       13
 44
0.0
173
     0
291
     1
 45
0.0
1001
ACAD
1000
AcDbSavedByObjectVersion
1070
     0
  0
VISUALSTYLE
  5
7F81
102
{ACAD_REACTORS
330
7F7F
102
}
330
7F7F
100
AcDbVisualStyle
  2
FlatWithEdges
 70
     1
 71
     2
 72
     1
 73
     1
 90
        2
 40
-0.6
 41
30.0
 62
     5
 63
     7
 74
     1
 91
        4
 64
     7
 65
   257
 75
     1
175
     1
 42
1.0
 92
        0
 66
   257
 43
1.0
 76
     1
 77
     6
 78
     2
 67
     7
 79
     5
170
     0
171
     0
290
     0
174
     0
 93
       13
 44
0.0
173
     0
291
     1
 45
0.0
1001
ACAD
1000
AcDbSavedByObjectVersion
1070
     0
  0
VISUALSTYLE
  5
7F82
102
{ACAD_REACTORS
330
7F7F
102
}
330
7F7F
100
AcDbVisualStyle
  2
Gouraud
 70
     2
 71
     2
 72
     2
 73
     1
 90
        2
 40
-0.6
 41
30.0
 62
     5
 63
     7
 74
     0
 91
        4
 64
     7
 65
   257
 75
     1
175
     1
 42
1.0
 92
        0
 66
     7
 43
1.0
 76
     1
 77
     6
 78
     2
 67
     7
 79
     5
170
     0
171
     0
290
     0
174
     0
 93
       13
 44
0.0
173
     0
291
     1
 45
0.0
1001
ACAD
1000
AcDbSavedByObjectVersion
1070
     0
  0
VISUALSTYLE
  5
7F83
102
{ACAD_REACTORS
330
7F7F
102
}
330
7F7F
100
AcDbVisualStyle
  2
GouraudWithEdges
 70
     3
 71
     2
 72
     2
 73
     1
 90
        2
 40
-0.6
 41
30.0
 62
     5
 63
     7
 74
     1
 91
        4
 64
     7
 65
   257
 75
     1
175
     1
 42
1.0
 92
        0
 66
   257
 43
1.0
 76
     1
 77
     6
 78
     2
 67
     7
 79
     5
170
     0
171
     0
290
     0
174
     0
 93
       13
 44
0.0
173
     0
291
     1
 45
0.0
1001
ACAD
1000
AcDbSavedByObjectVersion
1070
     0
  0
VISUALSTYLE
  5
7F8D
102
{ACAD_REACTORS
330
7F7F
102
}
330
7F7F
100
AcDbVisualStyle
  2
Linepattern
 70
    14
 71
     2
 72
     2
 73
     0
 90
        0
 40
-0.6
 41
-30.0
 62
     5
 63
     7
 74
     1
 91
        4
 64
     7
 65
   257
 75
     7
175
     7
 42
1.0
 92
        8
 66
     7
 43
1.0
 76
     1
 77
     6
 78
     2
 67
     7
 79
     5
170
     0
171
     0
290
     0
174
     0
 93
        1
 44
0.0
173
     0
291
     1
 45
0.0
1001
ACAD
1000
AcDbSavedByObjectVersion
1070
     0
  0
VISUALSTYLE
  5
7F89
102
{ACAD_REACTORS
330
7F7F
102
}
330
7F7F
100
AcDbVisualStyle
  2
Realistic
 70
     8
 71
     2
 72
     2
 73
     0
 90
        0
 40
-0.6
 41
-30.0
 62
     5
 63
     7
 74
     1
 91
        0
 64
     7
 65
   257
 75
     1
175
     1
 42
1.0
 92
        8
 66
     8
 43
1.0
 76
     1
 77
     6
 78
     2
 67
     7
 79
     5
170
     0
171
     0
290
     0
174
     0
 93
       13
 44
0.0
173
     0
291
     0
 45
0.0
1001
ACAD
1000
AcDbSavedByObjectVersion
1070
     0
  0
VISUALSTYLE
  5
7F8C
102
{ACAD_REACTORS
330
7F7F
102
}
330
7F7F
100
AcDbVisualStyle
  2
Thicken
 70
    13
 71
     2
 72
     2
 73
     0
 90
        0
 40
-0.6
 41
-30.0
 62
     5
 63
     7
 74
     1
 91
        4
 64
     7
 65
   257
 75
     1
175
     1
 42
1.0
 92
       12
 66
     7
 43
1.0
 76
     1
 77
     6
 78
     2
 67
     7
 79
     5
170
     0
171
     0
290
     0
174
     0
 93
        1
 44
0.0
173
     0
291
     1
 45
0.0
1001
ACAD
1000
AcDbSavedByObjectVersion
1070
     0
  0
DICTIONARYVAR
  5
7DCF
102
{ACAD_REACTORS
330
2E9
102
}
330
2E9
100
DictionaryVariables
280
     0
  1
STANDARD
  0
DICTIONARYVAR
  5
37F0
102
{ACAD_REACTORS
330
2E9
102
}
330
2E9
100
DictionaryVariables
280
     0
  1
1
  0
DICTIONARYVAR
  5
7F93
102
{ACAD_REACTORS
330
2E9
102
}
330
2E9
100
DictionaryVariables
280
     0
  1
0
  0
DICTIONARYVAR
  5
2EA
102
{ACAD_REACTORS
330
2E9
102
}
330
2E9
100
DictionaryVariables
280
     0
  1
96
  0
XRECORD
  5
7F70
102
{ACAD_REACTORS
330
7F6F
102
}
330
7F6F
100
AcDbXrecord
280
     1
330
43
  0
XRECORD
  5
A81
102
{ACAD_REACTORS
330
A80
102
}
330
A80
100
AcDbXrecord
280
     1
  1
CESAR
  1
ELECTRICO_1
  1
7
  1
CONTINUOUS
 70
     0
  1
1
  1
*
  0
DICTIONARY
  5
7F97
330
3B6B
100
AcDbDictionary
280
     1
281
     1
  3
ACAD_XREC_ROUNDTRIP
360
7F98
  0
DICTIONARY
  5
7F95
330
3B6A
100
AcDbDictionary
280
     1
281
     1
  3
ACAD_XREC_ROUNDTRIP
360
7F96
  0
DICTIONARY
  5
7F9D
330
7F7D
100
AcDbDictionary
280
     1
281
     1
  3
ACAD_XREC_ROUNDTRIP
360
7F9E
  0
DICTIONARY
  5
7F9B
330
7F7C
100
AcDbDictionary
280
     1
281
     1
  3
ACAD_XREC_ROUNDTRIP
360
7F9C
  0
DICTIONARY
  5
7F9F
330
7F7E
100
AcDbDictionary
280
     1
281
     1
  3
ACAD_XREC_ROUNDTRIP
360
7FA0
  0
DICTIONARY
  5
7F99
330
7DC5
100
AcDbDictionary
280
     1
281
     1
  3
ACAD_XREC_ROUNDTRIP
360
7F9A
  0
XRECORD
  5
7F98
102
{ACAD_REACTORS
330
7F97
102
}
330
7F97
100
AcDbXrecord
280
     1
102
SHADEPLOT
 70
     0
102
SHADEPLOTRESLEVEL
 70
     2
102
SHADEPLOTCUSTOMDPI
 70
   300
  0
XRECORD
  5
7F96
102
{ACAD_REACTORS
330
7F95
102
}
330
7F95
100
AcDbXrecord
280
     1
102
SHADEPLOT
 70
     0
102
SHADEPLOTRESLEVEL
 70
     2
102
SHADEPLOTCUSTOMDPI
 70
   300
  0
XRECORD
  5
7F9E
102
{ACAD_REACTORS
330
7F9D
102
}
330
7F9D
100
AcDbXrecord
280
     1
102
MATERIAL
148
0.0
149
0.0
149
0.0
 93
        0
 94
       63
282
     0
 72
     1
 77
     1
171
     1
175
     1
179
     1
273
     0
  0
XRECORD
  5
7F9C
102
{ACAD_REACTORS
330
7F9B
102
}
330
7F9B
100
AcDbXrecord
280
     1
102
MATERIAL
148
0.0
149
0.0
149
0.0
 93
        0
 94
       63
282
     0
 72
     1
 77
     1
171
     1
175
     1
179
     1
273
     0
  0
XRECORD
  5
7FA0
102
{ACAD_REACTORS
330
7F9F
102
}
330
7F9F
100
AcDbXrecord
280
     1
102
MATERIAL
148
0.0
149
0.0
149
0.0
 93
        0
 94
       63
282
     0
 72
     1
 77
     1
171
     1
175
     1
179
     1
273
     0
  0
XRECORD
  5
7F9A
102
{ACAD_REACTORS
330
7F99
102
}
330
7F99
100
AcDbXrecord
280
     1
102
ACAD_ROUNDTRIP_PRE2007_TABLESTYLE
 90
        4
 91
        0
  1

 92
        4
 93
        0
  2

 94
        4
 95
        0
  3

  0
ENDSEC
  0
EOF
